  0
SECTION
  2
HEADER
  9
$ACADVER
  1
AC1018
  9
$ACADMAINTVER
 70
    76
  9
$DWGCODEPAGE
  3
ANSI_1252
  9
$AUTHOR
  1
Grandl
  9
$INSBASE
 10
0.0
 20
0.0
 30
0.0
  9
$EXTMIN
 10
-6.931514324693041
 20
-143.0
 30
0.0
  9
$EXTMAX
 10
103.8437993155677
 20
85.1495349452748
 30
0.0
  9
$LIMMIN
 10
0.0
 20
0.0
  9
$LIMMAX
 10
18025.7704
 20
13929.0044
  9
$ORTHOMODE
 70
     1
  9
$REGENMODE
 70
     1
  9
$FILLMODE
 70
     1
  9
$QTEXTMODE
 70
     0
  9
$MIRRTEXT
 70
     1
  9
$LTSCALE
 40
0.2
  9
$ATTMODE
 70
     1
  9
$TEXTSIZE
 40
0.2
  9
$TRACEWID
 40
0.05
  9
$TEXTSTYLE
  7
Standard
  9
$CLAYER
  8
0
  9
$CELTYPE
  6
ByLayer
  9
$CECOLOR
 62
   256
  9
$CELTSCALE
 40
1.0
  9
$DISPSILH
 70
     0
  9
$DIMSCALE
 40
1.0
  9
$DIMASZ
 40
1.799999999999999
  9
$DIMEXO
 40
0.0625
  9
$DIMDLI
 40
0.38
  9
$DIMRND
 40
0.0
  9
$DIMDLE
 40
0.0
  9
$DIMEXE
 40
0.18
  9
$DIMTP
 40
0.0
  9
$DIMTM
 40
0.0
  9
$DIMTXT
 40
0.3499999940395355
  9
$DIMCEN
 40
0.09
  9
$DIMTSZ
 40
0.0
  9
$DIMTOL
 70
     0
  9
$DIMLIM
 70
     0
  9
$DIMTIH
 70
     1
  9
$DIMTOH
 70
     1
  9
$DIMSE1
 70
     0
  9
$DIMSE2
 70
     0
  9
$DIMTAD
 70
     0
  9
$DIMZIN
 70
     0
  9
$DIMBLK
  1

  9
$DIMASO
 70
     1
  9
$DIMSHO
 70
     1
  9
$DIMPOST
  1

  9
$DIMAPOST
  1

  9
$DIMALT
 70
     0
  9
$DIMALTD
 70
     2
  9
$DIMALTF
 40
25.4
  9
$DIMLFAC
 40
1.0
  9
$DIMTOFL
 70
     0
  9
$DIMTVP
 40
0.0
  9
$DIMTIX
 70
     0
  9
$DIMSOXD
 70
     0
  9
$DIMSAH
 70
     0
  9
$DIMBLK1
  1

  9
$DIMBLK2
  1

  9
$DIMSTYLE
  2
2dTranslator-Bemaßungsstil
  9
$DIMCLRD
 70
     0
  9
$DIMCLRE
 70
     0
  9
$DIMCLRT
 70
     0
  9
$DIMTFAC
 40
1.0
  9
$DIMGAP
 40
0.09
  9
$DIMJUST
 70
     0
  9
$DIMSD1
 70
     0
  9
$DIMSD2
 70
     0
  9
$DIMTOLJ
 70
     1
  9
$DIMTZIN
 70
     0
  9
$DIMALTZ
 70
     0
  9
$DIMALTTZ
 70
     0
  9
$DIMUPT
 70
     0
  9
$DIMDEC
 70
     4
  9
$DIMTDEC
 70
     4
  9
$DIMALTU
 70
     2
  9
$DIMALTTD
 70
     2
  9
$DIMTXSTY
  7
Standard
  9
$DIMAUNIT
 70
     0
  9
$DIMADEC
 70
     0
  9
$DIMALTRND
 40
0.0
  9
$DIMAZIN
 70
     0
  9
$DIMDSEP
 70
    46
  9
$DIMATFIT
 70
     3
  9
$DIMFRAC
 70
     0
  9
$DIMLDRBLK
  1

  9
$DIMLUNIT
 70
     2
  9
$DIMLWD
 70
    -2
  9
$DIMLWE
 70
    -2
  9
$DIMTMOVE
 70
     0
  9
$LUNITS
 70
     2
  9
$LUPREC
 70
     4
  9
$SKETCHINC
 40
0.1
  9
$FILLETRAD
 40
0.0
  9
$AUNITS
 70
     0
  9
$AUPREC
 70
     0
  9
$MENU
  1
.
  9
$ELEVATION
 40
0.0
  9
$PELEVATION
 40
0.0
  9
$THICKNESS
 40
0.0
  9
$LIMCHECK
 70
     0
  9
$CHAMFERA
 40
0.0
  9
$CHAMFERB
 40
0.0
  9
$CHAMFERC
 40
0.0
  9
$CHAMFERD
 40
0.0
  9
$SKPOLY
 70
     0
  9
$TDCREATE
 40
2452760.283093102
  9
$TDUCREATE
 40
2452760.241426435
  9
$TDUPDATE
 40
2453696.562701956
  9
$TDUUPDATE
 40
2453696.521035289
  9
$TDINDWG
 40
0.1473335764
  9
$TDUSRTIMER
 40
0.1473335764
  9
$USRTIMER
 70
     1
  9
$ANGBASE
 50
0.0
  9
$ANGDIR
 70
     0
  9
$PDMODE
 70
     0
  9
$PDSIZE
 40
0.0
  9
$PLINEWID
 40
0.0
  9
$SPLFRAME
 70
     0
  9
$SPLINETYPE
 70
     6
  9
$SPLINESEGS
 70
     8
  9
$HANDSEED
  5
913
  9
$SURFTAB1
 70
     6
  9
$SURFTAB2
 70
     6
  9
$SURFTYPE
 70
     6
  9
$SURFU
 70
     6
  9
$SURFV
 70
     6
  9
$UCSBASE
  2

  9
$UCSNAME
  2

  9
$UCSORG
 10
0.0
 20
0.0
 30
0.0
  9
$UCSXDIR
 10
1.0
 20
0.0
 30
0.0
  9
$UCSYDIR
 10
0.0
 20
1.0
 30
0.0
  9
$UCSORTHOREF
  2

  9
$UCSORTHOVIEW
 70
     0
  9
$UCSORGTOP
 10
0.0
 20
0.0
 30
0.0
  9
$UCSORGBOTTOM
 10
0.0
 20
0.0
 30
0.0
  9
$UCSORGLEFT
 10
0.0
 20
0.0
 30
0.0
  9
$UCSORGRIGHT
 10
0.0
 20
0.0
 30
0.0
  9
$UCSORGFRONT
 10
0.0
 20
0.0
 30
0.0
  9
$UCSORGBACK
 10
0.0
 20
0.0
 30
0.0
  9
$PUCSBASE
  2

  9
$PUCSNAME
  2

  9
$PUCSORG
 10
0.0
 20
0.0
 30
0.0
  9
$PUCSXDIR
 10
1.0
 20
0.0
 30
0.0
  9
$PUCSYDIR
 10
0.0
 20
1.0
 30
0.0
  9
$PUCSORTHOREF
  2

  9
$PUCSORTHOVIEW
 70
     0
  9
$PUCSORGTOP
 10
0.0
 20
0.0
 30
0.0
  9
$PUCSORGBOTTOM
 10
0.0
 20
0.0
 30
0.0
  9
$PUCSORGLEFT
 10
0.0
 20
0.0
 30
0.0
  9
$PUCSORGRIGHT
 10
0.0
 20
0.0
 30
0.0
  9
$PUCSORGFRONT
 10
0.0
 20
0.0
 30
0.0
  9
$PUCSORGBACK
 10
0.0
 20
0.0
 30
0.0
  9
$USERI1
 70
     0
  9
$USERI2
 70
     0
  9
$USERI3
 70
     0
  9
$USERI4
 70
     0
  9
$USERI5
 70
     0
  9
$USERR1
 40
0.0
  9
$USERR2
 40
0.0
  9
$USERR3
 40
0.0
  9
$USERR4
 40
0.0
  9
$USERR5
 40
0.0
  9
$WORLDVIEW
 70
     1
  9
$SHADEDGE
 70
     3
  9
$SHADEDIF
 70
    70
  9
$TILEMODE
 70
     1
  9
$MAXACTVP
 70
    48
  9
$PINSBASE
 10
0.0
 20
0.0
 30
0.0
  9
$PLIMCHECK
 70
     0
  9
$PEXTMIN
 10
1.000000000000000E+20
 20
1.000000000000000E+20
 30
1.000000000000000E+20
  9
$PEXTMAX
 10
-1.000000000000000E+20
 20
-1.000000000000000E+20
 30
-1.000000000000000E+20
  9
$PLIMMIN
 10
-4.23333740234375
 20
-6.011333465576171
  9
$PLIMMAX
 10
292.6926574707031
 20
203.9619941711426
  9
$UNITMODE
 70
     0
  9
$VISRETAIN
 70
     1
  9
$PLINEGEN
 70
     0
  9
$PSLTSCALE
 70
     1
  9
$TREEDEPTH
 70
  3020
  9
$CMLSTYLE
  2
Standard
  9
$CMLJUST
 70
     0
  9
$CMLSCALE
 40
1.0
  9
$PROXYGRAPHICS
 70
     1
  9
$MEASUREMENT
 70
     1
  9
$CELWEIGHT
370
    -1
  9
$ENDCAPS
280
     0
  9
$JOINSTYLE
280
     0
  9
$LWDISPLAY
290
     0
  9
$INSUNITS
 70
     0
  9
$HYPERLINKBASE
  1

  9
$STYLESHEET
  1

  9
$XEDIT
290
     1
  9
$CEPSNTYPE
380
     0
  9
$PSTYLEMODE
290
     1
  9
$FINGERPRINTGUID
  2
{1932DCB0-B046-4205-B84E-8A0FCFC1C92F}
  9
$VERSIONGUID
  2
{2172AB8F-39E3-419C-9E01-F6F693A918DE}
  9
$EXTNAMES
290
     1
  9
$PSVPSCALE
 40
0.0
  9
$OLESTARTUP
290
     0
  9
$SORTENTS
280
   127
  9
$INDEXCTL
280
     0
  9
$HIDETEXT
280
     1
  9
$XCLIPFRAME
290
     0
  9
$HALOGAP
280
     0
  9
$OBSCOLOR
 70
   257
  9
$OBSLTYPE
280
     0
  9
$INTERSECTIONDISPLAY
280
     0
  9
$INTERSECTIONCOLOR
 70
   257
  9
$DIMASSOC
280
     2
  9
$PROJECTNAME
  1

  0
ENDSEC
  0
SECTION
  2
CLASSES
  0
CLASS
  1
ACDBDICTIONARYWDFLT
  2
AcDbDictionaryWithDefault
  3
ObjectDBX Classes
 90
        0
 91
        1
280
     0
281
     0
  0
CLASS
  1
DICTIONARYVAR
  2
AcDbDictionaryVar
  3
ObjectDBX Classes
 90
        0
 91
        4
280
     0
281
     0
  0
CLASS
  1
TABLESTYLE
  2
AcDbTableStyle
  3
ObjectDBX Classes
 90
     2047
 91
        1
280
     0
281
     0
  0
CLASS
  1
SORTENTSTABLE
  2
AcDbSortentsTable
  3
ObjectDBX Classes
 90
        0
 91
        1
280
     0
281
     0
  0
ENDSEC
  0
SECTION
  2
TABLES
  0
TABLE
  2
VPORT
  5
8
330
0
100
AcDbSymbolTable
 70
     2
  0
VPORT
  5
912
330
8
100
AcDbSymbolTableRecord
100
AcDbViewportTableRecord
  2
*Active
 70
     0
 10
0.0
 20
0.0
 11
1.0
 21
1.0
 12
48.30756139634465
 22
-29.09008860314862
 13
0.0
 23
0.0
 14
1.0
 24
1.0
 15
0.0
 25
0.0
 16
0.0
 26
0.0
 36
1.0
 17
0.0
 27
0.0
 37
0.0
 40
230.7283715920446
 41
1.773333333333333
 42
50.0
 43
0.0
 44
0.0
 50
0.0
 51
0.0
 71
     0
 72
   100
 73
     1
 74
     1
 75
     0
 76
     0
 77
     0
 78
     0
281
     0
 65
     1
110
0.0
120
0.0
130
0.0
111
1.0
121
0.0
131
0.0
112
0.0
122
1.0
132
0.0
 79
     0
146
0.0
  0
ENDTAB
  0
TABLE
  2
LTYPE
  5
5
330
0
100
AcDbSymbolTable
 70
     2
  0
LTYPE
  5
14
330
5
100
AcDbSymbolTableRecord
100
AcDbLinetypeTableRecord
  2
ByBlock
 70
     0
  3

 72
    65
 73
     0
 40
0.0
  0
LTYPE
  5
15
330
5
100
AcDbSymbolTableRecord
100
AcDbLinetypeTableRecord
  2
ByLayer
 70
     0
  3

 72
    65
 73
     0
 40
0.0
  0
LTYPE
  5
16
330
5
100
AcDbSymbolTableRecord
100
AcDbLinetypeTableRecord
  2
Continuous
 70
     0
  3
Solid line
 72
    65
 73
     0
 40
0.0
  0
LTYPE
  5
2FB
330
5
100
AcDbSymbolTableRecord
100
AcDbLinetypeTableRecord
  2
MITTE2
 70
     0
  3
Mitte (.5x) ___ _ ___ _ ___ _ ___ _ ___ _ ___
 72
    65
 73
     4
 40
28.575
 49
19.05
 74
     0
 49
-3.174999999999999
 74
     0
 49
3.174999999999999
 74
     0
 49
-3.174999999999999
 74
     0
  0
ENDTAB
  0
TABLE
  2
LAYER
  5
2
102
{ACAD_XDICTIONARY
360
901
102
}
330
0
100
AcDbSymbolTable
 70
     3
  0
LAYER
  5
10
330
2
100
AcDbSymbolTableRecord
100
AcDbLayerTableRecord
  2
0
 70
     0
 62
     7
  6
Continuous
370
    -3
390
F
  0
LAYER
  5
24D
330
2
100
AcDbSymbolTableRecord
100
AcDbLayerTableRecord
  2
LW 3000-SECURIT-01
 70
     0
 62
     7
  6
Continuous
370
    -3
390
F
  0
LAYER
  5
324
330
2
100
AcDbSymbolTableRecord
100
AcDbLayerTableRecord
  2
insertpoint_ECKELT
 70
     0
 62
   141
  6
Continuous
370
    -3
390
F
  0
ENDTAB
  0
TABLE
  2
STYLE
  5
3
330
0
100
AcDbSymbolTable
 70
     1
  0
STYLE
  5
11
330
3
100
AcDbSymbolTableRecord
100
AcDbTextStyleTableRecord
  2
Standard
 70
     0
 40
0.0
 41
1.0
 50
0.0
 71
     0
 42
0.2
  3
ARIAL.TTF
  4

1001
ACAD
1000
Arial
1071
      256
  0
ENDTAB
  0
TABLE
  2
VIEW
  5
6
330
0
100
AcDbSymbolTable
 70
     0
  0
ENDTAB
  0
TABLE
  2
UCS
  5
7
330
0
100
AcDbSymbolTable
 70
     0
  0
ENDTAB
  0
TABLE
  2
APPID
  5
9
330
0
100
AcDbSymbolTable
 70
     1
  0
APPID
  5
12
330
9
100
AcDbSymbolTableRecord
100
AcDbRegAppTableRecord
  2
ACAD
 70
     0
  0
ENDTAB
  0
TABLE
  2
DIMSTYLE
  5
A
330
0
100
AcDbSymbolTable
 70
     2
100
AcDbDimStyleTable
 71
     1
340
57
  0
DIMSTYLE
105
27
330
A
100
AcDbSymbolTableRecord
100
AcDbDimStyleTableRecord
  2
Standard
 70
     0
340
11
  0
DIMSTYLE
105
57
330
A
100
AcDbSymbolTableRecord
100
AcDbDimStyleTableRecord
  2
2dTranslator-Bemaßungsstil
 70
     0
 41
1.799999999999999
140
1.799999999999999
340
11
  0
ENDTAB
  0
TABLE
  2
BLOCK_RECORD
  5
1
330
0
100
AcDbSymbolTable
 70
     6
  0
BLOCK_RECORD
  5
1F
102
{ACAD_XDICTIONARY
360
14B
102
}
330
1
100
AcDbSymbolTableRecord
100
AcDbBlockTableRecord
  2
*Model_Space
340
22
  0
BLOCK_RECORD
  5
1B
102
{ACAD_XDICTIONARY
360
14D
102
}
330
1
100
AcDbSymbolTableRecord
100
AcDbBlockTableRecord
  2
*Paper_Space
340
1E
  0
BLOCK_RECORD
  5
23
102
{ACAD_XDICTIONARY
360
14F
102
}
330
1
100
AcDbSymbolTableRecord
100
AcDbBlockTableRecord
  2
*Paper_Space0
340
26
  0
BLOCK_RECORD
  5
339
330
1
100
AcDbSymbolTableRecord
100
AcDbBlockTableRecord
  2
insertpoint-ECKELT
340
0
102
{BLKREFS
331
810
331
850
331
88F
331
8D1
102
}
  0
BLOCK_RECORD
  5
7DB
330
1
100
AcDbSymbolTableRecord
100
AcDbBlockTableRecord
  2
LW 3000-08-01
340
0
310
2800000020000000200000000100080000000000000400000000000000000000000000000000000000000000000080000080000000808000800000008000800080800000C0C0C000C0DCC000F0CAA6000020400000206000002080000020A0000020C0000020E00000400000004020000040400000406000004080000040A0
310
000040C0000040E00000600000006020000060400000606000006080000060A0000060C0000060E00000800000008020000080400000806000008080000080A0000080C0000080E00000A0000000A0200000A0400000A0600000A0800000A0A00000A0C00000A0E00000C0000000C0200000C0400000C0600000C0800000C0
310
A00000C0C00000C0E00000E0000000E0200000E0400000E0600000E0800000E0A00000E0C00000E0E00040000000400020004000400040006000400080004000A0004000C0004000E00040200000402020004020400040206000402080004020A0004020C0004020E000404000004040200040404000404060004040800040
310
40A0004040C0004040E00040600000406020004060400040606000406080004060A0004060C0004060E00040800000408020004080400040806000408080004080A0004080C0004080E00040A0000040A0200040A0400040A0600040A0800040A0A00040A0C00040A0E00040C0000040C0200040C0400040C0600040C08000
310
40C0A00040C0C00040C0E00040E0000040E0200040E0400040E0600040E0800040E0A00040E0C00040E0E00080000000800020008000400080006000800080008000A0008000C0008000E00080200000802020008020400080206000802080008020A0008020C0008020E00080400000804020008040400080406000804080
310
008040A0008040C0008040E00080600000806020008060400080606000806080008060A0008060C0008060E00080800000808020008080400080806000808080008080A0008080C0008080E00080A0000080A0200080A0400080A0600080A0800080A0A00080A0C00080A0E00080C0000080C0200080C0400080C0600080C0
310
800080C0A00080C0C00080C0E00080E0000080E0200080E0400080E0600080E0800080E0A00080E0C00080E0E000C0000000C0002000C0004000C0006000C0008000C000A000C000C000C000E000C0200000C0202000C0204000C0206000C0208000C020A000C020C000C020E000C0400000C0402000C0404000C0406000C0
310
408000C040A000C040C000C040E000C0600000C0602000C0604000C0606000C0608000C060A000C060C000C060E000C0800000C0802000C0804000C0806000C0808000C080A000C080C000C080E000C0A00000C0A02000C0A04000C0A06000C0A08000C0A0A000C0A0C000C0A0E000C0C00000C0C02000C0C04000C0C06000
310
C0C08000C0C0A000F0FBFF00A4A0A000808080000000FF0000FF000000FFFF00FF000000FF00FF00FFFF0000FFFFFF000000000000000000000000000000000000000000000000000000000000000000000000000000000000000000000000FFFFFFFFFFFFFFFFFF00000000000000000000000000000000000000000000FF
310
FF00A400A400A400A4FF000000000000000000000000000000000000000000FFF9F9F9F9F9F9F9F9F9FF000000000000000000000000000000000000000000F9F9F9F9F9F9F9F9F9F9F9000000000000000000000000000000000000000000FFF9F9F9F9F9F9F9F9F9F900000000000000000000000000000000FF00000000
310
FFA400A400A4A400A400FF00000000000000000000000000000000FFFFFF0000FF00A400A4A400A400A4FF00000000000000000000000000000000FFA400FFFFFFA4A400A400A400A400FF00000000000000000000000000000000FF00A4A400A400A4A400A400A400A4FF00000000000000000000000000000000FFFFFFFF
310
A4A400A400A400A400A400FF000000000000000000000000000000FAFAFAFAFAFAFFFFFFFFFFFFFFFFFFFFFF00000000000000000000000000000000FFFFFFFFFFFA000000000000000000FF00000000000000000000000000000000FFA4A4FFFFFA000000000000000000FF00000000000000000000000000000000090900
310
FFFFFA000000000000000000FF000000000000000000000000090909090909FAFAFAFAFAFAFAFAFAFAFAFAFAFAFAFA00000000000000000000000000000900A4FFFFFA000000000000000000FF00000000000000000000000000000000FFA400FFFFFA000000000000000000FF00000000000000000000000000000000FFFF
310
FFFFFFFFFFFFFFFFFFFFFFFFFFFF000000000000000000000000000000FAFAFAFAFAFAFAFAA4FAA4FAA4FAA4FAFF00000000000000000000000000000000FFFFFFFFA4A40000A400A400A400A4FF00000000000000000000000000000000FFA400FFFFFFA40000A400A400A4A4FF00000000000000000000000000000000FF
310
00FF0000FFA4A400A400FAA4A400FF00000000000000000000000000000000FFFF000000FF00A4A400A4FAA400A4FF00000000000000000000000000000000FF00000000FFA400A4A400FA00A400FF000000000000000000000000000000000000000000FF00A400A4FFFAFFFFA4FF00000000000000000000000000000000
310
0000000000FFA400A400FFFA00FFA4FF000000000000000000000000000000000000000000FF00A400A4FFFA00FF00FF000000000000000000000000000000000000000000FFFFFFFFFFFFFAFFFFFF00000000000000000000000000000000000000000000000000000000FA00000000000000000000000000000000000000
310
000000000000000000000000FA00000000000000000000000000000000000000000000000000000000000000000000000000000000000000
102
{BLKREFS
331
81A
102
}
  0
BLOCK_RECORD
  5
81B
330
1
100
AcDbSymbolTableRecord
100
AcDbBlockTableRecord
  2
LW 3000-10-01
340
0
310
2800000020000000200000000100080000000000000400000000000000000000000000000000000000000000000080000080000000808000800000008000800080800000C0C0C000C0DCC000F0CAA6000020400000206000002080000020A0000020C0000020E00000400000004020000040400000406000004080000040A0
310
000040C0000040E00000600000006020000060400000606000006080000060A0000060C0000060E00000800000008020000080400000806000008080000080A0000080C0000080E00000A0000000A0200000A0400000A0600000A0800000A0A00000A0C00000A0E00000C0000000C0200000C0400000C0600000C0800000C0
310
A00000C0C00000C0E00000E0000000E0200000E0400000E0600000E0800000E0A00000E0C00000E0E00040000000400020004000400040006000400080004000A0004000C0004000E00040200000402020004020400040206000402080004020A0004020C0004020E000404000004040200040404000404060004040800040
310
40A0004040C0004040E00040600000406020004060400040606000406080004060A0004060C0004060E00040800000408020004080400040806000408080004080A0004080C0004080E00040A0000040A0200040A0400040A0600040A0800040A0A00040A0C00040A0E00040C0000040C0200040C0400040C0600040C08000
310
40C0A00040C0C00040C0E00040E0000040E0200040E0400040E0600040E0800040E0A00040E0C00040E0E00080000000800020008000400080006000800080008000A0008000C0008000E00080200000802020008020400080206000802080008020A0008020C0008020E00080400000804020008040400080406000804080
310
008040A0008040C0008040E00080600000806020008060400080606000806080008060A0008060C0008060E00080800000808020008080400080806000808080008080A0008080C0008080E00080A0000080A0200080A0400080A0600080A0800080A0A00080A0C00080A0E00080C0000080C0200080C0400080C0600080C0
310
800080C0A00080C0C00080C0E00080E0000080E0200080E0400080E0600080E0800080E0A00080E0C00080E0E000C0000000C0002000C0004000C0006000C0008000C000A000C000C000C000E000C0200000C0202000C0204000C0206000C0208000C020A000C020C000C020E000C0400000C0402000C0404000C0406000C0
310
408000C040A000C040C000C040E000C0600000C0602000C0604000C0606000C0608000C060A000C060C000C060E000C0800000C0802000C0804000C0806000C0808000C080A000C080C000C080E000C0A00000C0A02000C0A04000C0A06000C0A08000C0A0A000C0A0C000C0A0E000C0C00000C0C02000C0C04000C0C06000
310
C0C08000C0C0A000F0FBFF00A4A0A000808080000000FF0000FF000000FFFF00FF000000FF00FF00FFFF0000FFFFFF00000000000000000000000000000000000000000000000000000000000000000000000000000000000000000000000000FFFFFFFFFFFFFFFF00000000000000000000000000000000000000000000FF
310
FFFF00A400A400A400FF000000000000000000000000000000000000000000FFF9F9F9F9F9F9F9F9F9F9FF0000000000000000000000000000000000000000FFF9F9F9F9F9F9F9F9F9F9FF0000000000000000000000000000000000000000FFF9F9F9F9F9F9F9F9F9F9FF000000000000000000000000000000FF00000000
310
FFA400A400A400A400A400FF000000000000000000000000000000FFFFFF0000FF00A400A400A400A400A4FF000000000000000000000000000000FFA400FFFFFFA400A400A400A400A400FF000000000000000000000000000000FF00A400A400A4A400A400A400A400A4FF000000000000000000000000000000FFFFFFA4
310
00A4A400A400A400A400A400FF00000000000000000000000000FAFAFAFAFAFAA4FFFFFFFFFFFFFFFFFFFFFFFF000000000000000000000000000000FFFFFFA400FFFA000000000000000000FF000000000000000000000000000000FFA4A400FFFFFA000000000000000000FF00000000000000000000000000000009A400
310
A4FFFFFA000000000000000000FF0000000000000000000000090909090909FAFAFAFAFAFAFAFAFAFAFAFAFAFAFAFA000000000000000000000000000009A400A4FFFFFA000000000000000000FF000000000000000000000000000000FF00A400FFFFFA000000000000000000FF000000000000000000000000000000FFFF
310
FFA400FFFFFFFFFFFFFFFFFFFFFFFF00000000000000000000000000FAFAFAFAFAFAA400FAFAA4FAA4FAA4FAA4FAFF000000000000000000000000000000FFFFFFA400A400A400A400A400A400A4FF000000000000000000000000000000FF00A4FFFFFF0000A400A400A400A400FF000000000000000000000000000000FF
310
A4FF0000FFA40000A400A4FAA400A4FF000000000000000000000000000000FFFF000000FF00A40000A400FA00A400FF000000000000000000000000000000FF00000000FFA400A40000A4FAA400A4FF0000000000000000000000000000000000000000FF00A400A4FFFFFAFFA400FF000000000000000000000000000000
310
0000000000FFA400A400FF00FAFF00A4FF0000000000000000000000000000000000000000FF00A4A4A4FF00FAFF0000FF0000000000000000000000000000000000000000FFFFFFFFFFFFFFFAFFFFFF00000000000000000000000000000000000000000000000000000000FA000000000000000000000000000000000000
310
00000000000000000000000000FA000000000000000000000000000000000000000000000000000000000000000000000000000000000000
102
{BLKREFS
331
85A
102
}
  0
BLOCK_RECORD
  5
85B
330
1
100
AcDbSymbolTableRecord
100
AcDbBlockTableRecord
  2
LW 3000-12-01
340
0
310
2800000020000000200000000100080000000000000400000000000000000000000000000000000000000000000080000080000000808000800000008000800080800000C0C0C000C0DCC000F0CAA6000020400000206000002080000020A0000020C0000020E00000400000004020000040400000406000004080000040A0
310
000040C0000040E00000600000006020000060400000606000006080000060A0000060C0000060E00000800000008020000080400000806000008080000080A0000080C0000080E00000A0000000A0200000A0400000A0600000A0800000A0A00000A0C00000A0E00000C0000000C0200000C0400000C0600000C0800000C0
310
A00000C0C00000C0E00000E0000000E0200000E0400000E0600000E0800000E0A00000E0C00000E0E00040000000400020004000400040006000400080004000A0004000C0004000E00040200000402020004020400040206000402080004020A0004020C0004020E000404000004040200040404000404060004040800040
310
40A0004040C0004040E00040600000406020004060400040606000406080004060A0004060C0004060E00040800000408020004080400040806000408080004080A0004080C0004080E00040A0000040A0200040A0400040A0600040A0800040A0A00040A0C00040A0E00040C0000040C0200040C0400040C0600040C08000
310
40C0A00040C0C00040C0E00040E0000040E0200040E0400040E0600040E0800040E0A00040E0C00040E0E00080000000800020008000400080006000800080008000A0008000C0008000E00080200000802020008020400080206000802080008020A0008020C0008020E00080400000804020008040400080406000804080
310
008040A0008040C0008040E00080600000806020008060400080606000806080008060A0008060C0008060E00080800000808020008080400080806000808080008080A0008080C0008080E00080A0000080A0200080A0400080A0600080A0800080A0A00080A0C00080A0E00080C0000080C0200080C0400080C0600080C0
310
800080C0A00080C0C00080C0E00080E0000080E0200080E0400080E0600080E0800080E0A00080E0C00080E0E000C0000000C0002000C0004000C0006000C0008000C000A000C000C000C000E000C0200000C0202000C0204000C0206000C0208000C020A000C020C000C020E000C0400000C0402000C0404000C0406000C0
310
408000C040A000C040C000C040E000C0600000C0602000C0604000C0606000C0608000C060A000C060C000C060E000C0800000C0802000C0804000C0806000C0808000C080A000C080C000C080E000C0A00000C0A02000C0A04000C0A06000C0A08000C0A0A000C0A0C000C0A0E000C0C00000C0C02000C0C04000C0C06000
310
C0C08000C0C0A000F0FBFF00A4A0A000808080000000FF0000FF000000FFFF00FF000000FF00FF00FFFF0000FFFFFF00000000000000000000000000000000000000000000000000000000000000000000000000000000000000000000000000FFA4FFA4FFA4FFA4FF00000000000000000000000000000000000000000000
310
A4FF00A400A400A400A4FF000000000000000000000000000000000000000000FFF9F9F9F9F9F9F9F9F900FF0000000000000000000000000000000000000000A4F9F9F9F9F9F9F9F9F9F9A40000000000000000000000000000000000000000FFF9F9F9F9F9F9F9F9F9F9FF00000000000000000000000000FF0000000000
310
00A400A400A400A400A400A4A400000000000000000000000000A4FFFF00000000FFA400A400A400A400A4A4FF00000000000000000000000000FFA400FFA4FFA4A400A400A400A400A4A400A400000000000000000000000000A400A40000A400A4A400A400A400A40000A4FF00000000000000000000000000FFA4FFA4A4
310
00A4A400A400A400A400A40000A4000000000000000000000000FAFAFAFAA4FAA4FFA4A4A4A4A4A4A4A4A4A4A4FF00000000000000000000000000FFA4FF00A400A400FA000000000000000000FF00000000000000000000000000A400A400A4FFFF00FA000000000000000000FF0000000000000000000000000009A400A4
310
00A4FF00FA000000000000000000FF00000000000000000009090909FFA4A4FFA4A4FAFAFAFAFAFAFAFAFAFAFAFAFAFA000000000000000000000000A400A4A400FFFF00FA000000000000000000FF00000000000000000000000000FFA400A4A4FFFF00FA000000000000000000FF00000000000000000000000000FFFFA4
310
00A4A4FFFFA4FFA4FFA4FFA4FFA4FFFF000000000000000000000000FAFAFAFAA4FAA4A400A4FAA4FAA4FAA4FAA4FAFF00000000000000000000000000A4A4FF00A400A4A400A400A400A400A400A4A400000000000000000000000000FFA4A4A4FFA4FFA4A400A400A400A400A4A4FF00000000000000000000000000A400
310
A400000000A400A400A400A4FAA4A400A400000000000000000000000000FFA40000000000FFA400A400A400A4A400A4FF00000000000000000000000000FF000000000000A400A400A400A4FF00A400A40000000000000000000000000000000000000000A4A400A400A4FFFAA400A4FF0000000000000000000000000000
310
000000000000FFA4A4A4A4FF00FAFFA400A40000000000000000000000000000000000000000A400A400A4A400FAA400A4FF0000000000000000000000000000000000000000A4FFFFA4FFA4FFFAFFA4FF00000000000000000000000000000000000000000000000000000000FA0000000000000000000000000000000000
310
0000000000000000000000000000FA0000000000000000000000000000000000000000000000000000000000000000000000000000000000
102
{BLKREFS
331
89B
102
}
  0
BLOCK_RECORD
  5
89C
330
1
100
AcDbSymbolTableRecord
100
AcDbBlockTableRecord
  2
LW 3000-15-01
340
0
310
2800000020000000200000000100080000000000000400000000000000000000000000000000000000000000000080000080000000808000800000008000800080800000C0C0C000C0DCC000F0CAA6000020400000206000002080000020A0000020C0000020E00000400000004020000040400000406000004080000040A0
310
000040C0000040E00000600000006020000060400000606000006080000060A0000060C0000060E00000800000008020000080400000806000008080000080A0000080C0000080E00000A0000000A0200000A0400000A0600000A0800000A0A00000A0C00000A0E00000C0000000C0200000C0400000C0600000C0800000C0
310
A00000C0C00000C0E00000E0000000E0200000E0400000E0600000E0800000E0A00000E0C00000E0E00040000000400020004000400040006000400080004000A0004000C0004000E00040200000402020004020400040206000402080004020A0004020C0004020E000404000004040200040404000404060004040800040
310
40A0004040C0004040E00040600000406020004060400040606000406080004060A0004060C0004060E00040800000408020004080400040806000408080004080A0004080C0004080E00040A0000040A0200040A0400040A0600040A0800040A0A00040A0C00040A0E00040C0000040C0200040C0400040C0600040C08000
310
40C0A00040C0C00040C0E00040E0000040E0200040E0400040E0600040E0800040E0A00040E0C00040E0E00080000000800020008000400080006000800080008000A0008000C0008000E00080200000802020008020400080206000802080008020A0008020C0008020E00080400000804020008040400080406000804080
310
008040A0008040C0008040E00080600000806020008060400080606000806080008060A0008060C0008060E00080800000808020008080400080806000808080008080A0008080C0008080E00080A0000080A0200080A0400080A0600080A0800080A0A00080A0C00080A0E00080C0000080C0200080C0400080C0600080C0
310
800080C0A00080C0C00080C0E00080E0000080E0200080E0400080E0600080E0800080E0A00080E0C00080E0E000C0000000C0002000C0004000C0006000C0008000C000A000C000C000C000E000C0200000C0202000C0204000C0206000C0208000C020A000C020C000C020E000C0400000C0402000C0404000C0406000C0
310
408000C040A000C040C000C040E000C0600000C0602000C0604000C0606000C0608000C060A000C060C000C060E000C0800000C0802000C0804000C0806000C0808000C080A000C080C000C080E000C0A00000C0A02000C0A04000C0A06000C0A08000C0A0A000C0A0C000C0A0E000C0C00000C0C02000C0C04000C0C06000
310
C0C08000C0C0A000F0FBFF00A4A0A000808080000000FF0000FF000000FFFF00FF000000FF00FF00FFFF0000FFFFFF0000000000000000000000000000000000000000000000000000000000000000000000000000000000000000000000000000FFFFFFFFFFFFFFFFFF000000000000000000000000000000000000000000
310
00FFFF00A400A400A400A4FF000000000000000000000000000000000000000000FFF9F9F9F9F9F9F9F9F9FF000000000000000000000000000000000000000000F9F9F9F9F9F9F9F9F9F9F9000000000000000000000000000000000000000000FFF9F9F9F9F9F9F9F9F9F9000000000000000000000000FF000000000000
310
0000FFA4A400A400A400A400FF000000000000000000000000FFFFFF000000000000FF00A4A400A400A400A4FF000000000000000000000000FF00A4FFFFFFFFFFFFFFA4A400A400A400A400FF000000000000000000000000FFA400A400A400A400A400A4A400A400A400A4FF000000000000000000000000FFFFFFFFA400
310
A400A4A400A400A400A400A400FF0000000000000000000000FAFAFAFAFAFAA400A4FFFFFFFFFFFFFFFFFFFFFFFF000000000000000000000000FFFFFFFFA400A400FF00FA0000000000000000FF000000000000000000000000FFA4A40000A400FFFF00FA0000000000000000FF0000000000000000000000000909A4A4A4
310
A400FFFF00FA0000000000000000FF0000000000000000090909090909FAFAFAFAFAFAFAFAFAFAFAFAFAFAFAFAFAFAFAFA000000000000000000000900A400A400A4FFFF00FA0000000000000000FF000000000000000000000000FFA400A400A400FFFF00FA0000000000000000FF000000000000000000000000FFFFFFFF
310
A400A400FFFFFFFFFFFFFFFFFFFFFFFF0000000000000000000000FAFAFAFAFAFAA400A400A4FAA4FAA4FAA4FAA4FAFF000000000000000000000000FFFFFFFFA400A400A4A40000A400A400A400A4FF000000000000000000000000FFA400FFFFFFFFFFFFFFA40000A400A400A4A4FF000000000000000000000000FF00FF
310
000000000000FFA4A40000A4FAA4A400FF000000000000000000000000FFFF00000000000000FF00A4A40000FAA400A4FF000000000000000000000000FF0000000000000000FFA400A4A400FAA4A400FF000000000000000000000000000000000000000000FF00A400A4FFFAFFFFA4FF0000000000000000000000000000
310
00000000000000FFA400A400FFFA00FFA4FF000000000000000000000000000000000000000000FF00A400A4FFFA00FF00FF000000000000000000000000000000000000000000FFFFFFFFFFFFFAFFFFFF00000000000000000000000000000000000000000000000000000000FA0000000000000000000000000000000000
310
0000000000000000000000000000FA0000000000000000000000000000000000000000000000000000000000000000000000000000000000
102
{BLKREFS
331
8DB
102
}
  0
ENDTAB
  0
ENDSEC
  0
SECTION
  2
BLOCKS
  0
BLOCK
  5
20
330
1F
100
AcDbEntity
  8
0
100
AcDbBlockBegin
  2
*Model_Space
 70
     0
 10
0.0
 20
0.0
 30
0.0
  3
*Model_Space
  1

  0
ENDBLK
  5
21
330
1F
100
AcDbEntity
  8
0
100
AcDbBlockEnd
  0
BLOCK
  5
1C
330
1B
100
AcDbEntity
 67
     1
  8
0
100
AcDbBlockBegin
  2
*Paper_Space
 70
     0
 10
0.0
 20
0.0
 30
0.0
  3
*Paper_Space
  1

  0
ENDBLK
  5
1D
330
1B
100
AcDbEntity
 67
     1
  8
0
100
AcDbBlockEnd
  0
BLOCK
  5
24
330
23
100
AcDbEntity
 67
     1
  8
0
100
AcDbBlockBegin
  2
*Paper_Space0
 70
     0
 10
0.0
 20
0.0
 30
0.0
  3
*Paper_Space0
  1

  0
ENDBLK
  5
25
330
23
100
AcDbEntity
 67
     1
  8
0
100
AcDbBlockEnd
  0
BLOCK
  5
340
330
339
100
AcDbEntity
  8
0
100
AcDbBlockBegin
  2
insertpoint-ECKELT
 70
     2
 10
0.0
 20
0.0
 30
0.0
  3
insertpoint-ECKELT
  1

  0
ATTDEF
  5
33A
330
339
100
AcDbEntity
  8
insertpoint_ECKELT
100
AcDbText
 10
-2.457298772169167
 20
-0.0000000000000255
 30
0.0
 40
0.6
  1
LW
 72
     2
 11
-1.199999999999999
 21
-0.0000000000000255
 31
0.0
100
AcDbAttributeDefinition
  3
Nr. links
  2
LINKS
 70
     0
  0
ATTDEF
  5
33B
330
339
100
AcDbEntity
  8
insertpoint_ECKELT
100
AcDbText
 10
1.199999999999999
 20
-0.0000000000000255
 30
0.0
 40
0.6
  1
LW
100
AcDbAttributeDefinition
  3
Nr. rechts
  2
RECHTS
 70
     0
  0
LINE
  5
33C
102
{ACAD_REACTORS
330
33F
102
}
330
339
100
AcDbEntity
  8
insertpoint_ECKELT
100
AcDbLine
 10
0.0
 20
1.799999999999999
 30
0.0
 11
0.0
 21
-1.799999999999999
 31
0.0
  0
LINE
  5
33D
102
{ACAD_REACTORS
330
33F
102
}
330
339
100
AcDbEntity
  8
insertpoint_ECKELT
100
AcDbLine
 10
-1.8
 20
-0.0000000000000255
 30
0.0
 11
1.8
 21
-0.0000000000000255
 31
0.0
  0
CIRCLE
  5
33E
102
{ACAD_REACTORS
330
33F
102
}
330
339
100
AcDbEntity
  8
insertpoint_ECKELT
100
AcDbCircle
 10
0.0
 20
0.0
 30
0.0
 40
1.199999999999999
  0
HATCH
  5
33F
330
339
100
AcDbEntity
  8
insertpoint_ECKELT
100
AcDbHatch
 10
0.0
 20
0.0
 30
0.0
210
0.0
220
0.0
230
1.0
  2
SOLID
 70
     1
 71
     1
 91
        2
 92
        7
 72
     1
 73
     1
 93
        3
 10
0.0
 20
-0.0000000000000255
 42
0.0
 10
0.0
 20
1.199999999999999
 42
0.4142135623731013
 10
-1.199999999999999
 20
-0.0000000000000255
 42
0.0
 97
        3
330
33E
330
33D
330
33C
 92
        7
 72
     1
 73
     1
 93
        3
 10
1.199999999999999
 20
-0.0000000000000255
 42
0.0
 10
0.0
 20
-0.0000000000000255
 42
0.0
 10
0.0
 20
-1.199999999999999
 42
0.4142135623730888
 97
        3
330
33D
330
33C
330
33E
 75
     0
 76
     1
 47
0.0223086566480813
 98
        2
 10
-0.3163651093721391
 20
0.2714132920773493
 10
0.7415965996738798
 20
-0.4513871917946231
450
        0
451
        0
460
0.0
461
0.0
452
        0
462
0.0
453
        0
470

  0
ENDBLK
  5
341
330
339
100
AcDbEntity
  8
0
100
AcDbBlockEnd
  0
BLOCK
  5
7DC
330
7DB
100
AcDbEntity
  8
0
100
AcDbBlockBegin
  2
LW 3000-08-01
 70
     0
 10
0.0
 20
0.0
 30
0.0
  3
LW 3000-08-01
  1

  0
LINE
  5
7DE
330
7DB
100
AcDbEntity
  8
LW 3000-SECURIT-01
 62
     3
100
AcDbLine
 10
8.999999999999985
 20
6.999999999999985
 30
0.0
 11
25.99999999999999
 21
6.999999999999985
 31
0.0
  0
HATCH
  5
7DF
330
7DB
100
AcDbEntity
  8
LW 3000-SECURIT-01
 62
     8
100
AcDbHatch
 10
0.0
 20
0.0
 30
0.0
210
0.0
220
0.0
230
1.0
  2
ANSI31
 70
     0
 71
     0
 91
        4
 92
        7
 72
     1
 73
     1
 93
       27
 10
18.99999999999998
 20
15.55662432702591
 42
0.0
 10
16.49999999999998
 20
16.99999999999994
 42
0.0
 10
16.49999999999998
 20
22.99999999999998
 42
0.0
 10
9.999999999999985
 20
22.99999999999998
 42
0.0
 10
9.999999999999985
 20
21.99999999999996
 42
0.0
 10
7.999999999999985
 20
21.99999999999996
 42
0.0
 10
7.999999999999987
 20
11.0
 42
0.0
 10
4.999999999999968
 20
10.99999999999998
 42
0.0
 10
0.0
 20
15.99999999999997
 42
0.0
 10
0.0
 20
8.5
 42
0.0
 10
3.999999999999992
 20
8.499999999999985
 42
0.0
 10
4.866025403784432
 20
6.999999999999957
 42
0.0
 10
4.000000000000002
 20
5.499999999999985
 42
0.0
 10
0.0
 20
5.499999999999985
 42
0.0
 10
0.0
 20
1.200000000000002
 42
-0.4142135623731028
 10
1.2
 20
-0.0000000000000284
 42
0.0
 10
3.505298820595195
 20
-0.0000000000000284
 42
0.0
 10
6.999999999999987
 20
6.052999999999968
 42
0.0
 10
8.999999999999985
 20
6.052999999999968
 42
0.0
 10
8.999999999999985
 20
6.999999999999985
 42
0.0
 10
26.0
 20
6.999999999999985
 42
0.0
 10
26.0
 20
19.79289321881343
 42
0.1989123673796603
 10
25.85355339059327
 20
20.14644660940671
 42
0.0
 10
23.1464466094067
 20
22.85355339059325
 42
0.1989123673796461
 10
22.79289321881344
 20
22.99999999999996
 42
0.0
 10
21.49999999999998
 20
22.99999999999998
 42
0.0
 10
21.49999999999999
 20
16.99999999999995
 42
0.0
 97
        0
 92
       23
 72
     0
 73
     1
 93
        4
 10
25.99999999999998
 20
6.999999999999985
 10
8.999999999999984
 20
6.999999999999985
 10
8.999999999999984
 20
6.052999999999954
 10
25.99999999999999
 20
6.052999999999954
 97
        0
 92
        7
 72
     1
 73
     1
 93
       23
 10
3.50529882059519
 20
-0.0000000000000213
 42
0.0
 10
1.2
 20
-0.0000000000000071
 42
-0.4142135623730942
 10
0.0
 20
-1.200000000000002
 42
0.0
 10
0.0
 20
-1.799999999999997
 42
0.0
 10
0.0
 20
-5.500000000000035
 42
0.0
 10
4.000000000000019
 20
-5.500000000000035
 42
0.0
 10
4.866025403784432
 20
-7.000000000000014
 42
0.0
 10
4.000000000000017
 20
-8.500000000000021
 42
0.0
 10
0.0
 20
-8.500000000000014
 42
0.0
 10
0.0
 20
-16.0
 42
0.0
 10
5.000000000000003
 20
-11.00000000000001
 42
0.0
 10
7.999999999999987
 20
-11.00000000000001
 42
0.0
 10
7.999999999999985
 20
-22.00000000000001
 42
0.0
 10
9.999999999999985
 20
-22.00000000000001
 42
0.0
 10
9.999999999999985
 20
-23.00000000000004
 42
0.0
 10
22.79289321881343
 20
-23.00000000000004
 42
0.1989123673796567
 10
23.1464466094067
 20
-22.8535533905933
 42
0.0
 10
25.85355339059325
 20
-20.14644660940674
 42
0.198912367379672
 10
25.99999999999999
 20
-19.79289321881345
 42
0.0
 10
25.99999999999999
 20
-7.000000000000021
 42
0.0
 10
8.999999999999985
 20
-7.000000000000021
 42
0.0
 10
8.999999999999985
 20
-6.053000000000004
 42
0.0
 10
6.99999999999998
 20
-6.053000000000004
 42
0.0
 97
        0
 92
       23
 72
     0
 73
     1
 93
        4
 10
26.0
 20
-6.053000000000018
 10
8.999999999999985
 20
-6.053000000000018
 10
8.999999999999985
 20
-7.000000000000014
 10
26.0
 20
-7.000000000000007
 97
        0
 75
     0
 76
     1
 52
0.0
 41
0.75
 77
     0
 78
     1
 53
45.0
 43
-2.000000000000003
 44
-59.99999999999999
 45
-1.683798022700465
 46
1.683798022700466
 79
     0
 47
0.12447031384023
 98
        4
 10
11.57096128363278
 20
13.30647093145983
 10
11.94461342583321
 20
6.21166312127751
 10
3.59971891198398
 20
-3.497021371520546
 10
14.18652526006832
 20
-6.608779239456524
1001
ACAD
1010
0.0
1020
0.0
1030
0.0
  0
LINE
  5
7E0
330
7DB
100
AcDbEntity
  8
LW 3000-SECURIT-01
 62
     3
100
AcDbLine
 10
25.99999999999999
 20
-7.000000000000014
 30
0.0
 11
8.999999999999985
 21
-7.000000000000014
 31
0.0
  0
LINE
  5
7E1
330
7DB
100
AcDbEntity
  8
LW 3000-SECURIT-01
 62
     3
100
AcDbLine
 10
8.999999999999985
 20
6.999999999999985
 30
0.0
 11
8.999999999999985
 21
-7.000000000000014
 31
0.0
  0
LINE
  5
7E2
330
7DB
100
AcDbEntity
  8
LW 3000-SECURIT-01
100
AcDbLine
 10
6.999999999999985
 20
-6.053000000000011
 30
0.0
 11
6.999999999999985
 21
6.052999999999954
 31
0.0
  0
LINE
  5
7E3
330
7DB
100
AcDbEntity
  8
LW 3000-SECURIT-01
100
AcDbLine
 10
3.999999999999985
 20
8.499999999999957
 30
0.0
 11
3.999999999999985
 21
5.499999999999985
 31
0.0
  0
LINE
  5
7E4
330
7DB
100
AcDbEntity
  8
LW 3000-SECURIT-01
100
AcDbLine
 10
3.999999999999985
 20
-5.500000000000014
 30
0.0
 11
3.999999999999985
 21
-8.500000000000014
 31
0.0
  0
LWPOLYLINE
  5
7E5
330
7DB
100
AcDbEntity
  8
LW 3000-SECURIT-01
100
AcDbPolyline
 90
       25
 70
     0
 43
0.0
 10
16.49999999999998
 20
22.99999999999998
 10
16.52101778984068
 20
22.99768495559691
 10
16.5843560695648
 20
22.99094486236571
 10
16.69044399261473
 20
22.98008012771605
 10
16.83832907676695
 20
22.96570587158202
 10
17.02153944969176
 20
22.94918823242186
 10
17.23223590850828
 20
22.93196487426756
 10
17.47257971763609
 20
22.91472721099852
 10
17.74519824981688
 20
22.8981738090515
 10
18.04294848442076
 20
22.88374948501585
 10
18.3581187725067
 20
22.87283468246458
 10
18.68067288398741
 20
22.86605644226073
 10
18.99999880790709
 20
22.8637270927429
 10
19.31932473182676
 20
22.86605644226073
 10
19.64188122749327
 20
22.87283468246458
 10
19.95705151557921
 20
22.88374948501585
 10
20.25480294227599
 20
22.8981738090515
 10
20.52742028236388
 20
22.91472721099852
 10
20.76776289939879
 20
22.93196487426756
 10
20.97846055030821
 20
22.94918823242186
 10
21.16167092323302
 20
22.96570587158202
 10
21.30955481529234
 20
22.98008012771605
 10
21.41564393043517
 20
22.99094486236571
 10
21.47898221015929
 20
22.99768495559691
 10
21.49999880790709
 20
22.99999999999998
  0
LINE
  5
7E6
330
7DB
100
AcDbEntity
  8
LW 3000-SECURIT-01
100
AcDbLine
 10
21.49999999999999
 20
16.99999999999995
 30
0.0
 11
16.49999999999998
 21
16.99999999999995
 31
0.0
  0
LINE
  5
7E7
330
7DB
100
AcDbEntity
  8
LW 3000-SECURIT-01
100
AcDbLine
 10
0.0
 20
-5.500000000000042
 30
0.0
 11
3.999999999999985
 21
-5.500000000000042
 31
0.0
  0
LINE
  5
7E8
330
7DB
100
AcDbEntity
  8
LW 3000-SECURIT-01
100
AcDbLine
 10
0.0
 20
15.99999999999998
 30
0.0
 11
0.0
 21
-15.99999999999998
 31
0.0
  0
LINE
  5
7E9
330
7DB
100
AcDbEntity
  8
LW 3000-SECURIT-01
100
AcDbLine
 10
3.999999999999985
 20
5.499999999999985
 30
0.0
 11
0.0
 21
5.499999999999985
 31
0.0
  0
LINE
  5
7EA
330
7DB
100
AcDbEntity
  8
LW 3000-SECURIT-01
100
AcDbLine
 10
4.866025403784433
 20
6.999999999999957
 30
0.0
 11
4.0
 21
5.499999999999985
 31
0.0
  0
LINE
  5
7EB
330
7DB
100
AcDbEntity
  8
LW 3000-SECURIT-01
100
AcDbLine
 10
4.0
 20
8.499999999999985
 30
0.0
 11
4.866025403784433
 21
6.999999999999957
 31
0.0
  0
LINE
  5
7EC
330
7DB
100
AcDbEntity
  8
LW 3000-SECURIT-01
100
AcDbLine
 10
0.0
 20
8.499999999999985
 30
0.0
 11
3.999999999999985
 21
8.499999999999985
 31
0.0
  0
LINE
  5
7ED
330
7DB
100
AcDbEntity
  8
LW 3000-SECURIT-01
100
AcDbLine
 10
5.0
 20
10.99999999999996
 30
0.0
 11
-0.0000000000000142
 21
15.99999999999998
 31
0.0
  0
LINE
  5
7EE
330
7DB
100
AcDbEntity
  8
LW 3000-SECURIT-01
100
AcDbLine
 10
7.999999999999985
 20
10.99999999999998
 30
0.0
 11
5.0
 21
10.99999999999998
 31
0.0
  0
LINE
  5
7EF
330
7DB
100
AcDbEntity
  8
LW 3000-SECURIT-01
100
AcDbLine
 10
7.999999999999985
 20
21.99999999999996
 30
0.0
 11
7.999999999999985
 21
10.99999999999998
 31
0.0
  0
LINE
  5
7F0
330
7DB
100
AcDbEntity
  8
LW 3000-SECURIT-01
100
AcDbLine
 10
9.999999999999985
 20
21.99999999999996
 30
0.0
 11
7.999999999999985
 21
21.99999999999996
 31
0.0
  0
LINE
  5
7F1
330
7DB
100
AcDbEntity
  8
LW 3000-SECURIT-01
100
AcDbLine
 10
9.999999999999985
 20
22.99999999999998
 30
0.0
 11
9.999999999999985
 21
21.99999999999996
 31
0.0
  0
LINE
  5
7F2
330
7DB
100
AcDbEntity
  8
LW 3000-SECURIT-01
100
AcDbLine
 10
16.49999999999998
 20
22.99999999999998
 30
0.0
 11
9.999999999999985
 21
22.99999999999998
 31
0.0
  0
LINE
  5
7F3
330
7DB
100
AcDbEntity
  8
LW 3000-SECURIT-01
100
AcDbLine
 10
16.49999999999998
 20
16.99999999999995
 30
0.0
 11
16.49999999999998
 21
22.99999999999998
 31
0.0
  0
LINE
  5
7F4
330
7DB
100
AcDbEntity
  8
LW 3000-SECURIT-01
100
AcDbLine
 10
18.99999999999998
 20
15.55662432702591
 30
0.0
 11
16.49999999999998
 21
16.99999999999995
 31
0.0
  0
LINE
  5
7F5
330
7DB
100
AcDbEntity
  8
LW 3000-SECURIT-01
100
AcDbLine
 10
21.49999999999999
 20
16.99999999999995
 30
0.0
 11
18.99999999999998
 21
15.55662432702591
 31
0.0
  0
LINE
  5
7F6
330
7DB
100
AcDbEntity
  8
LW 3000-SECURIT-01
100
AcDbLine
 10
21.49999999999998
 20
22.99999999999998
 30
0.0
 11
21.49999999999999
 21
16.99999999999995
 31
0.0
  0
LINE
  5
7F7
330
7DB
100
AcDbEntity
  8
LW 3000-SECURIT-01
100
AcDbLine
 10
22.79289321881343
 20
22.99999999999996
 30
0.0
 11
21.49999999999998
 21
22.99999999999998
 31
0.0
  0
ARC
  5
7F8
330
7DB
100
AcDbEntity
  8
LW 3000-SECURIT-01
100
AcDbCircle
 10
22.79289321881343
 20
22.49999999999996
 30
0.0
 40
0.5000000000000085
100
AcDbArc
 50
45.00000000000159
 51
90.0
  0
LINE
  5
7F9
330
7DB
100
AcDbEntity
  8
LW 3000-SECURIT-01
100
AcDbLine
 10
25.85355339059325
 20
20.14644660940672
 30
0.0
 11
23.1464466094067
 21
22.85355339059325
 31
0.0
  0
ARC
  5
7FA
330
7DB
100
AcDbEntity
  8
LW 3000-SECURIT-01
100
AcDbCircle
 10
25.5
 20
19.79289321881343
 30
0.0
 40
0.4999999999999938
100
AcDbArc
 50
0.0
 51
45.00000000000277
  0
LINE
  5
7FB
330
7DB
100
AcDbEntity
  8
LW 3000-SECURIT-01
100
AcDbLine
 10
6.999999999999985
 20
6.052999999999954
 30
0.0
 11
25.99999999999999
 21
6.052999999999954
 31
0.0
  0
LINE
  5
7FC
330
7DB
100
AcDbEntity
  8
LW 3000-SECURIT-01
100
AcDbLine
 10
3.50529882059519
 20
-0.0000000000000284
 30
0.0
 11
6.999999999999985
 21
6.052999999999954
 31
0.0
  0
LINE
  5
7FD
330
7DB
100
AcDbEntity
  8
LW 3000-SECURIT-01
100
AcDbLine
 10
6.999999999999985
 20
-6.053000000000011
 30
0.0
 11
3.50529882059519
 21
-0.0000000000000284
 31
0.0
  0
LINE
  5
7FE
330
7DB
100
AcDbEntity
  8
LW 3000-SECURIT-01
100
AcDbLine
 10
25.99999999999999
 20
-6.053000000000011
 30
0.0
 11
6.999999999999985
 21
-6.053000000000011
 31
0.0
  0
LINE
  5
7FF
330
7DB
100
AcDbEntity
  8
LW 3000-SECURIT-01
100
AcDbLine
 10
25.99999999999999
 20
-19.79289321881349
 30
0.0
 11
26.0
 21
19.79289321881343
 31
0.0
  0
ARC
  5
800
330
7DB
100
AcDbEntity
  8
LW 3000-SECURIT-01
100
AcDbCircle
 10
25.5
 20
-19.79289321881349
 30
0.0
 40
0.4999999999999944
100
AcDbArc
 50
315.0000000000001
 51
0.0
  0
LINE
  5
801
330
7DB
100
AcDbEntity
  8
LW 3000-SECURIT-01
100
AcDbLine
 10
23.14644660940671
 20
-22.85355339059329
 30
0.0
 11
25.85355339059325
 21
-20.14644660940674
 31
0.0
  0
ARC
  5
802
330
7DB
100
AcDbEntity
  8
LW 3000-SECURIT-01
100
AcDbCircle
 10
22.79289321881343
 20
-22.50000000000004
 30
0.0
 40
0.5000000000000071
100
AcDbArc
 50
270.0
 51
315.0000000000002
  0
LINE
  5
803
330
7DB
100
AcDbEntity
  8
LW 3000-SECURIT-01
100
AcDbLine
 10
9.999999999999985
 20
-23.00000000000004
 30
0.0
 11
22.79289321881343
 21
-23.00000000000004
 31
0.0
  0
LINE
  5
804
330
7DB
100
AcDbEntity
  8
LW 3000-SECURIT-01
100
AcDbLine
 10
9.999999999999985
 20
-22.00000000000001
 30
0.0
 11
9.999999999999985
 21
-23.00000000000004
 31
0.0
  0
LINE
  5
805
330
7DB
100
AcDbEntity
  8
LW 3000-SECURIT-01
100
AcDbLine
 10
7.999999999999985
 20
-22.00000000000001
 30
0.0
 11
9.999999999999985
 21
-22.00000000000001
 31
0.0
  0
LINE
  5
806
330
7DB
100
AcDbEntity
  8
LW 3000-SECURIT-01
100
AcDbLine
 10
7.999999999999985
 20
-11.00000000000001
 30
0.0
 11
7.999999999999985
 21
-22.00000000000001
 31
0.0
  0
LINE
  5
807
330
7DB
100
AcDbEntity
  8
LW 3000-SECURIT-01
100
AcDbLine
 10
5.0
 20
-11.00000000000001
 30
0.0
 11
7.999999999999985
 21
-11.00000000000001
 31
0.0
  0
LINE
  5
808
330
7DB
100
AcDbEntity
  8
LW 3000-SECURIT-01
100
AcDbLine
 10
-0.0000000000000142
 20
-16.00000000000001
 30
0.0
 11
5.0
 21
-11.00000000000001
 31
0.0
  0
LINE
  5
809
330
7DB
100
AcDbEntity
  8
LW 3000-SECURIT-01
100
AcDbLine
 10
3.999999999999985
 20
-8.500000000000014
 30
0.0
 11
0.0
 21
-8.500000000000014
 31
0.0
  0
LINE
  5
80A
330
7DB
100
AcDbEntity
  8
LW 3000-SECURIT-01
100
AcDbLine
 10
4.866025403784433
 20
-7.000000000000014
 30
0.0
 11
4.0
 21
-8.500000000000042
 31
0.0
  0
LINE
  5
80B
330
7DB
100
AcDbEntity
  8
LW 3000-SECURIT-01
100
AcDbLine
 10
4.0
 20
-5.500000000000014
 30
0.0
 11
4.866025403784433
 21
-7.000000000000014
 31
0.0
  0
LINE
  5
80C
330
7DB
100
AcDbEntity
  8
LW 3000-SECURIT-01
  6
MITTE2
 62
     3
100
AcDbLine
 10
18.99999999999998
 20
12.63029283982406
 30
0.0
 11
18.99999999999998
 21
25.14953494527482
 31
0.0
  0
LINE
  5
80D
330
7DB
100
AcDbEntity
  8
LW 3000-SECURIT-01
  6
MITTE2
 62
     3
100
AcDbLine
 10
28.41947717894095
 20
-0.0000000000000284
 30
0.0
 11
-3.154117270599044
 21
-0.0000000000000284
 31
0.0
  0
LINE
  5
80E
330
7DB
100
AcDbEntity
  8
LW 3000-SECURIT-01
  6
MITTE2
 62
     3
100
AcDbLine
 10
6.466010717671451
 20
6.999999999999957
 30
0.0
 11
-2.314777409360431
 21
6.999999999999957
 31
0.0
  0
LINE
  5
80F
330
7DB
100
AcDbEntity
  8
LW 3000-SECURIT-01
  6
MITTE2
 62
     3
100
AcDbLine
 10
6.466010717671451
 20
-7.000000000000014
 30
0.0
 11
-2.314777409360431
 21
-7.000000000000014
 31
0.0
  0
INSERT
  5
810
330
7DB
100
AcDbEntity
  8
LW 3000-SECURIT-01
100
AcDbBlockReference
 66
     1
  2
insertpoint-ECKELT
 10
0.0
 20
0.0
 30
0.0
  0
ATTRIB
  5
811
330
810
100
AcDbEntity
  8
insertpoint_ECKELT
100
AcDbText
 10
-6.931514324693041
 20
-0.0000000000000284
 30
0.0
 40
0.6
  1
LW 3000/08-01
 72
     2
 11
-1.199999999999999
 21
-0.0000000000000284
 31
0.0
100
AcDbAttribute
  2
LINKS
 70
     0
  0
ATTRIB
  5
812
330
810
100
AcDbEntity
  8
insertpoint_ECKELT
100
AcDbText
 10
1.199999999999999
 20
-0.0000000000000284
 30
0.0
 40
0.6
  1

100
AcDbAttribute
  2
RECHTS
 70
     0
  0
SEQEND
  5
813
330
810
100
AcDbEntity
  8
LW 3000-SECURIT-01
  0
HATCH
  5
814
330
7DB
100
AcDbEntity
  8
LW 3000-SECURIT-01
 62
     1
100
AcDbHatch
 10
0.0
 20
0.0
 30
0.0
210
0.0
220
0.0
230
1.0
  2
SOLID
 70
     1
 71
     0
 91
        5
 92
        7
 72
     0
 73
     1
 93
       76
 10
12.07600150507749
 20
-18.08856979069736
 10
12.10786033445032
 20
-18.03698882885567
 10
12.2260184586816
 20
-17.88574642983963
 10
12.36049653389437
 20
-17.74532229957714
 10
12.50651644035582
 20
-17.61693773786379
 10
12.67018523643781
 20
-17.5000314549481
 10
12.84557218980256
 20
-17.39785357312638
 10
13.02732512240288
 20
-17.30650189354355
 10
13.20849405786862
 20
-17.23698358109738
 10
10.95135611966855
 20
-17.23698358109738
 10
10.73845956726859
 20
-17.24567323629736
 10
10.5364250838686
 20
-17.27174220189738
 10
10.34090784186861
 20
-17.31301806409738
 10
10.15625266886871
 20
-17.36732840909735
 10
9.980287151068576
 20
-17.43684565069736
 10
9.813011288468654
 20
-17.51939737509738
 10
9.662443025921728
 20
-17.61472289264128
 10
9.519735425468692
 20
-17.7214318584974
 10
9.394294169898042
 20
-17.84048013473745
 10
9.283029217820622
 20
-17.96873944548934
 10
9.18301128646868
 20
-18.10594910109734
 10
9.100459562068632
 20
-18.25150082569735
 10
9.037459561868612
 20
-18.40574220549749
 10
8.987494044468686
 20
-18.56650082669728
 10
8.959252665068671
 20
-18.73160427549737
 10
8.950563009868627
 20
-18.90539737949734
 10
8.961425078868668
 20
-19.07919048349743
 10
8.991838872068623
 20
-19.24646634609741
 10
9.046149217068656
 20
-19.40722496729739
 10
9.115666458668609
 20
-19.56363876089736
 10
9.204735424468704
 20
-19.71136289929745
 10
9.311183700668603
 20
-19.85256979629733
 10
9.43388163209266
 20
-19.98378358981736
 10
9.570080680800852
 20
-20.10491738330535
 10
9.717425081268626
 20
-20.21536290089739
 10
9.878183702468671
 20
-20.31312152189736
 10
10.05381032371587
 20
-20.39801945320136
 10
10.2344595656686
 20
-20.47170772929735
 10
10.42563198006871
 20
-20.52819048809738
 10
10.62549404966864
 20
-20.57163876409737
 10
10.83404577446861
 20
-20.59770772969739
 10
11.04476991306859
 20
-20.60639738489738
 10
13.1639409988212
 20
-20.60639738489738
 10
13.0033971347687
 20
-20.54332658116249
 10
12.81983299096628
 20
-20.45270630763974
 10
12.65136658479622
 20
-20.34817661470811
 10
12.48853369003546
 20
-20.23255837628267
 10
12.34462132166527
 20
-20.10276877974277
 10
12.21718542818092
 20
-19.96341509651432
 10
12.10348007343759
 20
-19.81292685180168
 10
12.051508841989
 20
-19.72874220969737
 10
11.02304577506862
 20
-19.72874220969737
 10
10.89093694706303
 20
-19.72118220967337
 10
10.76018370526861
 20
-19.70084841650538
 10
10.63201129106869
 20
-19.66791462329737
 10
10.51687335966863
 20
-19.62229393349736
 10
10.41192839381824
 20
-19.56581117469738
 10
10.31377873833423
 20
-19.49820565724138
 10
10.22359749666867
 20
-19.42025945009737
 10
10.15190784126866
 20
-19.33553531189739
 10
11.87942915552747
 20
-19.33553531189739
 10
11.86884468825445
 20
-19.30289987113906
 10
11.83273288028999
 20
-19.11752592358792
 10
11.82068922750829
 20
-18.92723620963721
 10
11.83271089993763
 20
-18.73248511628222
 10
11.86901662161295
 20
-18.54611574501567
 10
11.88561532428803
 20
-18.49698358509738
 10
10.11497680666866
 20
-18.49698358509738
 10
10.18449404826861
 20
-18.40139737789744
 10
10.2670457726686
 20
-18.31884565349736
 10
10.36213666952221
 20
-18.24898082568939
 10
10.46473542846865
 20
-18.19067323929735
 10
10.58342742884542
 20
-18.14670358398541
 10
10.70587336026869
 20
-18.11463875629738
 10
10.84273542966866
 20
-18.09508703209738
 10
10.98611474046867
 20
-18.08856979069736
 97
        0
 92
        7
 72
     0
 73
     1
 93
       72
 10
13.80446537010544
 20
-18.10316841143339
 10
13.92732840497825
 20
-18.08509392861737
 10
14.05139061226867
 20
-18.07988013549737
 10
15.32008027146866
 20
-18.07988013549737
 10
14.47283888946861
 20
-18.89453531049736
 10
16.23901130886866
 20
-20.61291462629737
 10
17.55766648546864
 20
-20.61291462629737
 10
15.84363199726863
 20
-18.87063875869739
 10
17.52508027846863
 20
-17.23698358109738
 10
14.08614923306873
 20
-17.23698358109738
 10
13.87816233585658
 20
-17.24775875354538
 10
13.67144412830378
 20
-17.27321944328136
 10
13.46701130006868
 20
-17.31301806409738
 10
13.27366647186863
 20
-17.36950082289741
 10
13.08683888506863
 20
-17.44119047829736
 10
12.91567874659415
 20
-17.5272180647774
 10
12.75011474606867
 20
-17.6236732374974
 10
12.59804578006867
 20
-17.73229392749738
 10
12.4623481244655
 20
-17.85160289339336
 10
12.33735612406866
 20
-17.98212151449741
 10
12.22873543406859
 20
-18.12115599769743
 10
12.13749405446867
 20
-18.26888013609726
 10
12.06580439906866
 20
-18.42312151589729
 10
12.01149405406863
 20
-18.58388013709737
 10
11.97890784706868
 20
-18.75115599969734
 10
11.96804577806864
 20
-18.92712151749745
 10
11.97890784706862
 20
-19.0987422076974
 10
12.01149405406863
 20
-19.26601807029735
 10
12.06363198526861
 20
-19.42677669149736
 10
12.13314922686862
 20
-19.58101807129736
 10
12.2249901926774
 20
-19.7297849683213
 10
12.33036964128785
 20
-19.86925393428146
 10
12.44837515890384
 20
-19.99829531400132
 10
12.58066646966864
 20
-20.11760427989736
 10
12.73278757359986
 20
-20.22561669403342
 10
12.89132164306869
 20
-20.32398359089737
 10
13.06294233326866
 20
-20.40870772909739
 10
13.24542509246862
 20
-20.48039738449737
 10
13.43965626549908
 20
-20.53444703984138
 10
13.6364595764686
 20
-20.57815600549736
 10
13.84501130126869
 20
-20.60422497109738
 10
14.05573543986861
 20
-20.61291462629737
 10
15.95876992866863
 20
-20.61291462629737
 10
15.07242509826863
 20
-19.73960427869736
 10
14.05573543986861
 20
-19.73960427869736
 10
13.98906840517412
 20
-19.73585698575803
 10
13.88812068071587
 20
-19.72587462348139
 10
13.76798619757584
 20
-19.70441117513738
 10
13.65086702479027
 20
-19.6700870370974
 10
13.54937185205426
 20
-19.62915876110537
 10
13.49323667946219
 20
-19.60100427825733
 10
13.43955198963658
 20
-19.56841807125733
 10
13.30699129956064
 20
-19.46909531232137
 10
13.23338992001663
 20
-19.39905669140935
 10
13.17832357501435
 20
-19.33119048429745
 10
13.12961805761824
 20
-19.25863186337739
 10
13.0902539195622
 20
-19.1814677252014
 10
13.06083074705503
 20
-19.10004565597745
 10
13.04013198836861
 20
-19.01288841432134
 10
13.03261543662063
 20
-18.92355875886545
 10
13.03397102283184
 20
-18.86125393108139
 10
13.03997557457506
 20
-18.79912289640151
 10
13.05213240219984
 20
-18.73594910309737
 10
13.07034591949906
 20
-18.6742525511774
 10
13.11399405756861
 20
-18.57553806810546
 10
13.15552191976945
 20
-18.50767186099341
 10
13.21860012686624
 20
-18.42963875729737
 10
13.34800206723105
 20
-18.30311602024375
 10
13.40726992056869
 20
-18.26305806711338
 10
13.48356509322462
 20
-18.21874082559341
 10
13.56758536935342
 20
-18.17659599787339
 10
13.6841223352406
 20
-18.13375599773738
 97
        0
 92
        7
 72
     0
 73
     1
 93
       57
 10
18.36250235009271
 20
-18.12524013564138
 10
18.49397683326867
 20
-18.08526772172138
 10
18.62866648886858
 20
-18.05815599749735
 10
18.77204579966854
 20
-18.04946634229736
 10
20.01249407946863
 20
-18.04946634229736
 10
20.01249407946863
 20
-17.22394909829737
 10
18.7785630410687
 20
-17.22394909829737
 10
18.56783890246867
 20
-17.23263875349738
 10
18.3614595914687
 20
-17.26088013289734
 10
18.16376993566871
 20
-17.30215599509733
 10
17.9747699350687
 20
-17.35646634009737
 10
17.79011476206875
 20
-17.42815599549738
 10
17.62370786498848
 20
-17.51079461644937
 10
17.46488703689817
 20
-17.6072497891694
 10
17.31480800193907
 20
-17.71673944468938
 10
17.18024869116715
 20
-17.8359615140333
 10
17.0601837252687
 20
-17.96474220409737
 10
16.95590786286868
 20
-18.10377668729737
 10
16.87118372466863
 20
-18.24932841189741
 10
16.79949406926863
 20
-18.4035697916974
 10
16.74952855186864
 20
-18.56432841289728
 10
16.71694234486864
 20
-18.73160427549732
 10
16.70608027586865
 20
-18.90539737949734
 10
16.71694234486864
 20
-19.07919048349737
 10
16.74952855186864
 20
-19.24646634609741
 10
16.80166648306862
 20
-19.40722496729737
 10
16.87335613846863
 20
-19.56363876089739
 10
16.96025269046867
 20
-19.71136289929737
 10
17.0690993115038
 20
-19.85091876180937
 10
17.18895572567743
 20
-19.98126358980937
 10
17.32538331231745
 20
-20.10257117640137
 10
17.47294234726865
 20
-20.21319048709739
 10
17.63370096846864
 20
-20.31094910809739
 10
17.80749407246861
 20
-20.39567324629738
 10
17.99214924546862
 20
-20.46953531549736
 10
18.18332165986868
 20
-20.52601807429738
 10
18.38318372946861
 20
-20.56946635029738
 10
18.58956304046864
 20
-20.59336290209737
 10
18.80245959286867
 20
-20.60205255729739
 10
20.01249407946863
 20
-20.60205255729739
 10
20.01249407946863
 20
-19.74394910629738
 10
18.77856304106859
 20
-19.74394910629738
 10
18.64491614409263
 20
-19.7336084166094
 10
18.51265959194864
 20
-19.71162358895339
 10
18.39204717777266
 20
-19.67729945091338
 10
18.27604028085266
 20
-19.62933255420938
 10
18.16637683222865
 20
-19.56841807125738
 10
18.06931338364466
 20
-19.50081255380138
 10
17.98189545233265
 20
-19.42104151906537
 10
17.90742510726863
 20
-19.33553531189739
 10
20.01249407946863
 20
-19.33553531189739
 10
20.01249407946863
 20
-18.50784565409736
 10
17.87049407266863
 20
-18.50784565409736
 10
17.94001131426864
 20
-18.41008703309737
 10
18.02690786626857
 20
-18.32101806729738
 10
18.12805545279667
 20
-18.24472289464137
 10
18.23545959106866
 20
-18.17763875649737
 97
        0
 92
        7
 72
     0
 73
     1
 93
        6
 10
20.24276994226863
 20
-17.23698358109738
 10
20.24276994226863
 20
-20.60639738489738
 10
22.48035615626867
 20
-20.60639738489738
 10
22.48035615626867
 20
-19.73960427869736
 10
21.26597684206865
 20
-19.73960427869736
 10
21.26597684206865
 20
-17.23698358109738
 97
        0
 92
        7
 72
     0
 73
     1
 93
        8
 10
21.49842511866864
 20
-17.23698358109738
 10
21.49842511866864
 20
-18.06250082509737
 10
22.73235615706863
 20
-18.06250082509737
 10
22.73235615706863
 20
-20.61291462629737
 10
23.75773547066865
 20
-20.61291462629737
 10
23.75773547066865
 20
-18.06250082509737
 10
25.00035616426868
 20
-18.06250082509737
 10
25.00035616426868
 20
-17.23698358109738
 97
        0
 75
     0
 76
     1
 47
0.0142553043587597
 98
        5
 10
11.38566163114387
 20
-17.67943325068648
 10
13.65315884448642
 20
-17.82198623569229
 10
18.14537057668798
 20
-17.76496506314458
 10
20.86921966051955
 20
-17.52262483845231
 10
22.28105764274642
 20
-17.62241197086564
450
        0
451
        0
460
0.0
461
0.0
452
        0
462
0.0
453
        0
470

  0
LWPOLYLINE
  5
815
330
7DB
100
AcDbEntity
  8
LW 3000-SECURIT-01
 62
     1
100
AcDbPolyline
 90
        8
 70
     1
 43
0.0
 10
23.75773547066865
 20
-18.06250082509737
 10
23.75773547066865
 20
-20.61291462629737
 10
22.73235615706863
 20
-20.61291462629737
 10
22.73235615706863
 20
-18.06250082509737
 10
21.49842511866864
 20
-18.06250082509737
 10
21.49842511866864
 20
-17.23698358109738
 10
25.00035616426868
 20
-17.23698358109738
 10
25.00035616426868
 20
-18.06250082509737
  0
LWPOLYLINE
  5
816
330
7DB
100
AcDbEntity
  8
LW 3000-SECURIT-01
 62
     1
100
AcDbPolyline
 90
       73
 70
     1
 43
0.0
 10
14.05573543986866
 20
-19.73960427869736
 10
15.07242509826863
 20
-19.73960427869736
 10
15.95876992866863
 20
-20.61291462629737
 10
14.05573543986866
 20
-20.61291462629737
 10
13.84501130126864
 20
-20.60422497109738
 10
13.63645957646866
 20
-20.57815600549736
 10
13.43965626549908
 20
-20.53444703984138
 10
13.24542509246867
 20
-20.48039738449737
 10
13.06294233326866
 20
-20.40870772909739
 10
12.89132164306863
 20
-20.32398359089737
 10
12.73278757359986
 20
-20.22561669403336
 10
12.58066646966864
 20
-20.11760427989736
 10
12.44837515890384
 20
-19.99829531400138
 10
12.33036964128785
 20
-19.86925393428137
 10
12.22499019267746
 20
-19.72978496832138
 10
12.13314922686862
 20
-19.58101807129736
 10
12.06363198526861
 20
-19.42677669149736
 10
12.01149405406863
 20
-19.26601807029738
 10
11.97890784706862
 20
-19.09874220769737
 10
11.96804577806864
 20
-18.92712151749737
 10
11.97890784706862
 20
-18.75115599969737
 10
12.01149405406863
 20
-18.58388013709737
 10
12.06580439906866
 20
-18.42312151589738
 10
12.13749405446861
 20
-18.26888013609738
 10
12.22873543406865
 20
-18.12115599769737
 10
12.33735612406866
 20
-17.98212151449738
 10
12.46234812446544
 20
-17.85160289339336
 10
12.59804578006861
 20
-17.73229392749738
 10
12.75011474606861
 20
-17.62367323749737
 10
12.91567874659426
 20
-17.52721806477737
 10
13.08683888506863
 20
-17.44119047829738
 10
13.27366647186863
 20
-17.36950082289738
 10
13.46701130006863
 20
-17.31301806409738
 10
13.67144412830384
 20
-17.27321944328139
 10
13.87816233585664
 20
-17.24775875354538
 10
14.08614923306862
 20
-17.23698358109738
 10
17.52508027846863
 20
-17.23698358109738
 10
15.84363199726863
 20
-18.87063875869739
 10
17.55766648546864
 20
-20.61291462629737
 10
16.23901130886866
 20
-20.61291462629737
 10
14.47283888946861
 20
-18.89453531049736
 10
15.32008027146866
 20
-18.07988013549737
 10
14.05139061226867
 20
-18.07988013549737
 10
13.92732840497825
 20
-18.08509392861737
 10
13.80446537010544
 20
-18.10316841143339
 10
13.68412233524065
 20
-18.13375599773738
 10
13.56758536935348
 20
-18.17659599787339
 10
13.48356509322462
 20
-18.21874082559338
 10
13.40726992056863
 20
-18.26305806711338
 10
13.36702812733744
 20
-18.29025668788938
 10
13.32951488583904
 20
-18.32119186040137
 10
13.21860012686624
 20
-18.42963875729737
 10
13.15552191976945
 20
-18.50767186099338
 10
13.11399405756861
 20
-18.57553806810537
 10
13.07034591949906
 20
-18.67425255117737
 10
13.05213240219984
 20
-18.73594910309737
 10
13.03997557457506
 20
-18.79912289640137
 10
13.03397102283184
 20
-18.86125393108136
 10
13.03261543662063
 20
-18.92355875886537
 10
13.04013198836867
 20
-19.01288841432137
 10
13.06083074705503
 20
-19.10004565597737
 10
13.09025391956225
 20
-19.18146772520137
 10
13.12961805761824
 20
-19.25863186337739
 10
13.17832357501424
 20
-19.33119048429736
 10
13.23338992001663
 20
-19.39905669140938
 10
13.30699129956064
 20
-19.46909531232137
 10
13.43955198963663
 20
-19.56841807125738
 10
13.49323667946225
 20
-19.60100427825736
 10
13.54937185205426
 20
-19.62915876110537
 10
13.65086702479027
 20
-19.67008703709737
 10
13.76798619757584
 20
-19.70441117513735
 10
13.88812068071587
 20
-19.72587462348139
 10
13.98906840517423
 20
-19.73585698575803
  0
LWPOLYLINE
  5
817
330
7DB
100
AcDbEntity
  8
LW 3000-SECURIT-01
 62
     1
100
AcDbPolyline
 90
       76
 70
     1
 43
0.0
 10
12.84557218980256
 20
-17.39785357312638
 10
12.67018523643775
 20
-17.5000314549481
 10
12.50651644035576
 20
-17.61693773786379
 10
12.36049653389437
 20
-17.74532229957714
 10
12.22601845868155
 20
-17.88574642983968
 10
12.10786033445037
 20
-18.03698882885555
 10
12.07600150507749
 20
-18.08856979069736
 10
10.98611474046862
 20
-18.08856979069736
 10
10.84273542966866
 20
-18.09508703209735
 10
10.70587336026863
 20
-18.11463875629738
 10
10.58342742884542
 20
-18.14670358398538
 10
10.46473542846865
 20
-18.19067323929738
 10
10.36213666952227
 20
-18.24898082568939
 10
10.26704577266866
 20
-18.31884565349736
 10
10.18449404826861
 20
-18.40139737789735
 10
10.11497680666866
 20
-18.49698358509738
 10
11.88561532428803
 20
-18.49698358509738
 10
11.86901662161295
 20
-18.54611574501567
 10
11.83271089993763
 20
-18.7324851162823
 10
11.82068922750835
 20
-18.92723620963721
 10
11.83273288028999
 20
-19.117525923588
 10
11.86884468825451
 20
-19.302899871139
 10
11.87942915552747
 20
-19.33553531189739
 10
10.15190784126866
 20
-19.33553531189739
 10
10.22359749666867
 20
-19.42025945009737
 10
10.31377873833423
 20
-19.49820565724138
 10
10.41192839381824
 20
-19.56581117469738
 10
10.51687335966863
 20
-19.62229393349736
 10
10.63201129106863
 20
-19.66791462329737
 10
10.76018370526861
 20
-19.70084841650538
 10
10.89093694706303
 20
-19.72118220967337
 10
11.02304577506862
 20
-19.72874220969737
 10
12.051508841989
 20
-19.72874220969737
 10
12.10348007343759
 20
-19.81292685180165
 10
12.21718542818092
 20
-19.96341509651432
 10
12.34462132166527
 20
-20.10276877974281
 10
12.48853369003546
 20
-20.23255837628261
 10
12.65136658479622
 20
-20.34817661470811
 10
12.81983299096628
 20
-20.45270630763974
 10
13.0033971347687
 20
-20.54332658116249
 10
13.1639409988212
 20
-20.60639738489738
 10
11.04476991306864
 20
-20.60639738489738
 10
10.83404577446861
 20
-20.59770772969739
 10
10.62549404966864
 20
-20.57163876409737
 10
10.42563198006865
 20
-20.52819048809738
 10
10.23445956566865
 20
-20.47170772929738
 10
10.05381032371582
 20
-20.39801945320136
 10
9.878183702468671
 20
-20.31312152189736
 10
9.717425081268626
 20
-20.21536290089739
 10
9.570080680800909
 20
-20.10491738330538
 10
9.43388163209266
 20
-19.98378358981736
 10
9.31118370066866
 20
-19.85256979629736
 10
9.204735424468648
 20
-19.7113628992974
 10
9.115666458668666
 20
-19.56363876089739
 10
9.046149217068656
 20
-19.40722496729737
 10
8.991838872068623
 20
-19.24646634609738
 10
8.961425078868668
 20
-19.07919048349737
 10
8.950563009868627
 20
-18.90539737949737
 10
8.959252665068614
 20
-18.73160427549737
 10
8.987494044468629
 20
-18.56650082669736
 10
9.037459561868612
 20
-18.40574220549737
 10
9.100459562068632
 20
-18.25150082569738
 10
9.183011286468623
 20
-18.10594910109736
 10
9.283029217820622
 20
-17.96873944548937
 10
9.394294169897985
 20
-17.84048013473739
 10
9.519735425468635
 20
-17.7214318584974
 10
9.662443025921671
 20
-17.61472289264137
 10
9.813011288468654
 20
-17.51939737509735
 10
9.980287151068633
 20
-17.43684565069736
 10
10.15625266886865
 20
-17.36732840909735
 10
10.34090784186866
 20
-17.31301806409738
 10
10.53642508386866
 20
-17.27174220189738
 10
10.73845956726864
 20
-17.24567323629736
 10
10.95135611966867
 20
-17.23698358109738
 10
13.20849405786867
 20
-17.23698358109738
 10
13.02732512240288
 20
-17.30650189354355
  0
LWPOLYLINE
  5
818
330
7DB
100
AcDbEntity
  8
LW 3000-SECURIT-01
 62
     1
100
AcDbPolyline
 90
        6
 70
     1
 43
0.0
 10
22.48035615626867
 20
-20.60639738489738
 10
20.24276994226863
 20
-20.60639738489738
 10
20.24276994226863
 20
-17.23698358109738
 10
21.26597684206865
 20
-17.23698358109738
 10
21.26597684206865
 20
-19.73960427869736
 10
22.48035615626867
 20
-19.73960427869736
  0
LWPOLYLINE
  5
819
330
7DB
100
AcDbEntity
  8
LW 3000-SECURIT-01
 62
     1
100
AcDbPolyline
 90
       57
 70
     1
 43
0.0
 10
17.18895572567743
 20
-19.98126358980937
 10
17.06909931150386
 20
-19.85091876180939
 10
16.96025269046861
 20
-19.7113628992974
 10
16.87335613846863
 20
-19.56363876089739
 10
16.80166648306862
 20
-19.40722496729737
 10
16.74952855186864
 20
-19.24646634609738
 10
16.71694234486864
 20
-19.07919048349737
 10
16.70608027586865
 20
-18.90539737949737
 10
16.71694234486864
 20
-18.73160427549737
 10
16.74952855186864
 20
-18.56432841289737
 10
16.79949406926863
 20
-18.40356979169738
 10
16.87118372466863
 20
-18.24932841189735
 10
16.95590786286862
 20
-18.1037766872974
 10
17.06018372526864
 20
-17.96474220409737
 10
17.18024869116703
 20
-17.83596151403338
 10
17.31480800193907
 20
-17.71673944468938
 10
17.46488703689823
 20
-17.60724978916937
 10
17.62370786498865
 20
-17.51079461644937
 10
17.79011476206864
 20
-17.42815599549738
 10
17.97476993506865
 20
-17.35646634009737
 10
18.16376993566865
 20
-17.30215599509736
 10
18.36145959146864
 20
-17.26088013289737
 10
18.56783890246862
 20
-17.23263875349738
 10
18.77856304106865
 20
-17.22394909829737
 10
20.01249407946863
 20
-17.22394909829737
 10
20.01249407946863
 20
-18.04946634229736
 10
18.77204579966866
 20
-18.04946634229736
 10
18.62866648886864
 20
-18.05815599749735
 10
18.49397683326861
 20
-18.08526772172138
 10
18.36250235009265
 20
-18.12524013564138
 10
18.23545959106866
 20
-18.17763875649737
 10
18.12805545279667
 20
-18.24472289464137
 10
18.02690786626862
 20
-18.32101806729736
 10
17.94001131426864
 20
-18.41008703309737
 10
17.87049407266863
 20
-18.50784565409736
 10
20.01249407946863
 20
-18.50784565409736
 10
20.01249407946863
 20
-19.33553531189739
 10
17.90742510726863
 20
-19.33553531189739
 10
17.98189545233265
 20
-19.42104151906537
 10
18.06931338364466
 20
-19.50081255380138
 10
18.16637683222865
 20
-19.56841807125738
 10
18.27604028085266
 20
-19.62933255420938
 10
18.39204717777266
 20
-19.67729945091338
 10
18.51265959194864
 20
-19.71162358895339
 10
18.64491614409263
 20
-19.7336084166094
 10
18.77856304106865
 20
-19.74394910629738
 10
20.01249407946863
 20
-19.74394910629738
 10
20.01249407946863
 20
-20.60205255729739
 10
18.80245959286867
 20
-20.60205255729739
 10
18.58956304046864
 20
-20.59336290209737
 10
18.38318372946866
 20
-20.56946635029738
 10
18.18332165986862
 20
-20.52601807429738
 10
17.99214924546862
 20
-20.46953531549736
 10
17.80749407246861
 20
-20.39567324629738
 10
17.63370096846864
 20
-20.31094910809736
 10
17.47294234726865
 20
-20.21319048709736
 10
17.32538331231745
 20
-20.10257117640137
  0
ENDBLK
  5
7DD
330
7DB
100
AcDbEntity
  8
0
100
AcDbBlockEnd
  0
BLOCK
  5
81C
330
81B
100
AcDbEntity
  8
0
100
AcDbBlockBegin
  2
LW 3000-10-01
 70
     0
 10
0.0
 20
0.0
 30
0.0
  3
LW 3000-10-01
  1

  0
LINE
  5
81E
330
81B
100
AcDbEntity
  8
LW 3000-SECURIT-01
 62
     3
100
AcDbLine
 10
10.99999999999998
 20
6.999999999999971
 30
0.0
 11
27.99999999999999
 21
6.999999999999971
 31
0.0
  0
HATCH
  5
81F
330
81B
100
AcDbEntity
  8
LW 3000-SECURIT-01
 62
     8
100
AcDbHatch
 10
0.0
 20
0.0
 30
0.0
210
0.0
220
0.0
230
1.0
  2
ANSI31
 70
     0
 71
     0
 91
        4
 92
        7
 72
     1
 73
     1
 93
       27
 10
27.99999999999999
 20
19.79289321881342
 42
0.198912367379658
 10
27.85355339059327
 20
20.14644660940669
 42
0.0
 10
25.1464466094067
 20
22.85355339059323
 42
0.1989123673796478
 10
24.79289321881344
 20
22.99999999999995
 42
0.0
 10
23.49999999999999
 20
22.99999999999997
 42
0.0
 10
23.49999999999998
 20
16.99999999999994
 42
0.0
 10
20.99999999999999
 20
15.5566243270259
 42
0.0
 10
18.49999999999998
 20
16.99999999999994
 42
0.0
 10
18.49999999999998
 20
22.99999999999998
 42
0.0
 10
11.99999999999998
 20
22.99999999999997
 42
0.0
 10
11.99999999999998
 20
21.99999999999994
 42
0.0
 10
9.999999999999985
 20
21.99999999999994
 42
0.0
 10
9.999999999999985
 20
10.99999999999997
 42
0.0
 10
4.999999999999971
 20
10.99999999999997
 42
0.0
 10
0.0
 20
15.99999999999995
 42
0.0
 10
0.0
 20
8.499999999999971
 42
0.0
 10
3.999999999999999
 20
8.499999999999971
 42
0.0
 10
4.866025403784433
 20
6.999999999999943
 42
0.0
 10
3.999999999999999
 20
5.499999999999971
 42
0.0
 10
0.0
 20
5.499999999999972
 42
0.0
 10
0.0
 20
1.199999999999985
 42
-0.4142135623731022
 10
1.199999999999999
 20
-0.0000000000000426
 42
0.0
 10
5.505298820595191
 20
-0.0000000000000426
 42
0.0
 10
8.999999999999987
 20
6.05299999999994
 42
0.0
 10
10.99999999999998
 20
6.052999999999939
 42
0.0
 10
10.99999999999998
 20
6.999999999999972
 42
0.0
 10
27.99999999999999
 20
6.999999999999972
 42
0.0
 97
        0
 92
       23
 72
     0
 73
     1
 93
        4
 10
27.99999999999999
 20
6.99999999999997
 10
10.99999999999998
 20
6.999999999999971
 10
10.99999999999998
 20
6.05299999999994
 10
27.99999999999999
 20
6.05299999999994
 97
        0
 92
        7
 72
     1
 73
     1
 93
       23
 10
5.50529882059519
 20
-0.0000000000000426
 42
0.0
 10
1.199999999999999
 20
-0.0000000000000426
 42
-0.414213562373088
 10
0.0
 20
-1.200000000000014
 42
0.0
 10
0.0
 20
-1.800000000000014
 42
0.0
 10
0.0
 20
-5.500000000000056
 42
0.0
 10
4.000000000000015
 20
-5.500000000000057
 42
0.0
 10
4.866025403784433
 20
-7.000000000000029
 42
0.0
 10
4.000000000000015
 20
-8.500000000000026
 42
0.0
 10
0.0
 20
-8.500000000000028
 42
0.0
 10
0.0
 20
-16.00000000000001
 42
0.0
 10
4.999999999999999
 20
-11.00000000000003
 42
0.0
 10
9.999999999999984
 20
-11.00000000000002
 42
0.0
 10
9.999999999999987
 20
-22.00000000000003
 42
0.0
 10
11.99999999999998
 20
-22.00000000000002
 42
0.0
 10
11.99999999999998
 20
-23.00000000000006
 42
0.0
 10
24.79289321881343
 20
-23.00000000000006
 42
0.1989123673796571
 10
25.1464466094067
 20
-22.85355339059331
 42
0.0
 10
27.85355339059325
 20
-20.14644660940675
 42
0.1989123673796722
 10
27.99999999999999
 20
-19.79289321881346
 42
0.0
 10
27.99999999999999
 20
-7.000000000000028
 42
0.0
 10
10.99999999999998
 20
-7.000000000000028
 42
0.0
 10
10.99999999999998
 20
-6.053000000000024
 42
0.0
 10
8.999999999999985
 20
-6.053000000000024
 42
0.0
 97
        0
 92
       23
 72
     0
 73
     1
 93
        4
 10
27.99999999999999
 20
-6.053000000000025
 10
10.99999999999998
 20
-6.053000000000026
 10
10.99999999999998
 20
-7.000000000000028
 10
27.99999999999999
 20
-7.000000000000027
 97
        0
 75
     0
 76
     1
 52
0.0
 41
0.75
 77
     0
 78
     1
 53
45.0
 43
0.0
 44
0.0
 45
-1.683798022700465
 46
1.683798022700466
 79
     0
 47
0.1013422777841563
 98
        4
 10
23.88139306142085
 20
12.20495684873521
 10
18.40537745091726
 20
6.428447048528624
 10
5.729415344278947
 20
-4.415176686106221
 10
16.27581575667915
 20
-6.543364513283435
1001
ACAD
1010
0.0
1020
0.0
1030
0.0
  0
LINE
  5
820
330
81B
100
AcDbEntity
  8
LW 3000-SECURIT-01
 62
     3
100
AcDbLine
 10
27.99999999999999
 20
-7.000000000000028
 30
0.0
 11
10.99999999999998
 21
-7.000000000000028
 31
0.0
  0
LINE
  5
821
330
81B
100
AcDbEntity
  8
LW 3000-SECURIT-01
 62
     3
100
AcDbLine
 10
10.99999999999998
 20
6.999999999999971
 30
0.0
 11
10.99999999999998
 21
-7.000000000000028
 31
0.0
  0
LINE
  5
822
330
81B
100
AcDbEntity
  8
LW 3000-SECURIT-01
100
AcDbLine
 10
8.999999999999985
 20
-6.053000000000025
 30
0.0
 11
8.999999999999985
 21
6.05299999999994
 31
0.0
  0
LINE
  5
823
330
81B
100
AcDbEntity
  8
LW 3000-SECURIT-01
100
AcDbLine
 10
3.999999999999985
 20
8.499999999999943
 30
0.0
 11
3.999999999999985
 21
5.499999999999971
 31
0.0
  0
LINE
  5
824
330
81B
100
AcDbEntity
  8
LW 3000-SECURIT-01
100
AcDbLine
 10
3.999999999999985
 20
-5.500000000000028
 30
0.0
 11
3.999999999999985
 21
-8.500000000000028
 31
0.0
  0
LWPOLYLINE
  5
825
330
81B
100
AcDbEntity
  8
LW 3000-SECURIT-01
100
AcDbPolyline
 90
       25
 70
     0
 43
0.0
 10
18.49999999999998
 20
22.99999999999997
 10
18.52101778984068
 20
22.99768495559689
 10
18.5843560695648
 20
22.99094486236569
 10
18.69044399261473
 20
22.98008012771604
 10
18.83832907676695
 20
22.965705871582
 10
19.02153944969176
 20
22.94918823242185
 10
19.23223590850829
 20
22.93196487426755
 10
19.47257971763609
 20
22.91472721099851
 10
19.74519824981688
 20
22.89817380905148
 10
20.04294848442076
 20
22.88374948501584
 10
20.3581187725067
 20
22.87283468246457
 10
20.68067288398741
 20
22.86605644226071
 10
20.99999880790709
 20
22.86372709274289
 10
21.31932473182677
 20
22.86605644226071
 10
21.64188122749327
 20
22.87283468246457
 10
21.95705151557921
 20
22.88374948501584
 10
22.25480294227599
 20
22.89817380905148
 10
22.52742028236388
 20
22.91472721099851
 10
22.76776289939879
 20
22.93196487426755
 10
22.97846055030821
 20
22.94918823242185
 10
23.16167092323302
 20
22.965705871582
 10
23.30955481529235
 20
22.98008012771604
 10
23.41564393043517
 20
22.99094486236569
 10
23.47898221015929
 20
22.99768495559689
 10
23.49999880790709
 20
22.99999999999997
  0
LINE
  5
826
330
81B
100
AcDbEntity
  8
LW 3000-SECURIT-01
100
AcDbLine
 10
23.49999999999999
 20
16.99999999999994
 30
0.0
 11
18.49999999999998
 21
16.99999999999994
 31
0.0
  0
LINE
  5
827
330
81B
100
AcDbEntity
  8
LW 3000-SECURIT-01
100
AcDbLine
 10
0.0
 20
-5.500000000000056
 30
0.0
 11
3.999999999999985
 21
-5.500000000000056
 31
0.0
  0
LINE
  5
828
330
81B
100
AcDbEntity
  8
LW 3000-SECURIT-01
100
AcDbLine
 10
0.0
 20
15.99999999999997
 30
0.0
 11
0.0
 21
-16.0
 31
0.0
  0
LINE
  5
829
330
81B
100
AcDbEntity
  8
LW 3000-SECURIT-01
100
AcDbLine
 10
3.999999999999985
 20
5.499999999999971
 30
0.0
 11
0.0
 21
5.499999999999971
 31
0.0
  0
LINE
  5
82A
330
81B
100
AcDbEntity
  8
LW 3000-SECURIT-01
100
AcDbLine
 10
4.866025403784433
 20
6.999999999999943
 30
0.0
 11
4.0
 21
5.499999999999971
 31
0.0
  0
LINE
  5
82B
330
81B
100
AcDbEntity
  8
LW 3000-SECURIT-01
100
AcDbLine
 10
4.0
 20
8.499999999999971
 30
0.0
 11
4.866025403784433
 21
6.999999999999943
 31
0.0
  0
LINE
  5
82C
330
81B
100
AcDbEntity
  8
LW 3000-SECURIT-01
100
AcDbLine
 10
0.0
 20
8.499999999999971
 30
0.0
 11
3.999999999999985
 21
8.499999999999971
 31
0.0
  0
LINE
  5
82D
330
81B
100
AcDbEntity
  8
LW 3000-SECURIT-01
100
AcDbLine
 10
5.0
 20
10.99999999999994
 30
0.0
 11
-0.0000000000000142
 21
15.99999999999997
 31
0.0
  0
LINE
  5
82E
330
81B
100
AcDbEntity
  8
LW 3000-SECURIT-01
100
AcDbLine
 10
9.999999999999985
 20
10.99999999999997
 30
0.0
 11
5.0
 21
10.99999999999997
 31
0.0
  0
LINE
  5
82F
330
81B
100
AcDbEntity
  8
LW 3000-SECURIT-01
100
AcDbLine
 10
9.999999999999985
 20
21.99999999999994
 30
0.0
 11
9.999999999999985
 21
10.99999999999997
 31
0.0
  0
LINE
  5
830
330
81B
100
AcDbEntity
  8
LW 3000-SECURIT-01
100
AcDbLine
 10
11.99999999999998
 20
21.99999999999994
 30
0.0
 11
9.999999999999985
 21
21.99999999999994
 31
0.0
  0
LINE
  5
831
330
81B
100
AcDbEntity
  8
LW 3000-SECURIT-01
100
AcDbLine
 10
11.99999999999998
 20
22.99999999999997
 30
0.0
 11
11.99999999999998
 21
21.99999999999994
 31
0.0
  0
LINE
  5
832
330
81B
100
AcDbEntity
  8
LW 3000-SECURIT-01
100
AcDbLine
 10
18.49999999999998
 20
22.99999999999997
 30
0.0
 11
11.99999999999998
 21
22.99999999999997
 31
0.0
  0
LINE
  5
833
330
81B
100
AcDbEntity
  8
LW 3000-SECURIT-01
100
AcDbLine
 10
18.49999999999998
 20
16.99999999999994
 30
0.0
 11
18.49999999999998
 21
22.99999999999997
 31
0.0
  0
LINE
  5
834
330
81B
100
AcDbEntity
  8
LW 3000-SECURIT-01
100
AcDbLine
 10
20.99999999999999
 20
15.5566243270259
 30
0.0
 11
18.49999999999998
 21
16.99999999999994
 31
0.0
  0
LINE
  5
835
330
81B
100
AcDbEntity
  8
LW 3000-SECURIT-01
100
AcDbLine
 10
23.49999999999999
 20
16.99999999999994
 30
0.0
 11
20.99999999999999
 21
15.5566243270259
 31
0.0
  0
LINE
  5
836
330
81B
100
AcDbEntity
  8
LW 3000-SECURIT-01
100
AcDbLine
 10
23.49999999999998
 20
22.99999999999997
 30
0.0
 11
23.49999999999999
 21
16.99999999999994
 31
0.0
  0
LINE
  5
837
330
81B
100
AcDbEntity
  8
LW 3000-SECURIT-01
100
AcDbLine
 10
24.79289321881343
 20
22.99999999999995
 30
0.0
 11
23.49999999999998
 21
22.99999999999997
 31
0.0
  0
ARC
  5
838
330
81B
100
AcDbEntity
  8
LW 3000-SECURIT-01
100
AcDbCircle
 10
24.79289321881343
 20
22.49999999999994
 30
0.0
 40
0.5000000000000085
100
AcDbArc
 50
45.00000000000143
 51
90.0
  0
LINE
  5
839
330
81B
100
AcDbEntity
  8
LW 3000-SECURIT-01
100
AcDbLine
 10
27.85355339059325
 20
20.14644660940671
 30
0.0
 11
25.1464466094067
 21
22.85355339059323
 31
0.0
  0
ARC
  5
83A
330
81B
100
AcDbEntity
  8
LW 3000-SECURIT-01
100
AcDbCircle
 10
27.5
 20
19.79289321881342
 30
0.0
 40
0.4999999999999938
100
AcDbArc
 50
0.0
 51
45.00000000000287
  0
LINE
  5
83B
330
81B
100
AcDbEntity
  8
LW 3000-SECURIT-01
100
AcDbLine
 10
8.999999999999985
 20
6.05299999999994
 30
0.0
 11
27.99999999999999
 21
6.05299999999994
 31
0.0
  0
LINE
  5
83C
330
81B
100
AcDbEntity
  8
LW 3000-SECURIT-01
100
AcDbLine
 10
5.50529882059519
 20
-0.0000000000000427
 30
0.0
 11
8.999999999999985
 21
6.05299999999994
 31
0.0
  0
LINE
  5
83D
330
81B
100
AcDbEntity
  8
LW 3000-SECURIT-01
100
AcDbLine
 10
8.999999999999985
 20
-6.053000000000025
 30
0.0
 11
5.50529882059519
 21
-0.0000000000000427
 31
0.0
  0
LINE
  5
83E
330
81B
100
AcDbEntity
  8
LW 3000-SECURIT-01
100
AcDbLine
 10
27.99999999999999
 20
-6.053000000000025
 30
0.0
 11
8.999999999999985
 21
-6.053000000000025
 31
0.0
  0
LINE
  5
83F
330
81B
100
AcDbEntity
  8
LW 3000-SECURIT-01
100
AcDbLine
 10
27.99999999999999
 20
-19.7928932188135
 30
0.0
 11
27.99999999999999
 21
19.79289321881342
 31
0.0
  0
ARC
  5
840
330
81B
100
AcDbEntity
  8
LW 3000-SECURIT-01
100
AcDbCircle
 10
27.5
 20
-19.7928932188135
 30
0.0
 40
0.4999999999999944
100
AcDbArc
 50
315.0
 51
0.0
  0
LINE
  5
841
330
81B
100
AcDbEntity
  8
LW 3000-SECURIT-01
100
AcDbLine
 10
25.14644660940671
 20
-22.8535533905933
 30
0.0
 11
27.85355339059325
 21
-20.14644660940675
 31
0.0
  0
ARC
  5
842
330
81B
100
AcDbEntity
  8
LW 3000-SECURIT-01
100
AcDbCircle
 10
24.79289321881343
 20
-22.50000000000006
 30
0.0
 40
0.5000000000000071
100
AcDbArc
 50
270.0
 51
315.0000000000003
  0
LINE
  5
843
330
81B
100
AcDbEntity
  8
LW 3000-SECURIT-01
100
AcDbLine
 10
11.99999999999998
 20
-23.00000000000006
 30
0.0
 11
24.79289321881343
 21
-23.00000000000006
 31
0.0
  0
LINE
  5
844
330
81B
100
AcDbEntity
  8
LW 3000-SECURIT-01
100
AcDbLine
 10
11.99999999999998
 20
-22.00000000000003
 30
0.0
 11
11.99999999999998
 21
-23.00000000000006
 31
0.0
  0
LINE
  5
845
330
81B
100
AcDbEntity
  8
LW 3000-SECURIT-01
100
AcDbLine
 10
9.999999999999985
 20
-22.00000000000003
 30
0.0
 11
11.99999999999998
 21
-22.00000000000003
 31
0.0
  0
LINE
  5
846
330
81B
100
AcDbEntity
  8
LW 3000-SECURIT-01
100
AcDbLine
 10
9.999999999999985
 20
-11.00000000000003
 30
0.0
 11
9.999999999999985
 21
-22.00000000000003
 31
0.0
  0
LINE
  5
847
330
81B
100
AcDbEntity
  8
LW 3000-SECURIT-01
100
AcDbLine
 10
5.0
 20
-11.00000000000003
 30
0.0
 11
9.999999999999985
 21
-11.00000000000003
 31
0.0
  0
LINE
  5
848
330
81B
100
AcDbEntity
  8
LW 3000-SECURIT-01
100
AcDbLine
 10
-0.0000000000000142
 20
-16.00000000000003
 30
0.0
 11
5.0
 21
-11.00000000000003
 31
0.0
  0
LINE
  5
849
330
81B
100
AcDbEntity
  8
LW 3000-SECURIT-01
100
AcDbLine
 10
3.999999999999985
 20
-8.500000000000028
 30
0.0
 11
0.0
 21
-8.500000000000028
 31
0.0
  0
LINE
  5
84A
330
81B
100
AcDbEntity
  8
LW 3000-SECURIT-01
100
AcDbLine
 10
4.866025403784433
 20
-7.000000000000028
 30
0.0
 11
4.0
 21
-8.500000000000056
 31
0.0
  0
LINE
  5
84B
330
81B
100
AcDbEntity
  8
LW 3000-SECURIT-01
100
AcDbLine
 10
4.0
 20
-5.500000000000028
 30
0.0
 11
4.866025403784433
 21
-7.000000000000028
 31
0.0
  0
LINE
  5
84C
330
81B
100
AcDbEntity
  8
LW 3000-SECURIT-01
  6
MITTE2
 62
     3
100
AcDbLine
 10
20.99999999999999
 20
12.63029283982405
 30
0.0
 11
20.99999999999999
 21
25.14953494527481
 31
0.0
  0
LINE
  5
84D
330
81B
100
AcDbEntity
  8
LW 3000-SECURIT-01
  6
MITTE2
 62
     3
100
AcDbLine
 10
30.41947717894095
 20
-0.0000000000000426
 30
0.0
 11
-3.154117270599044
 21
-0.0000000000000426
 31
0.0
  0
LINE
  5
84E
330
81B
100
AcDbEntity
  8
LW 3000-SECURIT-01
  6
MITTE2
 62
     3
100
AcDbLine
 10
6.466010717671451
 20
6.999999999999943
 30
0.0
 11
-2.314777409360431
 21
6.999999999999943
 31
0.0
  0
LINE
  5
84F
330
81B
100
AcDbEntity
  8
LW 3000-SECURIT-01
  6
MITTE2
 62
     3
100
AcDbLine
 10
6.466010717671451
 20
-7.000000000000028
 30
0.0
 11
-2.314777409360431
 21
-7.000000000000028
 31
0.0
  0
INSERT
  5
850
330
81B
100
AcDbEntity
  8
LW 3000-SECURIT-01
100
AcDbBlockReference
 66
     1
  2
insertpoint-ECKELT
 10
0.0
 20
-0.0000000000000142
 30
0.0
  0
ATTRIB
  5
851
330
850
100
AcDbEntity
  8
insertpoint_ECKELT
100
AcDbText
 10
-6.931514324693041
 20
-0.0000000000000397
 30
0.0
 40
0.6
  1
LW 3000/10-01
 72
     2
 11
-1.199999999999999
 21
-0.0000000000000397
 31
0.0
100
AcDbAttribute
  2
LINKS
 70
     0
  0
ATTRIB
  5
852
330
850
100
AcDbEntity
  8
insertpoint_ECKELT
100
AcDbText
 10
1.199999999999999
 20
-0.0000000000000397
 30
0.0
 40
0.6
  1

100
AcDbAttribute
  2
RECHTS
 70
     0
  0
SEQEND
  5
853
330
850
100
AcDbEntity
  8
LW 3000-SECURIT-01
  0
HATCH
  5
854
330
81B
100
AcDbEntity
  8
LW 3000-SECURIT-01
 62
     1
100
AcDbHatch
 10
0.0
 20
0.0
 30
0.0
210
0.0
220
0.0
230
1.0
  2
SOLID
 70
     1
 71
     0
 91
        5
 92
        7
 72
     0
 73
     1
 93
       76
 10
14.07600150507749
 20
-18.08856979069737
 10
14.10786033445032
 20
-18.03698882885568
 10
14.2260184586816
 20
-17.88574642983964
 10
14.36049653389437
 20
-17.74532229957715
 10
14.50651644035582
 20
-17.61693773786381
 10
14.67018523643781
 20
-17.50003145494811
 10
14.84557218980256
 20
-17.3978535731264
 10
15.02732512240288
 20
-17.30650189354357
 10
15.20849405786862
 20
-17.23698358109739
 10
12.95135611966856
 20
-17.23698358109739
 10
12.73845956726859
 20
-17.24567323629738
 10
12.5364250838686
 20
-17.27174220189739
 10
12.34090784186861
 20
-17.31301806409739
 10
12.15625266886871
 20
-17.36732840909737
 10
11.98028715106858
 20
-17.43684565069738
 10
11.81301128846865
 20
-17.5193973750974
 10
11.66244302592173
 20
-17.61472289264129
 10
11.51973542546869
 20
-17.72143185849741
 10
11.39429416989804
 20
-17.84048013473746
 10
11.28302921782062
 20
-17.96873944548936
 10
11.18301128646868
 20
-18.10594910109735
 10
11.10045956206863
 20
-18.25150082569736
 10
11.03745956186861
 20
-18.4057422054975
 10
10.98749404446868
 20
-18.56650082669729
 10
10.95925266506867
 20
-18.73160427549739
 10
10.95056300986863
 20
-18.90539737949736
 10
10.96142507886867
 20
-19.07919048349744
 10
10.99183887206862
 20
-19.24646634609742
 10
11.04614921706865
 20
-19.40722496729741
 10
11.11566645866861
 20
-19.56363876089737
 10
11.2047354244687
 20
-19.71136289929747
 10
11.3111837006686
 20
-19.85256979629734
 10
11.43388163209266
 20
-19.98378358981738
 10
11.57008068080085
 20
-20.10491738330536
 10
11.71742508126862
 20
-20.2153629008974
 10
11.87818370246867
 20
-20.31312152189737
 10
12.05381032371587
 20
-20.39801945320137
 10
12.2344595656686
 20
-20.47170772929737
 10
12.42563198006871
 20
-20.52819048809739
 10
12.62549404966864
 20
-20.57163876409739
 10
12.83404577446862
 20
-20.5977077296974
 10
13.04476991306859
 20
-20.60639738489739
 10
15.1639409988212
 20
-20.60639738489739
 10
15.0033971347687
 20
-20.5433265811625
 10
14.81983299096629
 20
-20.45270630763976
 10
14.65136658479622
 20
-20.34817661470812
 10
14.48853369003546
 20
-20.23255837628268
 10
14.34462132166527
 20
-20.10276877974279
 10
14.21718542818092
 20
-19.96341509651434
 10
14.10348007343759
 20
-19.81292685180169
 10
14.051508841989
 20
-19.72874220969739
 10
13.02304577506862
 20
-19.72874220969739
 10
12.89093694706303
 20
-19.72118220967338
 10
12.76018370526861
 20
-19.70084841650539
 10
12.63201129106869
 20
-19.66791462329739
 10
12.51687335966863
 20
-19.62229393349737
 10
12.41192839381824
 20
-19.5658111746974
 10
12.31377873833423
 20
-19.4982056572414
 10
12.22359749666867
 20
-19.42025945009739
 10
12.15190784126866
 20
-19.3355353118974
 10
13.87942915552747
 20
-19.3355353118974
 10
13.86884468825445
 20
-19.30289987113907
 10
13.83273288028999
 20
-19.11752592358793
 10
13.82068922750829
 20
-18.92723620963723
 10
13.83271089993763
 20
-18.73248511628223
 10
13.86901662161295
 20
-18.54611574501568
 10
13.88561532428803
 20
-18.4969835850974
 10
12.11497680666866
 20
-18.4969835850974
 10
12.18449404826861
 20
-18.40139737789745
 10
12.2670457726686
 20
-18.31884565349738
 10
12.36213666952221
 20
-18.2489808256894
 10
12.46473542846865
 20
-18.19067323929736
 10
12.58342742884542
 20
-18.14670358398543
 10
12.70587336026869
 20
-18.11463875629739
 10
12.84273542966866
 20
-18.09508703209739
 10
12.98611474046867
 20
-18.08856979069737
 97
        0
 92
        7
 72
     0
 73
     1
 93
       72
 10
15.80446537010544
 20
-18.1031684114334
 10
15.92732840497825
 20
-18.08509392861738
 10
16.05139061226867
 20
-18.07988013549739
 10
17.32008027146866
 20
-18.07988013549739
 10
16.47283888946861
 20
-18.89453531049737
 10
18.23901130886866
 20
-20.61291462629738
 10
19.55766648546864
 20
-20.61291462629738
 10
17.84363199726862
 20
-18.87063875869741
 10
19.52508027846863
 20
-17.23698358109739
 10
16.08614923306873
 20
-17.23698358109739
 10
15.87816233585658
 20
-17.2477587535454
 10
15.67144412830378
 20
-17.27321944328138
 10
15.46701130006869
 20
-17.31301806409739
 10
15.27366647186863
 20
-17.36950082289742
 10
15.08683888506863
 20
-17.44119047829737
 10
14.91567874659415
 20
-17.52721806477741
 10
14.75011474606867
 20
-17.62367323749741
 10
14.59804578006867
 20
-17.73229392749739
 10
14.4623481244655
 20
-17.85160289339337
 10
14.33735612406866
 20
-17.98212151449742
 10
14.22873543406859
 20
-18.12115599769744
 10
14.13749405446867
 20
-18.26888013609728
 10
14.06580439906866
 20
-18.4231215158973
 10
14.01149405406863
 20
-18.58388013709738
 10
13.97890784706868
 20
-18.75115599969736
 10
13.96804577806864
 20
-18.92712151749747
 10
13.97890784706862
 20
-19.09874220769741
 10
14.01149405406863
 20
-19.26601807029736
 10
14.06363198526861
 20
-19.42677669149738
 10
14.13314922686862
 20
-19.58101807129738
 10
14.2249901926774
 20
-19.72978496832131
 10
14.33036964128785
 20
-19.86925393428147
 10
14.44837515890384
 20
-19.99829531400134
 10
14.58066646966864
 20
-20.11760427989738
 10
14.73278757359986
 20
-20.22561669403343
 10
14.89132164306869
 20
-20.32398359089738
 10
15.06294233326866
 20
-20.4087077290974
 10
15.24542509246862
 20
-20.48039738449738
 10
15.43965626549908
 20
-20.5344470398414
 10
15.6364595764686
 20
-20.57815600549738
 10
15.84501130126869
 20
-20.6042249710974
 10
16.05573543986861
 20
-20.61291462629738
 10
17.95876992866863
 20
-20.61291462629738
 10
17.07242509826863
 20
-19.73960427869737
 10
16.05573543986861
 20
-19.73960427869737
 10
15.98906840517412
 20
-19.73585698575805
 10
15.88812068071587
 20
-19.7258746234814
 10
15.76798619757585
 20
-19.70441117513739
 10
15.65086702479027
 20
-19.67008703709742
 10
15.54937185205426
 20
-19.62915876110539
 10
15.49323667946219
 20
-19.60100427825735
 10
15.43955198963658
 20
-19.56841807125734
 10
15.30699129956065
 20
-19.46909531232138
 10
15.23338992001663
 20
-19.39905669140937
 10
15.17832357501436
 20
-19.33119048429746
 10
15.12961805761824
 20
-19.2586318633774
 10
15.09025391956219
 20
-19.18146772520141
 10
15.06083074705503
 20
-19.10004565597747
 10
15.04013198836861
 20
-19.01288841432135
 10
15.03261543662063
 20
-18.92355875886547
 10
15.03397102283184
 20
-18.86125393108141
 10
15.03997557457506
 20
-18.79912289640152
 10
15.05213240219984
 20
-18.73594910309738
 10
15.07034591949906
 20
-18.67425255117742
 10
15.11399405756861
 20
-18.57553806810547
 10
15.15552191976945
 20
-18.50767186099342
 10
15.21860012686624
 20
-18.42963875729738
 10
15.34800206723105
 20
-18.30311602024376
 10
15.40726992056869
 20
-18.26305806711339
 10
15.48356509322462
 20
-18.21874082559343
 10
15.56758536935342
 20
-18.1765959978734
 10
15.6841223352406
 20
-18.13375599773739
 97
        0
 92
        7
 72
     0
 73
     1
 93
       57
 10
20.36250235009271
 20
-18.12524013564139
 10
20.49397683326867
 20
-18.08526772172139
 10
20.62866648886859
 20
-18.05815599749736
 10
20.77204579966855
 20
-18.04946634229738
 10
22.01249407946864
 20
-18.04946634229738
 10
22.01249407946864
 20
-17.22394909829738
 10
20.7785630410687
 20
-17.22394909829738
 10
20.56783890246868
 20
-17.2326387534974
 10
20.3614595914687
 20
-17.26088013289735
 10
20.16376993566871
 20
-17.30215599509735
 10
19.9747699350687
 20
-17.35646634009738
 10
19.79011476206875
 20
-17.42815599549739
 10
19.62370786498848
 20
-17.51079461644939
 10
19.46488703689817
 20
-17.60724978916941
 10
19.31480800193907
 20
-17.71673944468939
 10
19.18024869116715
 20
-17.83596151403331
 10
19.0601837252687
 20
-17.96474220409739
 10
18.95590786286868
 20
-18.10377668729738
 10
18.87118372466863
 20
-18.24932841189742
 10
18.79949406926863
 20
-18.40356979169742
 10
18.74952855186865
 20
-18.5643284128973
 10
18.71694234486864
 20
-18.73160427549733
 10
18.70608027586865
 20
-18.90539737949736
 10
18.71694234486864
 20
-19.07919048349738
 10
18.74952855186865
 20
-19.24646634609742
 10
18.80166648306862
 20
-19.40722496729738
 10
18.87335613846863
 20
-19.5636387608974
 10
18.96025269046867
 20
-19.71136289929738
 10
19.0690993115038
 20
-19.85091876180938
 10
19.18895572567743
 20
-19.98126358980939
 10
19.32538331231745
 20
-20.10257117640138
 10
19.47294234726865
 20
-20.21319048709741
 10
19.63370096846864
 20
-20.3109491080974
 10
19.80749407246861
 20
-20.39567324629739
 10
19.99214924546862
 20
-20.46953531549737
 10
20.18332165986868
 20
-20.5260180742974
 10
20.38318372946861
 20
-20.56946635029739
 10
20.58956304046864
 20
-20.59336290209738
 10
20.80245959286867
 20
-20.6020525572974
 10
22.01249407946864
 20
-20.6020525572974
 10
22.01249407946864
 20
-19.74394910629739
 10
20.77856304106859
 20
-19.74394910629739
 10
20.64491614409263
 20
-19.73360841660941
 10
20.51265959194864
 20
-19.7116235889534
 10
20.39204717777266
 20
-19.67729945091339
 10
20.27604028085267
 20
-19.6293325542094
 10
20.16637683222865
 20
-19.5684180712574
 10
20.06931338364466
 20
-19.50081255380139
 10
19.98189545233264
 20
-19.42104151906538
 10
19.90742510726863
 20
-19.3355353118974
 10
22.01249407946864
 20
-19.3355353118974
 10
22.01249407946864
 20
-18.50784565409738
 10
19.87049407266863
 20
-18.50784565409738
 10
19.94001131426864
 20
-18.41008703309738
 10
20.02690786626857
 20
-18.3210180672974
 10
20.12805545279667
 20
-18.24472289464138
 10
20.23545959106866
 20
-18.17763875649738
 97
        0
 92
        7
 72
     0
 73
     1
 93
        6
 10
22.24276994226864
 20
-17.23698358109739
 10
22.24276994226864
 20
-20.60639738489739
 10
24.48035615626867
 20
-20.60639738489739
 10
24.48035615626867
 20
-19.73960427869737
 10
23.26597684206865
 20
-19.73960427869737
 10
23.26597684206865
 20
-17.23698358109739
 97
        0
 92
        7
 72
     0
 73
     1
 93
        8
 10
23.49842511866865
 20
-17.23698358109739
 10
23.49842511866865
 20
-18.06250082509739
 10
24.73235615706864
 20
-18.06250082509739
 10
24.73235615706864
 20
-20.61291462629738
 10
25.75773547066865
 20
-20.61291462629738
 10
25.75773547066865
 20
-18.06250082509739
 10
27.00035616426868
 20
-18.06250082509739
 10
27.00035616426868
 20
-17.23698358109739
 97
        0
 75
     0
 76
     1
 47
0.0142553043587597
 98
        5
 10
13.38566163114387
 20
-17.6794332506865
 10
15.65315884448642
 20
-17.82198623569231
 10
20.14537057668798
 20
-17.7649650631446
 10
22.86921966051954
 20
-17.52262483845233
 10
24.28105764274642
 20
-17.62241197086565
450
        0
451
        0
460
0.0
461
0.0
452
        0
462
0.0
453
        0
470

  0
LWPOLYLINE
  5
855
330
81B
100
AcDbEntity
  8
LW 3000-SECURIT-01
 62
     1
100
AcDbPolyline
 90
        8
 70
     1
 43
0.0
 10
25.75773547066865
 20
-18.06250082509739
 10
25.75773547066865
 20
-20.61291462629738
 10
24.73235615706864
 20
-20.61291462629738
 10
24.73235615706864
 20
-18.06250082509739
 10
23.49842511866865
 20
-18.06250082509739
 10
23.49842511866865
 20
-17.23698358109739
 10
27.00035616426868
 20
-17.23698358109739
 10
27.00035616426868
 20
-18.06250082509739
  0
LWPOLYLINE
  5
856
330
81B
100
AcDbEntity
  8
LW 3000-SECURIT-01
 62
     1
100
AcDbPolyline
 90
       73
 70
     1
 43
0.0
 10
16.05573543986866
 20
-19.73960427869737
 10
17.07242509826863
 20
-19.73960427869737
 10
17.95876992866863
 20
-20.61291462629738
 10
16.05573543986866
 20
-20.61291462629738
 10
15.84501130126864
 20
-20.6042249710974
 10
15.63645957646866
 20
-20.57815600549738
 10
15.43965626549908
 20
-20.5344470398414
 10
15.24542509246867
 20
-20.48039738449738
 10
15.06294233326866
 20
-20.4087077290974
 10
14.89132164306863
 20
-20.32398359089738
 10
14.73278757359986
 20
-20.22561669403338
 10
14.58066646966864
 20
-20.11760427989738
 10
14.44837515890384
 20
-19.99829531400139
 10
14.33036964128785
 20
-19.86925393428139
 10
14.22499019267746
 20
-19.7297849683214
 10
14.13314922686862
 20
-19.58101807129738
 10
14.06363198526861
 20
-19.42677669149738
 10
14.01149405406863
 20
-19.26601807029739
 10
13.97890784706862
 20
-19.09874220769738
 10
13.96804577806864
 20
-18.92712151749738
 10
13.97890784706862
 20
-18.75115599969739
 10
14.01149405406863
 20
-18.58388013709738
 10
14.06580439906866
 20
-18.42312151589739
 10
14.13749405446861
 20
-18.26888013609739
 10
14.22873543406865
 20
-18.12115599769738
 10
14.33735612406866
 20
-17.98212151449739
 10
14.46234812446544
 20
-17.85160289339337
 10
14.59804578006861
 20
-17.73229392749739
 10
14.75011474606861
 20
-17.62367323749738
 10
14.91567874659426
 20
-17.52721806477739
 10
15.08683888506863
 20
-17.4411904782974
 10
15.27366647186863
 20
-17.36950082289739
 10
15.46701130006863
 20
-17.31301806409739
 10
15.67144412830384
 20
-17.2732194432814
 10
15.87816233585664
 20
-17.2477587535454
 10
16.08614923306862
 20
-17.23698358109739
 10
19.52508027846863
 20
-17.23698358109739
 10
17.84363199726862
 20
-18.87063875869741
 10
19.55766648546864
 20
-20.61291462629738
 10
18.23901130886866
 20
-20.61291462629738
 10
16.47283888946861
 20
-18.89453531049737
 10
17.32008027146866
 20
-18.07988013549739
 10
16.05139061226867
 20
-18.07988013549739
 10
15.92732840497825
 20
-18.08509392861738
 10
15.80446537010544
 20
-18.1031684114334
 10
15.68412233524065
 20
-18.13375599773739
 10
15.56758536935348
 20
-18.1765959978734
 10
15.48356509322462
 20
-18.2187408255934
 10
15.40726992056863
 20
-18.26305806711339
 10
15.36702812733744
 20
-18.29025668788939
 10
15.32951488583904
 20
-18.32119186040138
 10
15.21860012686624
 20
-18.42963875729738
 10
15.15552191976945
 20
-18.50767186099339
 10
15.11399405756861
 20
-18.57553806810539
 10
15.07034591949906
 20
-18.67425255117739
 10
15.05213240219984
 20
-18.73594910309738
 10
15.03997557457506
 20
-18.79912289640138
 10
15.03397102283184
 20
-18.86125393108138
 10
15.03261543662063
 20
-18.92355875886538
 10
15.04013198836867
 20
-19.01288841432138
 10
15.06083074705503
 20
-19.10004565597738
 10
15.09025391956225
 20
-19.18146772520138
 10
15.12961805761824
 20
-19.2586318633774
 10
15.17832357501424
 20
-19.33119048429738
 10
15.23338992001663
 20
-19.3990566914094
 10
15.30699129956065
 20
-19.46909531232138
 10
15.43955198963663
 20
-19.5684180712574
 10
15.49323667946225
 20
-19.60100427825738
 10
15.54937185205426
 20
-19.62915876110539
 10
15.65086702479027
 20
-19.67008703709739
 10
15.76798619757585
 20
-19.70441117513736
 10
15.88812068071587
 20
-19.7258746234814
 10
15.98906840517423
 20
-19.73585698575805
  0
LWPOLYLINE
  5
857
330
81B
100
AcDbEntity
  8
LW 3000-SECURIT-01
 62
     1
100
AcDbPolyline
 90
       76
 70
     1
 43
0.0
 10
14.84557218980256
 20
-17.3978535731264
 10
14.67018523643776
 20
-17.50003145494811
 10
14.50651644035576
 20
-17.61693773786381
 10
14.36049653389437
 20
-17.74532229957715
 10
14.22601845868155
 20
-17.8857464298397
 10
14.10786033445037
 20
-18.03698882885557
 10
14.07600150507749
 20
-18.08856979069737
 10
12.98611474046862
 20
-18.08856979069737
 10
12.84273542966866
 20
-18.09508703209736
 10
12.70587336026864
 20
-18.11463875629739
 10
12.58342742884542
 20
-18.1467035839854
 10
12.46473542846865
 20
-18.19067323929739
 10
12.36213666952227
 20
-18.2489808256894
 10
12.26704577266866
 20
-18.31884565349738
 10
12.18449404826861
 20
-18.40139737789737
 10
12.11497680666866
 20
-18.4969835850974
 10
13.88561532428803
 20
-18.4969835850974
 10
13.86901662161295
 20
-18.54611574501568
 10
13.83271089993763
 20
-18.73248511628232
 10
13.82068922750835
 20
-18.92723620963723
 10
13.83273288028999
 20
-19.11752592358802
 10
13.86884468825451
 20
-19.30289987113902
 10
13.87942915552747
 20
-19.3355353118974
 10
12.15190784126866
 20
-19.3355353118974
 10
12.22359749666867
 20
-19.42025945009739
 10
12.31377873833423
 20
-19.4982056572414
 10
12.41192839381824
 20
-19.5658111746974
 10
12.51687335966863
 20
-19.62229393349737
 10
12.63201129106863
 20
-19.66791462329739
 10
12.76018370526861
 20
-19.70084841650539
 10
12.89093694706303
 20
-19.72118220967338
 10
13.02304577506862
 20
-19.72874220969739
 10
14.051508841989
 20
-19.72874220969739
 10
14.10348007343759
 20
-19.81292685180166
 10
14.21718542818092
 20
-19.96341509651434
 10
14.34462132166527
 20
-20.10276877974282
 10
14.48853369003546
 20
-20.23255837628262
 10
14.65136658479622
 20
-20.34817661470812
 10
14.81983299096629
 20
-20.45270630763976
 10
15.0033971347687
 20
-20.5433265811625
 10
15.1639409988212
 20
-20.60639738489739
 10
13.04476991306864
 20
-20.60639738489739
 10
12.83404577446862
 20
-20.5977077296974
 10
12.62549404966864
 20
-20.57163876409739
 10
12.42563198006865
 20
-20.52819048809739
 10
12.23445956566865
 20
-20.47170772929739
 10
12.05381032371582
 20
-20.39801945320137
 10
11.87818370246867
 20
-20.31312152189737
 10
11.71742508126862
 20
-20.2153629008974
 10
11.57008068080091
 20
-20.10491738330539
 10
11.43388163209266
 20
-19.98378358981738
 10
11.31118370066866
 20
-19.85256979629737
 10
11.20473542446865
 20
-19.71136289929741
 10
11.11566645866866
 20
-19.5636387608974
 10
11.04614921706865
 20
-19.40722496729738
 10
10.99183887206862
 20
-19.24646634609739
 10
10.96142507886867
 20
-19.07919048349738
 10
10.95056300986863
 20
-18.90539737949739
 10
10.95925266506861
 20
-18.73160427549739
 10
10.98749404446863
 20
-18.56650082669738
 10
11.03745956186861
 20
-18.40574220549739
 10
11.10045956206863
 20
-18.25150082569739
 10
11.18301128646862
 20
-18.10594910109738
 10
11.28302921782062
 20
-17.96873944548939
 10
11.39429416989798
 20
-17.8404801347374
 10
11.51973542546863
 20
-17.72143185849741
 10
11.66244302592167
 20
-17.61472289264138
 10
11.81301128846865
 20
-17.51939737509737
 10
11.98028715106863
 20
-17.43684565069738
 10
12.15625266886865
 20
-17.36732840909737
 10
12.34090784186866
 20
-17.31301806409739
 10
12.53642508386866
 20
-17.27174220189739
 10
12.73845956726864
 20
-17.24567323629738
 10
12.95135611966867
 20
-17.23698358109739
 10
15.20849405786867
 20
-17.23698358109739
 10
15.02732512240288
 20
-17.30650189354357
  0
LWPOLYLINE
  5
858
330
81B
100
AcDbEntity
  8
LW 3000-SECURIT-01
 62
     1
100
AcDbPolyline
 90
        6
 70
     1
 43
0.0
 10
24.48035615626867
 20
-20.60639738489739
 10
22.24276994226864
 20
-20.60639738489739
 10
22.24276994226864
 20
-17.23698358109739
 10
23.26597684206865
 20
-17.23698358109739
 10
23.26597684206865
 20
-19.73960427869737
 10
24.48035615626867
 20
-19.73960427869737
  0
LWPOLYLINE
  5
859
330
81B
100
AcDbEntity
  8
LW 3000-SECURIT-01
 62
     1
100
AcDbPolyline
 90
       57
 70
     1
 43
0.0
 10
19.18895572567743
 20
-19.98126358980939
 10
19.06909931150386
 20
-19.85091876180941
 10
18.96025269046862
 20
-19.71136289929741
 10
18.87335613846863
 20
-19.5636387608974
 10
18.80166648306862
 20
-19.40722496729738
 10
18.74952855186865
 20
-19.24646634609739
 10
18.71694234486864
 20
-19.07919048349738
 10
18.70608027586865
 20
-18.90539737949739
 10
18.71694234486864
 20
-18.73160427549739
 10
18.74952855186865
 20
-18.56432841289738
 10
18.79949406926863
 20
-18.40356979169739
 10
18.87118372466863
 20
-18.24932841189736
 10
18.95590786286862
 20
-18.10377668729741
 10
19.06018372526864
 20
-17.96474220409739
 10
19.18024869116703
 20
-17.8359615140334
 10
19.31480800193907
 20
-17.71673944468939
 10
19.46488703689823
 20
-17.60724978916939
 10
19.62370786498865
 20
-17.51079461644939
 10
19.79011476206864
 20
-17.42815599549739
 10
19.97476993506865
 20
-17.35646634009738
 10
20.16376993566865
 20
-17.30215599509738
 10
20.36145959146864
 20
-17.26088013289738
 10
20.56783890246862
 20
-17.2326387534974
 10
20.77856304106865
 20
-17.22394909829738
 10
22.01249407946864
 20
-17.22394909829738
 10
22.01249407946864
 20
-18.04946634229738
 10
20.77204579966866
 20
-18.04946634229738
 10
20.62866648886864
 20
-18.05815599749736
 10
20.49397683326862
 20
-18.08526772172139
 10
20.36250235009265
 20
-18.12524013564139
 10
20.23545959106866
 20
-18.17763875649738
 10
20.12805545279667
 20
-18.24472289464138
 10
20.02690786626863
 20
-18.32101806729737
 10
19.94001131426864
 20
-18.41008703309738
 10
19.87049407266863
 20
-18.50784565409738
 10
22.01249407946864
 20
-18.50784565409738
 10
22.01249407946864
 20
-19.3355353118974
 10
19.90742510726863
 20
-19.3355353118974
 10
19.98189545233264
 20
-19.42104151906538
 10
20.06931338364466
 20
-19.50081255380139
 10
20.16637683222865
 20
-19.5684180712574
 10
20.27604028085267
 20
-19.6293325542094
 10
20.39204717777266
 20
-19.67729945091339
 10
20.51265959194864
 20
-19.7116235889534
 10
20.64491614409263
 20
-19.73360841660941
 10
20.77856304106865
 20
-19.74394910629739
 10
22.01249407946864
 20
-19.74394910629739
 10
22.01249407946864
 20
-20.6020525572974
 10
20.80245959286867
 20
-20.6020525572974
 10
20.58956304046864
 20
-20.59336290209738
 10
20.38318372946867
 20
-20.56946635029739
 10
20.18332165986862
 20
-20.5260180742974
 10
19.99214924546862
 20
-20.46953531549737
 10
19.80749407246861
 20
-20.39567324629739
 10
19.63370096846864
 20
-20.31094910809738
 10
19.47294234726865
 20
-20.21319048709738
 10
19.32538331231745
 20
-20.10257117640138
  0
ENDBLK
  5
81D
330
81B
100
AcDbEntity
  8
0
100
AcDbBlockEnd
  0
BLOCK
  5
85C
330
85B
100
AcDbEntity
  8
0
100
AcDbBlockBegin
  2
LW 3000-12-01
 70
     0
 10
0.0
 20
0.0
 30
0.0
  3
LW 3000-12-01
  1

  0
LINE
  5
85E
330
85B
100
AcDbEntity
  8
LW 3000-SECURIT-01
 62
     3
100
AcDbLine
 10
12.99999999999998
 20
6.999999999999985
 30
0.0
 11
29.99999999999999
 21
6.999999999999985
 31
0.0
  0
LINE
  5
85F
330
85B
100
AcDbEntity
  8
LW 3000-SECURIT-01
 62
     3
100
AcDbLine
 10
29.99999999999999
 20
-7.000000000000014
 30
0.0
 11
12.99999999999998
 21
-7.000000000000014
 31
0.0
  0
LINE
  5
860
330
85B
100
AcDbEntity
  8
LW 3000-SECURIT-01
 62
     3
100
AcDbLine
 10
12.99999999999998
 20
6.999999999999985
 30
0.0
 11
12.99999999999998
 21
-7.000000000000014
 31
0.0
  0
LINE
  5
861
330
85B
100
AcDbEntity
  8
LW 3000-SECURIT-01
100
AcDbLine
 10
10.99999999999998
 20
-6.053000000000011
 30
0.0
 11
10.99999999999998
 21
6.052999999999954
 31
0.0
  0
LINE
  5
862
330
85B
100
AcDbEntity
  8
LW 3000-SECURIT-01
100
AcDbLine
 10
3.999999999999985
 20
8.499999999999957
 30
0.0
 11
3.999999999999985
 21
5.499999999999985
 31
0.0
  0
LINE
  5
863
330
85B
100
AcDbEntity
  8
LW 3000-SECURIT-01
100
AcDbLine
 10
3.999999999999985
 20
-5.500000000000014
 30
0.0
 11
3.999999999999985
 21
-8.500000000000014
 31
0.0
  0
LWPOLYLINE
  5
864
330
85B
100
AcDbEntity
  8
LW 3000-SECURIT-01
100
AcDbPolyline
 90
       25
 70
     0
 43
0.0
 10
20.49999999999998
 20
22.99999999999998
 10
20.52101778984068
 20
22.99768495559691
 10
20.5843560695648
 20
22.99094486236571
 10
20.69044399261473
 20
22.98008012771605
 10
20.83832907676695
 20
22.96570587158202
 10
21.02153944969176
 20
22.94918823242186
 10
21.23223590850829
 20
22.93196487426756
 10
21.47257971763609
 20
22.91472721099852
 10
21.74519824981688
 20
22.8981738090515
 10
22.04294848442076
 20
22.88374948501585
 10
22.3581187725067
 20
22.87283468246458
 10
22.68067288398741
 20
22.86605644226073
 10
22.99999880790709
 20
22.8637270927429
 10
23.31932473182677
 20
22.86605644226073
 10
23.64188122749327
 20
22.87283468246458
 10
23.95705151557921
 20
22.88374948501585
 10
24.25480294227599
 20
22.8981738090515
 10
24.52742028236388
 20
22.91472721099852
 10
24.76776289939879
 20
22.93196487426756
 10
24.97846055030822
 20
22.94918823242186
 10
25.16167092323302
 20
22.96570587158202
 10
25.30955481529235
 20
22.98008012771605
 10
25.41564393043517
 20
22.99094486236571
 10
25.47898221015929
 20
22.99768495559691
 10
25.49999880790709
 20
22.99999999999998
  0
LINE
  5
865
330
85B
100
AcDbEntity
  8
LW 3000-SECURIT-01
100
AcDbLine
 10
25.49999999999999
 20
16.99999999999995
 30
0.0
 11
20.49999999999998
 21
16.99999999999995
 31
0.0
  0
LINE
  5
866
330
85B
100
AcDbEntity
  8
LW 3000-SECURIT-01
100
AcDbLine
 10
0.0
 20
-5.500000000000042
 30
0.0
 11
3.999999999999985
 21
-5.500000000000042
 31
0.0
  0
LINE
  5
867
330
85B
100
AcDbEntity
  8
LW 3000-SECURIT-01
100
AcDbLine
 10
0.0
 20
15.99999999999998
 30
0.0
 11
0.0
 21
-15.99999999999998
 31
0.0
  0
LINE
  5
868
330
85B
100
AcDbEntity
  8
LW 3000-SECURIT-01
100
AcDbLine
 10
3.999999999999985
 20
5.499999999999985
 30
0.0
 11
0.0
 21
5.499999999999985
 31
0.0
  0
LINE
  5
869
330
85B
100
AcDbEntity
  8
LW 3000-SECURIT-01
100
AcDbLine
 10
4.866025403784433
 20
6.999999999999957
 30
0.0
 11
4.0
 21
5.499999999999985
 31
0.0
  0
LINE
  5
86A
330
85B
100
AcDbEntity
  8
LW 3000-SECURIT-01
100
AcDbLine
 10
4.0
 20
8.499999999999985
 30
0.0
 11
4.866025403784433
 21
6.999999999999957
 31
0.0
  0
LINE
  5
86B
330
85B
100
AcDbEntity
  8
LW 3000-SECURIT-01
100
AcDbLine
 10
0.0
 20
8.499999999999985
 30
0.0
 11
3.999999999999985
 21
8.499999999999985
 31
0.0
  0
LINE
  5
86C
330
85B
100
AcDbEntity
  8
LW 3000-SECURIT-01
100
AcDbLine
 10
5.0
 20
10.99999999999996
 30
0.0
 11
-0.0000000000000142
 21
15.99999999999998
 31
0.0
  0
LINE
  5
86D
330
85B
100
AcDbEntity
  8
LW 3000-SECURIT-01
100
AcDbLine
 10
11.99999999999998
 20
10.99999999999998
 30
0.0
 11
5.0
 21
10.99999999999998
 31
0.0
  0
LINE
  5
86E
330
85B
100
AcDbEntity
  8
LW 3000-SECURIT-01
100
AcDbLine
 10
11.99999999999998
 20
21.99999999999996
 30
0.0
 11
11.99999999999998
 21
10.99999999999998
 31
0.0
  0
LINE
  5
86F
330
85B
100
AcDbEntity
  8
LW 3000-SECURIT-01
100
AcDbLine
 10
13.99999999999998
 20
21.99999999999996
 30
0.0
 11
11.99999999999998
 21
21.99999999999996
 31
0.0
  0
LINE
  5
870
330
85B
100
AcDbEntity
  8
LW 3000-SECURIT-01
100
AcDbLine
 10
13.99999999999998
 20
22.99999999999998
 30
0.0
 11
13.99999999999998
 21
21.99999999999996
 31
0.0
  0
LINE
  5
871
330
85B
100
AcDbEntity
  8
LW 3000-SECURIT-01
100
AcDbLine
 10
20.49999999999998
 20
22.99999999999998
 30
0.0
 11
13.99999999999998
 21
22.99999999999998
 31
0.0
  0
LINE
  5
872
330
85B
100
AcDbEntity
  8
LW 3000-SECURIT-01
100
AcDbLine
 10
20.49999999999998
 20
16.99999999999995
 30
0.0
 11
20.49999999999998
 21
22.99999999999998
 31
0.0
  0
LINE
  5
873
330
85B
100
AcDbEntity
  8
LW 3000-SECURIT-01
100
AcDbLine
 10
22.99999999999998
 20
15.55662432702591
 30
0.0
 11
20.49999999999998
 21
16.99999999999995
 31
0.0
  0
LINE
  5
874
330
85B
100
AcDbEntity
  8
LW 3000-SECURIT-01
100
AcDbLine
 10
25.49999999999999
 20
16.99999999999995
 30
0.0
 11
22.99999999999998
 21
15.55662432702591
 31
0.0
  0
LINE
  5
875
330
85B
100
AcDbEntity
  8
LW 3000-SECURIT-01
100
AcDbLine
 10
25.49999999999998
 20
22.99999999999998
 30
0.0
 11
25.49999999999999
 21
16.99999999999995
 31
0.0
  0
LINE
  5
876
330
85B
100
AcDbEntity
  8
LW 3000-SECURIT-01
100
AcDbLine
 10
26.79289321881344
 20
22.99999999999997
 30
0.0
 11
25.49999999999998
 21
22.99999999999998
 31
0.0
  0
ARC
  5
877
330
85B
100
AcDbEntity
  8
LW 3000-SECURIT-01
100
AcDbCircle
 10
26.79289321881344
 20
22.49999999999996
 30
0.0
 40
0.5000000000000085
100
AcDbArc
 50
45.00000000000157
 51
90.0
  0
LINE
  5
878
330
85B
100
AcDbEntity
  8
LW 3000-SECURIT-01
100
AcDbLine
 10
29.85355339059325
 20
20.14644660940672
 30
0.0
 11
27.1464466094067
 21
22.85355339059325
 31
0.0
  0
ARC
  5
879
330
85B
100
AcDbEntity
  8
LW 3000-SECURIT-01
100
AcDbCircle
 10
29.5
 20
19.79289321881343
 30
0.0
 40
0.4999999999999938
100
AcDbArc
 50
0.0
 51
45.00000000000278
  0
LINE
  5
87A
330
85B
100
AcDbEntity
  8
LW 3000-SECURIT-01
100
AcDbLine
 10
10.99999999999998
 20
6.052999999999954
 30
0.0
 11
29.99999999999999
 21
6.052999999999954
 31
0.0
  0
LINE
  5
87B
330
85B
100
AcDbEntity
  8
LW 3000-SECURIT-01
100
AcDbLine
 10
7.50529882059519
 20
-0.0000000000000284
 30
0.0
 11
10.99999999999998
 21
6.052999999999954
 31
0.0
  0
LINE
  5
87C
330
85B
100
AcDbEntity
  8
LW 3000-SECURIT-01
100
AcDbLine
 10
10.99999999999998
 20
-6.053000000000011
 30
0.0
 11
7.50529882059519
 21
-0.0000000000000284
 31
0.0
  0
LINE
  5
87D
330
85B
100
AcDbEntity
  8
LW 3000-SECURIT-01
100
AcDbLine
 10
29.99999999999999
 20
-6.053000000000011
 30
0.0
 11
10.99999999999998
 21
-6.053000000000011
 31
0.0
  0
LINE
  5
87E
330
85B
100
AcDbEntity
  8
LW 3000-SECURIT-01
100
AcDbLine
 10
29.99999999999999
 20
-19.79289321881349
 30
0.0
 11
30.0
 21
19.79289321881343
 31
0.0
  0
ARC
  5
87F
330
85B
100
AcDbEntity
  8
LW 3000-SECURIT-01
100
AcDbCircle
 10
29.5
 20
-19.79289321881349
 30
0.0
 40
0.4999999999999944
100
AcDbArc
 50
315.0000000000001
 51
0.0
  0
LINE
  5
880
330
85B
100
AcDbEntity
  8
LW 3000-SECURIT-01
100
AcDbLine
 10
27.14644660940671
 20
-22.85355339059329
 30
0.0
 11
29.85355339059325
 21
-20.14644660940674
 31
0.0
  0
ARC
  5
881
330
85B
100
AcDbEntity
  8
LW 3000-SECURIT-01
100
AcDbCircle
 10
26.79289321881344
 20
-22.50000000000004
 30
0.0
 40
0.5000000000000071
100
AcDbArc
 50
270.0
 51
315.0000000000002
  0
LINE
  5
882
330
85B
100
AcDbEntity
  8
LW 3000-SECURIT-01
100
AcDbLine
 10
13.99999999999998
 20
-23.00000000000004
 30
0.0
 11
26.79289321881344
 21
-23.00000000000004
 31
0.0
  0
LINE
  5
883
330
85B
100
AcDbEntity
  8
LW 3000-SECURIT-01
100
AcDbLine
 10
13.99999999999998
 20
-22.00000000000001
 30
0.0
 11
13.99999999999998
 21
-23.00000000000004
 31
0.0
  0
LINE
  5
884
330
85B
100
AcDbEntity
  8
LW 3000-SECURIT-01
100
AcDbLine
 10
11.99999999999998
 20
-22.00000000000001
 30
0.0
 11
13.99999999999998
 21
-22.00000000000001
 31
0.0
  0
LINE
  5
885
330
85B
100
AcDbEntity
  8
LW 3000-SECURIT-01
100
AcDbLine
 10
11.99999999999998
 20
-11.00000000000001
 30
0.0
 11
11.99999999999998
 21
-22.00000000000001
 31
0.0
  0
LINE
  5
886
330
85B
100
AcDbEntity
  8
LW 3000-SECURIT-01
100
AcDbLine
 10
5.0
 20
-11.00000000000001
 30
0.0
 11
11.99999999999998
 21
-11.00000000000001
 31
0.0
  0
LINE
  5
887
330
85B
100
AcDbEntity
  8
LW 3000-SECURIT-01
100
AcDbLine
 10
-0.0000000000000142
 20
-16.00000000000001
 30
0.0
 11
5.0
 21
-11.00000000000001
 31
0.0
  0
LINE
  5
888
330
85B
100
AcDbEntity
  8
LW 3000-SECURIT-01
100
AcDbLine
 10
3.999999999999985
 20
-8.500000000000014
 30
0.0
 11
0.0
 21
-8.500000000000014
 31
0.0
  0
LINE
  5
889
330
85B
100
AcDbEntity
  8
LW 3000-SECURIT-01
100
AcDbLine
 10
4.866025403784433
 20
-7.000000000000014
 30
0.0
 11
4.0
 21
-8.500000000000042
 31
0.0
  0
LINE
  5
88A
330
85B
100
AcDbEntity
  8
LW 3000-SECURIT-01
100
AcDbLine
 10
4.0
 20
-5.500000000000014
 30
0.0
 11
4.866025403784433
 21
-7.000000000000014
 31
0.0
  0
LINE
  5
88B
330
85B
100
AcDbEntity
  8
LW 3000-SECURIT-01
  6
MITTE2
 62
     3
100
AcDbLine
 10
22.99999999999998
 20
12.63029283982406
 30
0.0
 11
22.99999999999998
 21
25.14953494527482
 31
0.0
  0
LINE
  5
88C
330
85B
100
AcDbEntity
  8
LW 3000-SECURIT-01
  6
MITTE2
 62
     3
100
AcDbLine
 10
32.41947717894095
 20
-0.0000000000000284
 30
0.0
 11
-3.154117270599044
 21
-0.0000000000000284
 31
0.0
  0
LINE
  5
88D
330
85B
100
AcDbEntity
  8
LW 3000-SECURIT-01
  6
MITTE2
 62
     3
100
AcDbLine
 10
6.466010717671451
 20
6.999999999999957
 30
0.0
 11
-2.314777409360431
 21
6.999999999999957
 31
0.0
  0
LINE
  5
88E
330
85B
100
AcDbEntity
  8
LW 3000-SECURIT-01
  6
MITTE2
 62
     3
100
AcDbLine
 10
6.466010717671451
 20
-7.000000000000014
 30
0.0
 11
-2.314777409360431
 21
-7.000000000000014
 31
0.0
  0
INSERT
  5
88F
330
85B
100
AcDbEntity
  8
LW 3000-SECURIT-01
100
AcDbBlockReference
 66
     1
  2
insertpoint-ECKELT
 10
0.0
 20
0.0
 30
0.0
  0
ATTRIB
  5
890
330
88F
100
AcDbEntity
  8
insertpoint_ECKELT
100
AcDbText
 10
-6.931514324693041
 20
-0.0000000000000284
 30
0.0
 40
0.6
  1
LW 3000/12-01
 72
     2
 11
-1.199999999999999
 21
-0.0000000000000284
 31
0.0
100
AcDbAttribute
  2
LINKS
 70
     0
  0
ATTRIB
  5
891
330
88F
100
AcDbEntity
  8
insertpoint_ECKELT
100
AcDbText
 10
1.199999999999999
 20
-0.0000000000000284
 30
0.0
 40
0.6
  1

100
AcDbAttribute
  2
RECHTS
 70
     0
  0
SEQEND
  5
892
330
88F
100
AcDbEntity
  8
LW 3000-SECURIT-01
  0
LWPOLYLINE
  5
893
330
85B
100
AcDbEntity
  8
LW 3000-SECURIT-01
100
AcDbPolyline
 90
       24
 70
     1
 43
0.0
 10
-0.0000000000000142
 20
15.99999999999998
 10
0.0
 20
8.499999999999985
 10
3.999999999999985
 20
8.499999999999985
 10
4.866025403784433
 20
6.999999999999957
 10
4.0
 20
5.499999999999985
 10
0.0
 20
5.499999999999985
 10
0.0
 20
-0.0000000000000284
 10
7.505298820595189
 20
-0.0000000000000284
 10
10.99999999999998
 20
6.052999999999954
 10
29.99999999999999
 20
6.052999999999954
 10
29.99999999999999
 20
19.79289321881343
 42
0.198912367379665
 10
29.85355339059325
 20
20.14644660940672
 10
27.1464466094067
 20
22.85355339059325
 42
0.1989123673796578
 10
26.79289321881344
 20
22.99999999999997
 10
25.49999999999998
 20
22.99999999999997
 10
25.49999999999998
 20
16.99999999999995
 10
22.99999999999998
 20
15.55662432702591
 10
20.49999999999998
 20
16.99999999999995
 10
20.49999999999998
 20
22.99999999999998
 10
13.99999999999998
 20
22.99999999999998
 10
13.99999999999998
 20
21.99999999999996
 10
11.99999999999998
 20
21.99999999999996
 10
11.99999999999998
 20
10.99999999999998
 10
5.0
 20
10.99999999999998
  0
HATCH
  5
894
330
85B
100
AcDbEntity
  8
LW 3000-SECURIT-01
 62
     1
100
AcDbHatch
 10
0.0
 20
0.0
 30
0.0
210
0.0
220
0.0
230
1.0
  2
SOLID
 70
     1
 71
     0
 91
        5
 92
        7
 72
     0
 73
     1
 93
       76
 10
16.07600150507749
 20
-18.08856979069736
 10
16.10786033445032
 20
-18.03698882885567
 10
16.2260184586816
 20
-17.88574642983963
 10
16.36049653389437
 20
-17.74532229957714
 10
16.50651644035582
 20
-17.61693773786379
 10
16.67018523643781
 20
-17.5000314549481
 10
16.84557218980256
 20
-17.39785357312638
 10
17.02732512240288
 20
-17.30650189354355
 10
17.20849405786862
 20
-17.23698358109738
 10
14.95135611966856
 20
-17.23698358109738
 10
14.73845956726859
 20
-17.24567323629736
 10
14.5364250838686
 20
-17.27174220189738
 10
14.34090784186861
 20
-17.31301806409738
 10
14.15625266886871
 20
-17.36732840909735
 10
13.98028715106858
 20
-17.43684565069736
 10
13.81301128846865
 20
-17.51939737509738
 10
13.66244302592173
 20
-17.61472289264128
 10
13.51973542546869
 20
-17.7214318584974
 10
13.39429416989804
 20
-17.84048013473745
 10
13.28302921782062
 20
-17.96873944548934
 10
13.18301128646868
 20
-18.10594910109734
 10
13.10045956206863
 20
-18.25150082569735
 10
13.03745956186861
 20
-18.40574220549749
 10
12.98749404446869
 20
-18.56650082669728
 10
12.95925266506867
 20
-18.73160427549737
 10
12.95056300986862
 20
-18.90539737949734
 10
12.96142507886867
 20
-19.07919048349743
 10
12.99183887206862
 20
-19.24646634609741
 10
13.04614921706865
 20
-19.40722496729739
 10
13.11566645866861
 20
-19.56363876089736
 10
13.2047354244687
 20
-19.71136289929745
 10
13.3111837006686
 20
-19.85256979629733
 10
13.43388163209266
 20
-19.98378358981736
 10
13.57008068080085
 20
-20.10491738330535
 10
13.71742508126862
 20
-20.21536290089739
 10
13.87818370246867
 20
-20.31312152189736
 10
14.05381032371587
 20
-20.39801945320136
 10
14.2344595656686
 20
-20.47170772929735
 10
14.42563198006871
 20
-20.52819048809738
 10
14.62549404966864
 20
-20.57163876409737
 10
14.83404577446862
 20
-20.59770772969739
 10
15.04476991306859
 20
-20.60639738489738
 10
17.1639409988212
 20
-20.60639738489738
 10
17.0033971347687
 20
-20.54332658116249
 10
16.81983299096629
 20
-20.45270630763974
 10
16.65136658479622
 20
-20.34817661470811
 10
16.48853369003546
 20
-20.23255837628267
 10
16.34462132166527
 20
-20.10276877974277
 10
16.21718542818092
 20
-19.96341509651432
 10
16.10348007343759
 20
-19.81292685180168
 10
16.051508841989
 20
-19.72874220969737
 10
15.02304577506862
 20
-19.72874220969737
 10
14.89093694706303
 20
-19.72118220967337
 10
14.76018370526861
 20
-19.70084841650538
 10
14.63201129106869
 20
-19.66791462329737
 10
14.51687335966863
 20
-19.62229393349736
 10
14.41192839381824
 20
-19.56581117469738
 10
14.31377873833423
 20
-19.49820565724138
 10
14.22359749666867
 20
-19.42025945009737
 10
14.15190784126866
 20
-19.33553531189739
 10
15.87942915552747
 20
-19.33553531189739
 10
15.86884468825445
 20
-19.30289987113906
 10
15.83273288028999
 20
-19.11752592358792
 10
15.82068922750829
 20
-18.92723620963721
 10
15.83271089993763
 20
-18.73248511628222
 10
15.86901662161295
 20
-18.54611574501567
 10
15.88561532428803
 20
-18.49698358509738
 10
14.11497680666866
 20
-18.49698358509738
 10
14.18449404826861
 20
-18.40139737789744
 10
14.2670457726686
 20
-18.31884565349736
 10
14.36213666952221
 20
-18.24898082568939
 10
14.46473542846865
 20
-18.19067323929735
 10
14.58342742884542
 20
-18.14670358398541
 10
14.70587336026869
 20
-18.11463875629738
 10
14.84273542966866
 20
-18.09508703209738
 10
14.98611474046867
 20
-18.08856979069736
 97
        0
 92
        7
 72
     0
 73
     1
 93
       72
 10
17.80446537010544
 20
-18.10316841143339
 10
17.92732840497825
 20
-18.08509392861737
 10
18.05139061226867
 20
-18.07988013549737
 10
19.32008027146866
 20
-18.07988013549737
 10
18.47283888946861
 20
-18.89453531049736
 10
20.23901130886867
 20
-20.61291462629737
 10
21.55766648546864
 20
-20.61291462629737
 10
19.84363199726862
 20
-18.87063875869739
 10
21.52508027846863
 20
-17.23698358109738
 10
18.08614923306873
 20
-17.23698358109738
 10
17.87816233585658
 20
-17.24775875354538
 10
17.67144412830378
 20
-17.27321944328136
 10
17.46701130006869
 20
-17.31301806409738
 10
17.27366647186863
 20
-17.36950082289741
 10
17.08683888506862
 20
-17.44119047829736
 10
16.91567874659415
 20
-17.5272180647774
 10
16.75011474606867
 20
-17.6236732374974
 10
16.59804578006867
 20
-17.73229392749738
 10
16.4623481244655
 20
-17.85160289339336
 10
16.33735612406866
 20
-17.98212151449741
 10
16.22873543406859
 20
-18.12115599769743
 10
16.13749405446867
 20
-18.26888013609726
 10
16.06580439906866
 20
-18.42312151589729
 10
16.01149405406863
 20
-18.58388013709737
 10
15.97890784706868
 20
-18.75115599969734
 10
15.96804577806864
 20
-18.92712151749745
 10
15.97890784706862
 20
-19.0987422076974
 10
16.01149405406863
 20
-19.26601807029735
 10
16.06363198526861
 20
-19.42677669149736
 10
16.13314922686862
 20
-19.58101807129736
 10
16.2249901926774
 20
-19.7297849683213
 10
16.33036964128785
 20
-19.86925393428146
 10
16.44837515890384
 20
-19.99829531400132
 10
16.58066646966864
 20
-20.11760427989736
 10
16.73278757359986
 20
-20.22561669403342
 10
16.89132164306869
 20
-20.32398359089737
 10
17.06294233326866
 20
-20.40870772909739
 10
17.24542509246862
 20
-20.48039738449737
 10
17.43965626549908
 20
-20.53444703984138
 10
17.63645957646861
 20
-20.57815600549736
 10
17.84501130126869
 20
-20.60422497109738
 10
18.05573543986861
 20
-20.61291462629737
 10
19.95876992866863
 20
-20.61291462629737
 10
19.07242509826863
 20
-19.73960427869736
 10
18.05573543986861
 20
-19.73960427869736
 10
17.98906840517412
 20
-19.73585698575803
 10
17.88812068071587
 20
-19.72587462348139
 10
17.76798619757585
 20
-19.70441117513738
 10
17.65086702479027
 20
-19.6700870370974
 10
17.54937185205426
 20
-19.62915876110537
 10
17.49323667946219
 20
-19.60100427825733
 10
17.43955198963658
 20
-19.56841807125733
 10
17.30699129956065
 20
-19.46909531232137
 10
17.23338992001663
 20
-19.39905669140935
 10
17.17832357501436
 20
-19.33119048429745
 10
17.12961805761824
 20
-19.25863186337739
 10
17.0902539195622
 20
-19.1814677252014
 10
17.06083074705503
 20
-19.10004565597745
 10
17.04013198836861
 20
-19.01288841432134
 10
17.03261543662063
 20
-18.92355875886545
 10
17.03397102283184
 20
-18.86125393108139
 10
17.03997557457506
 20
-18.79912289640151
 10
17.05213240219984
 20
-18.73594910309737
 10
17.07034591949906
 20
-18.6742525511774
 10
17.11399405756861
 20
-18.57553806810546
 10
17.15552191976945
 20
-18.50767186099341
 10
17.21860012686624
 20
-18.42963875729737
 10
17.34800206723105
 20
-18.30311602024375
 10
17.40726992056869
 20
-18.26305806711338
 10
17.48356509322462
 20
-18.21874082559341
 10
17.56758536935342
 20
-18.17659599787339
 10
17.6841223352406
 20
-18.13375599773738
 97
        0
 92
        7
 72
     0
 73
     1
 93
       57
 10
22.36250235009271
 20
-18.12524013564138
 10
22.49397683326867
 20
-18.08526772172138
 10
22.62866648886859
 20
-18.05815599749735
 10
22.77204579966854
 20
-18.04946634229736
 10
24.01249407946864
 20
-18.04946634229736
 10
24.01249407946864
 20
-17.22394909829737
 10
22.77856304106871
 20
-17.22394909829737
 10
22.56783890246868
 20
-17.23263875349738
 10
22.3614595914687
 20
-17.26088013289734
 10
22.16376993566871
 20
-17.30215599509733
 10
21.9747699350687
 20
-17.35646634009737
 10
21.79011476206875
 20
-17.42815599549738
 10
21.62370786498849
 20
-17.51079461644937
 10
21.46488703689817
 20
-17.6072497891694
 10
21.31480800193907
 20
-17.71673944468938
 10
21.18024869116715
 20
-17.8359615140333
 10
21.0601837252687
 20
-17.96474220409737
 10
20.95590786286868
 20
-18.10377668729737
 10
20.87118372466864
 20
-18.24932841189741
 10
20.79949406926863
 20
-18.4035697916974
 10
20.74952855186865
 20
-18.56432841289728
 10
20.71694234486864
 20
-18.73160427549732
 10
20.70608027586866
 20
-18.90539737949734
 10
20.71694234486864
 20
-19.07919048349737
 10
20.74952855186865
 20
-19.24646634609741
 10
20.80166648306863
 20
-19.40722496729737
 10
20.87335613846863
 20
-19.56363876089739
 10
20.96025269046867
 20
-19.71136289929737
 10
21.0690993115038
 20
-19.85091876180937
 10
21.18895572567743
 20
-19.98126358980937
 10
21.32538331231745
 20
-20.10257117640137
 10
21.47294234726865
 20
-20.21319048709739
 10
21.63370096846864
 20
-20.31094910809739
 10
21.80749407246861
 20
-20.39567324629738
 10
21.99214924546862
 20
-20.46953531549736
 10
22.18332165986868
 20
-20.52601807429738
 10
22.38318372946861
 20
-20.56946635029738
 10
22.58956304046864
 20
-20.59336290209737
 10
22.80245959286867
 20
-20.60205255729739
 10
24.01249407946864
 20
-20.60205255729739
 10
24.01249407946864
 20
-19.74394910629738
 10
22.77856304106859
 20
-19.74394910629738
 10
22.64491614409263
 20
-19.7336084166094
 10
22.51265959194864
 20
-19.71162358895339
 10
22.39204717777266
 20
-19.67729945091338
 10
22.27604028085266
 20
-19.62933255420938
 10
22.16637683222865
 20
-19.56841807125738
 10
22.06931338364467
 20
-19.50081255380138
 10
21.98189545233265
 20
-19.42104151906537
 10
21.90742510726863
 20
-19.33553531189739
 10
24.01249407946864
 20
-19.33553531189739
 10
24.01249407946864
 20
-18.50784565409736
 10
21.87049407266863
 20
-18.50784565409736
 10
21.94001131426864
 20
-18.41008703309737
 10
22.02690786626857
 20
-18.32101806729738
 10
22.12805545279667
 20
-18.24472289464137
 10
22.23545959106866
 20
-18.17763875649737
 97
        0
 92
        7
 72
     0
 73
     1
 93
        6
 10
24.24276994226863
 20
-17.23698358109738
 10
24.24276994226863
 20
-20.60639738489738
 10
26.48035615626867
 20
-20.60639738489738
 10
26.48035615626867
 20
-19.73960427869736
 10
25.26597684206865
 20
-19.73960427869736
 10
25.26597684206865
 20
-17.23698358109738
 97
        0
 92
        7
 72
     0
 73
     1
 93
        8
 10
25.49842511866865
 20
-17.23698358109738
 10
25.49842511866865
 20
-18.06250082509737
 10
26.73235615706863
 20
-18.06250082509737
 10
26.73235615706863
 20
-20.61291462629737
 10
27.75773547066865
 20
-20.61291462629737
 10
27.75773547066865
 20
-18.06250082509737
 10
29.00035616426868
 20
-18.06250082509737
 10
29.00035616426868
 20
-17.23698358109738
 97
        0
 75
     0
 76
     1
 47
0.0142553043587597
 98
        5
 10
15.38566163114387
 20
-17.67943325068648
 10
17.65315884448642
 20
-17.82198623569229
 10
22.14537057668798
 20
-17.76496506314458
 10
24.86921966051955
 20
-17.52262483845231
 10
26.28105764274641
 20
-17.62241197086564
450
        0
451
        0
460
0.0
461
0.0
452
        0
462
0.0
453
        0
470

  0
HATCH
  5
895
330
85B
100
AcDbEntity
  8
LW 3000-SECURIT-01
 62
     8
100
AcDbHatch
 10
0.0
 20
0.0
 30
0.0
210
0.0
220
0.0
230
1.0
  2
ANSI31
 70
     0
 71
     0
 91
        9
 92
        7
 72
     1
 73
     1
 93
       27
 10
22.99999999999998
 20
15.55662432702592
 42
0.0
 10
20.49999999999998
 20
16.99999999999996
 42
0.0
 10
20.49999999999998
 20
22.99999999999999
 42
0.0
 10
13.99999999999998
 20
22.99999999999998
 42
0.0
 10
13.99999999999998
 20
21.99999999999996
 42
0.0
 10
11.99999999999999
 20
21.99999999999996
 42
0.0
 10
11.99999999999998
 20
10.99999999999998
 42
0.0
 10
4.999999999999969
 20
10.99999999999998
 42
0.0
 10
0.0
 20
15.99999999999998
 42
0.0
 10
0.0
 20
8.499999999999985
 42
0.0
 10
4.0
 20
8.499999999999992
 42
0.0
 10
4.866025403784432
 20
6.999999999999957
 42
0.0
 10
3.999999999999999
 20
5.499999999999985
 42
0.0
 10
0.0
 20
5.499999999999978
 42
0.0
 10
0.0
 20
1.200000000000002
 42
-0.4142135623731028
 10
1.199999999999999
 20
-0.0000000000000284
 42
0.0
 10
7.505298820595188
 20
-0.0000000000000284
 42
0.0
 10
10.99999999999999
 20
6.052999999999954
 42
0.0
 10
12.99999999999998
 20
6.052999999999954
 42
0.0
 10
12.99999999999998
 20
6.999999999999992
 42
0.0
 10
29.99999999999999
 20
6.999999999999992
 42
0.0
 10
30.0
 20
19.79289321881343
 42
0.1989123673796588
 10
29.85355339059328
 20
20.1464466094067
 42
0.0
 10
27.1464466094067
 20
22.85355339059325
 42
0.1989123673796456
 10
26.79289321881344
 20
22.99999999999997
 42
0.0
 10
25.49999999999998
 20
22.99999999999999
 42
0.0
 10
25.49999999999998
 20
16.99999999999995
 42
0.0
 97
        0
 92
       23
 72
     0
 73
     1
 93
        4
 10
29.99999999999999
 20
6.999999999999992
 10
12.99999999999998
 20
6.999999999999992
 10
12.99999999999998
 20
6.052999999999954
 10
29.99999999999999
 20
6.052999999999961
 97
        0
 92
       23
 72
     0
 73
     1
 93
        4
 10
29.99999999999998
 20
-6.053000000000011
 10
12.99999999999998
 20
-6.053000000000011
 10
12.99999999999998
 20
-7.0
 10
29.99999999999999
 20
-7.000000000000014
 97
        0
 92
        7
 72
     1
 73
     1
 93
       23
 10
29.99999999999999
 20
-7.000000000000014
 42
0.0
 10
12.99999999999998
 20
-7.000000000000014
 42
0.0
 10
12.99999999999998
 20
-6.052999999999997
 42
0.0
 10
10.99999999999998
 20
-6.053000000000011
 42
0.0
 10
7.505298820595195
 20
-0.0000000000000213
 42
0.0
 10
1.199999999999999
 20
-0.0000000000000284
 42
-0.4142135623730888
 10
0.0
 20
-1.200000000000002
 42
0.0
 10
0.0
 20
-1.799999999999997
 42
0.0
 10
0.0
 20
-5.500000000000056
 42
0.0
 10
4.00000000000002
 20
-5.500000000000056
 42
0.0
 10
4.866025403784433
 20
-7.0
 42
0.0
 10
4.000000000000023
 20
-8.500000000000014
 42
0.0
 10
0.0
 20
-8.500000000000014
 42
0.0
 10
0.0
 20
-16.00000000000001
 42
0.0
 10
4.999999999999997
 20
-11.00000000000001
 42
0.0
 10
11.99999999999998
 20
-11.00000000000001
 42
0.0
 10
11.99999999999999
 20
-22.00000000000001
 42
0.0
 10
13.99999999999998
 20
-22.00000000000001
 42
0.0
 10
13.99999999999998
 20
-23.00000000000006
 42
0.0
 10
26.79289321881344
 20
-23.00000000000004
 42
0.1989123673796548
 10
27.1464466094067
 20
-22.8535533905933
 42
0.0
 10
29.85355339059325
 20
-20.14644660940674
 42
0.1989123673796682
 10
29.99999999999999
 20
-19.79289321881345
 42
0.0
 97
        0
 92
       22
 72
     0
 73
     1
 93
       63
 10
21.52508027846863
 20
-17.23698358109739
 10
19.84363199726862
 20
-18.87063875869738
 10
21.55766648546864
 20
-20.61291462629737
 10
20.23901130886867
 20
-20.61291462629737
 10
18.47283888946861
 20
-18.89453531049737
 10
19.32008027146865
 20
-18.07988013549736
 10
18.05139061226888
 20
-18.07988013549736
 10
17.92732840497808
 20
-18.0850939286174
 10
17.80446537010552
 20
-18.10316841143336
 10
17.68412233524056
 20
-18.13375599773741
 10
17.56758536935345
 20
-18.17659599787338
 10
17.48356509322462
 20
-18.2187408255933
 10
17.40726992056856
 20
-18.2630580671133
 10
17.36702812733744
 20
-18.29025668788936
 10
17.32951488583909
 20
-18.3211918604014
 10
17.21860012686614
 20
-18.42963875729748
 10
17.15552191976944
 20
-18.50767186099335
 10
17.1139940575686
 20
-18.57553806810532
 10
17.07034591949906
 20
-18.67425255117737
 10
17.05213240219984
 20
-18.7359491030974
 10
17.03997557457506
 20
-18.7991228964014
 10
17.03397102283184
 20
-18.86125393108136
 10
17.03261543662063
 20
-18.92355875886532
 10
17.04013198836867
 20
-19.01288841432138
 10
17.06083074705502
 20
-19.10004565597735
 10
17.09025391956225
 20
-19.18146772520137
 10
17.12961805761824
 20
-19.25863186337739
 10
17.1783235750143
 20
-19.33119048429745
 10
17.23338992001667
 20
-19.3990566914094
 10
17.30699129956065
 20
-19.46909531232138
 10
17.43955198963667
 20
-19.56841807125741
 10
17.49323667946235
 20
-19.6010042782574
 10
17.5493718520543
 20
-19.62915876110534
 10
17.65086702479026
 20
-19.67008703709734
 10
17.76798619757592
 20
-19.70441117513736
 10
17.88812068071595
 20
-19.7258746234814
 10
17.98906840517434
 20
-19.73585698575806
 10
18.05573543986858
 20
-19.73960427869736
 10
19.07242509826863
 20
-19.73960427869736
 10
19.95876992866863
 20
-20.61291462629738
 10
18.05573543986857
 20
-20.61291462629737
 10
17.84501130126866
 20
-20.60422497109738
 10
17.63645957646863
 20
-20.57815600549735
 10
17.43965626549904
 20
-20.53444703984135
 10
17.24542509246877
 20
-20.48039738449738
 10
16.96733280937037
 20
-20.37114684470878
 10
16.73278757359985
 20
-20.22561669403342
 10
16.51454993003129
 20
-20.0706587419279
 10
16.27103599347729
 20
-19.80437141071827
 10
16.09208098185272
 20
-19.51449443096509
 10
15.98416093155223
 20
-19.18174094253844
 10
15.96230341038074
 20
-18.83639210802849
 10
16.02621966387143
 20
-18.50828867344299
 10
16.17298990609912
 20
-18.19251027349833
 10
16.38881248754867
 20
-17.91625736924295
 10
16.66556013793619
 20
-17.67293351935687
 10
16.91567874659443
 20
-17.52721806477731
 10
17.08683888506871
 20
-17.44119047829738
 10
17.27366647186869
 20
-17.36950082289733
 10
17.46701130006879
 20
-17.31301806409735
 10
17.67144412830367
 20
-17.27321944328142
 10
17.87816233585674
 20
-17.24775875354538
 10
18.08614923306856
 20
-17.23698358109738
 97
        0
 92
       22
 72
     0
 73
     1
 93
       65
 10
17.20849405786867
 20
-17.23698358109738
 10
17.02732512240292
 20
-17.30650189354352
 10
16.84557218980251
 20
-17.39785357312647
 10
16.67018523643773
 20
-17.50003145494815
 10
16.50651644035567
 20
-17.61693773786379
 10
16.36049653389427
 20
-17.74532229957714
 10
16.22601845868151
 20
-17.88574642983975
 10
16.10786033445033
 20
-18.03698882885562
 10
16.07600150507749
 20
-18.08856979069736
 10
14.98611474046879
 20
-18.08856979069736
 10
14.84273542966866
 20
-18.09508703209735
 10
14.7058733602686
 20
-18.11463875629738
 10
14.58342742884554
 20
-18.14670358398538
 10
14.4647354284687
 20
-18.19067323929734
 10
14.36213666952221
 20
-18.24898082568943
 10
14.26704577266866
 20
-18.31884565349729
 10
14.1844940482686
 20
-18.40139737789741
 10
14.11497680666865
 20
-18.49698358509738
 10
15.88561532428803
 20
-18.49698358509737
 10
15.86901662161294
 20
-18.5461157450157
 10
15.83271089993764
 20
-18.73248511628232
 10
15.82068922750835
 20
-18.92723620963723
 10
15.83273288028999
 20
-19.11752592358799
 10
15.86884468825451
 20
-19.30289987113905
 10
15.87942915552747
 20
-19.33553531189737
 10
14.15190784126867
 20
-19.33553531189737
 10
14.22359749666866
 20
-19.42025945009737
 10
14.31377873833423
 20
-19.4982056572414
 10
14.4119283938183
 20
-19.56581117469738
 10
14.51687335966857
 20
-19.62229393349733
 10
14.63201129106846
 20
-19.66791462329736
 10
14.76018370526852
 20
-19.70084841650538
 10
14.89093694706311
 20
-19.72118220967336
 10
15.02304577506861
 20
-19.72874220969739
 10
16.051508841989
 20
-19.72874220969739
 10
16.10348007343757
 20
-19.81292685180162
 10
16.21718542818091
 20
-19.96341509651436
 10
16.34462132166528
 20
-20.10276877974281
 10
16.48853369003544
 20
-20.23255837628262
 10
16.65136658479619
 20
-20.3481766147081
 10
16.81983299096632
 20
-20.45270630763979
 10
17.0033971347686
 20
-20.54332658116245
 10
17.16394099882122
 20
-20.60639738489738
 10
15.04476991306832
 20
-20.60639738489738
 10
14.83404577446848
 20
-20.5977077296974
 10
14.62549404966864
 20
-20.57163876409736
 10
14.42563198006849
 20
-20.52819048809732
 10
14.23445956566873
 20
-20.47170772929733
 10
14.05381032371569
 20
-20.3980194532013
 10
13.79274385657979
 20
-20.27181988940339
 10
13.49342097992044
 20
-20.04745527198443
 10
13.25119460764988
 20
-19.78841715432969
 10
13.0777420414465
 20
-19.50073972745572
 10
12.96734923797362
 20
-19.17397702917621
 10
12.94493309241508
 20
-18.81531870024102
 10
12.99880382404103
 20
-18.50038211535109
 10
13.13046916416784
 20
-18.17802904124758
 10
13.33663395031982
 20
-17.89520176293833
 10
13.51973542546859
 20
-17.72143185849737
 10
13.66244302592184
 20
-17.61472289264124
 10
13.81301128846866
 20
-17.51939737509735
 10
14.06937276371766
 20
-17.39288132237703
 10
14.43811711685023
 20
-17.28442710086753
 10
14.73845956726866
 20
-17.24567323629735
 10
14.95135611966915
 20
-17.23698358109736
 97
        0
 92
       22
 72
     0
 73
     1
 93
       46
 10
22.16376993566868
 20
-17.30215599509733
 10
22.36145959146862
 20
-17.26088013289737
 10
22.56783890246844
 20
-17.23263875349741
 10
22.77856304106881
 20
-17.22394909829737
 10
24.01249407946864
 20
-17.22394909829737
 10
24.01249407946864
 20
-18.04946634229735
 10
22.77204579966848
 20
-18.04946634229735
 10
22.62866648886866
 20
-18.05815599749736
 10
22.49397683326861
 20
-18.08526772172136
 10
22.3625023500926
 20
-18.12524013564136
 10
22.23545959106882
 20
-18.17763875649733
 10
22.12805545279665
 20
-18.24472289464134
 10
22.02690786626864
 20
-18.32101806729727
 10
21.94001131426863
 20
-18.41008703309744
 10
21.87049407266863
 20
-18.50784565409735
 10
24.01249407946864
 20
-18.50784565409735
 10
24.01249407946864
 20
-19.33553531189739
 10
21.90742510726863
 20
-19.33553531189737
 10
21.98189545233268
 20
-19.42104151906542
 10
22.06931338364462
 20
-19.50081255380134
 10
22.1663768322286
 20
-19.56841807125737
 10
22.2760402808527
 20
-19.62933255420937
 10
22.3920471777726
 20
-19.67729945091339
 10
22.51265959194869
 20
-19.71162358895339
 10
22.64491614409254
 20
-19.73360841660937
 10
22.77856304106864
 20
-19.74394910629738
 10
24.01249407946864
 20
-19.74394910629739
 10
24.01249407946864
 20
-20.60205255729737
 10
22.80245959286859
 20
-20.60205255729739
 10
22.58956304046879
 20
-20.59336290209738
 10
22.38318372946859
 20
-20.56946635029736
 10
22.1833216598687
 20
-20.52601807429741
 10
21.99214924546847
 20
-20.4695353154973
 10
21.80749407246845
 20
-20.39567324629738
 10
21.54689981843514
 20
-20.26863354745595
 10
21.24529219106627
 20
-20.04252995541748
 10
21.06909931150383
 20
-19.85091876180932
 10
20.91371602728532
 20
-19.65169670013381
 10
20.76545363865716
 20
-19.32821512494507
 10
20.70049504796014
 20
-18.99476102603376
 10
20.72182658133733
 20
-18.65345649199813
 10
20.82022325790003
 20
-18.33687588044857
 10
20.99803811908238
 20
-18.03139906764808
 10
21.2416248096129
 20
-17.77012999667306
 10
21.54037329800525
 20
-17.5521790410975
 10
21.87913686724165
 20
-17.38394710671434
 97
        0
 92
       22
 72
     0
 73
     1
 93
        6
 10
24.24276994226863
 20
-17.23698358109738
 10
25.26597684206865
 20
-17.23698358109738
 10
25.26597684206865
 20
-19.73960427869736
 10
26.48035615626866
 20
-19.73960427869736
 10
26.48035615626866
 20
-20.60639738489738
 10
24.24276994226864
 20
-20.60639738489738
 97
        0
 92
       22
 72
     0
 73
     1
 93
        8
 10
25.49842511866865
 20
-17.23698358109736
 10
29.00035616426868
 20
-17.23698358109738
 10
29.00035616426868
 20
-18.06250082509737
 10
27.75773547066865
 20
-18.06250082509737
 10
27.75773547066865
 20
-20.61291462629737
 10
26.73235615706863
 20
-20.61291462629737
 10
26.73235615706863
 20
-18.06250082509739
 10
25.49842511866865
 20
-18.06250082509737
 97
        0
 75
     0
 76
     1
 52
0.0
 41
0.75
 77
     0
 78
     1
 53
45.0
 43
0.0
 44
60.00000000000001
 45
-1.683798022700465
 46
1.683798022700466
 79
     0
 47
0.2057567274504153
 98
        9
 10
17.70828544216889
 20
14.41160525137032
 10
18.53184355226526
 20
6.592849569494148
 10
19.14951213483752
 20
-6.575580937691938
 10
19.14951213483752
 20
-9.456175136277906
 10
19.14951213483752
 20
-9.456175136277906
 10
19.14951213483752
 20
-9.456175136277906
 10
19.14951213483752
 20
-9.456175136277906
 10
19.14951213483752
 20
-9.456175136277906
 10
19.14951213483752
 20
-9.456175136277906
1001
ACAD
1010
0.0
1020
0.0
1030
0.0
  0
LWPOLYLINE
  5
896
330
85B
100
AcDbEntity
  8
LW 3000-SECURIT-01
 62
     1
100
AcDbPolyline
 90
        8
 70
     1
 43
0.0
 10
27.75773547066865
 20
-18.06250082509737
 10
27.75773547066865
 20
-20.61291462629737
 10
26.73235615706863
 20
-20.61291462629737
 10
26.73235615706863
 20
-18.06250082509737
 10
25.49842511866865
 20
-18.06250082509737
 10
25.49842511866865
 20
-17.23698358109738
 10
29.00035616426868
 20
-17.23698358109738
 10
29.00035616426868
 20
-18.06250082509737
  0
LWPOLYLINE
  5
897
330
85B
100
AcDbEntity
  8
LW 3000-SECURIT-01
 62
     1
100
AcDbPolyline
 90
       73
 70
     1
 43
0.0
 10
18.05573543986866
 20
-19.73960427869736
 10
19.07242509826863
 20
-19.73960427869736
 10
19.95876992866863
 20
-20.61291462629737
 10
18.05573543986866
 20
-20.61291462629737
 10
17.84501130126864
 20
-20.60422497109738
 10
17.63645957646866
 20
-20.57815600549736
 10
17.43965626549908
 20
-20.53444703984138
 10
17.24542509246867
 20
-20.48039738449737
 10
17.06294233326866
 20
-20.40870772909739
 10
16.89132164306863
 20
-20.32398359089737
 10
16.73278757359986
 20
-20.22561669403336
 10
16.58066646966864
 20
-20.11760427989736
 10
16.44837515890384
 20
-19.99829531400138
 10
16.33036964128785
 20
-19.86925393428137
 10
16.22499019267746
 20
-19.72978496832138
 10
16.13314922686862
 20
-19.58101807129736
 10
16.06363198526861
 20
-19.42677669149736
 10
16.01149405406863
 20
-19.26601807029738
 10
15.97890784706862
 20
-19.09874220769737
 10
15.96804577806864
 20
-18.92712151749737
 10
15.97890784706862
 20
-18.75115599969737
 10
16.01149405406863
 20
-18.58388013709737
 10
16.06580439906866
 20
-18.42312151589738
 10
16.13749405446861
 20
-18.26888013609738
 10
16.22873543406865
 20
-18.12115599769737
 10
16.33735612406866
 20
-17.98212151449738
 10
16.46234812446544
 20
-17.85160289339336
 10
16.59804578006861
 20
-17.73229392749738
 10
16.75011474606861
 20
-17.62367323749737
 10
16.91567874659426
 20
-17.52721806477737
 10
17.08683888506862
 20
-17.44119047829738
 10
17.27366647186863
 20
-17.36950082289738
 10
17.46701130006863
 20
-17.31301806409738
 10
17.67144412830384
 20
-17.27321944328139
 10
17.87816233585664
 20
-17.24775875354538
 10
18.08614923306862
 20
-17.23698358109738
 10
21.52508027846863
 20
-17.23698358109738
 10
19.84363199726862
 20
-18.87063875869739
 10
21.55766648546864
 20
-20.61291462629737
 10
20.23901130886867
 20
-20.61291462629737
 10
18.47283888946861
 20
-18.89453531049736
 10
19.32008027146866
 20
-18.07988013549737
 10
18.05139061226867
 20
-18.07988013549737
 10
17.92732840497825
 20
-18.08509392861737
 10
17.80446537010544
 20
-18.10316841143339
 10
17.68412233524065
 20
-18.13375599773738
 10
17.56758536935348
 20
-18.17659599787339
 10
17.48356509322462
 20
-18.21874082559338
 10
17.40726992056863
 20
-18.26305806711338
 10
17.36702812733744
 20
-18.29025668788938
 10
17.32951488583904
 20
-18.32119186040137
 10
17.21860012686624
 20
-18.42963875729737
 10
17.15552191976945
 20
-18.50767186099338
 10
17.11399405756861
 20
-18.57553806810537
 10
17.07034591949906
 20
-18.67425255117737
 10
17.05213240219984
 20
-18.73594910309737
 10
17.03997557457506
 20
-18.79912289640137
 10
17.03397102283184
 20
-18.86125393108136
 10
17.03261543662063
 20
-18.92355875886537
 10
17.04013198836866
 20
-19.01288841432137
 10
17.06083074705503
 20
-19.10004565597737
 10
17.09025391956225
 20
-19.18146772520137
 10
17.12961805761824
 20
-19.25863186337739
 10
17.17832357501424
 20
-19.33119048429736
 10
17.23338992001663
 20
-19.39905669140938
 10
17.30699129956065
 20
-19.46909531232137
 10
17.43955198963664
 20
-19.56841807125738
 10
17.49323667946225
 20
-19.60100427825736
 10
17.54937185205426
 20
-19.62915876110537
 10
17.65086702479027
 20
-19.67008703709737
 10
17.76798619757585
 20
-19.70441117513735
 10
17.88812068071587
 20
-19.72587462348139
 10
17.98906840517423
 20
-19.73585698575803
  0
LWPOLYLINE
  5
898
330
85B
100
AcDbEntity
  8
LW 3000-SECURIT-01
 62
     1
100
AcDbPolyline
 90
       76
 70
     1
 43
0.0
 10
16.84557218980256
 20
-17.39785357312638
 10
16.67018523643776
 20
-17.5000314549481
 10
16.50651644035576
 20
-17.61693773786379
 10
16.36049653389437
 20
-17.74532229957714
 10
16.22601845868155
 20
-17.88574642983968
 10
16.10786033445037
 20
-18.03698882885555
 10
16.07600150507749
 20
-18.08856979069736
 10
14.98611474046862
 20
-18.08856979069736
 10
14.84273542966866
 20
-18.09508703209735
 10
14.70587336026864
 20
-18.11463875629738
 10
14.58342742884542
 20
-18.14670358398538
 10
14.46473542846865
 20
-18.19067323929738
 10
14.36213666952227
 20
-18.24898082568939
 10
14.26704577266866
 20
-18.31884565349736
 10
14.18449404826861
 20
-18.40139737789735
 10
14.11497680666866
 20
-18.49698358509738
 10
15.88561532428803
 20
-18.49698358509738
 10
15.86901662161295
 20
-18.54611574501567
 10
15.83271089993763
 20
-18.7324851162823
 10
15.82068922750835
 20
-18.92723620963721
 10
15.83273288028999
 20
-19.117525923588
 10
15.86884468825451
 20
-19.302899871139
 10
15.87942915552747
 20
-19.33553531189739
 10
14.15190784126866
 20
-19.33553531189739
 10
14.22359749666867
 20
-19.42025945009737
 10
14.31377873833423
 20
-19.49820565724138
 10
14.41192839381824
 20
-19.56581117469738
 10
14.51687335966863
 20
-19.62229393349736
 10
14.63201129106863
 20
-19.66791462329737
 10
14.76018370526861
 20
-19.70084841650538
 10
14.89093694706303
 20
-19.72118220967337
 10
15.02304577506862
 20
-19.72874220969737
 10
16.051508841989
 20
-19.72874220969737
 10
16.10348007343759
 20
-19.81292685180165
 10
16.21718542818092
 20
-19.96341509651432
 10
16.34462132166527
 20
-20.10276877974281
 10
16.48853369003546
 20
-20.23255837628261
 10
16.65136658479622
 20
-20.34817661470811
 10
16.81983299096629
 20
-20.45270630763974
 10
17.0033971347687
 20
-20.54332658116249
 10
17.1639409988212
 20
-20.60639738489738
 10
15.04476991306864
 20
-20.60639738489738
 10
14.83404577446862
 20
-20.59770772969739
 10
14.62549404966864
 20
-20.57163876409737
 10
14.42563198006865
 20
-20.52819048809738
 10
14.23445956566865
 20
-20.47170772929738
 10
14.05381032371582
 20
-20.39801945320136
 10
13.87818370246867
 20
-20.31312152189736
 10
13.71742508126862
 20
-20.21536290089739
 10
13.57008068080091
 20
-20.10491738330538
 10
13.43388163209266
 20
-19.98378358981736
 10
13.31118370066866
 20
-19.85256979629736
 10
13.20473542446865
 20
-19.7113628992974
 10
13.11566645866866
 20
-19.56363876089739
 10
13.04614921706865
 20
-19.40722496729737
 10
12.99183887206862
 20
-19.24646634609738
 10
12.96142507886867
 20
-19.07919048349737
 10
12.95056300986862
 20
-18.90539737949737
 10
12.95925266506861
 20
-18.73160427549737
 10
12.98749404446863
 20
-18.56650082669736
 10
13.03745956186861
 20
-18.40574220549737
 10
13.10045956206863
 20
-18.25150082569738
 10
13.18301128646862
 20
-18.10594910109736
 10
13.28302921782062
 20
-17.96873944548937
 10
13.39429416989798
 20
-17.84048013473739
 10
13.51973542546863
 20
-17.7214318584974
 10
13.66244302592167
 20
-17.61472289264137
 10
13.81301128846865
 20
-17.51939737509735
 10
13.98028715106863
 20
-17.43684565069736
 10
14.15625266886866
 20
-17.36732840909735
 10
14.34090784186867
 20
-17.31301806409738
 10
14.53642508386866
 20
-17.27174220189738
 10
14.73845956726864
 20
-17.24567323629736
 10
14.95135611966867
 20
-17.23698358109738
 10
17.20849405786867
 20
-17.23698358109738
 10
17.02732512240288
 20
-17.30650189354355
  0
LWPOLYLINE
  5
899
330
85B
100
AcDbEntity
  8
LW 3000-SECURIT-01
 62
     1
100
AcDbPolyline
 90
        6
 70
     1
 43
0.0
 10
26.48035615626867
 20
-20.60639738489738
 10
24.24276994226863
 20
-20.60639738489738
 10
24.24276994226863
 20
-17.23698358109738
 10
25.26597684206865
 20
-17.23698358109738
 10
25.26597684206865
 20
-19.73960427869736
 10
26.48035615626867
 20
-19.73960427869736
  0
LWPOLYLINE
  5
89A
330
85B
100
AcDbEntity
  8
LW 3000-SECURIT-01
 62
     1
100
AcDbPolyline
 90
       57
 70
     1
 43
0.0
 10
21.18895572567743
 20
-19.98126358980937
 10
21.06909931150386
 20
-19.85091876180939
 10
20.96025269046862
 20
-19.7113628992974
 10
20.87335613846863
 20
-19.56363876089739
 10
20.80166648306863
 20
-19.40722496729737
 10
20.74952855186865
 20
-19.24646634609738
 10
20.71694234486864
 20
-19.07919048349737
 10
20.70608027586866
 20
-18.90539737949737
 10
20.71694234486864
 20
-18.73160427549737
 10
20.74952855186865
 20
-18.56432841289737
 10
20.79949406926863
 20
-18.40356979169738
 10
20.87118372466864
 20
-18.24932841189735
 10
20.95590786286862
 20
-18.1037766872974
 10
21.06018372526864
 20
-17.96474220409737
 10
21.18024869116704
 20
-17.83596151403338
 10
21.31480800193907
 20
-17.71673944468938
 10
21.46488703689823
 20
-17.60724978916937
 10
21.62370786498866
 20
-17.51079461644937
 10
21.79011476206864
 20
-17.42815599549738
 10
21.97476993506865
 20
-17.35646634009737
 10
22.16376993566865
 20
-17.30215599509736
 10
22.36145959146864
 20
-17.26088013289737
 10
22.56783890246862
 20
-17.23263875349738
 10
22.77856304106865
 20
-17.22394909829737
 10
24.01249407946864
 20
-17.22394909829737
 10
24.01249407946864
 20
-18.04946634229736
 10
22.77204579966866
 20
-18.04946634229736
 10
22.62866648886864
 20
-18.05815599749735
 10
22.49397683326861
 20
-18.08526772172138
 10
22.36250235009265
 20
-18.12524013564138
 10
22.23545959106866
 20
-18.17763875649737
 10
22.12805545279667
 20
-18.24472289464137
 10
22.02690786626863
 20
-18.32101806729736
 10
21.94001131426864
 20
-18.41008703309737
 10
21.87049407266863
 20
-18.50784565409736
 10
24.01249407946864
 20
-18.50784565409736
 10
24.01249407946864
 20
-19.33553531189739
 10
21.90742510726863
 20
-19.33553531189739
 10
21.98189545233265
 20
-19.42104151906537
 10
22.06931338364467
 20
-19.50081255380138
 10
22.16637683222865
 20
-19.56841807125738
 10
22.27604028085266
 20
-19.62933255420938
 10
22.39204717777266
 20
-19.67729945091338
 10
22.51265959194864
 20
-19.71162358895339
 10
22.64491614409263
 20
-19.7336084166094
 10
22.77856304106865
 20
-19.74394910629738
 10
24.01249407946864
 20
-19.74394910629738
 10
24.01249407946864
 20
-20.60205255729739
 10
22.80245959286867
 20
-20.60205255729739
 10
22.58956304046864
 20
-20.59336290209737
 10
22.38318372946867
 20
-20.56946635029738
 10
22.18332165986862
 20
-20.52601807429738
 10
21.99214924546862
 20
-20.46953531549736
 10
21.80749407246861
 20
-20.39567324629738
 10
21.63370096846864
 20
-20.31094910809736
 10
21.47294234726865
 20
-20.21319048709736
 10
21.32538331231745
 20
-20.10257117640137
  0
ENDBLK
  5
85D
330
85B
100
AcDbEntity
  8
0
100
AcDbBlockEnd
  0
BLOCK
  5
89D
330
89C
100
AcDbEntity
  8
0
100
AcDbBlockBegin
  2
LW 3000-15-01
 70
     0
 10
0.0
 20
0.0
 30
0.0
  3
LW 3000-15-01
  1

  0
LINE
  5
89F
330
89C
100
AcDbEntity
  8
LW 3000-SECURIT-01
 62
     3
100
AcDbLine
 10
15.99999999999998
 20
6.999999999999985
 30
0.0
 11
32.99999999999999
 21
6.999999999999985
 31
0.0
  0
HATCH
  5
8A0
330
89C
100
AcDbEntity
  8
LW 3000-SECURIT-01
 62
     8
100
AcDbHatch
 10
0.0
 20
0.0
 30
0.0
210
0.0
220
0.0
230
1.0
  2
ANSI31
 70
     0
 71
     0
 91
        9
 92
        7
 72
     1
 73
     1
 93
       27
 10
32.99999999999999
 20
19.79289321881343
 42
0.1989123673796594
 10
32.85355339059327
 20
20.14644660940671
 42
0.0
 10
30.1464466094067
 20
22.85355339059325
 42
0.198912367379646
 10
29.79289321881344
 20
22.99999999999996
 42
0.0
 10
28.49999999999999
 20
22.99999999999998
 42
0.0
 10
28.49999999999998
 20
16.99999999999997
 42
0.0
 10
25.99999999999998
 20
15.55662432702593
 42
0.0
 10
23.49999999999999
 20
16.99999999999995
 42
0.0
 10
23.49999999999998
 20
22.99999999999998
 42
0.0
 10
16.99999999999998
 20
22.99999999999997
 42
0.0
 10
16.99999999999998
 20
21.99999999999996
 42
0.0
 10
14.99999999999999
 20
21.99999999999996
 42
0.0
 10
14.99999999999998
 20
11.0
 42
0.0
 10
4.99999999999997
 20
10.99999999999998
 42
0.0
 10
0.0
 20
15.99999999999997
 42
0.0
 10
0.0
 20
8.499999999999985
 42
0.0
 10
4.000000000000003
 20
8.499999999999985
 42
0.0
 10
4.86602540378443
 20
6.999999999999971
 42
0.0
 10
4.000000000000003
 20
5.499999999999971
 42
0.0
 10
0.0
 20
5.499999999999985
 42
0.0
 10
0.0
 20
1.200000000000002
 42
-0.4142135623731028
 10
1.199999999999999
 20
-0.0000000000000284
 42
0.0
 10
10.50529882059519
 20
-0.0000000000000142
 42
0.0
 10
13.99999999999998
 20
6.052999999999926
 42
0.0
 10
15.99999999999998
 20
6.052999999999897
 42
0.0
 10
15.99999999999998
 20
6.999999999999985
 42
0.0
 10
32.99999999999999
 20
6.999999999999985
 42
0.0
 97
        0
 92
       23
 72
     0
 73
     1
 93
        4
 10
32.99999999999999
 20
7.0
 10
15.99999999999998
 20
7.0
 10
15.99999999999998
 20
6.052999999999954
 10
32.99999999999999
 20
6.052999999999954
 97
        0
 92
        7
 72
     1
 73
     1
 93
       23
 10
10.50529882059519
 20
-0.0000000000000284
 42
0.0
 10
1.199999999999999
 20
-0.0000000000000284
 42
-0.4142135623730888
 10
0.0
 20
-1.200000000000002
 42
0.0
 10
0.0
 20
-1.799999999999997
 42
0.0
 10
-0.0000000000000004
 20
-5.500000000000042
 42
0.0
 10
4.000000000000022
 20
-5.500000000000042
 42
0.0
 10
4.866025403784429
 20
-7.000000000000042
 42
0.0
 10
4.000000000000023
 20
-8.500000000000042
 42
0.0
 10
0.0
 20
-8.500000000000014
 42
0.0
 10
0.0
 20
-15.99999999999998
 42
0.0
 10
5.000000000000014
 20
-11.00000000000001
 42
0.0
 10
14.99999999999998
 20
-11.00000000000001
 42
0.0
 10
14.99999999999999
 20
-22.00000000000001
 42
0.0
 10
16.99999999999998
 20
-22.00000000000001
 42
0.0
 10
16.99999999999998
 20
-23.00000000000004
 42
0.0
 10
29.79289321881343
 20
-23.00000000000004
 42
0.1989123673796574
 10
30.1464466094067
 20
-22.85355339059329
 42
0.0
 10
32.85355339059325
 20
-20.14644660940674
 42
0.1989123673796756
 10
32.99999999999999
 20
-19.79289321881343
 42
0.0
 10
32.99999999999999
 20
-7.000000000000014
 42
0.0
 10
15.99999999999998
 20
-7.000000000000014
 42
0.0
 10
15.99999999999998
 20
-6.052999999999997
 42
0.0
 10
13.99999999999998
 20
-6.053000000000011
 42
0.0
 97
        0
 92
       22
 72
     0
 73
     1
 93
       76
 10
16.81301128846866
 20
-17.51939737509734
 10
16.98028715106872
 20
-17.43684565069746
 10
17.15625266886851
 20
-17.36732840909734
 10
17.34090784186873
 20
-17.31301806409733
 10
17.53642508386871
 20
-17.27174220189742
 10
17.73845956726838
 20
-17.24567323629735
 10
17.95135611966862
 20
-17.23698358109736
 10
20.20849405786862
 20
-17.23698358109739
 10
20.02732512240276
 20
-17.30650189354357
 10
19.84557218980254
 20
-17.39785357312628
 10
19.67018523643776
 20
-17.50003145494806
 10
19.5065164403558
 20
-17.61693773786372
 10
19.36049653389449
 20
-17.74532229957701
 10
19.22601845868159
 20
-17.88574642983964
 10
19.10786033445036
 20
-18.0369888288556
 10
19.0760015050775
 20
-18.08856979069735
 10
17.98611474046899
 20
-18.08856979069732
 10
17.84273542966831
 20
-18.09508703209739
 10
17.70587336026858
 20
-18.11463875629731
 10
17.58342742884541
 20
-18.14670358398548
 10
17.46473542846863
 20
-18.19067323929736
 10
17.3621366695222
 20
-18.24898082568926
 10
17.26704577266861
 20
-18.31884565349732
 10
17.18449404826861
 20
-18.40139737789731
 10
17.11497680666866
 20
-18.49698358509737
 10
18.88561532428803
 20
-18.49698358509737
 10
18.86901662161296
 20
-18.54611574501565
 10
18.83271089993763
 20
-18.73248511628226
 10
18.82068922750835
 20
-18.92723620963723
 10
18.83273288028999
 20
-19.11752592358802
 10
18.8688446882545
 20
-19.30289987113896
 10
18.87942915552747
 20
-19.33553531189737
 10
17.15190784126865
 20
-19.33553531189737
 10
17.22359749666873
 20
-19.42025945009742
 10
17.3137787383343
 20
-19.4982056572414
 10
17.41192839381835
 20
-19.56581117469746
 10
17.51687335966852
 20
-19.62229393349729
 10
17.63201129106884
 20
-19.66791462329748
 10
17.76018370526847
 20
-19.70084841650531
 10
17.89093694706307
 20
-19.72118220967336
 10
18.02304577506784
 20
-19.72874220969733
 10
19.05150884198901
 20
-19.72874220969733
 10
19.10348007343752
 20
-19.81292685180146
 10
19.2171854281809
 20
-19.96341509651425
 10
19.34462132166521
 20
-20.10276877974268
 10
19.48853369003555
 20
-20.2325583762826
 10
19.65136658479632
 20
-20.34817661470815
 10
19.81983299096636
 20
-20.45270630763984
 10
20.00339713476867
 20
-20.5433265811625
 10
20.1639409988212
 20
-20.60639738489737
 10
18.0447699130688
 20
-20.60639738489737
 10
17.83404577446863
 20
-20.59770772969738
 10
17.6254940496688
 20
-20.57163876409739
 10
17.42563198006851
 20
-20.52819048809737
 10
17.23445956566867
 20
-20.47170772929737
 10
17.05381032371563
 20
-20.3980194532014
 10
16.8781837024686
 20
-20.31312152189726
 10
16.71742508126864
 20
-20.21536290089749
 10
16.57008068080064
 20
-20.10491738330514
 10
16.43388163209269
 20
-19.98378358981743
 10
16.31118370066865
 20
-19.85256979629743
 10
16.20473542446867
 20
-19.71136289929747
 10
16.11566645866867
 20
-19.56363876089749
 10
16.04614921706866
 20
-19.40722496729732
 10
15.99183887206861
 20
-19.24646634609736
 10
15.96142507886867
 20
-19.07919048349736
 10
15.95056300986863
 20
-18.90539737949739
 10
15.95925266506862
 20
-18.7316042754973
 10
15.98749404446863
 20
-18.56650082669729
 10
16.03745956186859
 20
-18.40574220549742
 10
16.10045956206861
 20
-18.25150082569748
 10
16.18301128646862
 20
-18.10594910109746
 10
16.28302921782067
 20
-17.96873944548919
 10
16.39429416989796
 20
-17.84048013473757
 10
16.51973542546875
 20
-17.72143185849738
 10
16.66244302592183
 20
-17.61472289264129
 97
        0
 92
       22
 72
     0
 73
     1
 93
       73
 10
19.59804578006861
 20
-17.73229392749736
 10
19.7501147460685
 20
-17.62367323749733
 10
19.91567874659395
 20
-17.52721806477739
 10
20.08683888506858
 20
-17.4411904782974
 10
20.27366647186863
 20
-17.36950082289736
 10
20.46701130006863
 20
-17.31301806409728
 10
20.67144412830367
 20
-17.27321944328143
 10
20.8781623358566
 20
-17.24775875354534
 10
21.08614923306871
 20
-17.23698358109733
 10
24.52508027846863
 20
-17.23698358109736
 10
22.84363199726864
 20
-18.87063875869738
 10
24.55766648546863
 20
-20.61291462629736
 10
23.23901130886865
 20
-20.61291462629732
 10
21.47283888946861
 20
-18.89453531049731
 10
22.32008027146866
 20
-18.07988013549736
 10
21.05139061226842
 20
-18.07988013549736
 10
20.9273284049785
 20
-18.08509392861735
 10
20.80446537010563
 20
-18.10316841143343
 10
20.68412233524085
 20
-18.13375599773739
 10
20.56758536935365
 20
-18.17659599787335
 10
20.48356509322462
 20
-18.21874082559325
 10
20.40726992056844
 20
-18.26305806711348
 10
20.36702812733752
 20
-18.29025668788945
 10
20.32951488583904
 20
-18.32119186040113
 10
20.21860012686629
 20
-18.42963875729735
 10
20.15552191976941
 20
-18.50767186099348
 10
20.11399405756861
 20
-18.57553806810553
 10
20.07034591949903
 20
-18.67425255117733
 10
20.05213240219983
 20
-18.73594910309744
 10
20.03997557457507
 20
-18.79912289640133
 10
20.03397102283185
 20
-18.86125393108129
 10
20.03261543662063
 20
-18.92355875886541
 10
20.04013198836867
 20
-19.01288841432138
 10
20.06083074705504
 20
-19.10004565597741
 10
20.09025391956223
 20
-19.18146772520136
 10
20.12961805761822
 20
-19.2586318633774
 10
20.17832357501426
 20
-19.33119048429741
 10
20.23338992001666
 20
-19.3990566914094
 10
20.30699129956047
 20
-19.46909531232127
 10
20.43955198963653
 20
-19.56841807125725
 10
20.49323667946225
 20
-19.60100427825735
 10
20.54937185205417
 20
-19.62915876110547
 10
20.65086702479044
 20
-19.67008703709744
 10
20.76798619757564
 20
-19.70441117513728
 10
20.88812068071616
 20
-19.7258746234814
 10
20.98906840517441
 20
-19.7358569857581
 10
21.05573543986901
 20
-19.73960427869737
 10
22.07242509826864
 20
-19.73960427869734
 10
22.95876992866864
 20
-20.61291462629736
 10
21.05573543986874
 20
-20.61291462629736
 10
20.84501130126867
 20
-20.60422497109734
 10
20.6364595764688
 20
-20.57815600549735
 10
20.43965626549896
 20
-20.53444703984128
 10
20.24542509246857
 20
-20.48039738449744
 10
20.06294233326853
 20
-20.40870772909729
 10
19.89132164306855
 20
-20.32398359089736
 10
19.7327875736001
 20
-20.22561669403338
 10
19.58066646966874
 20
-20.11760427989746
 10
19.44837515890382
 20
-19.99829531400134
 10
19.33036964128774
 20
-19.8692539342813
 10
19.22499019267747
 20
-19.72978496832142
 10
19.13314922686862
 20
-19.58101807129735
 10
19.06363198526861
 20
-19.42677669149735
 10
19.01149405406864
 20
-19.26601807029739
 10
18.97890784706862
 20
-19.09874220769735
 10
18.96804577806864
 20
-18.92712151749738
 10
18.97890784706862
 20
-18.75115599969739
 10
19.01149405406863
 20
-18.58388013709738
 10
19.06580439906865
 20
-18.42312151589745
 10
19.13749405446864
 20
-18.26888013609734
 10
19.22873543406864
 20
-18.12115599769736
 10
19.33735612406871
 20
-17.98212151449739
 10
19.46234812446543
 20
-17.85160289339332
 97
        0
 92
       22
 72
     0
 73
     1
 93
       57
 10
24.06018372526864
 20
-17.96474220409736
 10
24.18024869116705
 20
-17.83596151403328
 10
24.31480800193887
 20
-17.71673944468939
 10
24.46488703689836
 20
-17.60724978916907
 10
24.62370786498871
 20
-17.51079461644922
 10
24.79011476206876
 20
-17.42815599549739
 10
24.9747699350687
 20
-17.35646634009741
 10
25.16376993566911
 20
-17.30215599509724
 10
25.36145959146833
 20
-17.26088013289735
 10
25.56783890246861
 20
-17.23263875349737
 10
25.77856304106871
 20
-17.22394909829738
 10
27.01249407946863
 20
-17.22394909829738
 10
27.01249407946864
 20
-18.04946634229735
 10
25.77204579966846
 20
-18.04946634229735
 10
25.62866648886855
 20
-18.05815599749736
 10
25.49397683326874
 20
-18.08526772172136
 10
25.36250235009284
 20
-18.12524013564139
 10
25.23545959106865
 20
-18.1776387564973
 10
25.12805545279662
 20
-18.24472289464116
 10
25.02690786626856
 20
-18.32101806729746
 10
24.9400113142686
 20
-18.4100870330975
 10
24.87049407266864
 20
-18.50784565409738
 10
27.01249407946864
 20
-18.50784565409735
 10
27.01249407946863
 20
-19.33553531189737
 10
24.90742510726863
 20
-19.33553531189737
 10
24.98189545233273
 20
-19.42104151906558
 10
25.06931338364462
 20
-19.50081255380131
 10
25.16637683222859
 20
-19.56841807125734
 10
25.27604028085269
 20
-19.62933255420937
 10
25.39204717777258
 20
-19.67729945091339
 10
25.51265959194895
 20
-19.71162358895346
 10
25.64491614409265
 20
-19.73360841660936
 10
25.77856304106868
 20
-19.74394910629739
 10
27.01249407946864
 20
-19.74394910629739
 10
27.01249407946864
 20
-20.60205255729737
 10
25.80245959286858
 20
-20.60205255729737
 10
25.5895630404684
 20
-20.59336290209738
 10
25.38318372946858
 20
-20.5694663502973
 10
25.18332165986855
 20
-20.52601807429745
 10
24.99214924546832
 20
-20.46953531549731
 10
24.80749407246853
 20
-20.39567324629739
 10
24.63370096846865
 20
-20.31094910809738
 10
24.47294234726873
 20
-20.21319048709738
 10
24.32538331231746
 20
-20.10257117640144
 10
24.18895572567738
 20
-19.98126358980933
 10
24.06909931150389
 20
-19.85091876180944
 10
23.96025269046868
 20
-19.71136289929735
 10
23.87335613846866
 20
-19.56363876089749
 10
23.80166648306862
 20
-19.40722496729741
 10
23.74952855186864
 20
-19.24646634609736
 10
23.71694234486864
 20
-19.07919048349741
 10
23.70608027586866
 20
-18.90539737949744
 10
23.71694234486863
 20
-18.73160427549739
 10
23.74952855186863
 20
-18.56432841289749
 10
23.79949406926861
 20
-18.40356979169736
 10
23.87118372466857
 20
-18.24932841189736
 10
23.95590786286866
 20
-18.10377668729738
 97
        0
 92
       22
 72
     0
 73
     1
 93
        6
 10
27.24276994226864
 20
-17.23698358109736
 10
28.26597684206865
 20
-17.23698358109736
 10
28.26597684206865
 20
-19.73960427869734
 10
29.48035615626866
 20
-19.73960427869734
 10
29.48035615626866
 20
-20.60639738489737
 10
27.24276994226864
 20
-20.60639738489739
 97
        0
 92
       22
 72
     0
 73
     1
 93
        8
 10
28.49842511866866
 20
-17.23698358109736
 10
32.00035616426868
 20
-17.23698358109736
 10
32.00035616426868
 20
-18.06250082509739
 10
30.75773547066865
 20
-18.06250082509739
 10
30.75773547066865
 20
-20.61291462629736
 10
29.73235615706864
 20
-20.61291462629736
 10
29.73235615706863
 20
-18.06250082509739
 10
28.49842511866865
 20
-18.06250082509739
 97
        0
 92
       23
 72
     0
 73
     1
 93
        4
 10
32.99999999999998
 20
-6.053000000000011
 10
15.99999999999998
 20
-6.053000000000025
 10
15.99999999999998
 20
-7.0
 10
32.99999999999999
 20
-7.000000000000028
 97
        0
 75
     0
 76
     1
 52
0.0
 41
0.75
 77
     0
 78
     1
 53
45.0
 43
3.0
 44
120.0
 45
-1.683798022700465
 46
1.683798022700466
 79
     0
 47
0.0821829664857802
 98
        9
 10
20.43020426430905
 20
10.03460842787792
 10
19.93678762942534
 20
6.418557953376094
 10
9.739521307845507
 20
-4.840508541023083
 10
9.739521307845507
 20
-4.840508541023083
 10
9.739521307845507
 20
-4.840508541023083
 10
9.739521307845507
 20
-4.840508541023083
 10
9.739521307845507
 20
-4.840508541023083
 10
9.739521307845507
 20
-4.840508541023083
 10
20.01902437049523
 20
-6.566351301435858
1001
ACAD
1010
0.0
1020
0.0
1030
0.0
  0
LINE
  5
8A1
330
89C
100
AcDbEntity
  8
LW 3000-SECURIT-01
 62
     3
100
AcDbLine
 10
32.99999999999999
 20
-7.000000000000014
 30
0.0
 11
15.99999999999998
 21
-7.000000000000014
 31
0.0
  0
LINE
  5
8A2
330
89C
100
AcDbEntity
  8
LW 3000-SECURIT-01
 62
     3
100
AcDbLine
 10
15.99999999999998
 20
6.999999999999985
 30
0.0
 11
15.99999999999998
 21
-7.000000000000014
 31
0.0
  0
LINE
  5
8A3
330
89C
100
AcDbEntity
  8
LW 3000-SECURIT-01
100
AcDbLine
 10
13.99999999999998
 20
-6.053000000000011
 30
0.0
 11
13.99999999999998
 21
6.052999999999954
 31
0.0
  0
LINE
  5
8A4
330
89C
100
AcDbEntity
  8
LW 3000-SECURIT-01
100
AcDbLine
 10
3.999999999999985
 20
8.499999999999957
 30
0.0
 11
3.999999999999985
 21
5.499999999999985
 31
0.0
  0
LINE
  5
8A5
330
89C
100
AcDbEntity
  8
LW 3000-SECURIT-01
100
AcDbLine
 10
3.999999999999985
 20
-5.500000000000014
 30
0.0
 11
3.999999999999985
 21
-8.500000000000014
 31
0.0
  0
LWPOLYLINE
  5
8A6
330
89C
100
AcDbEntity
  8
LW 3000-SECURIT-01
100
AcDbPolyline
 90
       25
 70
     0
 43
0.0
 10
23.49999999999999
 20
22.99999999999998
 10
23.52101778984069
 20
22.99768495559691
 10
23.58435606956481
 20
22.99094486236571
 10
23.69044399261473
 20
22.98008012771605
 10
23.83832907676695
 20
22.96570587158202
 10
24.02153944969176
 20
22.94918823242186
 10
24.23223590850829
 20
22.93196487426756
 10
24.4725797176361
 20
22.91472721099852
 10
24.74519824981688
 20
22.8981738090515
 10
25.04294848442076
 20
22.88374948501585
 10
25.3581187725067
 20
22.87283468246458
 10
25.68067288398741
 20
22.86605644226073
 10
25.99999880790709
 20
22.8637270927429
 10
26.31932473182677
 20
22.86605644226073
 10
26.64188122749327
 20
22.87283468246458
 10
26.95705151557921
 20
22.88374948501585
 10
27.25480294227599
 20
22.8981738090515
 10
27.52742028236388
 20
22.91472721099852
 10
27.76776289939879
 20
22.93196487426756
 10
27.97846055030821
 20
22.94918823242186
 10
28.16167092323302
 20
22.96570587158202
 10
28.30955481529235
 20
22.98008012771605
 10
28.41564393043517
 20
22.99094486236571
 10
28.47898221015929
 20
22.99768495559691
 10
28.49999880790709
 20
22.99999999999998
  0
LINE
  5
8A7
330
89C
100
AcDbEntity
  8
LW 3000-SECURIT-01
100
AcDbLine
 10
28.49999999999999
 20
16.99999999999995
 30
0.0
 11
23.49999999999999
 21
16.99999999999995
 31
0.0
  0
LINE
  5
8A8
330
89C
100
AcDbEntity
  8
LW 3000-SECURIT-01
100
AcDbLine
 10
0.0
 20
-5.500000000000042
 30
0.0
 11
3.999999999999985
 21
-5.500000000000042
 31
0.0
  0
LINE
  5
8A9
330
89C
100
AcDbEntity
  8
LW 3000-SECURIT-01
100
AcDbLine
 10
0.0
 20
15.99999999999998
 30
0.0
 11
0.0
 21
-15.99999999999998
 31
0.0
  0
LINE
  5
8AA
330
89C
100
AcDbEntity
  8
LW 3000-SECURIT-01
100
AcDbLine
 10
3.999999999999985
 20
5.499999999999985
 30
0.0
 11
0.0
 21
5.499999999999985
 31
0.0
  0
LINE
  5
8AB
330
89C
100
AcDbEntity
  8
LW 3000-SECURIT-01
100
AcDbLine
 10
4.866025403784433
 20
6.999999999999957
 30
0.0
 11
4.0
 21
5.499999999999985
 31
0.0
  0
LINE
  5
8AC
330
89C
100
AcDbEntity
  8
LW 3000-SECURIT-01
100
AcDbLine
 10
4.0
 20
8.499999999999985
 30
0.0
 11
4.866025403784433
 21
6.999999999999957
 31
0.0
  0
LINE
  5
8AD
330
89C
100
AcDbEntity
  8
LW 3000-SECURIT-01
100
AcDbLine
 10
0.0
 20
8.499999999999985
 30
0.0
 11
3.999999999999985
 21
8.499999999999985
 31
0.0
  0
LINE
  5
8AE
330
89C
100
AcDbEntity
  8
LW 3000-SECURIT-01
100
AcDbLine
 10
5.0
 20
10.99999999999996
 30
0.0
 11
-0.0000000000000142
 21
15.99999999999998
 31
0.0
  0
LINE
  5
8AF
330
89C
100
AcDbEntity
  8
LW 3000-SECURIT-01
100
AcDbLine
 10
14.99999999999998
 20
10.99999999999998
 30
0.0
 11
5.0
 21
10.99999999999998
 31
0.0
  0
LINE
  5
8B0
330
89C
100
AcDbEntity
  8
LW 3000-SECURIT-01
100
AcDbLine
 10
14.99999999999998
 20
21.99999999999996
 30
0.0
 11
14.99999999999998
 21
10.99999999999998
 31
0.0
  0
LINE
  5
8B1
330
89C
100
AcDbEntity
  8
LW 3000-SECURIT-01
100
AcDbLine
 10
16.99999999999998
 20
21.99999999999996
 30
0.0
 11
14.99999999999998
 21
21.99999999999996
 31
0.0
  0
LINE
  5
8B2
330
89C
100
AcDbEntity
  8
LW 3000-SECURIT-01
100
AcDbLine
 10
16.99999999999998
 20
22.99999999999998
 30
0.0
 11
16.99999999999998
 21
21.99999999999996
 31
0.0
  0
LINE
  5
8B3
330
89C
100
AcDbEntity
  8
LW 3000-SECURIT-01
100
AcDbLine
 10
23.49999999999999
 20
22.99999999999998
 30
0.0
 11
16.99999999999998
 21
22.99999999999998
 31
0.0
  0
LINE
  5
8B4
330
89C
100
AcDbEntity
  8
LW 3000-SECURIT-01
100
AcDbLine
 10
23.49999999999999
 20
16.99999999999995
 30
0.0
 11
23.49999999999999
 21
22.99999999999998
 31
0.0
  0
LINE
  5
8B5
330
89C
100
AcDbEntity
  8
LW 3000-SECURIT-01
100
AcDbLine
 10
25.99999999999999
 20
15.55662432702591
 30
0.0
 11
23.49999999999999
 21
16.99999999999995
 31
0.0
  0
LINE
  5
8B6
330
89C
100
AcDbEntity
  8
LW 3000-SECURIT-01
100
AcDbLine
 10
28.49999999999999
 20
16.99999999999995
 30
0.0
 11
25.99999999999999
 21
15.55662432702591
 31
0.0
  0
LINE
  5
8B7
330
89C
100
AcDbEntity
  8
LW 3000-SECURIT-01
100
AcDbLine
 10
28.49999999999998
 20
22.99999999999998
 30
0.0
 11
28.49999999999999
 21
16.99999999999995
 31
0.0
  0
LINE
  5
8B8
330
89C
100
AcDbEntity
  8
LW 3000-SECURIT-01
100
AcDbLine
 10
29.79289321881343
 20
22.99999999999996
 30
0.0
 11
28.49999999999998
 21
22.99999999999998
 31
0.0
  0
ARC
  5
8B9
330
89C
100
AcDbEntity
  8
LW 3000-SECURIT-01
100
AcDbCircle
 10
29.79289321881343
 20
22.49999999999996
 30
0.0
 40
0.5000000000000085
100
AcDbArc
 50
45.00000000000158
 51
90.0
  0
LINE
  5
8BA
330
89C
100
AcDbEntity
  8
LW 3000-SECURIT-01
100
AcDbLine
 10
32.85355339059325
 20
20.14644660940672
 30
0.0
 11
30.1464466094067
 21
22.85355339059325
 31
0.0
  0
ARC
  5
8BB
330
89C
100
AcDbEntity
  8
LW 3000-SECURIT-01
100
AcDbCircle
 10
32.5
 20
19.79289321881343
 30
0.0
 40
0.4999999999999938
100
AcDbArc
 50
0.0
 51
45.00000000000277
  0
LINE
  5
8BC
330
89C
100
AcDbEntity
  8
LW 3000-SECURIT-01
100
AcDbLine
 10
13.99999999999998
 20
6.052999999999954
 30
0.0
 11
32.99999999999999
 21
6.052999999999954
 31
0.0
  0
LINE
  5
8BD
330
89C
100
AcDbEntity
  8
LW 3000-SECURIT-01
100
AcDbLine
 10
10.50529882059519
 20
-0.0000000000000284
 30
0.0
 11
13.99999999999998
 21
6.052999999999954
 31
0.0
  0
LINE
  5
8BE
330
89C
100
AcDbEntity
  8
LW 3000-SECURIT-01
100
AcDbLine
 10
13.99999999999998
 20
-6.053000000000011
 30
0.0
 11
10.50529882059519
 21
-0.0000000000000284
 31
0.0
  0
LINE
  5
8BF
330
89C
100
AcDbEntity
  8
LW 3000-SECURIT-01
100
AcDbLine
 10
32.99999999999999
 20
-6.053000000000011
 30
0.0
 11
13.99999999999998
 21
-6.053000000000011
 31
0.0
  0
LINE
  5
8C0
330
89C
100
AcDbEntity
  8
LW 3000-SECURIT-01
100
AcDbLine
 10
32.99999999999999
 20
-19.79289321881349
 30
0.0
 11
32.99999999999999
 21
19.79289321881343
 31
0.0
  0
ARC
  5
8C1
330
89C
100
AcDbEntity
  8
LW 3000-SECURIT-01
100
AcDbCircle
 10
32.5
 20
-19.79289321881349
 30
0.0
 40
0.4999999999999944
100
AcDbArc
 50
314.9999999999998
 51
0.0
  0
LINE
  5
8C2
330
89C
100
AcDbEntity
  8
LW 3000-SECURIT-01
100
AcDbLine
 10
30.14644660940671
 20
-22.85355339059329
 30
0.0
 11
32.85355339059325
 21
-20.14644660940674
 31
0.0
  0
ARC
  5
8C3
330
89C
100
AcDbEntity
  8
LW 3000-SECURIT-01
100
AcDbCircle
 10
29.79289321881343
 20
-22.50000000000004
 30
0.0
 40
0.5000000000000071
100
AcDbArc
 50
270.0
 51
315.0000000000004
  0
LINE
  5
8C4
330
89C
100
AcDbEntity
  8
LW 3000-SECURIT-01
100
AcDbLine
 10
16.99999999999998
 20
-23.00000000000004
 30
0.0
 11
29.79289321881343
 21
-23.00000000000004
 31
0.0
  0
LINE
  5
8C5
330
89C
100
AcDbEntity
  8
LW 3000-SECURIT-01
100
AcDbLine
 10
16.99999999999998
 20
-22.00000000000001
 30
0.0
 11
16.99999999999998
 21
-23.00000000000004
 31
0.0
  0
LINE
  5
8C6
330
89C
100
AcDbEntity
  8
LW 3000-SECURIT-01
100
AcDbLine
 10
14.99999999999998
 20
-22.00000000000001
 30
0.0
 11
16.99999999999998
 21
-22.00000000000001
 31
0.0
  0
LINE
  5
8C7
330
89C
100
AcDbEntity
  8
LW 3000-SECURIT-01
100
AcDbLine
 10
14.99999999999998
 20
-11.00000000000001
 30
0.0
 11
14.99999999999998
 21
-22.00000000000001
 31
0.0
  0
LINE
  5
8C8
330
89C
100
AcDbEntity
  8
LW 3000-SECURIT-01
100
AcDbLine
 10
5.0
 20
-11.00000000000001
 30
0.0
 11
14.99999999999998
 21
-11.00000000000001
 31
0.0
  0
LINE
  5
8C9
330
89C
100
AcDbEntity
  8
LW 3000-SECURIT-01
100
AcDbLine
 10
-0.0000000000000142
 20
-16.00000000000001
 30
0.0
 11
5.0
 21
-11.00000000000001
 31
0.0
  0
LINE
  5
8CA
330
89C
100
AcDbEntity
  8
LW 3000-SECURIT-01
100
AcDbLine
 10
3.999999999999985
 20
-8.500000000000014
 30
0.0
 11
0.0
 21
-8.500000000000014
 31
0.0
  0
LINE
  5
8CB
330
89C
100
AcDbEntity
  8
LW 3000-SECURIT-01
100
AcDbLine
 10
4.866025403784433
 20
-7.000000000000014
 30
0.0
 11
4.0
 21
-8.500000000000042
 31
0.0
  0
LINE
  5
8CC
330
89C
100
AcDbEntity
  8
LW 3000-SECURIT-01
100
AcDbLine
 10
4.0
 20
-5.500000000000014
 30
0.0
 11
4.866025403784433
 21
-7.000000000000014
 31
0.0
  0
LINE
  5
8CD
330
89C
100
AcDbEntity
  8
LW 3000-SECURIT-01
  6
MITTE2
 62
     3
100
AcDbLine
 10
25.99999999999999
 20
12.63029283982406
 30
0.0
 11
25.99999999999999
 21
25.14953494527482
 31
0.0
  0
LINE
  5
8CE
330
89C
100
AcDbEntity
  8
LW 3000-SECURIT-01
  6
MITTE2
 62
     3
100
AcDbLine
 10
35.41947717894095
 20
-0.0000000000000284
 30
0.0
 11
-3.154117270599044
 21
-0.0000000000000284
 31
0.0
  0
LINE
  5
8CF
330
89C
100
AcDbEntity
  8
LW 3000-SECURIT-01
  6
MITTE2
 62
     3
100
AcDbLine
 10
6.466010717671451
 20
6.999999999999957
 30
0.0
 11
-2.314777409360431
 21
6.999999999999957
 31
0.0
  0
LINE
  5
8D0
330
89C
100
AcDbEntity
  8
LW 3000-SECURIT-01
  6
MITTE2
 62
     3
100
AcDbLine
 10
6.466010717671451
 20
-7.000000000000014
 30
0.0
 11
-2.314777409360431
 21
-7.000000000000014
 31
0.0
  0
INSERT
  5
8D1
330
89C
100
AcDbEntity
  8
LW 3000-SECURIT-01
100
AcDbBlockReference
 66
     1
  2
insertpoint-ECKELT
 10
0.0
 20
0.0
 30
0.0
  0
ATTRIB
  5
8D2
330
8D1
100
AcDbEntity
  8
insertpoint_ECKELT
100
AcDbText
 10
-6.931514324693041
 20
-0.0000000000000284
 30
0.0
 40
0.6
  1
LW 3000/15-01
 72
     2
 11
-1.199999999999999
 21
-0.0000000000000284
 31
0.0
100
AcDbAttribute
  2
LINKS
 70
     0
  0
ATTRIB
  5
8D3
330
8D1
100
AcDbEntity
  8
insertpoint_ECKELT
100
AcDbText
 10
1.199999999999999
 20
-0.0000000000000284
 30
0.0
 40
0.6
  1

100
AcDbAttribute
  2
RECHTS
 70
     0
  0
SEQEND
  5
8D4
330
8D1
100
AcDbEntity
  8
LW 3000-SECURIT-01
  0
HATCH
  5
8D5
330
89C
100
AcDbEntity
  8
LW 3000-SECURIT-01
 62
     1
100
AcDbHatch
 10
0.0
 20
0.0
 30
0.0
210
0.0
220
0.0
230
1.0
  2
SOLID
 70
     1
 71
     0
 91
        5
 92
        7
 72
     0
 73
     1
 93
       76
 10
19.07600150507749
 20
-18.08856979069735
 10
19.10786033445032
 20
-18.03698882885565
 10
19.2260184586816
 20
-17.88574642983961
 10
19.36049653389437
 20
-17.74532229957712
 10
19.50651644035582
 20
-17.61693773786378
 10
19.67018523643781
 20
-17.50003145494808
 10
19.84557218980256
 20
-17.39785357312637
 10
20.02732512240288
 20
-17.30650189354354
 10
20.20849405786862
 20
-17.23698358109736
 10
17.95135611966856
 20
-17.23698358109736
 10
17.73845956726859
 20
-17.24567323629735
 10
17.5364250838686
 20
-17.27174220189737
 10
17.34090784186861
 20
-17.31301806409736
 10
17.15625266886871
 20
-17.36732840909734
 10
16.98028715106858
 20
-17.43684565069735
 10
16.81301128846865
 20
-17.5193973750974
 10
16.66244302592173
 20
-17.61472289264126
 10
16.51973542546869
 20
-17.72143185849738
 10
16.39429416989804
 20
-17.84048013473743
 10
16.28302921782062
 20
-17.96873944548933
 10
16.18301128646868
 20
-18.10594910109732
 10
16.10045956206863
 20
-18.25150082569733
 10
16.03745956186861
 20
-18.4057422054975
 10
15.98749404446868
 20
-18.56650082669726
 10
15.95925266506867
 20
-18.73160427549736
 10
15.95056300986863
 20
-18.90539737949733
 10
15.96142507886867
 20
-19.07919048349741
 10
15.99183887206862
 20
-19.24646634609739
 10
16.04614921706865
 20
-19.40722496729738
 10
16.11566645866861
 20
-19.56363876089737
 10
16.2047354244687
 20
-19.71136289929744
 10
16.3111837006686
 20
-19.85256979629734
 10
16.43388163209266
 20
-19.98378358981738
 10
16.57008068080085
 20
-20.10491738330534
 10
16.71742508126862
 20
-20.21536290089738
 10
16.87818370246867
 20
-20.31312152189734
 10
17.05381032371587
 20
-20.39801945320134
 10
17.2344595656686
 20
-20.47170772929733
 10
17.42563198006871
 20
-20.52819048809737
 10
17.62549404966864
 20
-20.57163876409736
 10
17.83404577446862
 20
-20.59770772969738
 10
18.04476991306859
 20
-20.60639738489737
 10
20.1639409988212
 20
-20.60639738489737
 10
20.0033971347687
 20
-20.54332658116248
 10
19.81983299096629
 20
-20.45270630763973
 10
19.65136658479622
 20
-20.3481766147081
 10
19.48853369003546
 20
-20.23255837628266
 10
19.34462132166527
 20
-20.10276877974279
 10
19.21718542818092
 20
-19.96341509651431
 10
19.10348007343759
 20
-19.81292685180169
 10
19.051508841989
 20
-19.72874220969736
 10
18.02304577506862
 20
-19.72874220969736
 10
17.89093694706303
 20
-19.72118220967336
 10
17.76018370526861
 20
-19.70084841650536
 10
17.63201129106869
 20
-19.66791462329739
 10
17.51687335966863
 20
-19.62229393349734
 10
17.41192839381824
 20
-19.56581117469737
 10
17.31377873833423
 20
-19.49820565724137
 10
17.22359749666867
 20
-19.42025945009736
 10
17.15190784126866
 20
-19.33553531189737
 10
18.87942915552747
 20
-19.33553531189737
 10
18.86884468825445
 20
-19.30289987113905
 10
18.83273288028999
 20
-19.11752592358793
 10
18.82068922750829
 20
-18.9272362096372
 10
18.83271089993763
 20
-18.73248511628223
 10
18.86901662161295
 20
-18.54611574501568
 10
18.88561532428803
 20
-18.49698358509737
 10
17.11497680666866
 20
-18.49698358509737
 10
17.18449404826861
 20
-18.40139737789745
 10
17.2670457726686
 20
-18.31884565349735
 10
17.36213666952221
 20
-18.24898082568937
 10
17.46473542846865
 20
-18.19067323929736
 10
17.58342742884542
 20
-18.1467035839854
 10
17.70587336026869
 20
-18.11463875629737
 10
17.84273542966866
 20
-18.09508703209739
 10
17.98611474046867
 20
-18.08856979069735
 97
        0
 92
        7
 72
     0
 73
     1
 93
       72
 10
20.80446537010544
 20
-18.10316841143337
 10
20.92732840497825
 20
-18.08509392861735
 10
21.05139061226867
 20
-18.07988013549736
 10
22.32008027146866
 20
-18.07988013549736
 10
21.47283888946862
 20
-18.89453531049734
 10
23.23901130886866
 20
-20.61291462629736
 10
24.55766648546864
 20
-20.61291462629736
 10
22.84363199726863
 20
-18.87063875869738
 10
24.52508027846863
 20
-17.23698358109736
 10
21.08614923306873
 20
-17.23698358109736
 10
20.87816233585658
 20
-17.24775875354537
 10
20.67144412830379
 20
-17.27321944328138
 10
20.46701130006869
 20
-17.31301806409736
 10
20.27366647186863
 20
-17.36950082289739
 10
20.08683888506863
 20
-17.44119047829734
 10
19.91567874659415
 20
-17.52721806477739
 10
19.75011474606867
 20
-17.62367323749741
 10
19.59804578006867
 20
-17.73229392749736
 10
19.4623481244655
 20
-17.85160289339335
 10
19.33735612406866
 20
-17.98212151449739
 10
19.22873543406859
 20
-18.12115599769741
 10
19.13749405446867
 20
-18.26888013609725
 10
19.06580439906866
 20
-18.4231215158973
 10
19.01149405406863
 20
-18.58388013709735
 10
18.97890784706868
 20
-18.75115599969733
 10
18.96804577806864
 20
-18.92712151749747
 10
18.97890784706862
 20
-19.09874220769738
 10
19.01149405406863
 20
-19.26601807029736
 10
19.06363198526861
 20
-19.42677669149735
 10
19.13314922686862
 20
-19.58101807129735
 10
19.22499019267741
 20
-19.72978496832131
 10
19.33036964128785
 20
-19.86925393428144
 10
19.44837515890384
 20
-19.99829531400131
 10
19.58066646966864
 20
-20.11760427989735
 10
19.73278757359986
 20
-20.22561669403341
 10
19.89132164306869
 20
-20.32398359089738
 10
20.06294233326866
 20
-20.40870772909737
 10
20.24542509246862
 20
-20.48039738449738
 10
20.43965626549908
 20
-20.53444703984137
 10
20.63645957646861
 20
-20.57815600549735
 10
20.8450113012687
 20
-20.60422497109737
 10
21.05573543986861
 20
-20.61291462629736
 10
22.95876992866863
 20
-20.61291462629736
 10
22.07242509826864
 20
-19.73960427869734
 10
21.05573543986861
 20
-19.73960427869734
 10
20.98906840517412
 20
-19.73585698575805
 10
20.88812068071587
 20
-19.72587462348137
 10
20.76798619757585
 20
-19.70441117513739
 10
20.65086702479027
 20
-19.67008703709739
 10
20.54937185205426
 20
-19.62915876110536
 10
20.4932366794622
 20
-19.60100427825732
 10
20.43955198963658
 20
-19.56841807125731
 10
20.30699129956065
 20
-19.46909531232136
 10
20.23338992001663
 20
-19.39905669140937
 10
20.17832357501436
 20
-19.33119048429744
 10
20.12961805761824
 20
-19.25863186337737
 10
20.0902539195622
 20
-19.18146772520138
 10
20.06083074705503
 20
-19.10004565597744
 10
20.04013198836861
 20
-19.01288841432135
 10
20.03261543662063
 20
-18.92355875886544
 10
20.03397102283185
 20
-18.86125393108141
 10
20.03997557457506
 20
-18.7991228964015
 10
20.05213240219984
 20
-18.73594910309735
 10
20.07034591949906
 20
-18.67425255117739
 10
20.11399405756861
 20
-18.57553806810544
 10
20.15552191976945
 20
-18.50767186099339
 10
20.21860012686625
 20
-18.42963875729735
 10
20.34800206723105
 20
-18.30311602024373
 10
20.40726992056869
 20
-18.26305806711336
 10
20.48356509322462
 20
-18.21874082559343
 10
20.56758536935342
 20
-18.17659599787338
 10
20.6841223352406
 20
-18.13375599773739
 97
        0
 92
        7
 72
     0
 73
     1
 93
       57
 10
25.36250235009271
 20
-18.12524013564136
 10
25.49397683326867
 20
-18.08526772172136
 10
25.62866648886859
 20
-18.05815599749734
 10
25.77204579966855
 20
-18.04946634229735
 10
27.01249407946864
 20
-18.04946634229735
 10
27.01249407946864
 20
-17.22394909829738
 10
25.7785630410687
 20
-17.22394909829738
 10
25.56783890246868
 20
-17.23263875349737
 10
25.3614595914687
 20
-17.26088013289732
 10
25.16376993566871
 20
-17.30215599509732
 10
24.9747699350687
 20
-17.35646634009735
 10
24.79011476206875
 20
-17.42815599549736
 10
24.62370786498849
 20
-17.51079461644939
 10
24.46488703689817
 20
-17.60724978916941
 10
24.31480800193907
 20
-17.71673944468936
 10
24.18024869116715
 20
-17.83596151403331
 10
24.0601837252687
 20
-17.96474220409736
 10
23.95590786286868
 20
-18.10377668729738
 10
23.87118372466864
 20
-18.24932841189739
 10
23.79949406926863
 20
-18.40356979169739
 10
23.74952855186865
 20
-18.56432841289727
 10
23.71694234486864
 20
-18.7316042754973
 10
23.70608027586865
 20
-18.90539737949733
 10
23.71694234486864
 20
-19.07919048349736
 10
23.74952855186865
 20
-19.24646634609739
 10
23.80166648306863
 20
-19.40722496729738
 10
23.87335613846863
 20
-19.56363876089737
 10
23.96025269046868
 20
-19.71136289929738
 10
24.0690993115038
 20
-19.85091876180938
 10
24.18895572567743
 20
-19.98126358980936
 10
24.32538331231745
 20
-20.10257117640138
 10
24.47294234726865
 20
-20.21319048709738
 10
24.63370096846864
 20
-20.3109491080974
 10
24.80749407246861
 20
-20.39567324629739
 10
24.99214924546862
 20
-20.46953531549734
 10
25.18332165986868
 20
-20.52601807429737
 10
25.38318372946861
 20
-20.56946635029736
 10
25.58956304046864
 20
-20.59336290209738
 10
25.80245959286867
 20
-20.60205255729737
 10
27.01249407946864
 20
-20.60205255729737
 10
27.01249407946864
 20
-19.74394910629739
 10
25.77856304106859
 20
-19.74394910629739
 10
25.64491614409263
 20
-19.73360841660938
 10
25.51265959194865
 20
-19.71162358895337
 10
25.39204717777267
 20
-19.67729945091337
 10
25.27604028085267
 20
-19.62933255420937
 10
25.16637683222865
 20
-19.56841807125737
 10
25.06931338364467
 20
-19.50081255380137
 10
24.98189545233265
 20
-19.42104151906538
 10
24.90742510726863
 20
-19.33553531189737
 10
27.01249407946864
 20
-19.33553531189737
 10
27.01249407946864
 20
-18.50784565409735
 10
24.87049407266863
 20
-18.50784565409735
 10
24.94001131426864
 20
-18.41008703309738
 10
25.02690786626857
 20
-18.3210180672974
 10
25.12805545279667
 20
-18.24472289464135
 10
25.23545959106866
 20
-18.17763875649738
 97
        0
 92
        7
 72
     0
 73
     1
 93
        6
 10
27.24276994226864
 20
-17.23698358109736
 10
27.24276994226864
 20
-20.60639738489737
 10
29.48035615626867
 20
-20.60639738489737
 10
29.48035615626867
 20
-19.73960427869734
 10
28.26597684206865
 20
-19.73960427869734
 10
28.26597684206865
 20
-17.23698358109736
 97
        0
 92
        7
 72
     0
 73
     1
 93
        8
 10
28.49842511866865
 20
-17.23698358109736
 10
28.49842511866865
 20
-18.06250082509739
 10
29.73235615706864
 20
-18.06250082509739
 10
29.73235615706864
 20
-20.61291462629736
 10
30.75773547066865
 20
-20.61291462629736
 10
30.75773547066865
 20
-18.06250082509739
 10
32.00035616426868
 20
-18.06250082509739
 10
32.00035616426868
 20
-17.23698358109736
 97
        0
 75
     0
 76
     1
 47
0.0142553043587597
 98
        5
 10
18.38566163114387
 20
-17.67943325068647
 10
20.65315884448642
 20
-17.82198623569228
 10
25.14537057668798
 20
-17.76496506314457
 10
27.86921966051954
 20
-17.5226248384523
 10
29.28105764274642
 20
-17.62241197086563
450
        0
451
        0
460
0.0
461
0.0
452
        0
462
0.0
453
        0
470

  0
LWPOLYLINE
  5
8D6
330
89C
100
AcDbEntity
  8
LW 3000-SECURIT-01
 62
     1
100
AcDbPolyline
 90
        8
 70
     1
 43
0.0
 10
30.75773547066865
 20
-18.06250082509739
 10
30.75773547066865
 20
-20.61291462629736
 10
29.73235615706864
 20
-20.61291462629736
 10
29.73235615706864
 20
-18.06250082509739
 10
28.49842511866865
 20
-18.06250082509739
 10
28.49842511866865
 20
-17.23698358109736
 10
32.00035616426868
 20
-17.23698358109736
 10
32.00035616426868
 20
-18.06250082509739
  0
LWPOLYLINE
  5
8D7
330
89C
100
AcDbEntity
  8
LW 3000-SECURIT-01
 62
     1
100
AcDbPolyline
 90
       73
 70
     1
 43
0.0
 10
21.05573543986867
 20
-19.73960427869734
 10
22.07242509826864
 20
-19.73960427869734
 10
22.95876992866863
 20
-20.61291462629736
 10
21.05573543986867
 20
-20.61291462629736
 10
20.84501130126864
 20
-20.60422497109737
 10
20.63645957646866
 20
-20.57815600549735
 10
20.43965626549908
 20
-20.53444703984137
 10
20.24542509246868
 20
-20.48039738449738
 10
20.06294233326866
 20
-20.40870772909737
 10
19.89132164306863
 20
-20.32398359089738
 10
19.73278757359986
 20
-20.22561669403335
 10
19.58066646966864
 20
-20.11760427989735
 10
19.44837515890384
 20
-19.99829531400137
 10
19.33036964128785
 20
-19.86925393428139
 10
19.22499019267746
 20
-19.72978496832137
 10
19.13314922686862
 20
-19.58101807129735
 10
19.06363198526861
 20
-19.42677669149735
 10
19.01149405406863
 20
-19.26601807029736
 10
18.97890784706862
 20
-19.09874220769738
 10
18.96804577806864
 20
-18.92712151749735
 10
18.97890784706862
 20
-18.75115599969739
 10
19.01149405406863
 20
-18.58388013709735
 10
19.06580439906866
 20
-18.42312151589736
 10
19.13749405446861
 20
-18.26888013609736
 10
19.22873543406865
 20
-18.12115599769736
 10
19.33735612406866
 20
-17.98212151449739
 10
19.46234812446544
 20
-17.85160289339335
 10
19.59804578006861
 20
-17.73229392749736
 10
19.75011474606861
 20
-17.62367323749735
 10
19.91567874659426
 20
-17.52721806477739
 10
20.08683888506863
 20
-17.4411904782974
 10
20.27366647186863
 20
-17.36950082289739
 10
20.46701130006863
 20
-17.31301806409736
 10
20.67144412830384
 20
-17.27321944328138
 10
20.87816233585664
 20
-17.24775875354537
 10
21.08614923306862
 20
-17.23698358109736
 10
24.52508027846863
 20
-17.23698358109736
 10
22.84363199726863
 20
-18.87063875869738
 10
24.55766648546864
 20
-20.61291462629736
 10
23.23901130886866
 20
-20.61291462629736
 10
21.47283888946862
 20
-18.89453531049734
 10
22.32008027146866
 20
-18.07988013549736
 10
21.05139061226867
 20
-18.07988013549736
 10
20.92732840497825
 20
-18.08509392861735
 10
20.80446537010544
 20
-18.10316841143337
 10
20.68412233524066
 20
-18.13375599773739
 10
20.56758536935348
 20
-18.17659599787338
 10
20.48356509322462
 20
-18.21874082559337
 10
20.40726992056864
 20
-18.26305806711336
 10
20.36702812733745
 20
-18.29025668788936
 10
20.32951488583904
 20
-18.32119186040135
 10
20.21860012686625
 20
-18.42963875729735
 10
20.15552191976945
 20
-18.50767186099339
 10
20.11399405756861
 20
-18.57553806810539
 10
20.07034591949906
 20
-18.67425255117739
 10
20.05213240219984
 20
-18.73594910309735
 10
20.03997557457506
 20
-18.79912289640138
 10
20.03397102283185
 20
-18.86125393108135
 10
20.03261543662063
 20
-18.92355875886538
 10
20.04013198836867
 20
-19.01288841432135
 10
20.06083074705503
 20
-19.10004565597738
 10
20.09025391956225
 20
-19.18146772520138
 10
20.12961805761824
 20
-19.25863186337737
 10
20.17832357501424
 20
-19.33119048429738
 10
20.23338992001663
 20
-19.39905669140937
 10
20.30699129956065
 20
-19.46909531232136
 10
20.43955198963664
 20
-19.56841807125737
 10
20.49323667946225
 20
-19.60100427825738
 10
20.54937185205426
 20
-19.62915876110536
 10
20.65086702479027
 20
-19.67008703709739
 10
20.76798619757585
 20
-19.70441117513734
 10
20.88812068071587
 20
-19.72587462348137
 10
20.98906840517424
 20
-19.73585698575805
  0
LWPOLYLINE
  5
8D8
330
89C
100
AcDbEntity
  8
LW 3000-SECURIT-01
 62
     1
100
AcDbPolyline
 90
       76
 70
     1
 43
0.0
 10
19.84557218980256
 20
-17.39785357312637
 10
19.67018523643776
 20
-17.50003145494808
 10
19.50651644035576
 20
-17.61693773786378
 10
19.36049653389437
 20
-17.74532229957712
 10
19.22601845868155
 20
-17.88574642983967
 10
19.10786033445037
 20
-18.03698882885554
 10
19.07600150507749
 20
-18.08856979069735
 10
17.98611474046862
 20
-18.08856979069735
 10
17.84273542966866
 20
-18.09508703209734
 10
17.70587336026864
 20
-18.11463875629737
 10
17.58342742884542
 20
-18.1467035839854
 10
17.46473542846865
 20
-18.19067323929736
 10
17.36213666952227
 20
-18.24898082568937
 10
17.26704577266866
 20
-18.31884565349735
 10
17.18449404826861
 20
-18.40139737789734
 10
17.11497680666866
 20
-18.49698358509737
 10
18.88561532428803
 20
-18.49698358509737
 10
18.86901662161295
 20
-18.54611574501568
 10
18.83271089993763
 20
-18.73248511628229
 10
18.82068922750835
 20
-18.9272362096372
 10
18.83273288028999
 20
-19.11752592358799
 10
18.86884468825451
 20
-19.30289987113899
 10
18.87942915552747
 20
-19.33553531189737
 10
17.15190784126866
 20
-19.33553531189737
 10
17.22359749666867
 20
-19.42025945009736
 10
17.31377873833423
 20
-19.49820565724137
 10
17.41192839381824
 20
-19.56581117469737
 10
17.51687335966863
 20
-19.62229393349734
 10
17.63201129106863
 20
-19.66791462329739
 10
17.76018370526861
 20
-19.70084841650536
 10
17.89093694706303
 20
-19.72118220967336
 10
18.02304577506862
 20
-19.72874220969736
 10
19.051508841989
 20
-19.72874220969736
 10
19.10348007343759
 20
-19.81292685180163
 10
19.21718542818092
 20
-19.96341509651431
 10
19.34462132166527
 20
-20.10276877974279
 10
19.48853369003546
 20
-20.2325583762826
 10
19.65136658479622
 20
-20.3481766147081
 10
19.81983299096629
 20
-20.45270630763973
 10
20.0033971347687
 20
-20.54332658116248
 10
20.1639409988212
 20
-20.60639738489737
 10
18.04476991306864
 20
-20.60639738489737
 10
17.83404577446862
 20
-20.59770772969738
 10
17.62549404966864
 20
-20.57163876409736
 10
17.42563198006865
 20
-20.52819048809737
 10
17.23445956566865
 20
-20.47170772929739
 10
17.05381032371582
 20
-20.39801945320134
 10
16.87818370246867
 20
-20.31312152189734
 10
16.71742508126862
 20
-20.21536290089738
 10
16.57008068080091
 20
-20.10491738330539
 10
16.43388163209266
 20
-19.98378358981738
 10
16.31118370066866
 20
-19.85256979629734
 10
16.20473542446864
 20
-19.71136289929738
 10
16.11566645866866
 20
-19.56363876089737
 10
16.04614921706865
 20
-19.40722496729738
 10
15.99183887206862
 20
-19.24646634609739
 10
15.96142507886867
 20
-19.07919048349736
 10
15.95056300986863
 20
-18.90539737949739
 10
15.95925266506861
 20
-18.73160427549736
 10
15.98749404446863
 20
-18.56650082669738
 10
16.03745956186861
 20
-18.40574220549739
 10
16.10045956206863
 20
-18.25150082569739
 10
16.18301128646862
 20
-18.10594910109738
 10
16.28302921782062
 20
-17.96873944548939
 10
16.39429416989798
 20
-17.84048013473737
 10
16.51973542546863
 20
-17.72143185849738
 10
16.66244302592167
 20
-17.61472289264138
 10
16.81301128846865
 20
-17.51939737509734
 10
16.98028715106863
 20
-17.43684565069735
 10
17.15625266886865
 20
-17.36732840909734
 10
17.34090784186866
 20
-17.31301806409736
 10
17.53642508386866
 20
-17.27174220189737
 10
17.73845956726864
 20
-17.24567323629735
 10
17.95135611966867
 20
-17.23698358109736
 10
20.20849405786867
 20
-17.23698358109736
 10
20.02732512240288
 20
-17.30650189354354
  0
LWPOLYLINE
  5
8D9
330
89C
100
AcDbEntity
  8
LW 3000-SECURIT-01
 62
     1
100
AcDbPolyline
 90
        6
 70
     1
 43
0.0
 10
29.48035615626867
 20
-20.60639738489737
 10
27.24276994226864
 20
-20.60639738489737
 10
27.24276994226864
 20
-17.23698358109736
 10
28.26597684206865
 20
-17.23698358109736
 10
28.26597684206865
 20
-19.73960427869734
 10
29.48035615626867
 20
-19.73960427869734
  0
LWPOLYLINE
  5
8DA
330
89C
100
AcDbEntity
  8
LW 3000-SECURIT-01
 62
     1
100
AcDbPolyline
 90
       57
 70
     1
 43
0.0
 10
24.18895572567743
 20
-19.98126358980936
 10
24.06909931150386
 20
-19.85091876180938
 10
23.96025269046862
 20
-19.71136289929738
 10
23.87335613846863
 20
-19.56363876089737
 10
23.80166648306863
 20
-19.40722496729738
 10
23.74952855186865
 20
-19.24646634609739
 10
23.71694234486864
 20
-19.07919048349736
 10
23.70608027586865
 20
-18.90539737949739
 10
23.71694234486864
 20
-18.73160427549736
 10
23.74952855186865
 20
-18.56432841289738
 10
23.79949406926863
 20
-18.40356979169739
 10
23.87118372466864
 20
-18.24932841189734
 10
23.95590786286863
 20
-18.10377668729738
 10
24.06018372526864
 20
-17.96474220409736
 10
24.18024869116703
 20
-17.83596151403337
 10
24.31480800193907
 20
-17.71673944468936
 10
24.46488703689823
 20
-17.60724978916936
 10
24.62370786498866
 20
-17.51079461644939
 10
24.79011476206864
 20
-17.42815599549736
 10
24.97476993506865
 20
-17.35646634009735
 10
25.16376993566865
 20
-17.30215599509738
 10
25.36145959146864
 20
-17.26088013289738
 10
25.56783890246862
 20
-17.23263875349737
 10
25.77856304106865
 20
-17.22394909829738
 10
27.01249407946864
 20
-17.22394909829738
 10
27.01249407946864
 20
-18.04946634229735
 10
25.77204579966866
 20
-18.04946634229735
 10
25.62866648886864
 20
-18.05815599749734
 10
25.49397683326862
 20
-18.08526772172136
 10
25.36250235009265
 20
-18.12524013564136
 10
25.23545959106866
 20
-18.17763875649738
 10
25.12805545279667
 20
-18.24472289464135
 10
25.02690786626863
 20
-18.32101806729734
 10
24.94001131426864
 20
-18.41008703309738
 10
24.87049407266863
 20
-18.50784565409735
 10
27.01249407946864
 20
-18.50784565409735
 10
27.01249407946864
 20
-19.33553531189737
 10
24.90742510726863
 20
-19.33553531189737
 10
24.98189545233265
 20
-19.42104151906538
 10
25.06931338364467
 20
-19.50081255380137
 10
25.16637683222865
 20
-19.56841807125737
 10
25.27604028085267
 20
-19.62933255420937
 10
25.39204717777267
 20
-19.67729945091337
 10
25.51265959194865
 20
-19.71162358895337
 10
25.64491614409263
 20
-19.73360841660938
 10
25.77856304106865
 20
-19.74394910629739
 10
27.01249407946864
 20
-19.74394910629739
 10
27.01249407946864
 20
-20.60205255729737
 10
25.80245959286867
 20
-20.60205255729737
 10
25.58956304046864
 20
-20.59336290209738
 10
25.38318372946867
 20
-20.56946635029736
 10
25.18332165986862
 20
-20.52601807429737
 10
24.99214924546862
 20
-20.46953531549734
 10
24.80749407246861
 20
-20.39567324629739
 10
24.63370096846864
 20
-20.31094910809735
 10
24.47294234726865
 20
-20.21319048709738
 10
24.32538331231745
 20
-20.10257117640138
  0
ENDBLK
  5
89E
330
89C
100
AcDbEntity
  8
0
100
AcDbBlockEnd
  0
ENDSEC
  0
SECTION
  2
ENTITIES
  0
INSERT
  5
81A
330
1F
100
AcDbEntity
  8
LW 3000-SECURIT-01
100
AcDbBlockReference
  2
LW 3000-08-01
 10
0.0000000000000036
 20
59.99999999999999
 30
0.0
  0
INSERT
  5
85A
330
1F
100
AcDbEntity
  8
LW 3000-SECURIT-01
100
AcDbBlockReference
  2
LW 3000-10-01
 10
0.0
 20
-0.0000000000000142
 30
0.0
  0
INSERT
  5
89B
330
1F
100
AcDbEntity
  8
LW 3000-SECURIT-01
100
AcDbBlockReference
  2
LW 3000-12-01
 10
0.0
 20
-60.00000000000001
 30
0.0
  0
INSERT
  5
8DB
330
1F
100
AcDbEntity
  8
LW 3000-SECURIT-01
100
AcDbBlockReference
  2
LW 3000-15-01
 10
0.0
 20
-120.0
 30
0.0
  0
MTEXT
  5
8DF
330
1F
100
AcDbEntity
  8
0
100
AcDbMText
 10
49.59277612320761
 20
65.8018368702679
 30
0.0
 40
5.0
 41
57.03130618910018
 71
     1
 72
     5
  1
LW 3000/08-01
 73
     1
 44
1.0
  0
MTEXT
  5
8E0
330
1F
100
AcDbEntity
  8
0
100
AcDbMText
 10
51.59277612320761
 20
5.801836870267891
 30
0.0
 40
5.0
 41
57.03130618910018
 71
     1
 72
     5
  1
LW 3000/10-01
 73
     1
 44
1.0
1001
ACAD
1000
ACAD_MTEXT_DEFINED_HEIGHT_BEGIN
1070
    46
1040
0.0
1000
ACAD_MTEXT_DEFINED_HEIGHT_END
  0
MTEXT
  5
8E1
330
1F
100
AcDbEntity
  8
0
100
AcDbMText
 10
53.59277612320761
 20
-54.19816312973209
 30
0.0
 40
5.0
 41
57.03130618910018
 71
     1
 72
     5
  1
LW 3000/12-01
 73
     1
 44
1.0
1001
ACAD
1000
ACAD_MTEXT_DEFINED_HEIGHT_BEGIN
1070
    46
1040
0.0
1000
ACAD_MTEXT_DEFINED_HEIGHT_END
  0
MTEXT
  5
8E2
330
1F
100
AcDbEntity
  8
0
100
AcDbMText
 10
56.59277612320761
 20
-114.1981631297321
 30
0.0
 40
5.0
 41
57.03130618910018
 71
     1
 72
     5
  1
LW 3000/15-01
 73
     1
 44
1.0
1001
ACAD
1000
ACAD_MTEXT_DEFINED_HEIGHT_BEGIN
1070
    46
1040
0.0
1000
ACAD_MTEXT_DEFINED_HEIGHT_END
  0
VIEWPORT
  5
24C
330
1B
100
AcDbEntity
 67
     1
  8
0
100
AcDbViewport
 10
144.2296600341797
 20
98.97533035278321
 30
0.0
 40
355.5619652597054
 41
222.1517806396485
 68
     1
 69
     1
 12
144.2296600341797
 22
98.97533035278321
 13
0.0
 23
0.0
 14
10.0
 24
10.0
 15
10.0
 25
10.0
 16
0.0
 26
0.0
 36
1.0
 17
0.0
 27
0.0
 37
0.0
 42
50.0
 43
0.0
 44
0.0
 45
222.1517806396485
 50
0.0
 51
0.0
 72
   100
 90
    32800
  1

281
     0
 71
     1
 74
     0
110
0.0
120
0.0
130
0.0
111
1.0
121
0.0
131
0.0
112
0.0
122
1.0
132
0.0
 79
     0
146
0.0
170
     0
  0
ENDSEC
  0
SECTION
  2
OBJECTS
  0
DICTIONARY
  5
C
330
0
100
AcDbDictionary
281
     1
  3
ACAD_COLOR
350
38D
  3
ACAD_GROUP
350
D
  3
ACAD_LAYOUT
350
1A
  3
ACAD_MATERIAL
350
38C
  3
ACAD_MLINESTYLE
350
17
  3
ACAD_PLOTSETTINGS
350
19
  3
ACAD_PLOTSTYLENAME
350
E
  3
ACAD_TABLESTYLE
350
38E
  3
AcDbVariableDictionary
350
23E
  0
DICTIONARY
  5
901
330
2
100
AcDbDictionary
280
     1
281
     1
  3
ACAD_LAYERFILTERS
360
903
  3
ACLYDICTIONARY
360
902
  0
DICTIONARY
  5
14B
330
1F
100
AcDbDictionary
280
     1
281
     1
  3
ACAD_LAYOUTSELFREF
360
387
  3
ACAD_SORTENTS
360
41D
  0
DICTIONARY
  5
14D
330
1B
100
AcDbDictionary
280
     1
281
     1
  3
ACAD_LAYOUTSELFREF
360
386
  0
DICTIONARY
  5
14F
330
23
100
AcDbDictionary
280
     1
281
     1
  3
ACAD_LAYOUTSELFREF
360
388
  0
DICTIONARY
  5
38D
102
{ACAD_REACTORS
330
C
102
}
330
C
100
AcDbDictionary
281
     1
  0
DICTIONARY
  5
D
102
{ACAD_REACTORS
330
C
102
}
330
C
100
AcDbDictionary
281
     1
  0
DICTIONARY
  5
1A
102
{ACAD_REACTORS
330
C
102
}
330
C
100
AcDbDictionary
281
     1
  3
Layout1
350
1E
  3
Layout2
350
26
  3
Model
350
22
  0
DICTIONARY
  5
38C
102
{ACAD_REACTORS
330
C
102
}
330
C
100
AcDbDictionary
281
     1
  0
DICTIONARY
  5
17
102
{ACAD_REACTORS
330
C
102
}
330
C
100
AcDbDictionary
281
     1
  3
Standard
350
18
  0
DICTIONARY
  5
19
102
{ACAD_REACTORS
330
C
102
}
330
C
100
AcDbDictionary
281
     1
  0
ACDBDICTIONARYWDFLT
  5
E
102
{ACAD_REACTORS
330
C
102
}
330
C
100
AcDbDictionary
281
     1
  3
Normal
350
F
100
AcDbDictionaryWithDefault
340
F
  0
DICTIONARY
  5
38E
102
{ACAD_REACTORS
330
C
102
}
330
C
100
AcDbDictionary
281
     1
  3
Standard
350
38F
  0
DICTIONARY
  5
23E
102
{ACAD_REACTORS
330
C
102
}
330
C
100
AcDbDictionary
281
     1
  3
CTABLESTYLE
350
395
  3
DIMASSOC
350
240
  3
HIDETEXT
350
23F
  3
PROJECTNAME
350
8FD
  0
DICTIONARY
  5
903
102
{ACAD_REACTORS
330
901
102
}
330
901
100
AcDbDictionary
281
     1
  0
DICTIONARY
  5
902
102
{ACAD_REACTORS
330
901
102
}
330
901
100
AcDbDictionary
281
     1
1001
ACAD
1000
<All
  0
XRECORD
  5
387
102
{ACAD_REACTORS
330
14B
102
}
330
14B
100
AcDbXrecord
280
     1
340
1F
  0
SORTENTSTABLE
  5
41D
102
{ACAD_REACTORS
330
14B
102
}
330
14B
100
AcDbSortentsTable
330
1F
  0
XRECORD
  5
386
102
{ACAD_REACTORS
330
14D
102
}
330
14D
100
AcDbXrecord
280
     1
340
1B
  0
XRECORD
  5
388
102
{ACAD_REACTORS
330
14F
102
}
330
14F
100
AcDbXrecord
280
     1
340
23
  0
LAYOUT
  5
1E
102
{ACAD_REACTORS
330
1A
102
}
330
1A
100
AcDbPlotSettings
  1

  2
\\A-SERVER\HP LaserJet 5N - AWT
  4
A4
  6

 40
6.011333465576171
 41
4.233341693878173
 42
6.011322021484375
 43
4.23333740234375
 44
209.9733276367187
 45
296.9259948730469
 46
0.0
 47
0.0
 48
0.0
 49
0.0
140
0.0
141
0.0
142
1.0
143
1.0
 70
   688
 72
     1
 73
     1
 74
     5
  7

 75
    16
147
1.0
 76
     0
 77
     2
 78
   300
148
0.0
149
0.0
100
AcDbLayout
  1
Layout1
 70
     1
 71
     1
 10
-4.23333740234375
 20
-6.011333465576171
 11
292.6926574707031
 21
203.9619941711426
 12
0.0
 22
0.0
 32
0.0
 14
1.000000000000000E+20
 24
1.000000000000000E+20
 34
1.000000000000000E+20
 15
-1.000000000000000E+20
 25
-1.000000000000000E+20
 35
-1.000000000000000E+20
146
0.0
 13
0.0
 23
0.0
 33
0.0
 16
1.0
 26
0.0
 36
0.0
 17
0.0
 27
1.0
 37
0.0
 76
     0
330
1B
331
24C
  0
LAYOUT
  5
26
102
{ACAD_REACTORS
330
1A
102
}
330
1A
100
AcDbPlotSettings
  1

  2

  4

  6

 40
0.0
 41
0.0
 42
0.0
 43
0.0
 44
0.0
 45
0.0
 46
0.0
 47
0.0
 48
0.0
 49
0.0
140
0.0
141
0.0
142
1.0
143
1.0
 70
   688
 72
     0
 73
     0
 74
     5
  7

 75
    16
147
1.0
 76
     0
 77
     2
 78
   300
148
0.0
149
0.0
100
AcDbLayout
  1
Layout2
 70
     1
 71
     2
 10
0.0
 20
0.0
 11
12.0
 21
9.0
 12
0.0
 22
0.0
 32
0.0
 14
0.0
 24
0.0
 34
0.0
 15
0.0
 25
0.0
 35
0.0
146
0.0
 13
0.0
 23
0.0
 33
0.0
 16
1.0
 26
0.0
 36
0.0
 17
0.0
 27
1.0
 37
0.0
 76
     0
330
23
  0
LAYOUT
  5
22
102
{ACAD_REACTORS
330
1A
102
}
330
1A
100
AcDbPlotSettings
  1

  2

  4

  6

 40
0.0
 41
0.0
 42
0.0
 43
0.0
 44
0.0
 45
0.0
 46
0.0
 47
0.0
 48
0.0
 49
0.0
140
0.0
141
0.0
142
1.0
143
1.0
 70
  1712
 72
     0
 73
     0
 74
     0
  7

 75
     0
147
1.0
 76
     0
 77
     2
 78
   300
148
0.0
149
0.0
100
AcDbLayout
  1
Model
 70
     1
 71
     0
 10
0.0
 20
0.0
 11
12.0
 21
9.0
 12
0.0
 22
0.0
 32
0.0
 14
0.0
 24
0.0
 34
0.0
 15
0.0
 25
0.0
 35
0.0
146
0.0
 13
0.0
 23
0.0
 33
0.0
 16
1.0
 26
0.0
 36
0.0
 17
0.0
 27
1.0
 37
0.0
 76
     0
330
1F
  0
MLINESTYLE
  5
18
102
{ACAD_REACTORS
330
17
102
}
330
17
100
AcDbMlineStyle
  2
STANDARD
 70
     0
  3

 62
   256
 51
90.0
 52
90.0
 71
     2
 49
0.5
 62
   256
  6
BYLAYER
 49
-0.5
 62
   256
  6
BYLAYER
  0
ACDBPLACEHOLDER
  5
F
102
{ACAD_REACTORS
330
E
102
}
330
E
  0
TABLESTYLE
  5
38F
102
{ACAD_REACTORS
330
38E
102
}
330
38E
100
AcDbTableStyle
  3
Standard
 70
     0
 71
     0
 40
1.5
 41
1.5
280
     0
281
     0
  7
Standard
140
4.5
170
     2
 62
     0
 63
     7
283
     0
274
    -2
284
     1
 64
     0
275
    -2
285
     1
 65
     0
276
    -2
286
     1
 66
     0
277
    -2
287
     1
 67
     0
278
    -2
288
     1
 68
     0
279
    -2
289
     1
 69
     0
  7
Standard
140
6.0
170
     5
 62
     0
 63
     7
283
     0
274
    -2
284
     1
 64
     0
275
    -2
285
     1
 65
     0
276
    -2
286
     1
 66
     0
277
    -2
287
     1
 67
     0
278
    -2
288
     1
 68
     0
279
    -2
289
     1
 69
     0
  7
Standard
140
4.5
170
     5
 62
     0
 63
     7
283
     0
274
    -2
284
     1
 64
     0
275
    -2
285
     1
 65
     0
276
    -2
286
     1
 66
     0
277
    -2
287
     1
 67
     0
278
    -2
288
     1
 68
     0
279
    -2
289
     1
 69
     0
  0
DICTIONARYVAR
  5
395
102
{ACAD_REACTORS
330
23E
102
}
330
23E
100
DictionaryVariables
280
     0
  1
STANDARD
  0
DICTIONARYVAR
  5
240
102
{ACAD_REACTORS
330
23E
102
}
330
23E
100
DictionaryVariables
280
     0
  1
2
  0
DICTIONARYVAR
  5
23F
102
{ACAD_REACTORS
330
23E
102
}
330
23E
100
DictionaryVariables
280
     0
  1
1
  0
DICTIONARYVAR
  5
8FD
102
{ACAD_REACTORS
330
23E
102
}
330
23E
100
DictionaryVariables
280
     0
  1

  0
ENDSEC
  0
EOF
