  0
SECTION
  2
HEADER
  9
$ACADVER
  1
AC1018
  9
$ACADMAINTVER
 70
    76
  9
$DWGCODEPAGE
  3
ANSI_1252
  9
$AUTHOR
  1
Grandl
  9
$INSBASE
 10
0.0
 20
0.0
 30
0.0
  9
$EXTMIN
 10
-6.93151432469303
 20
-81.67039640298233
 30
0.0
  9
$EXTMAX
 10
114.3637993155678
 20
86.47913854229255
 30
0.0
  9
$LIMMIN
 10
0.0
 20
0.0
  9
$LIMMAX
 10
18025.7704
 20
13929.0044
  9
$ORTHOMODE
 70
     1
  9
$REGENMODE
 70
     1
  9
$FILLMODE
 70
     1
  9
$QTEXTMODE
 70
     0
  9
$MIRRTEXT
 70
     1
  9
$LTSCALE
 40
0.3
  9
$ATTMODE
 70
     1
  9
$TEXTSIZE
 40
0.2
  9
$TRACEWID
 40
0.05
  9
$TEXTSTYLE
  7
Standard
  9
$CLAYER
  8
0
  9
$CELTYPE
  6
ByLayer
  9
$CECOLOR
 62
   256
  9
$CELTSCALE
 40
1.0
  9
$DISPSILH
 70
     0
  9
$DIMSCALE
 40
1.0
  9
$DIMASZ
 40
1.799999999999999
  9
$DIMEXO
 40
0.0625
  9
$DIMDLI
 40
0.38
  9
$DIMRND
 40
0.0
  9
$DIMDLE
 40
0.0
  9
$DIMEXE
 40
0.18
  9
$DIMTP
 40
0.0
  9
$DIMTM
 40
0.0
  9
$DIMTXT
 40
0.3499999940395355
  9
$DIMCEN
 40
0.09
  9
$DIMTSZ
 40
0.0
  9
$DIMTOL
 70
     0
  9
$DIMLIM
 70
     0
  9
$DIMTIH
 70
     1
  9
$DIMTOH
 70
     1
  9
$DIMSE1
 70
     0
  9
$DIMSE2
 70
     0
  9
$DIMTAD
 70
     0
  9
$DIMZIN
 70
     0
  9
$DIMBLK
  1

  9
$DIMASO
 70
     1
  9
$DIMSHO
 70
     1
  9
$DIMPOST
  1

  9
$DIMAPOST
  1

  9
$DIMALT
 70
     0
  9
$DIMALTD
 70
     2
  9
$DIMALTF
 40
25.4
  9
$DIMLFAC
 40
1.0
  9
$DIMTOFL
 70
     0
  9
$DIMTVP
 40
0.0
  9
$DIMTIX
 70
     0
  9
$DIMSOXD
 70
     0
  9
$DIMSAH
 70
     0
  9
$DIMBLK1
  1

  9
$DIMBLK2
  1

  9
$DIMSTYLE
  2
2dTranslator-Bemaßungsstil
  9
$DIMCLRD
 70
     0
  9
$DIMCLRE
 70
     0
  9
$DIMCLRT
 70
     0
  9
$DIMTFAC
 40
1.0
  9
$DIMGAP
 40
0.09
  9
$DIMJUST
 70
     0
  9
$DIMSD1
 70
     0
  9
$DIMSD2
 70
     0
  9
$DIMTOLJ
 70
     1
  9
$DIMTZIN
 70
     0
  9
$DIMALTZ
 70
     0
  9
$DIMALTTZ
 70
     0
  9
$DIMUPT
 70
     0
  9
$DIMDEC
 70
     4
  9
$DIMTDEC
 70
     4
  9
$DIMALTU
 70
     2
  9
$DIMALTTD
 70
     2
  9
$DIMTXSTY
  7
Standard
  9
$DIMAUNIT
 70
     0
  9
$DIMADEC
 70
     0
  9
$DIMALTRND
 40
0.0
  9
$DIMAZIN
 70
     0
  9
$DIMDSEP
 70
    46
  9
$DIMATFIT
 70
     3
  9
$DIMFRAC
 70
     0
  9
$DIMLDRBLK
  1

  9
$DIMLUNIT
 70
     2
  9
$DIMLWD
 70
    -2
  9
$DIMLWE
 70
    -2
  9
$DIMTMOVE
 70
     0
  9
$LUNITS
 70
     2
  9
$LUPREC
 70
     4
  9
$SKETCHINC
 40
0.1
  9
$FILLETRAD
 40
0.0
  9
$AUNITS
 70
     0
  9
$AUPREC
 70
     0
  9
$MENU
  1
.
  9
$ELEVATION
 40
0.0
  9
$PELEVATION
 40
0.0
  9
$THICKNESS
 40
0.0
  9
$LIMCHECK
 70
     0
  9
$CHAMFERA
 40
0.0
  9
$CHAMFERB
 40
0.0
  9
$CHAMFERC
 40
0.0
  9
$CHAMFERD
 40
0.0
  9
$SKPOLY
 70
     0
  9
$TDCREATE
 40
2452760.471138715
  9
$TDUCREATE
 40
2452760.429472049
  9
$TDUPDATE
 40
2453696.562542095
  9
$TDUUPDATE
 40
2453696.520875428
  9
$TDINDWG
 40
0.0560698611
  9
$TDUSRTIMER
 40
0.0560698611
  9
$USRTIMER
 70
     1
  9
$ANGBASE
 50
0.0
  9
$ANGDIR
 70
     0
  9
$PDMODE
 70
     0
  9
$PDSIZE
 40
0.0
  9
$PLINEWID
 40
0.0
  9
$SPLFRAME
 70
     0
  9
$SPLINETYPE
 70
     6
  9
$SPLINESEGS
 70
     8
  9
$HANDSEED
  5
A46
  9
$SURFTAB1
 70
     6
  9
$SURFTAB2
 70
     6
  9
$SURFTYPE
 70
     6
  9
$SURFU
 70
     6
  9
$SURFV
 70
     6
  9
$UCSBASE
  2

  9
$UCSNAME
  2

  9
$UCSORG
 10
0.0
 20
0.0
 30
0.0
  9
$UCSXDIR
 10
1.0
 20
0.0
 30
0.0
  9
$UCSYDIR
 10
0.0
 20
1.0
 30
0.0
  9
$UCSORTHOREF
  2

  9
$UCSORTHOVIEW
 70
     0
  9
$UCSORGTOP
 10
0.0
 20
0.0
 30
0.0
  9
$UCSORGBOTTOM
 10
0.0
 20
0.0
 30
0.0
  9
$UCSORGLEFT
 10
0.0
 20
0.0
 30
0.0
  9
$UCSORGRIGHT
 10
0.0
 20
0.0
 30
0.0
  9
$UCSORGFRONT
 10
0.0
 20
0.0
 30
0.0
  9
$UCSORGBACK
 10
0.0
 20
0.0
 30
0.0
  9
$PUCSBASE
  2

  9
$PUCSNAME
  2

  9
$PUCSORG
 10
0.0
 20
0.0
 30
0.0
  9
$PUCSXDIR
 10
1.0
 20
0.0
 30
0.0
  9
$PUCSYDIR
 10
0.0
 20
1.0
 30
0.0
  9
$PUCSORTHOREF
  2

  9
$PUCSORTHOVIEW
 70
     0
  9
$PUCSORGTOP
 10
0.0
 20
0.0
 30
0.0
  9
$PUCSORGBOTTOM
 10
0.0
 20
0.0
 30
0.0
  9
$PUCSORGLEFT
 10
0.0
 20
0.0
 30
0.0
  9
$PUCSORGRIGHT
 10
0.0
 20
0.0
 30
0.0
  9
$PUCSORGFRONT
 10
0.0
 20
0.0
 30
0.0
  9
$PUCSORGBACK
 10
0.0
 20
0.0
 30
0.0
  9
$USERI1
 70
     0
  9
$USERI2
 70
     0
  9
$USERI3
 70
     0
  9
$USERI4
 70
     0
  9
$USERI5
 70
     0
  9
$USERR1
 40
0.0
  9
$USERR2
 40
0.0
  9
$USERR3
 40
0.0
  9
$USERR4
 40
0.0
  9
$USERR5
 40
0.0
  9
$WORLDVIEW
 70
     1
  9
$SHADEDGE
 70
     3
  9
$SHADEDIF
 70
    70
  9
$TILEMODE
 70
     1
  9
$MAXACTVP
 70
    48
  9
$PINSBASE
 10
0.0
 20
0.0
 30
0.0
  9
$PLIMCHECK
 70
     0
  9
$PEXTMIN
 10
1.000000000000000E+20
 20
1.000000000000000E+20
 30
1.000000000000000E+20
  9
$PEXTMAX
 10
-1.000000000000000E+20
 20
-1.000000000000000E+20
 30
-1.000000000000000E+20
  9
$PLIMMIN
 10
-4.23333740234375
 20
-6.011333465576171
  9
$PLIMMAX
 10
292.6926574707031
 20
203.9619941711426
  9
$UNITMODE
 70
     0
  9
$VISRETAIN
 70
     1
  9
$PLINEGEN
 70
     0
  9
$PSLTSCALE
 70
     1
  9
$TREEDEPTH
 70
  3020
  9
$CMLSTYLE
  2
Standard
  9
$CMLJUST
 70
     0
  9
$CMLSCALE
 40
1.0
  9
$PROXYGRAPHICS
 70
     1
  9
$MEASUREMENT
 70
     1
  9
$CELWEIGHT
370
    -1
  9
$ENDCAPS
280
     0
  9
$JOINSTYLE
280
     0
  9
$LWDISPLAY
290
     0
  9
$INSUNITS
 70
     0
  9
$HYPERLINKBASE
  1

  9
$STYLESHEET
  1

  9
$XEDIT
290
     1
  9
$CEPSNTYPE
380
     0
  9
$PSTYLEMODE
290
     1
  9
$FINGERPRINTGUID
  2
{777CEAB9-2782-4DA2-8D9E-51B04BABFCF8}
  9
$VERSIONGUID
  2
{CD6E746E-6AE1-4CC9-99D8-F38E6B870C1F}
  9
$EXTNAMES
290
     1
  9
$PSVPSCALE
 40
0.0
  9
$OLESTARTUP
290
     0
  9
$SORTENTS
280
   127
  9
$INDEXCTL
280
     0
  9
$HIDETEXT
280
     1
  9
$XCLIPFRAME
290
     0
  9
$HALOGAP
280
     0
  9
$OBSCOLOR
 70
   257
  9
$OBSLTYPE
280
     0
  9
$INTERSECTIONDISPLAY
280
     0
  9
$INTERSECTIONCOLOR
 70
   257
  9
$DIMASSOC
280
     2
  9
$PROJECTNAME
  1

  0
ENDSEC
  0
SECTION
  2
CLASSES
  0
CLASS
  1
ACDBDICTIONARYWDFLT
  2
AcDbDictionaryWithDefault
  3
ObjectDBX Classes
 90
        0
 91
        1
280
     0
281
     0
  0
CLASS
  1
DICTIONARYVAR
  2
AcDbDictionaryVar
  3
ObjectDBX Classes
 90
        0
 91
        4
280
     0
281
     0
  0
CLASS
  1
TABLESTYLE
  2
AcDbTableStyle
  3
ObjectDBX Classes
 90
     2047
 91
        1
280
     0
281
     0
  0
CLASS
  1
SORTENTSTABLE
  2
AcDbSortentsTable
  3
ObjectDBX Classes
 90
        0
 91
        1
280
     0
281
     0
  0
ENDSEC
  0
SECTION
  2
TABLES
  0
TABLE
  2
VPORT
  5
8
330
0
100
AcDbSymbolTable
 70
     2
  0
VPORT
  5
A45
330
8
100
AcDbSymbolTableRecord
100
AcDbViewportTableRecord
  2
*Active
 70
     0
 10
0.0
 20
0.0
 11
1.0
 21
1.0
 12
53.74067867482516
 22
2.347499177934878
 13
0.0
 23
0.0
 14
1.0
 24
1.0
 15
0.0
 25
0.0
 16
0.0
 26
0.0
 36
1.0
 17
0.0
 27
0.0
 37
0.0
 40
170.4046980743043
 41
1.773333333333333
 42
50.0
 43
0.0
 44
0.0
 50
0.0
 51
0.0
 71
     0
 72
   100
 73
     1
 74
     1
 75
     0
 76
     0
 77
     0
 78
     0
281
     0
 65
     1
110
0.0
120
0.0
130
0.0
111
1.0
121
0.0
131
0.0
112
0.0
122
1.0
132
0.0
 79
     0
146
0.0
  0
ENDTAB
  0
TABLE
  2
LTYPE
  5
5
330
0
100
AcDbSymbolTable
 70
     2
  0
LTYPE
  5
14
330
5
100
AcDbSymbolTableRecord
100
AcDbLinetypeTableRecord
  2
ByBlock
 70
     0
  3

 72
    65
 73
     0
 40
0.0
  0
LTYPE
  5
15
330
5
100
AcDbSymbolTableRecord
100
AcDbLinetypeTableRecord
  2
ByLayer
 70
     0
  3

 72
    65
 73
     0
 40
0.0
  0
LTYPE
  5
16
330
5
100
AcDbSymbolTableRecord
100
AcDbLinetypeTableRecord
  2
Continuous
 70
     0
  3
Solid line
 72
    65
 73
     0
 40
0.0
  0
LTYPE
  5
269
330
5
100
AcDbSymbolTableRecord
100
AcDbLinetypeTableRecord
  2
MITTE2
 70
     0
  3
Mitte (.5x) ___ _ ___ _ ___ _ ___ _ ___ _ ___
 72
    65
 73
     4
 40
28.575
 49
19.05
 74
     0
 49
-3.174999999999999
 74
     0
 49
3.174999999999999
 74
     0
 49
-3.174999999999999
 74
     0
  0
ENDTAB
  0
TABLE
  2
LAYER
  5
2
102
{ACAD_XDICTIONARY
360
A34
102
}
330
0
100
AcDbSymbolTable
 70
     3
  0
LAYER
  5
10
330
2
100
AcDbSymbolTableRecord
100
AcDbLayerTableRecord
  2
0
 70
     0
 62
     7
  6
Continuous
370
    -3
390
F
  0
LAYER
  5
25E
330
2
100
AcDbSymbolTableRecord
100
AcDbLayerTableRecord
  2
LW 3000-STADIP-01
 70
     0
 62
     7
  6
Continuous
370
    -3
390
F
  0
LAYER
  5
26B
330
2
100
AcDbSymbolTableRecord
100
AcDbLayerTableRecord
  2
insertpoint_ECKELT
 70
     0
 62
   141
  6
Continuous
370
    -3
390
F
  0
ENDTAB
  0
TABLE
  2
STYLE
  5
3
330
0
100
AcDbSymbolTable
 70
     1
  0
STYLE
  5
11
330
3
100
AcDbSymbolTableRecord
100
AcDbTextStyleTableRecord
  2
Standard
 70
     0
 40
0.0
 41
1.0
 50
0.0
 71
     0
 42
0.2
  3
ARIAL.TTF
  4

1001
ACAD
1000
Arial
1071
      256
  0
ENDTAB
  0
TABLE
  2
VIEW
  5
6
330
0
100
AcDbSymbolTable
 70
     0
  0
ENDTAB
  0
TABLE
  2
UCS
  5
7
330
0
100
AcDbSymbolTable
 70
     0
  0
ENDTAB
  0
TABLE
  2
APPID
  5
9
330
0
100
AcDbSymbolTable
 70
     1
  0
APPID
  5
12
330
9
100
AcDbSymbolTableRecord
100
AcDbRegAppTableRecord
  2
ACAD
 70
     0
  0
ENDTAB
  0
TABLE
  2
DIMSTYLE
  5
A
330
0
100
AcDbSymbolTable
 70
     2
100
AcDbDimStyleTable
 71
     0
  0
DIMSTYLE
105
27
330
A
100
AcDbSymbolTableRecord
100
AcDbDimStyleTableRecord
  2
Standard
 70
     0
340
11
  0
DIMSTYLE
105
57
330
A
100
AcDbSymbolTableRecord
100
AcDbDimStyleTableRecord
  2
2dTranslator-Bemaßungsstil
 70
     0
 41
1.799999999999999
140
1.799999999999999
340
11
  0
ENDTAB
  0
TABLE
  2
BLOCK_RECORD
  5
1
330
0
100
AcDbSymbolTable
 70
     5
  0
BLOCK_RECORD
  5
1F
102
{ACAD_XDICTIONARY
360
15E
102
}
330
1
100
AcDbSymbolTableRecord
100
AcDbBlockTableRecord
  2
*Model_Space
340
22
  0
BLOCK_RECORD
  5
1B
102
{ACAD_XDICTIONARY
360
160
102
}
330
1
100
AcDbSymbolTableRecord
100
AcDbBlockTableRecord
  2
*Paper_Space
340
1E
  0
BLOCK_RECORD
  5
23
102
{ACAD_XDICTIONARY
360
162
102
}
330
1
100
AcDbSymbolTableRecord
100
AcDbBlockTableRecord
  2
*Paper_Space0
340
26
  0
BLOCK_RECORD
  5
260
330
1
100
AcDbSymbolTableRecord
100
AcDbBlockTableRecord
  2
insertpoint-ECKELT
340
0
102
{BLKREFS
331
917
331
9D5
331
A18
102
}
  0
BLOCK_RECORD
  5
8E0
102
{ACAD_XDICTIONARY
360
8E1
102
}
330
1
100
AcDbSymbolTableRecord
100
AcDbBlockTableRecord
  2
LW 3000-15-01
340
0
310
2800000020000000200000000100080000000000000400000000000000000000000000000000000000000000000080000080000000808000800000008000800080800000C0C0C000C0DCC000F0CAA6000020400000206000002080000020A0000020C0000020E00000400000004020000040400000406000004080000040A0
310
000040C0000040E00000600000006020000060400000606000006080000060A0000060C0000060E00000800000008020000080400000806000008080000080A0000080C0000080E00000A0000000A0200000A0400000A0600000A0800000A0A00000A0C00000A0E00000C0000000C0200000C0400000C0600000C0800000C0
310
A00000C0C00000C0E00000E0000000E0200000E0400000E0600000E0800000E0A00000E0C00000E0E00040000000400020004000400040006000400080004000A0004000C0004000E00040200000402020004020400040206000402080004020A0004020C0004020E000404000004040200040404000404060004040800040
310
40A0004040C0004040E00040600000406020004060400040606000406080004060A0004060C0004060E00040800000408020004080400040806000408080004080A0004080C0004080E00040A0000040A0200040A0400040A0600040A0800040A0A00040A0C00040A0E00040C0000040C0200040C0400040C0600040C08000
310
40C0A00040C0C00040C0E00040E0000040E0200040E0400040E0600040E0800040E0A00040E0C00040E0E00080000000800020008000400080006000800080008000A0008000C0008000E00080200000802020008020400080206000802080008020A0008020C0008020E00080400000804020008040400080406000804080
310
008040A0008040C0008040E00080600000806020008060400080606000806080008060A0008060C0008060E00080800000808020008080400080806000808080008080A0008080C0008080E00080A0000080A0200080A0400080A0600080A0800080A0A00080A0C00080A0E00080C0000080C0200080C0400080C0600080C0
310
800080C0A00080C0C00080C0E00080E0000080E0200080E0400080E0600080E0800080E0A00080E0C00080E0E000C0000000C0002000C0004000C0006000C0008000C000A000C000C000C000E000C0200000C0202000C0204000C0206000C0208000C020A000C020C000C020E000C0400000C0402000C0404000C0406000C0
310
408000C040A000C040C000C040E000C0600000C0602000C0604000C0606000C0608000C060A000C060C000C060E000C0800000C0802000C0804000C0806000C0808000C080A000C080C000C080E000C0A00000C0A02000C0A04000C0A06000C0A08000C0A0A000C0A0C000C0A0E000C0C00000C0C02000C0C04000C0C06000
310
C0C08000C0C0A000F0FBFF00A4A0A000808080000000FF0000FF000000FFFF00FF000000FF00FF00FFFF0000FFFFFF000000000000000000000000000000000000000000000000000000000000000000000000000000000000000000000000000000A4FFA4FFA4FFA4FF000000000000000000000000000000000000000000
310
00FFA4FFA400A400A400A4FF000000000000000000000000000000000000000000A4F9F9F9F9F9F9F9F9F9F9FF0000000000000000000000000000000000000000FFF9F9F9F9F9F9F9F9F9F9A40000000000000000000000000000000000000000A4F9F9F9F9F9F9F9F9F9F9FF0000000000000000000000FF000000000000
310
0000FFA400A400A400A400A400A40000000000000000000000A4FFFF000000000000A400A400A400A400A400A4FF0000000000000000000000FFA400A4FFA4FFA4A4FFA400A400A400A400A400A40000000000000000000000A400A400A400A400A4A400A400A400A400A400A4FF0000000000000000000000A4FFFFA400A4
310
00A4A400A400A400A400A400A400A4000000000000000000FAFAFAFAFAFAA400A4A400A4FFA4FFA4FFA4FFA4FFA4FF0000000000000000000000A4FFA400A40000A4A4FFFA000000000000000000FF0000000000000000000000A4A400A400A40000A4FFFA000000000000000000FF000000000000000000000009A4A400A4
310
00A400FFFFFA000000000000000000FF000000000000000909090909A4FAA4FAA4FAA4FAFAFAFAFAFAFAFAFAFAFAFAFAFA00000000000000000000A400A400A400A400FFFFFA000000000000000000FF0000000000000000000000A4A400A400A400A4FFFFFA000000000000000000FF0000000000000000000000A4FFA400
310
A4A4A400A4FFFFA4FFA4FFA4FFA4A4FFFF000000000000000000FAFAFAFAFAA4A400A4A400A4FAA4FAA4FAA4FAA4FAA4FF0000000000000000000000A4FFA40000A400A4A400A400A400A400A400A400A40000000000000000000000A4A400A4A4FFA4FFA4A400A400A400A400A400A4FF0000000000000000000000FFA4A4
310
000000000000FFA400A400A4A4A400A400A40000000000000000000000A4A400000000000000A400A400A40000A4A400A4FF0000000000000000000000A40000000000000000FFA400A400A400FAA4A400A40000000000000000000000000000000000000000A400A400A4FFA4FAA400A4FF00000000000000000000000000
310
00000000000000FFA400A400A400FAFFA400A40000000000000000000000000000000000000000A400A4A4A4FF00FAA400A4FF0000000000000000000000000000000000000000FFA4A4FFA4A4FFFAFFA4FF00000000000000000000000000000000000000000000000000000000FA00000000000000000000000000000000
310
000000000000000000000000000000FA00000000000000000000000000000000000000000000000000000000000000000000000000000000
102
{BLKREFS
331
922
102
}
  0
BLOCK_RECORD
  5
99E
102
{ACAD_XDICTIONARY
360
99F
102
}
330
1
100
AcDbSymbolTableRecord
100
AcDbBlockTableRecord
  2
LW 3000-20-01
340
0
310
2800000020000000200000000100080000000000000400000000000000000000000000000000000000000000000080000080000000808000800000008000800080800000C0C0C000C0DCC000F0CAA6000020400000206000002080000020A0000020C0000020E00000400000004020000040400000406000004080000040A0
310
000040C0000040E00000600000006020000060400000606000006080000060A0000060C0000060E00000800000008020000080400000806000008080000080A0000080C0000080E00000A0000000A0200000A0400000A0600000A0800000A0A00000A0C00000A0E00000C0000000C0200000C0400000C0600000C0800000C0
310
A00000C0C00000C0E00000E0000000E0200000E0400000E0600000E0800000E0A00000E0C00000E0E00040000000400020004000400040006000400080004000A0004000C0004000E00040200000402020004020400040206000402080004020A0004020C0004020E000404000004040200040404000404060004040800040
310
40A0004040C0004040E00040600000406020004060400040606000406080004060A0004060C0004060E00040800000408020004080400040806000408080004080A0004080C0004080E00040A0000040A0200040A0400040A0600040A0800040A0A00040A0C00040A0E00040C0000040C0200040C0400040C0600040C08000
310
40C0A00040C0C00040C0E00040E0000040E0200040E0400040E0600040E0800040E0A00040E0C00040E0E00080000000800020008000400080006000800080008000A0008000C0008000E00080200000802020008020400080206000802080008020A0008020C0008020E00080400000804020008040400080406000804080
310
008040A0008040C0008040E00080600000806020008060400080606000806080008060A0008060C0008060E00080800000808020008080400080806000808080008080A0008080C0008080E00080A0000080A0200080A0400080A0600080A0800080A0A00080A0C00080A0E00080C0000080C0200080C0400080C0600080C0
310
800080C0A00080C0C00080C0E00080E0000080E0200080E0400080E0600080E0800080E0A00080E0C00080E0E000C0000000C0002000C0004000C0006000C0008000C000A000C000C000C000E000C0200000C0202000C0204000C0206000C0208000C020A000C020C000C020E000C0400000C0402000C0404000C0406000C0
310
408000C040A000C040C000C040E000C0600000C0602000C0604000C0606000C0608000C060A000C060C000C060E000C0800000C0802000C0804000C0806000C0808000C080A000C080C000C080E000C0A00000C0A02000C0A04000C0A06000C0A08000C0A0A000C0A0C000C0A0E000C0C00000C0C02000C0C04000C0C06000
310
C0C08000C0C0A000F0FBFF00A4A0A000808080000000FF0000FF000000FFFF00FF000000FF00FF00FFFF0000FFFFFF0000000000000000000000000000000000000000000000000000000000000000000000000000000000000000000000000000000000000000000000000000000000000000000000000000000000000000
310
000000FFA4A4FFA4FFA4FFA4FF00000000000000000000000000000000000000000000A4F9F9F9F9F9F9F9F9F9FF000000000000000000000000000000000000000000F9F9F9F9F9F9F9F9F9F9F9000000000000000000000000000000000000000000A4F9F9F9F9F9F9F9F9F9F90000000000000000A40000000000000000
310
00000000FFA400A4A400A400A400A40000000000000000FFA40000000000000000000000A400A400A4A400A400A4FF0000000000000000A400A400000000000000000000FFA4A400A400A400A400A40000000000000000FFA400A4FFA4A4FFA4FFA4FFA4FF00A4A400A400A400A4FF0000000000000000FFFFA4FFA400A4A4
310
00A400A4A4A4A400A4A400A400A400A400000000000000FAFAFAFAA4FAA400A4A4A4A4A4FFA4FFA4FFA4A4A4A4A4A4A40000000000000000A4FFA4FFA400A400A400A400A4FA000000000000000000FF0000000000000000FFA400A400A400A400A400A4FFFA000000000000000000FF0000000000000000A409A400A400A4
310
00A400A4FFFFFA000000000000000000FF000000000909090909A4FAA4FAA4FAA4FAA4FAFAFAFAFAFAFAFAFAFAFAFAFAFAFAFA000000000000A400A400A400A400A400A4FFFFFA000000000000000000FF0000000000000000FFA400A400A400A400A400A4FFFA000000000000000000FF0000000000000000A4FFA4FFA4A4
310
A400A400A400A4FFA4FFA4FFA4FFA4FFA4FF00000000000000FAFAFAFAA4FA00A4A400A400A400A4FAA4FAA4FAA4FAA4FAA40000000000000000A4FFA4FFA4A400A4A400A400A400A400A400A400A400A4FF0000000000000000FFA400A4A4FFA4FFA4A4FFA4FFA400A400A400A400A400A40000000000000000A400A40000
310
0000000000000000FFA400A400A4FAA400A4FF0000000000000000FFA4A400000000000000000000A400A400A400A400A400A40000000000000000A4A40000000000000000000000FFA400A400A4FAA400A4FF000000000000000000000000000000000000000000A400A400A4FFFAFFA400A4000000000000000000000000
310
000000000000000000FFA400A400A4FA00FFA4FF000000000000000000000000000000000000000000A400A400A4FFFA00A400A4000000000000000000000000000000000000000000FFA4FFA4FFA4FAFFFFA400000000000000000000000000000000000000000000000000000000FA000000000000000000000000000000
310
0000000000000000000000000000000000000000000000000000000000000000000000000000000000000000000000000000000000000000
102
{BLKREFS
331
9E0
102
}
  0
BLOCK_RECORD
  5
9E1
102
{ACAD_XDICTIONARY
360
9E2
102
}
330
1
100
AcDbSymbolTableRecord
100
AcDbBlockTableRecord
  2
LW 3000-24-01
340
0
310
2800000020000000200000000100080000000000000400000000000000000000000000000000000000000000000080000080000000808000800000008000800080800000C0C0C000C0DCC000F0CAA6000020400000206000002080000020A0000020C0000020E00000400000004020000040400000406000004080000040A0
310
000040C0000040E00000600000006020000060400000606000006080000060A0000060C0000060E00000800000008020000080400000806000008080000080A0000080C0000080E00000A0000000A0200000A0400000A0600000A0800000A0A00000A0C00000A0E00000C0000000C0200000C0400000C0600000C0800000C0
310
A00000C0C00000C0E00000E0000000E0200000E0400000E0600000E0800000E0A00000E0C00000E0E00040000000400020004000400040006000400080004000A0004000C0004000E00040200000402020004020400040206000402080004020A0004020C0004020E000404000004040200040404000404060004040800040
310
40A0004040C0004040E00040600000406020004060400040606000406080004060A0004060C0004060E00040800000408020004080400040806000408080004080A0004080C0004080E00040A0000040A0200040A0400040A0600040A0800040A0A00040A0C00040A0E00040C0000040C0200040C0400040C0600040C08000
310
40C0A00040C0C00040C0E00040E0000040E0200040E0400040E0600040E0800040E0A00040E0C00040E0E00080000000800020008000400080006000800080008000A0008000C0008000E00080200000802020008020400080206000802080008020A0008020C0008020E00080400000804020008040400080406000804080
310
008040A0008040C0008040E00080600000806020008060400080606000806080008060A0008060C0008060E00080800000808020008080400080806000808080008080A0008080C0008080E00080A0000080A0200080A0400080A0600080A0800080A0A00080A0C00080A0E00080C0000080C0200080C0400080C0600080C0
310
800080C0A00080C0C00080C0E00080E0000080E0200080E0400080E0600080E0800080E0A00080E0C00080E0E000C0000000C0002000C0004000C0006000C0008000C000A000C000C000C000E000C0200000C0202000C0204000C0206000C0208000C020A000C020C000C020E000C0400000C0402000C0404000C0406000C0
310
408000C040A000C040C000C040E000C0600000C0602000C0604000C0606000C0608000C060A000C060C000C060E000C0800000C0802000C0804000C0806000C0808000C080A000C080C000C080E000C0A00000C0A02000C0A04000C0A06000C0A08000C0A0A000C0A0C000C0A0E000C0C00000C0C02000C0C04000C0C06000
310
C0C08000C0C0A000F0FBFF00A4A0A000808080000000FF0000FF000000FFFF00FF000000FF00FF00FFFF0000FFFFFF0000000000000000000000000000000000000000000000000000000000000000000000000000000000000000000000000000000000000000000000000000000000000000000000000000000000000000
310
000000000000000000000000000000000000000000000000000000000000000000000000FFA4A4FFA4A4FFA4FF0000000000000000000000000000000000000000000000F9F9F9F9F9F9F9F9F9FF00000000000000000000000000000000000000000000F9F9F9F9F9F9F9F9F9F90000000000000000FF0000000000000000
310
0000000000A4F9F9F9F9F9F9F9F9F90000000000000000A4FF000000000000000000000000FFA4A400A400A400A4A40000000000000000FFA4FF0000000000000000000000A400A4A400A400A400A40000000000000000A400A4FFA4FFA4FFA4FFA4A4FFA4FFA400A4A4A4A4A4A4FF0000000000000000A4A4A4A400A400A4
310
00A400A4A400A400A400A400A400A4A400000000000000FAFAFAFAA4A400A400A400A400A4A4FAA4FAA4FAA4FAA4FAA40000000000000000A4FFA400A4A400A400A400A400A4A4FFA4FFA4A4FFA4FFA40000000000000000FFA400A400A4A400A400A400A4FFFA0000000000000000FF0000000000000000A409A400A400A4
310
A400A400A4FFFFFA0000000000000000FF000000000909090909A4FAA4FAA4FAA4A4FAA4FAA4FAFAFAFAFAFAFAFAFAFAFAFAFA000000000000A400A400A400A400A4A400A4FFFFFA0000000000000000FF0000000000000000A4A400A400A400A400A4A400A4FFFA0000000000000000FF0000000000000000A4FFA400A400
310
A400A4A400A400A4FFA4FFA4FFA4FFA4A4FF00000000000000FAA4FAA4A4FAA400A400A4A400A400A4FAA4A4FAA4FAA4FAA40000000000000000FFA400A4A400A400A400A4A400A400A400A4A400A400A4FF0000000000000000A400A4A4FFA4FFA4FFA4FFA4A4FFA400A400A4A400A400A40000000000000000FFA4FF0000
310
000000000000000000A4A400A400A4A400A4FF0000000000000000A400000000000000000000000000FFA4A400A400A4A400A400000000000000000000000000000000000000000000A400A4A4FFA4FAA4A4FF00000000000000000000000000000000000000000000FFA4A400A400FAFFA4A4000000000000000000000000
310
00000000000000000000A400A4A4FF00FAA400A400000000000000000000000000000000000000000000FFA4FFA4A4FFFAFFA40000000000000000000000000000000000000000000000000000000000FA00000000000000000000000000000000000000000000000000000000000000000000000000000000000000000000
310
0000000000000000000000000000000000000000000000000000000000000000000000000000000000000000000000000000000000000000
102
{BLKREFS
331
A23
102
}
  0
ENDTAB
  0
ENDSEC
  0
SECTION
  2
BLOCKS
  0
BLOCK
  5
20
330
1F
100
AcDbEntity
  8
0
100
AcDbBlockBegin
  2
*Model_Space
 70
     0
 10
0.0
 20
0.0
 30
0.0
  3
*Model_Space
  1

  0
ENDBLK
  5
21
330
1F
100
AcDbEntity
  8
0
100
AcDbBlockEnd
  0
BLOCK
  5
1C
330
1B
100
AcDbEntity
 67
     1
  8
0
100
AcDbBlockBegin
  2
*Paper_Space
 70
     0
 10
0.0
 20
0.0
 30
0.0
  3
*Paper_Space
  1

  0
ENDBLK
  5
1D
330
1B
100
AcDbEntity
 67
     1
  8
0
100
AcDbBlockEnd
  0
BLOCK
  5
24
330
23
100
AcDbEntity
 67
     1
  8
0
100
AcDbBlockBegin
  2
*Paper_Space0
 70
     0
 10
0.0
 20
0.0
 30
0.0
  3
*Paper_Space0
  1

  0
ENDBLK
  5
25
330
23
100
AcDbEntity
 67
     1
  8
0
100
AcDbBlockEnd
  0
BLOCK
  5
267
330
260
100
AcDbEntity
  8
0
100
AcDbBlockBegin
  2
insertpoint-ECKELT
 70
     2
 10
0.0
 20
0.0
 30
0.0
  3
insertpoint-ECKELT
  1

  0
ATTDEF
  5
2E1
330
260
100
AcDbEntity
  8
insertpoint_ECKELT
100
AcDbText
 10
-2.457298772169167
 20
-0.0000000000000255
 30
0.0
 40
0.6
  1
LW
 72
     2
 11
-1.199999999999999
 21
-0.0000000000000255
 31
0.0
100
AcDbAttributeDefinition
  3
Nr. links
  2
LINKS
 70
     0
  0
ATTDEF
  5
2E2
330
260
100
AcDbEntity
  8
insertpoint_ECKELT
100
AcDbText
 10
1.199999999999999
 20
-0.0000000000000255
 30
0.0
 40
0.6
  1
LW
100
AcDbAttributeDefinition
  3
Nr. rechts
  2
RECHTS
 70
     0
  0
LINE
  5
2E3
102
{ACAD_REACTORS
330
2E6
102
}
330
260
100
AcDbEntity
  8
insertpoint_ECKELT
100
AcDbLine
 10
0.0
 20
1.799999999999999
 30
0.0
 11
0.0
 21
-1.799999999999999
 31
0.0
  0
LINE
  5
2E4
102
{ACAD_REACTORS
330
2E6
102
}
330
260
100
AcDbEntity
  8
insertpoint_ECKELT
100
AcDbLine
 10
-1.8
 20
-0.0000000000000255
 30
0.0
 11
1.8
 21
-0.0000000000000255
 31
0.0
  0
CIRCLE
  5
2E5
102
{ACAD_REACTORS
330
2E6
102
}
330
260
100
AcDbEntity
  8
insertpoint_ECKELT
100
AcDbCircle
 10
0.0
 20
0.0
 30
0.0
 40
1.199999999999999
  0
HATCH
  5
2E6
330
260
100
AcDbEntity
  8
insertpoint_ECKELT
100
AcDbHatch
 10
0.0
 20
0.0
 30
0.0
210
0.0
220
0.0
230
1.0
  2
SOLID
 70
     1
 71
     1
 91
        2
 92
        7
 72
     1
 73
     1
 93
        3
 10
0.0
 20
-0.0000000000000255
 42
0.0
 10
0.0
 20
1.199999999999999
 42
0.4142135623731013
 10
-1.199999999999999
 20
-0.0000000000000255
 42
0.0
 97
        3
330
2E5
330
2E4
330
2E3
 92
        7
 72
     1
 73
     1
 93
        3
 10
1.199999999999999
 20
-0.0000000000000255
 42
0.0
 10
0.0
 20
-0.0000000000000255
 42
0.0
 10
0.0
 20
-1.199999999999999
 42
0.4142135623730888
 97
        3
330
2E4
330
2E3
330
2E5
 75
     0
 76
     1
 47
0.0223086566480813
 98
        2
 10
-0.3163651093721391
 20
0.2714132920773493
 10
0.7415965996738798
 20
-0.4513871917946231
450
        0
451
        0
460
0.0
461
0.0
452
        0
462
0.0
453
        0
470

  0
ENDBLK
  5
268
330
260
100
AcDbEntity
  8
0
100
AcDbBlockEnd
  0
BLOCK
  5
8E4
330
8E0
100
AcDbEntity
  8
0
100
AcDbBlockBegin
  2
LW 3000-15-01
 70
     0
 10
0.0
 20
0.0
 30
0.0
  3
LW 3000-15-01
  1

  0
LINE
  5
8E6
330
8E0
100
AcDbEntity
  8
LW 3000-STADIP-01
 62
     3
100
AcDbLine
 10
17.75999999999998
 20
6.999999999999985
 30
0.0
 11
34.75999999999999
 21
6.999999999999985
 31
0.0
  0
LINE
  5
8E7
330
8E0
100
AcDbEntity
  8
LW 3000-STADIP-01
 62
     3
100
AcDbLine
 10
34.75999999999999
 20
-7.000000000000014
 30
0.0
 11
17.75999999999998
 21
-7.000000000000014
 31
0.0
  0
LINE
  5
8E8
330
8E0
100
AcDbEntity
  8
LW 3000-STADIP-01
 62
     3
100
AcDbLine
 10
17.75999999999998
 20
6.999999999999985
 30
0.0
 11
17.75999999999998
 21
-7.000000000000014
 31
0.0
  0
LINE
  5
8E9
330
8E0
100
AcDbEntity
  8
LW 3000-STADIP-01
100
AcDbLine
 10
15.75999999999998
 20
-6.053000000000011
 30
0.0
 11
15.75999999999998
 21
6.052999999999954
 31
0.0
  0
LINE
  5
8EA
330
8E0
100
AcDbEntity
  8
LW 3000-STADIP-01
100
AcDbLine
 10
3.999999999999985
 20
8.499999999999957
 30
0.0
 11
3.999999999999985
 21
5.499999999999985
 31
0.0
  0
LINE
  5
8EB
330
8E0
100
AcDbEntity
  8
LW 3000-STADIP-01
100
AcDbLine
 10
3.999999999999985
 20
-5.500000000000014
 30
0.0
 11
3.999999999999985
 21
-8.500000000000014
 31
0.0
  0
LWPOLYLINE
  5
8EC
330
8E0
100
AcDbEntity
  8
LW 3000-STADIP-01
100
AcDbPolyline
 90
       25
 70
     0
 43
0.0
 10
25.25999999999998
 20
22.99999999999998
 10
25.28101778984068
 20
22.99768495559691
 10
25.3443560695648
 20
22.99094486236571
 10
25.45044399261473
 20
22.98008012771605
 10
25.59832907676695
 20
22.96570587158202
 10
25.78153944969176
 20
22.94918823242186
 10
25.99223590850828
 20
22.93196487426756
 10
26.23257971763609
 20
22.91472721099852
 10
26.50519824981688
 20
22.8981738090515
 10
26.80294848442076
 20
22.88374948501585
 10
27.1181187725067
 20
22.87283468246458
 10
27.44067288398741
 20
22.86605644226073
 10
27.75999880790709
 20
22.8637270927429
 10
28.07932473182677
 20
22.86605644226073
 10
28.40188122749327
 20
22.87283468246458
 10
28.71705151557921
 20
22.88374948501585
 10
29.01480294227599
 20
22.8981738090515
 10
29.28742028236388
 20
22.91472721099852
 10
29.52776289939879
 20
22.93196487426756
 10
29.73846055030821
 20
22.94918823242186
 10
29.92167092323302
 20
22.96570587158202
 10
30.06955481529234
 20
22.98008012771605
 10
30.17564393043516
 20
22.99094486236571
 10
30.23898221015929
 20
22.99768495559691
 10
30.25999880790709
 20
22.99999999999998
  0
LINE
  5
8ED
330
8E0
100
AcDbEntity
  8
LW 3000-STADIP-01
100
AcDbLine
 10
30.25999999999998
 20
16.99999999999995
 30
0.0
 11
25.25999999999998
 21
16.99999999999995
 31
0.0
  0
LINE
  5
8EE
330
8E0
100
AcDbEntity
  8
LW 3000-STADIP-01
100
AcDbLine
 10
0.0
 20
-5.500000000000042
 30
0.0
 11
3.999999999999985
 21
-5.500000000000042
 31
0.0
  0
LINE
  5
8EF
330
8E0
100
AcDbEntity
  8
LW 3000-STADIP-01
100
AcDbLine
 10
0.0
 20
15.99999999999998
 30
0.0
 11
0.0
 21
-15.99999999999998
 31
0.0
  0
LINE
  5
8F0
330
8E0
100
AcDbEntity
  8
LW 3000-STADIP-01
100
AcDbLine
 10
3.999999999999985
 20
5.499999999999985
 30
0.0
 11
0.0
 21
5.499999999999985
 31
0.0
  0
LINE
  5
8F1
330
8E0
100
AcDbEntity
  8
LW 3000-STADIP-01
100
AcDbLine
 10
4.866025403784433
 20
6.999999999999957
 30
0.0
 11
4.0
 21
5.499999999999985
 31
0.0
  0
LINE
  5
8F2
330
8E0
100
AcDbEntity
  8
LW 3000-STADIP-01
100
AcDbLine
 10
4.0
 20
8.499999999999985
 30
0.0
 11
4.866025403784433
 21
6.999999999999957
 31
0.0
  0
LINE
  5
8F3
330
8E0
100
AcDbEntity
  8
LW 3000-STADIP-01
100
AcDbLine
 10
0.0
 20
8.499999999999985
 30
0.0
 11
3.999999999999985
 21
8.499999999999985
 31
0.0
  0
LINE
  5
8F4
330
8E0
100
AcDbEntity
  8
LW 3000-STADIP-01
100
AcDbLine
 10
5.0
 20
10.99999999999996
 30
0.0
 11
-0.0000000000000142
 21
15.99999999999998
 31
0.0
  0
LINE
  5
8F5
330
8E0
100
AcDbEntity
  8
LW 3000-STADIP-01
100
AcDbLine
 10
16.75999999999998
 20
10.99999999999998
 30
0.0
 11
5.0
 21
10.99999999999998
 31
0.0
  0
LINE
  5
8F6
330
8E0
100
AcDbEntity
  8
LW 3000-STADIP-01
100
AcDbLine
 10
16.75999999999998
 20
21.99999999999996
 30
0.0
 11
16.75999999999998
 21
10.99999999999998
 31
0.0
  0
LINE
  5
8F7
330
8E0
100
AcDbEntity
  8
LW 3000-STADIP-01
100
AcDbLine
 10
18.75999999999998
 20
21.99999999999996
 30
0.0
 11
16.75999999999998
 21
21.99999999999996
 31
0.0
  0
LINE
  5
8F8
330
8E0
100
AcDbEntity
  8
LW 3000-STADIP-01
100
AcDbLine
 10
18.75999999999998
 20
22.99999999999998
 30
0.0
 11
18.75999999999998
 21
21.99999999999996
 31
0.0
  0
LINE
  5
8F9
330
8E0
100
AcDbEntity
  8
LW 3000-STADIP-01
100
AcDbLine
 10
25.25999999999998
 20
22.99999999999998
 30
0.0
 11
18.75999999999998
 21
22.99999999999998
 31
0.0
  0
LINE
  5
8FA
330
8E0
100
AcDbEntity
  8
LW 3000-STADIP-01
100
AcDbLine
 10
25.25999999999998
 20
16.99999999999995
 30
0.0
 11
25.25999999999998
 21
22.99999999999998
 31
0.0
  0
LINE
  5
8FB
330
8E0
100
AcDbEntity
  8
LW 3000-STADIP-01
100
AcDbLine
 10
27.75999999999998
 20
15.55662432702591
 30
0.0
 11
25.25999999999998
 21
16.99999999999995
 31
0.0
  0
LINE
  5
8FC
330
8E0
100
AcDbEntity
  8
LW 3000-STADIP-01
100
AcDbLine
 10
30.25999999999998
 20
16.99999999999995
 30
0.0
 11
27.75999999999998
 21
15.55662432702591
 31
0.0
  0
LINE
  5
8FD
330
8E0
100
AcDbEntity
  8
LW 3000-STADIP-01
100
AcDbLine
 10
30.25999999999998
 20
22.99999999999998
 30
0.0
 11
30.25999999999998
 21
16.99999999999995
 31
0.0
  0
LINE
  5
8FE
330
8E0
100
AcDbEntity
  8
LW 3000-STADIP-01
100
AcDbLine
 10
31.55289321881343
 20
22.99999999999996
 30
0.0
 11
30.25999999999998
 21
22.99999999999998
 31
0.0
  0
ARC
  5
8FF
330
8E0
100
AcDbEntity
  8
LW 3000-STADIP-01
100
AcDbCircle
 10
31.55289321881343
 20
22.49999999999996
 30
0.0
 40
0.5000000000000085
100
AcDbArc
 50
45.00000000000102
 51
90.0
  0
LINE
  5
900
330
8E0
100
AcDbEntity
  8
LW 3000-STADIP-01
100
AcDbLine
 10
34.61355339059325
 20
20.14644660940672
 30
0.0
 11
31.9064466094067
 21
22.85355339059325
 31
0.0
  0
ARC
  5
901
330
8E0
100
AcDbEntity
  8
LW 3000-STADIP-01
100
AcDbCircle
 10
34.26
 20
19.79289321881343
 30
0.0
 40
0.4999999999999938
100
AcDbArc
 50
0.0
 51
45.00000000000276
  0
LINE
  5
902
330
8E0
100
AcDbEntity
  8
LW 3000-STADIP-01
100
AcDbLine
 10
15.75999999999998
 20
6.052999999999954
 30
0.0
 11
34.75999999999999
 21
6.052999999999954
 31
0.0
  0
LINE
  5
903
330
8E0
100
AcDbEntity
  8
LW 3000-STADIP-01
100
AcDbLine
 10
12.26529882059519
 20
-0.0000000000000284
 30
0.0
 11
15.75999999999998
 21
6.052999999999954
 31
0.0
  0
LINE
  5
904
330
8E0
100
AcDbEntity
  8
LW 3000-STADIP-01
100
AcDbLine
 10
15.75999999999998
 20
-6.053000000000011
 30
0.0
 11
12.26529882059519
 21
-0.0000000000000284
 31
0.0
  0
LINE
  5
905
330
8E0
100
AcDbEntity
  8
LW 3000-STADIP-01
100
AcDbLine
 10
34.75999999999999
 20
-6.053000000000011
 30
0.0
 11
15.75999999999998
 21
-6.053000000000011
 31
0.0
  0
LINE
  5
906
330
8E0
100
AcDbEntity
  8
LW 3000-STADIP-01
100
AcDbLine
 10
34.75999999999999
 20
-19.79289321881349
 30
0.0
 11
34.75999999999999
 21
19.79289321881343
 31
0.0
  0
ARC
  5
907
330
8E0
100
AcDbEntity
  8
LW 3000-STADIP-01
100
AcDbCircle
 10
34.26
 20
-19.79289321881349
 30
0.0
 40
0.4999999999999944
100
AcDbArc
 50
314.9999999999995
 51
0.0
  0
LINE
  5
908
330
8E0
100
AcDbEntity
  8
LW 3000-STADIP-01
100
AcDbLine
 10
31.90644660940671
 20
-22.85355339059329
 30
0.0
 11
34.61355339059325
 21
-20.14644660940674
 31
0.0
  0
ARC
  5
909
330
8E0
100
AcDbEntity
  8
LW 3000-STADIP-01
100
AcDbCircle
 10
31.55289321881343
 20
-22.50000000000004
 30
0.0
 40
0.5000000000000071
100
AcDbArc
 50
270.0
 51
315.0000000000001
  0
LINE
  5
90A
330
8E0
100
AcDbEntity
  8
LW 3000-STADIP-01
100
AcDbLine
 10
18.75999999999998
 20
-23.00000000000004
 30
0.0
 11
31.55289321881343
 21
-23.00000000000004
 31
0.0
  0
LINE
  5
90B
330
8E0
100
AcDbEntity
  8
LW 3000-STADIP-01
100
AcDbLine
 10
18.75999999999998
 20
-22.00000000000001
 30
0.0
 11
18.75999999999998
 21
-23.00000000000004
 31
0.0
  0
LINE
  5
90C
330
8E0
100
AcDbEntity
  8
LW 3000-STADIP-01
100
AcDbLine
 10
16.75999999999998
 20
-22.00000000000001
 30
0.0
 11
18.75999999999998
 21
-22.00000000000001
 31
0.0
  0
LINE
  5
90D
330
8E0
100
AcDbEntity
  8
LW 3000-STADIP-01
100
AcDbLine
 10
16.75999999999998
 20
-11.00000000000001
 30
0.0
 11
16.75999999999998
 21
-22.00000000000001
 31
0.0
  0
LINE
  5
90E
330
8E0
100
AcDbEntity
  8
LW 3000-STADIP-01
100
AcDbLine
 10
5.0
 20
-11.00000000000001
 30
0.0
 11
16.75999999999998
 21
-11.00000000000001
 31
0.0
  0
LINE
  5
90F
330
8E0
100
AcDbEntity
  8
LW 3000-STADIP-01
100
AcDbLine
 10
-0.0000000000000142
 20
-16.00000000000001
 30
0.0
 11
5.0
 21
-11.00000000000001
 31
0.0
  0
LINE
  5
910
330
8E0
100
AcDbEntity
  8
LW 3000-STADIP-01
100
AcDbLine
 10
3.999999999999985
 20
-8.500000000000014
 30
0.0
 11
0.0
 21
-8.500000000000014
 31
0.0
  0
LINE
  5
911
330
8E0
100
AcDbEntity
  8
LW 3000-STADIP-01
100
AcDbLine
 10
4.866025403784433
 20
-7.000000000000014
 30
0.0
 11
4.0
 21
-8.500000000000042
 31
0.0
  0
LINE
  5
912
330
8E0
100
AcDbEntity
  8
LW 3000-STADIP-01
100
AcDbLine
 10
4.0
 20
-5.500000000000014
 30
0.0
 11
4.866025403784433
 21
-7.000000000000014
 31
0.0
  0
LINE
  5
913
330
8E0
100
AcDbEntity
  8
LW 3000-STADIP-01
  6
MITTE2
 62
     3
100
AcDbLine
 10
27.75999999999998
 20
12.63029283982406
 30
0.0
 11
27.75999999999998
 21
25.14953494527482
 31
0.0
  0
LINE
  5
914
330
8E0
100
AcDbEntity
  8
LW 3000-STADIP-01
  6
MITTE2
 62
     3
100
AcDbLine
 10
37.17947717894095
 20
-0.0000000000000284
 30
0.0
 11
-3.154117270599046
 21
-0.0000000000000284
 31
0.0
  0
LINE
  5
915
330
8E0
100
AcDbEntity
  8
LW 3000-STADIP-01
  6
MITTE2
 62
     3
100
AcDbLine
 10
6.466010717671451
 20
6.999999999999957
 30
0.0
 11
-2.314777409360431
 21
6.999999999999957
 31
0.0
  0
LINE
  5
916
330
8E0
100
AcDbEntity
  8
LW 3000-STADIP-01
  6
MITTE2
 62
     3
100
AcDbLine
 10
6.466010717671451
 20
-7.000000000000014
 30
0.0
 11
-2.314777409360431
 21
-7.000000000000014
 31
0.0
  0
INSERT
  5
917
330
8E0
100
AcDbEntity
  8
insertpoint_ECKELT
100
AcDbBlockReference
 66
     1
  2
insertpoint-ECKELT
 10
0.0
 20
0.0
 30
0.0
  0
ATTRIB
  5
918
330
917
100
AcDbEntity
  8
insertpoint_ECKELT
100
AcDbText
 10
-6.931514324693044
 20
-0.0000000000000284
 30
0.0
 40
0.6
  1
LW 3000/15-01
 72
     2
 11
-1.200000000000002
 21
-0.0000000000000284
 31
0.0
100
AcDbAttribute
  2
LINKS
 70
     0
  0
ATTRIB
  5
919
330
917
100
AcDbEntity
  8
insertpoint_ECKELT
100
AcDbText
 10
1.199999999999995
 20
-0.0000000000000284
 30
0.0
 40
0.6
  1

100
AcDbAttribute
  2
RECHTS
 70
     0
  0
SEQEND
  5
91A
330
917
100
AcDbEntity
  8
insertpoint_ECKELT
  0
HATCH
  5
91B
330
8E0
100
AcDbEntity
  8
LW 3000-STADIP-01
 62
     1
100
AcDbHatch
 10
0.0
 20
0.0
 30
0.0
210
0.0
220
0.0
230
1.0
  2
SOLID
 70
     1
 71
     0
 91
        5
 92
        7
 72
     0
 73
     1
 93
       76
 10
20.8360015050775
 20
-18.08856979069735
 10
20.86786033445032
 20
-18.03698882885565
 10
20.98601845868161
 20
-17.88574642983961
 10
21.12049653389437
 20
-17.74532229957712
 10
21.26651644035582
 20
-17.61693773786378
 10
21.43018523643782
 20
-17.50003145494808
 10
21.60557218980256
 20
-17.39785357312637
 10
21.78732512240288
 20
-17.30650189354354
 10
21.96849405786862
 20
-17.23698358109736
 10
19.71135611966856
 20
-17.23698358109736
 10
19.49845956726859
 20
-17.24567323629735
 10
19.2964250838686
 20
-17.27174220189737
 10
19.10090784186861
 20
-17.31301806409736
 10
18.91625266886871
 20
-17.36732840909734
 10
18.74028715106858
 20
-17.43684565069735
 10
18.57301128846865
 20
-17.5193973750974
 10
18.42244302592173
 20
-17.61472289264126
 10
18.27973542546869
 20
-17.72143185849738
 10
18.15429416989804
 20
-17.84048013473743
 10
18.04302921782062
 20
-17.96873944548933
 10
17.94301128646868
 20
-18.10594910109732
 10
17.86045956206863
 20
-18.25150082569733
 10
17.79745956186861
 20
-18.4057422054975
 10
17.74749404446868
 20
-18.56650082669726
 10
17.71925266506867
 20
-18.73160427549736
 10
17.71056300986863
 20
-18.90539737949733
 10
17.72142507886867
 20
-19.07919048349741
 10
17.75183887206862
 20
-19.24646634609739
 10
17.80614921706866
 20
-19.40722496729738
 10
17.87566645866861
 20
-19.56363876089737
 10
17.96473542446871
 20
-19.71136289929744
 10
18.0711837006686
 20
-19.85256979629734
 10
18.19388163209266
 20
-19.98378358981738
 10
18.33008068080085
 20
-20.10491738330534
 10
18.47742508126863
 20
-20.21536290089738
 10
18.63818370246867
 20
-20.31312152189734
 10
18.81381032371588
 20
-20.39801945320134
 10
18.9944595656686
 20
-20.47170772929733
 10
19.18563198006871
 20
-20.52819048809737
 10
19.38549404966864
 20
-20.57163876409736
 10
19.59404577446862
 20
-20.59770772969738
 10
19.80476991306859
 20
-20.60639738489737
 10
21.9239409988212
 20
-20.60639738489737
 10
21.7633971347687
 20
-20.54332658116248
 10
21.57983299096629
 20
-20.45270630763973
 10
21.41136658479622
 20
-20.3481766147081
 10
21.24853369003547
 20
-20.23255837628266
 10
21.10462132166527
 20
-20.10276877974279
 10
20.97718542818093
 20
-19.96341509651431
 10
20.86348007343759
 20
-19.81292685180169
 10
20.811508841989
 20
-19.72874220969736
 10
19.78304577506862
 20
-19.72874220969736
 10
19.65093694706304
 20
-19.72118220967336
 10
19.52018370526861
 20
-19.70084841650536
 10
19.39201129106869
 20
-19.66791462329739
 10
19.27687335966863
 20
-19.62229393349734
 10
19.17192839381824
 20
-19.56581117469737
 10
19.07377873833423
 20
-19.49820565724137
 10
18.98359749666867
 20
-19.42025945009736
 10
18.91190784126866
 20
-19.33553531189737
 10
20.63942915552747
 20
-19.33553531189737
 10
20.62884468825445
 20
-19.30289987113905
 10
20.59273288028999
 20
-19.11752592358793
 10
20.58068922750829
 20
-18.9272362096372
 10
20.59271089993764
 20
-18.73248511628223
 10
20.62901662161296
 20
-18.54611574501568
 10
20.64561532428804
 20
-18.49698358509737
 10
18.87497680666866
 20
-18.49698358509737
 10
18.94449404826861
 20
-18.40139737789745
 10
19.02704577266861
 20
-18.31884565349735
 10
19.12213666952221
 20
-18.24898082568937
 10
19.22473542846865
 20
-18.19067323929736
 10
19.34342742884542
 20
-18.1467035839854
 10
19.46587336026869
 20
-18.11463875629737
 10
19.60273542966866
 20
-18.09508703209739
 10
19.74611474046868
 20
-18.08856979069735
 97
        0
 92
        7
 72
     0
 73
     1
 93
       72
 10
22.56446537010544
 20
-18.10316841143337
 10
22.68732840497825
 20
-18.08509392861735
 10
22.81139061226868
 20
-18.07988013549736
 10
24.08008027146867
 20
-18.07988013549736
 10
23.23283888946862
 20
-18.89453531049734
 10
24.99901130886867
 20
-20.61291462629736
 10
26.31766648546864
 20
-20.61291462629736
 10
24.60363199726863
 20
-18.87063875869738
 10
26.28508027846863
 20
-17.23698358109736
 10
22.84614923306873
 20
-17.23698358109736
 10
22.63816233585659
 20
-17.24775875354537
 10
22.43144412830379
 20
-17.27321944328138
 10
22.22701130006869
 20
-17.31301806409736
 10
22.03366647186864
 20
-17.36950082289739
 10
21.84683888506863
 20
-17.44119047829734
 10
21.67567874659415
 20
-17.52721806477739
 10
21.51011474606868
 20
-17.62367323749741
 10
21.35804578006867
 20
-17.73229392749736
 10
21.22234812446551
 20
-17.85160289339335
 10
21.09735612406866
 20
-17.98212151449739
 10
20.9887354340686
 20
-18.12115599769741
 10
20.89749405446867
 20
-18.26888013609725
 10
20.82580439906867
 20
-18.4231215158973
 10
20.77149405406863
 20
-18.58388013709735
 10
20.73890784706868
 20
-18.75115599969733
 10
20.72804577806864
 20
-18.92712151749747
 10
20.73890784706863
 20
-19.09874220769738
 10
20.77149405406863
 20
-19.26601807029736
 10
20.82363198526861
 20
-19.42677669149735
 10
20.89314922686862
 20
-19.58101807129735
 10
20.98499019267741
 20
-19.72978496832131
 10
21.09036964128786
 20
-19.86925393428144
 10
21.20837515890384
 20
-19.99829531400131
 10
21.34066646966864
 20
-20.11760427989735
 10
21.49278757359986
 20
-20.22561669403341
 10
21.65132164306869
 20
-20.32398359089738
 10
21.82294233326866
 20
-20.40870772909737
 10
22.00542509246862
 20
-20.48039738449738
 10
22.19965626549908
 20
-20.53444703984137
 10
22.39645957646861
 20
-20.57815600549735
 10
22.6050113012687
 20
-20.60422497109737
 10
22.81573543986861
 20
-20.61291462629736
 10
24.71876992866863
 20
-20.61291462629736
 10
23.83242509826864
 20
-19.73960427869734
 10
22.81573543986861
 20
-19.73960427869734
 10
22.74906840517412
 20
-19.73585698575805
 10
22.64812068071587
 20
-19.72587462348137
 10
22.52798619757585
 20
-19.70441117513739
 10
22.41086702479027
 20
-19.67008703709739
 10
22.30937185205426
 20
-19.62915876110536
 10
22.2532366794622
 20
-19.60100427825732
 10
22.19955198963658
 20
-19.56841807125731
 10
22.06699129956065
 20
-19.46909531232136
 10
21.99338992001663
 20
-19.39905669140937
 10
21.93832357501436
 20
-19.33119048429744
 10
21.88961805761824
 20
-19.25863186337737
 10
21.8502539195622
 20
-19.18146772520138
 10
21.82083074705503
 20
-19.10004565597744
 10
21.80013198836861
 20
-19.01288841432135
 10
21.79261543662063
 20
-18.92355875886544
 10
21.79397102283185
 20
-18.86125393108141
 10
21.79997557457507
 20
-18.7991228964015
 10
21.81213240219984
 20
-18.73594910309735
 10
21.83034591949906
 20
-18.67425255117739
 10
21.87399405756861
 20
-18.57553806810544
 10
21.91552191976946
 20
-18.50767186099339
 10
21.97860012686625
 20
-18.42963875729735
 10
22.10800206723105
 20
-18.30311602024373
 10
22.16726992056869
 20
-18.26305806711336
 10
22.24356509322463
 20
-18.21874082559343
 10
22.32758536935342
 20
-18.17659599787338
 10
22.4441223352406
 20
-18.13375599773739
 97
        0
 92
        7
 72
     0
 73
     1
 93
       57
 10
27.12250235009271
 20
-18.12524013564136
 10
27.25397683326868
 20
-18.08526772172136
 10
27.38866648886859
 20
-18.05815599749734
 10
27.53204579966855
 20
-18.04946634229735
 10
28.77249407946864
 20
-18.04946634229735
 10
28.77249407946864
 20
-17.22394909829738
 10
27.53856304106871
 20
-17.22394909829738
 10
27.32783890246868
 20
-17.23263875349737
 10
27.1214595914687
 20
-17.26088013289732
 10
26.92376993566871
 20
-17.30215599509732
 10
26.7347699350687
 20
-17.35646634009735
 10
26.55011476206875
 20
-17.42815599549736
 10
26.38370786498849
 20
-17.51079461644939
 10
26.22488703689818
 20
-17.60724978916941
 10
26.07480800193907
 20
-17.71673944468936
 10
25.94024869116715
 20
-17.83596151403331
 10
25.8201837252687
 20
-17.96474220409736
 10
25.71590786286868
 20
-18.10377668729738
 10
25.63118372466864
 20
-18.24932841189739
 10
25.55949406926863
 20
-18.40356979169739
 10
25.50952855186865
 20
-18.56432841289727
 10
25.47694234486864
 20
-18.7316042754973
 10
25.46608027586866
 20
-18.90539737949733
 10
25.47694234486864
 20
-19.07919048349736
 10
25.50952855186865
 20
-19.24646634609739
 10
25.56166648306863
 20
-19.40722496729738
 10
25.63335613846863
 20
-19.56363876089737
 10
25.72025269046868
 20
-19.71136289929738
 10
25.82909931150381
 20
-19.85091876180938
 10
25.94895572567743
 20
-19.98126358980936
 10
26.08538331231745
 20
-20.10257117640138
 10
26.23294234726865
 20
-20.21319048709738
 10
26.39370096846864
 20
-20.3109491080974
 10
26.56749407246862
 20
-20.39567324629739
 10
26.75214924546863
 20
-20.46953531549734
 10
26.94332165986868
 20
-20.52601807429737
 10
27.14318372946861
 20
-20.56946635029736
 10
27.34956304046864
 20
-20.59336290209738
 10
27.56245959286867
 20
-20.60205255729737
 10
28.77249407946864
 20
-20.60205255729737
 10
28.77249407946864
 20
-19.74394910629739
 10
27.53856304106859
 20
-19.74394910629739
 10
27.40491614409263
 20
-19.73360841660938
 10
27.27265959194865
 20
-19.71162358895337
 10
27.15204717777267
 20
-19.67729945091337
 10
27.03604028085267
 20
-19.62933255420937
 10
26.92637683222865
 20
-19.56841807125737
 10
26.82931338364467
 20
-19.50081255380137
 10
26.74189545233265
 20
-19.42104151906538
 10
26.66742510726864
 20
-19.33553531189737
 10
28.77249407946864
 20
-19.33553531189737
 10
28.77249407946864
 20
-18.50784565409735
 10
26.63049407266863
 20
-18.50784565409735
 10
26.70001131426865
 20
-18.41008703309738
 10
26.78690786626857
 20
-18.3210180672974
 10
26.88805545279667
 20
-18.24472289464135
 10
26.99545959106866
 20
-18.17763875649738
 97
        0
 92
        7
 72
     0
 73
     1
 93
        6
 10
29.00276994226864
 20
-17.23698358109736
 10
29.00276994226864
 20
-20.60639738489737
 10
31.24035615626867
 20
-20.60639738489737
 10
31.24035615626867
 20
-19.73960427869734
 10
30.02597684206865
 20
-19.73960427869734
 10
30.02597684206865
 20
-17.23698358109736
 97
        0
 92
        7
 72
     0
 73
     1
 93
        8
 10
30.25842511866865
 20
-17.23698358109736
 10
30.25842511866865
 20
-18.06250082509739
 10
31.49235615706864
 20
-18.06250082509739
 10
31.49235615706864
 20
-20.61291462629736
 10
32.51773547066865
 20
-20.61291462629736
 10
32.51773547066865
 20
-18.06250082509739
 10
33.76035616426868
 20
-18.06250082509739
 10
33.76035616426868
 20
-17.23698358109736
 97
        0
 75
     0
 76
     1
 47
0.0142553043587597
 98
        5
 10
20.14566163114388
 20
-17.67943325068647
 10
22.41315884448642
 20
-17.82198623569228
 10
26.90537057668798
 20
-17.76496506314457
 10
29.62921966051954
 20
-17.5226248384523
 10
31.04105764274642
 20
-17.62241197086563
450
        0
451
        0
460
0.0
461
0.0
452
        0
462
0.0
453
        0
470

  0
HATCH
  5
91C
330
8E0
100
AcDbEntity
  8
LW 3000-STADIP-01
 62
     8
100
AcDbHatch
 10
0.0
 20
0.0
 30
0.0
210
0.0
220
0.0
230
1.0
  2
ANSI31
 70
     0
 71
     0
 91
        9
 92
        7
 72
     1
 73
     1
 93
       27
 10
34.75999999999999
 20
19.79289321881343
 42
0.198912367379663
 10
34.61355339059326
 20
20.14644660940671
 42
0.0
 10
31.9064466094067
 20
22.85355339059325
 42
0.1989123673796392
 10
31.55289321881344
 20
22.99999999999996
 42
0.0
 10
30.25999999999998
 20
22.99999999999998
 42
0.0
 10
30.25999999999998
 20
16.99999999999995
 42
0.0
 10
27.76
 20
15.55662432702593
 42
0.0
 10
25.25999999999998
 20
16.99999999999994
 42
0.0
 10
25.25999999999998
 20
22.99999999999998
 42
0.0
 10
18.75999999999998
 20
22.99999999999998
 42
0.0
 10
18.75999999999998
 20
21.99999999999996
 42
0.0
 10
16.75999999999998
 20
21.99999999999996
 42
0.0
 10
16.75999999999999
 20
11.0
 42
0.0
 10
4.999999999999957
 20
11.0
 42
0.0
 10
-0.0000000000000036
 20
15.99999999999998
 42
0.0
 10
-0.0000000000000036
 20
8.5
 42
0.0
 10
3.999999999999992
 20
8.5
 42
0.0
 10
4.866025403784426
 20
6.999999999999943
 42
0.0
 10
4.0
 20
5.499999999999985
 42
0.0
 10
0.0
 20
5.499999999999985
 42
0.0
 10
0.0
 20
1.200000000000002
 42
-0.4142135623731026
 10
1.199999999999999
 20
-0.0000000000000284
 42
0.0
 10
12.2652988205952
 20
-0.0000000000000213
 42
0.0
 10
15.75999999999998
 20
6.05299999999994
 42
0.0
 10
17.75999999999998
 20
6.052999999999926
 42
0.0
 10
17.75999999999999
 20
6.999999999999985
 42
0.0
 10
34.75999999999999
 20
6.999999999999985
 42
0.0
 97
        0
 92
       23
 72
     0
 73
     1
 93
        4
 10
34.75999999999999
 20
6.999999999999985
 10
17.75999999999998
 20
6.999999999999985
 10
17.75999999999998
 20
6.05299999999994
 10
34.75999999999998
 20
6.052999999999954
 97
        0
 92
       23
 72
     0
 73
     1
 93
        4
 10
34.75999999999999
 20
-6.053000000000004
 10
17.75999999999998
 20
-6.053000000000025
 10
17.75999999999998
 20
-7.000000000000014
 10
34.75999999999999
 20
-7.000000000000021
 97
        0
 92
        7
 72
     1
 73
     1
 93
       23
 10
34.75999999999999
 20
-7.000000000000021
 42
0.0
 10
17.75999999999998
 20
-7.000000000000014
 42
0.0
 10
17.75999999999998
 20
-6.053000000000011
 42
0.0
 10
15.75999999999998
 20
-6.053000000000018
 42
0.0
 10
12.26529882059519
 20
-0.0000000000000355
 42
0.0
 10
1.199999999999999
 20
-0.0000000000000284
 42
-0.4142135623730887
 10
0.0
 20
-1.200000000000002
 42
0.0
 10
0.0
 20
-1.799999999999997
 42
0.0
 10
0.0000000000000036
 20
-5.500000000000042
 42
0.0
 10
4.00000000000001
 20
-5.500000000000042
 42
0.0
 10
4.866025403784433
 20
-7.000000000000014
 42
0.0
 10
4.000000000000014
 20
-8.500000000000007
 42
0.0
 10
-0.0000000000000036
 20
-8.500000000000021
 42
0.0
 10
0.0000000000000036
 20
-15.99999999999999
 42
0.0
 10
4.999999999999992
 20
-11.00000000000001
 42
0.0
 10
16.75999999999998
 20
-11.00000000000001
 42
0.0
 10
16.75999999999998
 20
-22.00000000000001
 42
0.0
 10
18.75999999999998
 20
-22.00000000000001
 42
0.0
 10
18.75999999999999
 20
-23.00000000000004
 42
0.0
 10
31.55289321881343
 20
-23.00000000000004
 42
0.1989123673796573
 10
31.9064466094067
 20
-22.8535533905933
 42
0.0
 10
34.61355339059325
 20
-20.14644660940674
 42
0.1989123673796738
 10
34.75999999999999
 20
-19.79289321881345
 42
0.0
 97
        0
 92
       22
 72
     0
 73
     1
 93
       76
 10
21.96849405786867
 20
-17.23698358109736
 10
21.78732512240284
 20
-17.30650189354357
 10
21.60557218980251
 20
-17.3978535731264
 10
21.43018523643775
 20
-17.50003145494807
 10
21.26651644035579
 20
-17.61693773786376
 10
21.12049653389441
 20
-17.74532229957709
 10
20.98601845868156
 20
-17.88574642983966
 10
20.86786033445036
 20
-18.03698882885556
 10
20.8360015050775
 20
-18.08856979069735
 10
19.74611474046854
 20
-18.08856979069734
 10
19.60273542966855
 20
-18.09508703209735
 10
19.4658733602687
 20
-18.11463875629734
 10
19.34342742884544
 20
-18.14670358398539
 10
19.22473542846871
 20
-18.19067323929735
 10
19.12213666952233
 20
-18.24898082568933
 10
19.02704577266866
 20
-18.31884565349735
 10
18.94449404826861
 20
-18.40139737789735
 10
18.87497680666867
 20
-18.49698358509737
 10
20.64561532428804
 20
-18.49698358509737
 10
20.62901662161296
 20
-18.54611574501569
 10
20.59271089993763
 20
-18.73248511628229
 10
20.58068922750835
 20
-18.92723620963721
 10
20.59273288028999
 20
-19.11752592358802
 10
20.62884468825453
 20
-19.30289987113902
 10
20.63942915552747
 20
-19.33553531189737
 10
18.91190784126866
 20
-19.33553531189737
 10
18.98359749666866
 20
-19.42025945009733
 10
19.07377873833419
 20
-19.49820565724139
 10
19.1719283938183
 20
-19.56581117469739
 10
19.2768733596686
 20
-19.62229393349732
 10
19.39201129106859
 20
-19.66791462329737
 10
19.52018370526867
 20
-19.70084841650539
 10
19.65093694706306
 20
-19.72118220967336
 10
19.78304577506853
 20
-19.72874220969736
 10
20.811508841989
 20
-19.72874220969736
 10
20.86348007343755
 20
-19.81292685180161
 10
20.977185428181
 20
-19.96341509651435
 10
21.10462132166524
 20
-20.10276877974276
 10
21.24853369003554
 20
-20.23255837628263
 10
21.41136658479619
 20
-20.34817661470813
 10
21.57983299096633
 20
-20.45270630763976
 10
21.76339713476872
 20
-20.54332658116251
 10
21.9239409988212
 20
-20.60639738489737
 10
19.80476991306869
 20
-20.60639738489737
 10
19.59404577446862
 20
-20.59770772969739
 10
19.38549404966866
 20
-20.57163876409736
 10
19.18563198006868
 20
-20.52819048809737
 10
18.99445956566865
 20
-20.47170772929739
 10
18.81381032371572
 20
-20.39801945320127
 10
18.63818370246874
 20
-20.31312152189734
 10
18.47742508126873
 20
-20.21536290089738
 10
18.33008068080092
 20
-20.10491738330538
 10
18.1938816320926
 20
-19.98378358981737
 10
18.07118370066864
 20
-19.85256979629734
 10
17.96473542446864
 20
-19.71136289929746
 10
17.87566645866868
 20
-19.56363876089737
 10
17.80614921706867
 20
-19.40722496729739
 10
17.75183887206862
 20
-19.24646634609737
 10
17.72142507886866
 20
-19.07919048349737
 10
17.71056300986863
 20
-18.90539737949735
 10
17.71925266506862
 20
-18.73160427549734
 10
17.74749404446863
 20
-18.56650082669741
 10
17.79745956186862
 20
-18.40574220549736
 10
17.86045956206863
 20
-18.2515008256974
 10
17.94301128646862
 20
-18.10594910109736
 10
18.04302921782061
 20
-17.9687394454894
 10
18.15429416989797
 20
-17.84048013473739
 10
18.27973542546864
 20
-17.72143185849737
 10
18.42244302592164
 20
-17.61472289264139
 10
18.57301128846865
 20
-17.51939737509733
 10
18.74028715106858
 20
-17.43684565069737
 10
18.9162526688687
 20
-17.36732840909732
 10
19.10090784186868
 20
-17.31301806409736
 10
19.29642508386864
 20
-17.27174220189737
 10
19.4984595672686
 20
-17.24567323629736
 10
19.71135611966856
 20
-17.23698358109736
 97
        0
 92
       22
 72
     0
 73
     1
 93
       73
 10
22.63816233585665
 20
-17.24775875354537
 10
22.84614923306865
 20
-17.23698358109736
 10
26.28508027846863
 20
-17.23698358109736
 10
24.60363199726862
 20
-18.87063875869739
 10
26.31766648546864
 20
-20.61291462629735
 10
24.99901130886866
 20
-20.61291462629736
 10
23.23283888946862
 20
-18.89453531049734
 10
24.08008027146868
 20
-18.07988013549735
 10
22.81139061226884
 20
-18.07988013549736
 10
22.68732840497824
 20
-18.08509392861735
 10
22.56446537010547
 20
-18.10316841143337
 10
22.44412233524072
 20
-18.13375599773739
 10
22.32758536935347
 20
-18.17659599787338
 10
22.2435650932246
 20
-18.2187408255934
 10
22.16726992056862
 20
-18.26305806711337
 10
22.12702812733745
 20
-18.29025668788936
 10
22.0895148858391
 20
-18.32119186040131
 10
21.97860012686623
 20
-18.42963875729737
 10
21.91552191976947
 20
-18.50767186099337
 10
21.87399405756861
 20
-18.57553806810538
 10
21.83034591949905
 20
-18.67425255117736
 10
21.81213240219982
 20
-18.73594910309747
 10
21.79997557457507
 20
-18.79912289640132
 10
21.79397102283185
 20
-18.8612539310814
 10
21.79261543662063
 20
-18.92355875886529
 10
21.80013198836868
 20
-19.01288841432134
 10
21.82083074705505
 20
-19.1000456559774
 10
21.85025391956221
 20
-19.18146772520132
 10
21.88961805761824
 20
-19.2586318633774
 10
21.93832357501429
 20
-19.33119048429742
 10
21.99338992001665
 20
-19.3990566914094
 10
22.06699129956072
 20
-19.46909531232138
 10
22.19955198963665
 20
-19.56841807125732
 10
22.25323667946225
 20
-19.60100427825734
 10
22.30937185205426
 20
-19.62915876110536
 10
22.4108670247903
 20
-19.67008703709742
 10
22.52798619757581
 20
-19.70441117513733
 10
22.64812068071568
 20
-19.72587462348136
 10
22.74906840517431
 20
-19.73585698575804
 10
22.81573543986871
 20
-19.73960427869733
 10
23.83242509826866
 20
-19.73960427869734
 10
24.71876992866863
 20
-20.61291462629736
 10
22.81573543986863
 20
-20.61291462629736
 10
22.60501130126873
 20
-20.60422497109737
 10
22.39645957646862
 20
-20.57815600549734
 10
22.19965626549921
 20
-20.53444703984136
 10
22.00542509246866
 20
-20.48039738449736
 10
21.82294233326862
 20
-20.40870772909737
 10
21.65132164306864
 20
-20.32398359089738
 10
21.49278757359978
 20
-20.22561669403316
 10
21.34066646966865
 20
-20.11760427989739
 10
21.20837515890376
 20
-19.99829531400132
 10
21.09036964128789
 20
-19.86925393428134
 10
20.98499019267746
 20
-19.72978496832133
 10
20.89314922686861
 20
-19.58101807129733
 10
20.82363198526859
 20
-19.42677669149733
 10
20.77149405406864
 20
-19.26601807029736
 10
20.73890784706862
 20
-19.09874220769745
 10
20.72804577806864
 20
-18.92712151749735
 10
20.73890784706863
 20
-18.75115599969739
 10
20.77149405406864
 20
-18.58388013709735
 10
20.82580439906866
 20
-18.42312151589736
 10
20.89749405446863
 20
-18.26888013609734
 10
20.98873543406865
 20
-18.12115599769736
 10
21.0973561240687
 20
-17.98212151449735
 10
21.22234812446547
 20
-17.85160289339331
 10
21.35804578006862
 20
-17.73229392749735
 10
21.51011474606862
 20
-17.62367323749735
 10
21.67567874659434
 20
-17.52721806477732
 10
21.84683888506865
 20
-17.44119047829738
 10
22.0336664718686
 20
-17.36950082289737
 10
22.22701130006859
 20
-17.31301806409737
 10
22.43144412830387
 20
-17.27321944328138
 97
        0
 92
       22
 72
     0
 73
     1
 93
       57
 10
26.38370786498867
 20
-17.51079461644938
 10
26.55011476206853
 20
-17.4281559954974
 10
26.73476993506869
 20
-17.35646634009735
 10
26.92376993566867
 20
-17.30215599509737
 10
27.12145959146865
 20
-17.26088013289738
 10
27.32783890246852
 20
-17.23263875349737
 10
27.53856304106862
 20
-17.22394909829738
 10
28.77249407946864
 20
-17.22394909829738
 10
28.77249407946864
 20
-18.04946634229735
 10
27.53204579966872
 20
-18.04946634229736
 10
27.38866648886865
 20
-18.05815599749732
 10
27.2539768332687
 20
-18.08526772172136
 10
27.12250235009264
 20
-18.12524013564138
 10
26.99545959106862
 20
-18.1776387564974
 10
26.88805545279669
 20
-18.24472289464134
 10
26.78690786626864
 20
-18.32101806729734
 10
26.70001131426869
 20
-18.41008703309733
 10
26.63049407266863
 20
-18.50784565409735
 10
28.77249407946864
 20
-18.50784565409735
 10
28.77249407946863
 20
-19.33553531189738
 10
26.66742510726862
 20
-19.33553531189737
 10
26.74189545233271
 20
-19.42104151906535
 10
26.82931338364464
 20
-19.50081255380136
 10
26.92637683222863
 20
-19.56841807125735
 10
27.03604028085262
 20
-19.62933255420934
 10
27.15204717777266
 20
-19.67729945091338
 10
27.27265959194861
 20
-19.71162358895338
 10
27.40491614409265
 20
-19.73360841660938
 10
27.53856304106865
 20
-19.74394910629738
 10
28.77249407946865
 20
-19.74394910629738
 10
28.77249407946864
 20
-20.60205255729736
 10
27.56245959286875
 20
-20.60205255729737
 10
27.34956304046861
 20
-20.59336290209738
 10
27.14318372946868
 20
-20.56946635029738
 10
26.94332165986852
 20
-20.52601807429736
 10
26.7521492454687
 20
-20.46953531549737
 10
26.56749407246858
 20
-20.39567324629736
 10
26.39370096846871
 20
-20.31094910809735
 10
26.2329423472686
 20
-20.21319048709734
 10
26.08538331231745
 20
-20.10257117640146
 10
25.94895572567743
 20
-19.98126358980943
 10
25.82909931150374
 20
-19.85091876180937
 10
25.72025269046862
 20
-19.71136289929733
 10
25.63335613846865
 20
-19.56363876089745
 10
25.56166648306869
 20
-19.40722496729749
 10
25.50952855186863
 20
-19.24646634609735
 10
25.47694234486865
 20
-19.07919048349743
 10
25.46608027586866
 20
-18.90539737949735
 10
25.47694234486865
 20
-18.73160427549736
 10
25.50952855186867
 20
-18.56432841289735
 10
25.55949406926865
 20
-18.40356979169738
 10
25.63118372466866
 20
-18.24932841189734
 10
25.71590786286864
 20
-18.10377668729737
 10
25.82018372526864
 20
-17.96474220409737
 10
25.94024869116704
 20
-17.83596151403337
 10
26.07480800193906
 20
-17.71673944468937
 10
26.22488703689823
 20
-17.60724978916936
 97
        0
 92
       22
 72
     0
 73
     1
 93
        6
 10
29.00276994226864
 20
-17.23698358109736
 10
30.02597684206865
 20
-17.23698358109737
 10
30.02597684206865
 20
-19.73960427869734
 10
31.24035615626867
 20
-19.73960427869734
 10
31.24035615626866
 20
-20.60639738489737
 10
29.00276994226864
 20
-20.60639738489736
 97
        0
 92
       22
 72
     0
 73
     1
 93
        8
 10
30.25842511866863
 20
-17.23698358109735
 10
33.76035616426868
 20
-17.23698358109737
 10
33.76035616426869
 20
-18.06250082509739
 10
32.51773547066866
 20
-18.06250082509739
 10
32.51773547066864
 20
-20.61291462629736
 10
31.49235615706864
 20
-20.61291462629736
 10
31.49235615706864
 20
-18.06250082509739
 10
30.25842511866866
 20
-18.06250082509739
 97
        0
 75
     0
 76
     1
 52
0.0
 41
0.75
 77
     0
 78
     1
 53
45.0
 43
-18.37730536002288
 44
-61.32960359701773
 45
-1.683798022700465
 46
1.683798022700466
 79
     0
 47
0.143800598285557
 98
        9
 10
25.29989362677109
 20
12.11518168924421
 10
22.85370556128502
 20
6.650758875415547
 10
21.55866466799226
 20
-6.578896126867093
 10
21.84645151097525
 20
-9.598708663371624
 10
21.84645151097525
 20
-9.598708663371624
 10
21.84645151097525
 20
-9.598708663371624
 10
21.84645151097525
 20
-9.598708663371624
 10
21.84645151097525
 20
-9.598708663371624
 10
21.84645151097525
 20
-9.598708663371624
1001
ACAD
1010
0.0
1020
0.0
1030
0.0
  0
LWPOLYLINE
  5
91D
330
8E0
100
AcDbEntity
  8
LW 3000-STADIP-01
 62
     1
100
AcDbPolyline
 90
        8
 70
     1
 43
0.0
 10
32.51773547066865
 20
-18.06250082509739
 10
32.51773547066865
 20
-20.61291462629736
 10
31.49235615706864
 20
-20.61291462629736
 10
31.49235615706864
 20
-18.06250082509739
 10
30.25842511866865
 20
-18.06250082509739
 10
30.25842511866865
 20
-17.23698358109736
 10
33.76035616426868
 20
-17.23698358109736
 10
33.76035616426868
 20
-18.06250082509739
  0
LWPOLYLINE
  5
91E
330
8E0
100
AcDbEntity
  8
LW 3000-STADIP-01
 62
     1
100
AcDbPolyline
 90
       73
 70
     1
 43
0.0
 10
22.81573543986867
 20
-19.73960427869734
 10
23.83242509826864
 20
-19.73960427869734
 10
24.71876992866863
 20
-20.61291462629736
 10
22.81573543986867
 20
-20.61291462629736
 10
22.60501130126864
 20
-20.60422497109737
 10
22.39645957646867
 20
-20.57815600549735
 10
22.19965626549908
 20
-20.53444703984137
 10
22.00542509246868
 20
-20.48039738449738
 10
21.82294233326866
 20
-20.40870772909737
 10
21.65132164306863
 20
-20.32398359089738
 10
21.49278757359986
 20
-20.22561669403335
 10
21.34066646966864
 20
-20.11760427989735
 10
21.20837515890384
 20
-19.99829531400137
 10
21.09036964128786
 20
-19.86925393428139
 10
20.98499019267746
 20
-19.72978496832137
 10
20.89314922686862
 20
-19.58101807129735
 10
20.82363198526861
 20
-19.42677669149735
 10
20.77149405406863
 20
-19.26601807029736
 10
20.73890784706863
 20
-19.09874220769738
 10
20.72804577806864
 20
-18.92712151749735
 10
20.73890784706863
 20
-18.75115599969739
 10
20.77149405406863
 20
-18.58388013709735
 10
20.82580439906867
 20
-18.42312151589736
 10
20.89749405446862
 20
-18.26888013609736
 10
20.98873543406865
 20
-18.12115599769736
 10
21.09735612406866
 20
-17.98212151449739
 10
21.22234812446545
 20
-17.85160289339335
 10
21.35804578006862
 20
-17.73229392749736
 10
21.51011474606862
 20
-17.62367323749735
 10
21.67567874659427
 20
-17.52721806477739
 10
21.84683888506863
 20
-17.4411904782974
 10
22.03366647186864
 20
-17.36950082289739
 10
22.22701130006863
 20
-17.31301806409736
 10
22.43144412830385
 20
-17.27321944328138
 10
22.63816233585664
 20
-17.24775875354537
 10
22.84614923306862
 20
-17.23698358109736
 10
26.28508027846863
 20
-17.23698358109736
 10
24.60363199726863
 20
-18.87063875869738
 10
26.31766648546864
 20
-20.61291462629736
 10
24.99901130886867
 20
-20.61291462629736
 10
23.23283888946862
 20
-18.89453531049734
 10
24.08008027146867
 20
-18.07988013549736
 10
22.81139061226868
 20
-18.07988013549736
 10
22.68732840497825
 20
-18.08509392861735
 10
22.56446537010544
 20
-18.10316841143337
 10
22.44412233524066
 20
-18.13375599773739
 10
22.32758536935348
 20
-18.17659599787338
 10
22.24356509322463
 20
-18.21874082559337
 10
22.16726992056864
 20
-18.26305806711336
 10
22.12702812733745
 20
-18.29025668788936
 10
22.08951488583904
 20
-18.32119186040135
 10
21.97860012686625
 20
-18.42963875729735
 10
21.91552191976946
 20
-18.50767186099339
 10
21.87399405756861
 20
-18.57553806810539
 10
21.83034591949906
 20
-18.67425255117739
 10
21.81213240219984
 20
-18.73594910309735
 10
21.79997557457507
 20
-18.79912289640138
 10
21.79397102283185
 20
-18.86125393108135
 10
21.79261543662063
 20
-18.92355875886538
 10
21.80013198836867
 20
-19.01288841432135
 10
21.82083074705503
 20
-19.10004565597738
 10
21.85025391956226
 20
-19.18146772520138
 10
21.88961805761824
 20
-19.25863186337737
 10
21.93832357501424
 20
-19.33119048429738
 10
21.99338992001663
 20
-19.39905669140937
 10
22.06699129956065
 20
-19.46909531232136
 10
22.19955198963664
 20
-19.56841807125737
 10
22.25323667946225
 20
-19.60100427825738
 10
22.30937185205426
 20
-19.62915876110536
 10
22.41086702479027
 20
-19.67008703709739
 10
22.52798619757585
 20
-19.70441117513734
 10
22.64812068071587
 20
-19.72587462348137
 10
22.74906840517424
 20
-19.73585698575805
  0
LWPOLYLINE
  5
91F
330
8E0
100
AcDbEntity
  8
LW 3000-STADIP-01
 62
     1
100
AcDbPolyline
 90
       76
 70
     1
 43
0.0
 10
21.60557218980256
 20
-17.39785357312637
 10
21.43018523643776
 20
-17.50003145494808
 10
21.26651644035577
 20
-17.61693773786378
 10
21.12049653389437
 20
-17.74532229957712
 10
20.98601845868155
 20
-17.88574642983967
 10
20.86786033445038
 20
-18.03698882885554
 10
20.8360015050775
 20
-18.08856979069735
 10
19.74611474046862
 20
-18.08856979069735
 10
19.60273542966866
 20
-18.09508703209734
 10
19.46587336026864
 20
-18.11463875629737
 10
19.34342742884542
 20
-18.1467035839854
 10
19.22473542846865
 20
-18.19067323929736
 10
19.12213666952227
 20
-18.24898082568937
 10
19.02704577266866
 20
-18.31884565349735
 10
18.94449404826861
 20
-18.40139737789734
 10
18.87497680666866
 20
-18.49698358509737
 10
20.64561532428804
 20
-18.49698358509737
 10
20.62901662161296
 20
-18.54611574501568
 10
20.59271089993764
 20
-18.73248511628229
 10
20.58068922750835
 20
-18.9272362096372
 10
20.59273288028999
 20
-19.11752592358799
 10
20.62884468825451
 20
-19.30289987113899
 10
20.63942915552747
 20
-19.33553531189737
 10
18.91190784126866
 20
-19.33553531189737
 10
18.98359749666867
 20
-19.42025945009736
 10
19.07377873833423
 20
-19.49820565724137
 10
19.17192839381824
 20
-19.56581117469737
 10
19.27687335966863
 20
-19.62229393349734
 10
19.39201129106863
 20
-19.66791462329739
 10
19.52018370526861
 20
-19.70084841650536
 10
19.65093694706304
 20
-19.72118220967336
 10
19.78304577506862
 20
-19.72874220969736
 10
20.811508841989
 20
-19.72874220969736
 10
20.86348007343759
 20
-19.81292685180163
 10
20.97718542818093
 20
-19.96341509651431
 10
21.10462132166527
 20
-20.10276877974279
 10
21.24853369003547
 20
-20.2325583762826
 10
21.41136658479622
 20
-20.3481766147081
 10
21.57983299096629
 20
-20.45270630763973
 10
21.7633971347687
 20
-20.54332658116248
 10
21.9239409988212
 20
-20.60639738489737
 10
19.80476991306865
 20
-20.60639738489737
 10
19.59404577446862
 20
-20.59770772969738
 10
19.38549404966864
 20
-20.57163876409736
 10
19.18563198006865
 20
-20.52819048809737
 10
18.99445956566865
 20
-20.47170772929739
 10
18.81381032371582
 20
-20.39801945320134
 10
18.63818370246867
 20
-20.31312152189734
 10
18.47742508126863
 20
-20.21536290089738
 10
18.33008068080091
 20
-20.10491738330539
 10
18.19388163209266
 20
-19.98378358981738
 10
18.07118370066866
 20
-19.85256979629734
 10
17.96473542446865
 20
-19.71136289929738
 10
17.87566645866867
 20
-19.56363876089737
 10
17.80614921706866
 20
-19.40722496729738
 10
17.75183887206862
 20
-19.24646634609739
 10
17.72142507886867
 20
-19.07919048349736
 10
17.71056300986863
 20
-18.90539737949739
 10
17.71925266506861
 20
-18.73160427549736
 10
17.74749404446863
 20
-18.56650082669738
 10
17.79745956186861
 20
-18.40574220549739
 10
17.86045956206863
 20
-18.25150082569739
 10
17.94301128646862
 20
-18.10594910109738
 10
18.04302921782062
 20
-17.96873944548939
 10
18.15429416989799
 20
-17.84048013473737
 10
18.27973542546864
 20
-17.72143185849738
 10
18.42244302592167
 20
-17.61472289264138
 10
18.57301128846865
 20
-17.51939737509734
 10
18.74028715106863
 20
-17.43684565069735
 10
18.91625266886866
 20
-17.36732840909734
 10
19.10090784186867
 20
-17.31301806409736
 10
19.29642508386866
 20
-17.27174220189737
 10
19.49845956726864
 20
-17.24567323629735
 10
19.71135611966867
 20
-17.23698358109736
 10
21.96849405786867
 20
-17.23698358109736
 10
21.78732512240288
 20
-17.30650189354354
  0
LWPOLYLINE
  5
920
330
8E0
100
AcDbEntity
  8
LW 3000-STADIP-01
 62
     1
100
AcDbPolyline
 90
        6
 70
     1
 43
0.0
 10
31.24035615626867
 20
-20.60639738489737
 10
29.00276994226864
 20
-20.60639738489737
 10
29.00276994226864
 20
-17.23698358109736
 10
30.02597684206865
 20
-17.23698358109736
 10
30.02597684206865
 20
-19.73960427869734
 10
31.24035615626867
 20
-19.73960427869734
  0
LWPOLYLINE
  5
921
330
8E0
100
AcDbEntity
  8
LW 3000-STADIP-01
 62
     1
100
AcDbPolyline
 90
       57
 70
     1
 43
0.0
 10
25.94895572567743
 20
-19.98126358980936
 10
25.82909931150386
 20
-19.85091876180938
 10
25.72025269046862
 20
-19.71136289929738
 10
25.63335613846863
 20
-19.56363876089737
 10
25.56166648306863
 20
-19.40722496729738
 10
25.50952855186865
 20
-19.24646634609739
 10
25.47694234486864
 20
-19.07919048349736
 10
25.46608027586866
 20
-18.90539737949739
 10
25.47694234486864
 20
-18.73160427549736
 10
25.50952855186865
 20
-18.56432841289738
 10
25.55949406926863
 20
-18.40356979169739
 10
25.63118372466864
 20
-18.24932841189734
 10
25.71590786286863
 20
-18.10377668729738
 10
25.82018372526864
 20
-17.96474220409736
 10
25.94024869116704
 20
-17.83596151403337
 10
26.07480800193907
 20
-17.71673944468936
 10
26.22488703689823
 20
-17.60724978916936
 10
26.38370786498866
 20
-17.51079461644939
 10
26.55011476206864
 20
-17.42815599549736
 10
26.73476993506865
 20
-17.35646634009735
 10
26.92376993566865
 20
-17.30215599509738
 10
27.12145959146865
 20
-17.26088013289738
 10
27.32783890246862
 20
-17.23263875349737
 10
27.53856304106865
 20
-17.22394909829738
 10
28.77249407946864
 20
-17.22394909829738
 10
28.77249407946864
 20
-18.04946634229735
 10
27.53204579966866
 20
-18.04946634229735
 10
27.38866648886864
 20
-18.05815599749734
 10
27.25397683326862
 20
-18.08526772172136
 10
27.12250235009265
 20
-18.12524013564136
 10
26.99545959106866
 20
-18.17763875649738
 10
26.88805545279667
 20
-18.24472289464135
 10
26.78690786626863
 20
-18.32101806729734
 10
26.70001131426865
 20
-18.41008703309738
 10
26.63049407266863
 20
-18.50784565409735
 10
28.77249407946864
 20
-18.50784565409735
 10
28.77249407946864
 20
-19.33553531189737
 10
26.66742510726864
 20
-19.33553531189737
 10
26.74189545233265
 20
-19.42104151906538
 10
26.82931338364467
 20
-19.50081255380137
 10
26.92637683222865
 20
-19.56841807125737
 10
27.03604028085267
 20
-19.62933255420937
 10
27.15204717777267
 20
-19.67729945091337
 10
27.27265959194865
 20
-19.71162358895337
 10
27.40491614409263
 20
-19.73360841660938
 10
27.53856304106865
 20
-19.74394910629739
 10
28.77249407946864
 20
-19.74394910629739
 10
28.77249407946864
 20
-20.60205255729737
 10
27.56245959286867
 20
-20.60205255729737
 10
27.34956304046864
 20
-20.59336290209738
 10
27.14318372946867
 20
-20.56946635029736
 10
26.94332165986863
 20
-20.52601807429737
 10
26.75214924546863
 20
-20.46953531549734
 10
26.56749407246862
 20
-20.39567324629739
 10
26.39370096846864
 20
-20.31094910809735
 10
26.23294234726865
 20
-20.21319048709738
 10
26.08538331231745
 20
-20.10257117640138
  0
ENDBLK
  5
8E5
330
8E0
100
AcDbEntity
  8
0
100
AcDbBlockEnd
  0
BLOCK
  5
9A2
330
99E
100
AcDbEntity
  8
0
100
AcDbBlockBegin
  2
LW 3000-20-01
 70
     0
 10
0.0
 20
0.0
 30
0.0
  3
LW 3000-20-01
  1

  0
LINE
  5
9A4
330
99E
100
AcDbEntity
  8
LW 3000-STADIP-01
 62
     3
100
AcDbLine
 10
22.51999999999998
 20
6.999999999999985
 30
0.0
 11
39.51999999999998
 21
6.999999999999985
 31
0.0
  0
LINE
  5
9A5
330
99E
100
AcDbEntity
  8
LW 3000-STADIP-01
 62
     3
100
AcDbLine
 10
39.51999999999998
 20
-7.000000000000014
 30
0.0
 11
22.51999999999998
 21
-7.000000000000014
 31
0.0
  0
LINE
  5
9A6
330
99E
100
AcDbEntity
  8
LW 3000-STADIP-01
 62
     3
100
AcDbLine
 10
22.51999999999998
 20
6.999999999999985
 30
0.0
 11
22.51999999999998
 21
-7.000000000000014
 31
0.0
  0
LINE
  5
9A7
330
99E
100
AcDbEntity
  8
LW 3000-STADIP-01
100
AcDbLine
 10
20.51999999999998
 20
-6.053000000000011
 30
0.0
 11
20.51999999999998
 21
6.052999999999954
 31
0.0
  0
LINE
  5
9A8
330
99E
100
AcDbEntity
  8
LW 3000-STADIP-01
100
AcDbLine
 10
3.999999999999985
 20
8.499999999999957
 30
0.0
 11
3.999999999999985
 21
5.499999999999985
 31
0.0
  0
LINE
  5
9A9
330
99E
100
AcDbEntity
  8
LW 3000-STADIP-01
100
AcDbLine
 10
3.999999999999985
 20
-5.500000000000014
 30
0.0
 11
3.999999999999985
 21
-8.500000000000014
 31
0.0
  0
LWPOLYLINE
  5
9AA
330
99E
100
AcDbEntity
  8
LW 3000-STADIP-01
100
AcDbPolyline
 90
       25
 70
     0
 43
0.0
 10
30.01999999999998
 20
22.99999999999998
 10
30.04101778984068
 20
22.99768495559691
 10
30.1043560695648
 20
22.99094486236571
 10
30.21044399261473
 20
22.98008012771605
 10
30.35832907676695
 20
22.96570587158202
 10
30.54153944969176
 20
22.94918823242186
 10
30.75223590850828
 20
22.93196487426756
 10
30.99257971763609
 20
22.91472721099852
 10
31.26519824981688
 20
22.8981738090515
 10
31.56294848442076
 20
22.88374948501585
 10
31.8781187725067
 20
22.87283468246458
 10
32.20067288398741
 20
22.86605644226073
 10
32.51999880790709
 20
22.8637270927429
 10
32.83932473182677
 20
22.86605644226073
 10
33.16188122749327
 20
22.87283468246458
 10
33.47705151557921
 20
22.88374948501585
 10
33.77480294227598
 20
22.8981738090515
 10
34.04742028236388
 20
22.91472721099852
 10
34.28776289939879
 20
22.93196487426756
 10
34.49846055030821
 20
22.94918823242186
 10
34.68167092323302
 20
22.96570587158202
 10
34.82955481529234
 20
22.98008012771605
 10
34.93564393043516
 20
22.99094486236571
 10
34.99898221015929
 20
22.99768495559691
 10
35.01999880790709
 20
22.99999999999998
  0
LINE
  5
9AB
330
99E
100
AcDbEntity
  8
LW 3000-STADIP-01
100
AcDbLine
 10
35.01999999999998
 20
16.99999999999995
 30
0.0
 11
30.01999999999998
 21
16.99999999999995
 31
0.0
  0
LINE
  5
9AC
330
99E
100
AcDbEntity
  8
LW 3000-STADIP-01
100
AcDbLine
 10
0.0
 20
-5.500000000000042
 30
0.0
 11
3.999999999999985
 21
-5.500000000000042
 31
0.0
  0
LINE
  5
9AD
330
99E
100
AcDbEntity
  8
LW 3000-STADIP-01
100
AcDbLine
 10
0.0
 20
15.99999999999998
 30
0.0
 11
0.0
 21
-15.99999999999998
 31
0.0
  0
LINE
  5
9AE
330
99E
100
AcDbEntity
  8
LW 3000-STADIP-01
100
AcDbLine
 10
3.999999999999985
 20
5.499999999999985
 30
0.0
 11
0.0
 21
5.499999999999985
 31
0.0
  0
LINE
  5
9AF
330
99E
100
AcDbEntity
  8
LW 3000-STADIP-01
100
AcDbLine
 10
4.866025403784433
 20
6.999999999999957
 30
0.0
 11
4.0
 21
5.499999999999985
 31
0.0
  0
LINE
  5
9B0
330
99E
100
AcDbEntity
  8
LW 3000-STADIP-01
100
AcDbLine
 10
4.0
 20
8.499999999999985
 30
0.0
 11
4.866025403784433
 21
6.999999999999957
 31
0.0
  0
LINE
  5
9B1
330
99E
100
AcDbEntity
  8
LW 3000-STADIP-01
100
AcDbLine
 10
0.0
 20
8.499999999999985
 30
0.0
 11
3.999999999999985
 21
8.499999999999985
 31
0.0
  0
LINE
  5
9B2
330
99E
100
AcDbEntity
  8
LW 3000-STADIP-01
100
AcDbLine
 10
5.0
 20
10.99999999999996
 30
0.0
 11
-0.0000000000000142
 21
15.99999999999998
 31
0.0
  0
LINE
  5
9B3
330
99E
100
AcDbEntity
  8
LW 3000-STADIP-01
100
AcDbLine
 10
21.51999999999998
 20
10.99999999999998
 30
0.0
 11
5.0
 21
10.99999999999998
 31
0.0
  0
LINE
  5
9B4
330
99E
100
AcDbEntity
  8
LW 3000-STADIP-01
100
AcDbLine
 10
21.51999999999998
 20
21.99999999999996
 30
0.0
 11
21.51999999999998
 21
10.99999999999998
 31
0.0
  0
LINE
  5
9B5
330
99E
100
AcDbEntity
  8
LW 3000-STADIP-01
100
AcDbLine
 10
23.51999999999998
 20
21.99999999999996
 30
0.0
 11
21.51999999999998
 21
21.99999999999996
 31
0.0
  0
LINE
  5
9B6
330
99E
100
AcDbEntity
  8
LW 3000-STADIP-01
100
AcDbLine
 10
23.51999999999998
 20
22.99999999999998
 30
0.0
 11
23.51999999999998
 21
21.99999999999996
 31
0.0
  0
LINE
  5
9B7
330
99E
100
AcDbEntity
  8
LW 3000-STADIP-01
100
AcDbLine
 10
30.01999999999998
 20
22.99999999999998
 30
0.0
 11
23.51999999999998
 21
22.99999999999998
 31
0.0
  0
LINE
  5
9B8
330
99E
100
AcDbEntity
  8
LW 3000-STADIP-01
100
AcDbLine
 10
30.01999999999998
 20
16.99999999999995
 30
0.0
 11
30.01999999999998
 21
22.99999999999998
 31
0.0
  0
LINE
  5
9B9
330
99E
100
AcDbEntity
  8
LW 3000-STADIP-01
100
AcDbLine
 10
32.51999999999998
 20
15.55662432702591
 30
0.0
 11
30.01999999999998
 21
16.99999999999995
 31
0.0
  0
LINE
  5
9BA
330
99E
100
AcDbEntity
  8
LW 3000-STADIP-01
100
AcDbLine
 10
35.01999999999998
 20
16.99999999999995
 30
0.0
 11
32.51999999999998
 21
15.55662432702591
 31
0.0
  0
LINE
  5
9BB
330
99E
100
AcDbEntity
  8
LW 3000-STADIP-01
100
AcDbLine
 10
35.01999999999998
 20
22.99999999999998
 30
0.0
 11
35.01999999999998
 21
16.99999999999995
 31
0.0
  0
LINE
  5
9BC
330
99E
100
AcDbEntity
  8
LW 3000-STADIP-01
100
AcDbLine
 10
36.31289321881343
 20
22.99999999999996
 30
0.0
 11
35.01999999999998
 21
22.99999999999998
 31
0.0
  0
ARC
  5
9BD
330
99E
100
AcDbEntity
  8
LW 3000-STADIP-01
100
AcDbCircle
 10
36.31289321881343
 20
22.49999999999996
 30
0.0
 40
0.5000000000000085
100
AcDbArc
 50
45.00000000000102
 51
90.0
  0
LINE
  5
9BE
330
99E
100
AcDbEntity
  8
LW 3000-STADIP-01
100
AcDbLine
 10
39.37355339059325
 20
20.14644660940672
 30
0.0
 11
36.6664466094067
 21
22.85355339059325
 31
0.0
  0
ARC
  5
9BF
330
99E
100
AcDbEntity
  8
LW 3000-STADIP-01
100
AcDbCircle
 10
39.02
 20
19.79289321881343
 30
0.0
 40
0.4999999999999938
100
AcDbArc
 50
0.0
 51
45.00000000000272
  0
LINE
  5
9C0
330
99E
100
AcDbEntity
  8
LW 3000-STADIP-01
100
AcDbLine
 10
20.51999999999998
 20
6.052999999999954
 30
0.0
 11
39.51999999999998
 21
6.052999999999954
 31
0.0
  0
LINE
  5
9C1
330
99E
100
AcDbEntity
  8
LW 3000-STADIP-01
100
AcDbLine
 10
17.02529882059518
 20
-0.0000000000000284
 30
0.0
 11
20.51999999999998
 21
6.052999999999954
 31
0.0
  0
LINE
  5
9C2
330
99E
100
AcDbEntity
  8
LW 3000-STADIP-01
100
AcDbLine
 10
20.51999999999998
 20
-6.053000000000011
 30
0.0
 11
17.02529882059518
 21
-0.0000000000000284
 31
0.0
  0
LINE
  5
9C3
330
99E
100
AcDbEntity
  8
LW 3000-STADIP-01
100
AcDbLine
 10
39.51999999999998
 20
-6.053000000000011
 30
0.0
 11
20.51999999999998
 21
-6.053000000000011
 31
0.0
  0
LINE
  5
9C4
330
99E
100
AcDbEntity
  8
LW 3000-STADIP-01
100
AcDbLine
 10
39.51999999999998
 20
-19.79289321881349
 30
0.0
 11
39.51999999999999
 21
19.79289321881343
 31
0.0
  0
ARC
  5
9C5
330
99E
100
AcDbEntity
  8
LW 3000-STADIP-01
100
AcDbCircle
 10
39.02
 20
-19.79289321881349
 30
0.0
 40
0.4999999999999944
100
AcDbArc
 50
314.9999999999995
 51
0.0
  0
LINE
  5
9C6
330
99E
100
AcDbEntity
  8
LW 3000-STADIP-01
100
AcDbLine
 10
36.66644660940671
 20
-22.85355339059329
 30
0.0
 11
39.37355339059325
 21
-20.14644660940674
 31
0.0
  0
ARC
  5
9C7
330
99E
100
AcDbEntity
  8
LW 3000-STADIP-01
100
AcDbCircle
 10
36.31289321881343
 20
-22.50000000000004
 30
0.0
 40
0.5000000000000071
100
AcDbArc
 50
270.0
 51
315.0000000000001
  0
LINE
  5
9C8
330
99E
100
AcDbEntity
  8
LW 3000-STADIP-01
100
AcDbLine
 10
23.51999999999998
 20
-23.00000000000004
 30
0.0
 11
36.31289321881343
 21
-23.00000000000004
 31
0.0
  0
LINE
  5
9C9
330
99E
100
AcDbEntity
  8
LW 3000-STADIP-01
100
AcDbLine
 10
23.51999999999998
 20
-22.00000000000001
 30
0.0
 11
23.51999999999998
 21
-23.00000000000004
 31
0.0
  0
LINE
  5
9CA
330
99E
100
AcDbEntity
  8
LW 3000-STADIP-01
100
AcDbLine
 10
21.51999999999998
 20
-22.00000000000001
 30
0.0
 11
23.51999999999998
 21
-22.00000000000001
 31
0.0
  0
LINE
  5
9CB
330
99E
100
AcDbEntity
  8
LW 3000-STADIP-01
100
AcDbLine
 10
21.51999999999998
 20
-11.00000000000001
 30
0.0
 11
21.51999999999998
 21
-22.00000000000001
 31
0.0
  0
LINE
  5
9CC
330
99E
100
AcDbEntity
  8
LW 3000-STADIP-01
100
AcDbLine
 10
5.0
 20
-11.00000000000001
 30
0.0
 11
21.51999999999998
 21
-11.00000000000001
 31
0.0
  0
LINE
  5
9CD
330
99E
100
AcDbEntity
  8
LW 3000-STADIP-01
100
AcDbLine
 10
-0.0000000000000142
 20
-16.00000000000001
 30
0.0
 11
5.0
 21
-11.00000000000001
 31
0.0
  0
LINE
  5
9CE
330
99E
100
AcDbEntity
  8
LW 3000-STADIP-01
100
AcDbLine
 10
3.999999999999985
 20
-8.500000000000014
 30
0.0
 11
0.0
 21
-8.500000000000014
 31
0.0
  0
LINE
  5
9CF
330
99E
100
AcDbEntity
  8
LW 3000-STADIP-01
100
AcDbLine
 10
4.866025403784433
 20
-7.000000000000014
 30
0.0
 11
4.0
 21
-8.500000000000042
 31
0.0
  0
LINE
  5
9D0
330
99E
100
AcDbEntity
  8
LW 3000-STADIP-01
100
AcDbLine
 10
4.0
 20
-5.500000000000014
 30
0.0
 11
4.866025403784433
 21
-7.000000000000014
 31
0.0
  0
LINE
  5
9D1
330
99E
100
AcDbEntity
  8
LW 3000-STADIP-01
  6
MITTE2
 62
     3
100
AcDbLine
 10
32.51999999999998
 20
12.63029283982406
 30
0.0
 11
32.51999999999998
 21
25.14953494527482
 31
0.0
  0
LINE
  5
9D2
330
99E
100
AcDbEntity
  8
LW 3000-STADIP-01
  6
MITTE2
 62
     3
100
AcDbLine
 10
41.93947717894094
 20
-0.0000000000000284
 30
0.0
 11
-3.154117270599046
 21
-0.0000000000000284
 31
0.0
  0
LINE
  5
9D3
330
99E
100
AcDbEntity
  8
LW 3000-STADIP-01
  6
MITTE2
 62
     3
100
AcDbLine
 10
6.466010717671451
 20
6.999999999999957
 30
0.0
 11
-2.314777409360431
 21
6.999999999999957
 31
0.0
  0
LINE
  5
9D4
330
99E
100
AcDbEntity
  8
LW 3000-STADIP-01
  6
MITTE2
 62
     3
100
AcDbLine
 10
6.466010717671451
 20
-7.000000000000014
 30
0.0
 11
-2.314777409360431
 21
-7.000000000000014
 31
0.0
  0
INSERT
  5
9D5
330
99E
100
AcDbEntity
  8
insertpoint_ECKELT
100
AcDbBlockReference
 66
     1
  2
insertpoint-ECKELT
 10
0.0
 20
0.0
 30
0.0
  0
ATTRIB
  5
9D6
330
9D5
100
AcDbEntity
  8
insertpoint_ECKELT
100
AcDbText
 10
-6.931514324693044
 20
-0.0000000000000284
 30
0.0
 40
0.6
  1
LW 3000/20-01
 72
     2
 11
-1.200000000000002
 21
-0.0000000000000284
 31
0.0
100
AcDbAttribute
  2
LINKS
 70
     0
  0
ATTRIB
  5
9D7
330
9D5
100
AcDbEntity
  8
insertpoint_ECKELT
100
AcDbText
 10
1.199999999999995
 20
-0.0000000000000284
 30
0.0
 40
0.6
  1

100
AcDbAttribute
  2
RECHTS
 70
     0
  0
SEQEND
  5
9D8
330
9D5
100
AcDbEntity
  8
insertpoint_ECKELT
  0
HATCH
  5
9D9
330
99E
100
AcDbEntity
  8
LW 3000-STADIP-01
 62
     1
100
AcDbHatch
 10
0.0
 20
0.0
 30
0.0
210
0.0
220
0.0
230
1.0
  2
SOLID
 70
     1
 71
     0
 91
        5
 92
        7
 72
     0
 73
     1
 93
       76
 10
25.5960015050775
 20
-18.08856979069735
 10
25.62786033445032
 20
-18.03698882885565
 10
25.74601845868161
 20
-17.88574642983961
 10
25.88049653389437
 20
-17.74532229957712
 10
26.02651644035582
 20
-17.61693773786378
 10
26.19018523643781
 20
-17.50003145494808
 10
26.36557218980256
 20
-17.39785357312637
 10
26.54732512240288
 20
-17.30650189354354
 10
26.72849405786862
 20
-17.23698358109736
 10
24.47135611966856
 20
-17.23698358109736
 10
24.25845956726859
 20
-17.24567323629735
 10
24.0564250838686
 20
-17.27174220189737
 10
23.86090784186861
 20
-17.31301806409736
 10
23.67625266886872
 20
-17.36732840909734
 10
23.50028715106858
 20
-17.43684565069735
 10
23.33301128846866
 20
-17.5193973750974
 10
23.18244302592173
 20
-17.61472289264126
 10
23.03973542546869
 20
-17.72143185849738
 10
22.91429416989804
 20
-17.84048013473743
 10
22.80302921782062
 20
-17.96873944548933
 10
22.70301128646868
 20
-18.10594910109732
 10
22.62045956206863
 20
-18.25150082569733
 10
22.55745956186861
 20
-18.4057422054975
 10
22.50749404446869
 20
-18.56650082669726
 10
22.47925266506867
 20
-18.73160427549736
 10
22.47056300986863
 20
-18.90539737949733
 10
22.48142507886867
 20
-19.07919048349741
 10
22.51183887206862
 20
-19.24646634609739
 10
22.56614921706866
 20
-19.40722496729738
 10
22.63566645866861
 20
-19.56363876089737
 10
22.72473542446871
 20
-19.71136289929744
 10
22.8311837006686
 20
-19.85256979629734
 10
22.95388163209266
 20
-19.98378358981738
 10
23.09008068080085
 20
-20.10491738330534
 10
23.23742508126863
 20
-20.21536290089738
 10
23.39818370246867
 20
-20.31312152189734
 10
23.57381032371588
 20
-20.39801945320134
 10
23.7544595656686
 20
-20.47170772929733
 10
23.94563198006871
 20
-20.52819048809737
 10
24.14549404966864
 20
-20.57163876409736
 10
24.35404577446862
 20
-20.59770772969738
 10
24.56476991306859
 20
-20.60639738489737
 10
26.6839409988212
 20
-20.60639738489737
 10
26.5233971347687
 20
-20.54332658116248
 10
26.33983299096629
 20
-20.45270630763973
 10
26.17136658479622
 20
-20.3481766147081
 10
26.00853369003547
 20
-20.23255837628266
 10
25.86462132166527
 20
-20.10276877974279
 10
25.73718542818092
 20
-19.96341509651431
 10
25.62348007343759
 20
-19.81292685180169
 10
25.571508841989
 20
-19.72874220969736
 10
24.54304577506862
 20
-19.72874220969736
 10
24.41093694706303
 20
-19.72118220967336
 10
24.28018370526861
 20
-19.70084841650536
 10
24.15201129106869
 20
-19.66791462329739
 10
24.03687335966863
 20
-19.62229393349734
 10
23.93192839381824
 20
-19.56581117469737
 10
23.83377873833423
 20
-19.49820565724137
 10
23.74359749666867
 20
-19.42025945009736
 10
23.67190784126866
 20
-19.33553531189737
 10
25.39942915552747
 20
-19.33553531189737
 10
25.38884468825445
 20
-19.30289987113905
 10
25.35273288028999
 20
-19.11752592358793
 10
25.34068922750829
 20
-18.9272362096372
 10
25.35271089993763
 20
-18.73248511628223
 10
25.38901662161296
 20
-18.54611574501568
 10
25.40561532428804
 20
-18.49698358509737
 10
23.63497680666866
 20
-18.49698358509737
 10
23.70449404826862
 20
-18.40139737789745
 10
23.7870457726686
 20
-18.31884565349735
 10
23.88213666952221
 20
-18.24898082568937
 10
23.98473542846865
 20
-18.19067323929736
 10
24.10342742884542
 20
-18.1467035839854
 10
24.22587336026869
 20
-18.11463875629737
 10
24.36273542966866
 20
-18.09508703209739
 10
24.50611474046868
 20
-18.08856979069735
 97
        0
 92
        7
 72
     0
 73
     1
 93
       72
 10
27.32446537010544
 20
-18.10316841143337
 10
27.44732840497825
 20
-18.08509392861735
 10
27.57139061226868
 20
-18.07988013549736
 10
28.84008027146867
 20
-18.07988013549736
 10
27.99283888946862
 20
-18.89453531049734
 10
29.75901130886867
 20
-20.61291462629736
 10
31.07766648546864
 20
-20.61291462629736
 10
29.36363199726863
 20
-18.87063875869738
 10
31.04508027846863
 20
-17.23698358109736
 10
27.60614923306873
 20
-17.23698358109736
 10
27.39816233585659
 20
-17.24775875354537
 10
27.19144412830379
 20
-17.27321944328138
 10
26.98701130006869
 20
-17.31301806409736
 10
26.79366647186864
 20
-17.36950082289739
 10
26.60683888506863
 20
-17.44119047829734
 10
26.43567874659415
 20
-17.52721806477739
 10
26.27011474606867
 20
-17.62367323749741
 10
26.11804578006867
 20
-17.73229392749736
 10
25.98234812446551
 20
-17.85160289339335
 10
25.85735612406866
 20
-17.98212151449739
 10
25.74873543406859
 20
-18.12115599769741
 10
25.65749405446867
 20
-18.26888013609725
 10
25.58580439906867
 20
-18.4231215158973
 10
25.53149405406863
 20
-18.58388013709735
 10
25.49890784706868
 20
-18.75115599969733
 10
25.48804577806864
 20
-18.92712151749747
 10
25.49890784706863
 20
-19.09874220769738
 10
25.53149405406863
 20
-19.26601807029736
 10
25.58363198526861
 20
-19.42677669149735
 10
25.65314922686862
 20
-19.58101807129735
 10
25.74499019267741
 20
-19.72978496832131
 10
25.85036964128786
 20
-19.86925393428144
 10
25.96837515890384
 20
-19.99829531400131
 10
26.10066646966864
 20
-20.11760427989735
 10
26.25278757359986
 20
-20.22561669403341
 10
26.41132164306869
 20
-20.32398359089738
 10
26.58294233326866
 20
-20.40870772909737
 10
26.76542509246862
 20
-20.48039738449738
 10
26.95965626549908
 20
-20.53444703984137
 10
27.15645957646861
 20
-20.57815600549735
 10
27.3650113012687
 20
-20.60422497109737
 10
27.57573543986861
 20
-20.61291462629736
 10
29.47876992866863
 20
-20.61291462629736
 10
28.59242509826863
 20
-19.73960427869734
 10
27.57573543986861
 20
-19.73960427869734
 10
27.50906840517412
 20
-19.73585698575805
 10
27.40812068071587
 20
-19.72587462348137
 10
27.28798619757585
 20
-19.70441117513739
 10
27.17086702479027
 20
-19.67008703709739
 10
27.06937185205426
 20
-19.62915876110536
 10
27.0132366794622
 20
-19.60100427825732
 10
26.95955198963658
 20
-19.56841807125731
 10
26.82699129956065
 20
-19.46909531232136
 10
26.75338992001663
 20
-19.39905669140937
 10
26.69832357501436
 20
-19.33119048429744
 10
26.64961805761824
 20
-19.25863186337737
 10
26.6102539195622
 20
-19.18146772520138
 10
26.58083074705503
 20
-19.10004565597744
 10
26.56013198836861
 20
-19.01288841432135
 10
26.55261543662063
 20
-18.92355875886544
 10
26.55397102283185
 20
-18.86125393108141
 10
26.55997557457506
 20
-18.7991228964015
 10
26.57213240219984
 20
-18.73594910309735
 10
26.59034591949906
 20
-18.67425255117739
 10
26.63399405756861
 20
-18.57553806810544
 10
26.67552191976945
 20
-18.50767186099339
 10
26.73860012686624
 20
-18.42963875729735
 10
26.86800206723105
 20
-18.30311602024373
 10
26.92726992056869
 20
-18.26305806711336
 10
27.00356509322463
 20
-18.21874082559343
 10
27.08758536935342
 20
-18.17659599787338
 10
27.2041223352406
 20
-18.13375599773739
 97
        0
 92
        7
 72
     0
 73
     1
 93
       57
 10
31.88250235009271
 20
-18.12524013564136
 10
32.01397683326867
 20
-18.08526772172136
 10
32.14866648886859
 20
-18.05815599749734
 10
32.29204579966854
 20
-18.04946634229735
 10
33.53249407946864
 20
-18.04946634229735
 10
33.53249407946864
 20
-17.22394909829738
 10
32.29856304106871
 20
-17.22394909829738
 10
32.08783890246868
 20
-17.23263875349737
 10
31.8814595914687
 20
-17.26088013289732
 10
31.68376993566871
 20
-17.30215599509732
 10
31.4947699350687
 20
-17.35646634009735
 10
31.31011476206875
 20
-17.42815599549736
 10
31.14370786498849
 20
-17.51079461644939
 10
30.98488703689817
 20
-17.60724978916941
 10
30.83480800193907
 20
-17.71673944468936
 10
30.70024869116715
 20
-17.83596151403331
 10
30.5801837252687
 20
-17.96474220409736
 10
30.47590786286868
 20
-18.10377668729738
 10
30.39118372466864
 20
-18.24932841189739
 10
30.31949406926863
 20
-18.40356979169739
 10
30.26952855186865
 20
-18.56432841289727
 10
30.23694234486864
 20
-18.7316042754973
 10
30.22608027586866
 20
-18.90539737949733
 10
30.23694234486864
 20
-19.07919048349736
 10
30.26952855186865
 20
-19.24646634609739
 10
30.32166648306862
 20
-19.40722496729738
 10
30.39335613846863
 20
-19.56363876089737
 10
30.48025269046867
 20
-19.71136289929738
 10
30.5890993115038
 20
-19.85091876180938
 10
30.70895572567743
 20
-19.98126358980936
 10
30.84538331231745
 20
-20.10257117640138
 10
30.99294234726865
 20
-20.21319048709738
 10
31.15370096846864
 20
-20.3109491080974
 10
31.32749407246861
 20
-20.39567324629739
 10
31.51214924546862
 20
-20.46953531549734
 10
31.70332165986868
 20
-20.52601807429737
 10
31.90318372946861
 20
-20.56946635029736
 10
32.10956304046864
 20
-20.59336290209738
 10
32.32245959286867
 20
-20.60205255729737
 10
33.53249407946864
 20
-20.60205255729737
 10
33.53249407946864
 20
-19.74394910629739
 10
32.29856304106859
 20
-19.74394910629739
 10
32.16491614409263
 20
-19.73360841660938
 10
32.03265959194864
 20
-19.71162358895337
 10
31.91204717777266
 20
-19.67729945091337
 10
31.79604028085267
 20
-19.62933255420937
 10
31.68637683222865
 20
-19.56841807125737
 10
31.58931338364467
 20
-19.50081255380137
 10
31.50189545233265
 20
-19.42104151906538
 10
31.42742510726864
 20
-19.33553531189737
 10
33.53249407946864
 20
-19.33553531189737
 10
33.53249407946864
 20
-18.50784565409735
 10
31.39049407266863
 20
-18.50784565409735
 10
31.46001131426864
 20
-18.41008703309738
 10
31.54690786626857
 20
-18.3210180672974
 10
31.64805545279667
 20
-18.24472289464135
 10
31.75545959106866
 20
-18.17763875649738
 97
        0
 92
        7
 72
     0
 73
     1
 93
        6
 10
33.76276994226863
 20
-17.23698358109736
 10
33.76276994226863
 20
-20.60639738489737
 10
36.00035615626867
 20
-20.60639738489737
 10
36.00035615626867
 20
-19.73960427869734
 10
34.78597684206865
 20
-19.73960427869734
 10
34.78597684206865
 20
-17.23698358109736
 97
        0
 92
        7
 72
     0
 73
     1
 93
        8
 10
35.01842511866865
 20
-17.23698358109736
 10
35.01842511866865
 20
-18.06250082509739
 10
36.25235615706863
 20
-18.06250082509739
 10
36.25235615706863
 20
-20.61291462629736
 10
37.27773547066865
 20
-20.61291462629736
 10
37.27773547066865
 20
-18.06250082509739
 10
38.52035616426868
 20
-18.06250082509739
 10
38.52035616426868
 20
-17.23698358109736
 97
        0
 75
     0
 76
     1
 47
0.0142553043587597
 98
        5
 10
24.90566163114387
 20
-17.67943325068647
 10
27.17315884448642
 20
-17.82198623569228
 10
31.66537057668798
 20
-17.76496506314457
 10
34.38921966051954
 20
-17.5226248384523
 10
35.80105764274641
 20
-17.62241197086563
450
        0
451
        0
460
0.0
461
0.0
452
        0
462
0.0
453
        0
470

  0
HATCH
  5
9DA
330
99E
100
AcDbEntity
  8
LW 3000-STADIP-01
 62
     8
100
AcDbHatch
 10
0.0
 20
0.0
 30
0.0
210
0.0
220
0.0
230
1.0
  2
ANSI31
 70
     0
 71
     0
 91
        9
 92
        7
 72
     1
 73
     1
 93
       27
 10
39.51999999999999
 20
19.79289321881343
 42
0.1989123673796615
 10
39.37355339059326
 20
20.14644660940671
 42
0.0
 10
36.6664466094067
 20
22.85355339059325
 42
0.1989123673796363
 10
36.31289321881345
 20
22.99999999999996
 42
0.0
 10
35.01999999999998
 20
22.99999999999999
 42
0.0
 10
35.01999999999998
 20
16.99999999999995
 42
0.0
 10
32.51999999999998
 20
15.55662432702591
 42
0.0
 10
30.01999999999998
 20
16.99999999999995
 42
0.0
 10
30.01999999999999
 20
22.99999999999998
 42
0.0
 10
23.51999999999998
 20
22.99999999999998
 42
0.0
 10
23.51999999999998
 20
21.99999999999996
 42
0.0
 10
21.51999999999998
 20
21.99999999999996
 42
0.0
 10
21.51999999999998
 20
10.99999999999998
 42
0.0
 10
4.999999999999969
 20
10.99999999999998
 42
0.0
 10
0.0
 20
15.99999999999997
 42
0.0
 10
0.0
 20
8.499999999999985
 42
0.0
 10
4.0
 20
8.499999999999985
 42
0.0
 10
4.866025403784433
 20
6.999999999999957
 42
0.0
 10
4.0
 20
5.499999999999984
 42
0.0
 10
0.0
 20
5.499999999999985
 42
0.0
 10
0.0
 20
1.2
 42
-0.4142135623731022
 10
1.199999999999999
 20
-0.0000000000000284
 42
0.0
 10
17.02529882059518
 20
-0.0000000000000284
 42
0.0
 10
20.51999999999998
 20
6.052999999999953
 42
0.0
 10
22.51999999999998
 20
6.052999999999952
 42
0.0
 10
22.51999999999998
 20
6.999999999999985
 42
0.0
 10
39.51999999999999
 20
6.999999999999984
 42
0.0
 97
        0
 92
       23
 72
     0
 73
     1
 93
        4
 10
39.51999999999998
 20
6.999999999999984
 10
22.51999999999998
 20
6.999999999999984
 10
22.51999999999998
 20
6.052999999999953
 10
39.51999999999998
 20
6.052999999999954
 97
        0
 92
       23
 72
     0
 73
     1
 93
        4
 10
39.51999999999999
 20
-6.05300000000001
 10
22.51999999999998
 20
-6.05300000000001
 10
22.51999999999998
 20
-7.000000000000014
 10
39.51999999999999
 20
-7.000000000000014
 97
        0
 92
        7
 72
     1
 73
     1
 93
       23
 10
39.51999999999999
 20
-7.000000000000014
 42
0.0
 10
22.51999999999998
 20
-7.000000000000014
 42
0.0
 10
22.51999999999998
 20
-6.05300000000001
 42
0.0
 10
20.51999999999998
 20
-6.05300000000001
 42
0.0
 10
17.02529882059518
 20
-0.0000000000000286
 42
0.0
 10
1.199999999999999
 20
-0.0000000000000284
 42
-0.414213562373088
 10
0.0
 20
-1.199999999999999
 42
0.0
 10
0.0
 20
-1.799999999999999
 42
0.0
 10
0.0
 20
-5.500000000000041
 42
0.0
 10
4.000000000000015
 20
-5.500000000000042
 42
0.0
 10
4.866025403784433
 20
-7.000000000000014
 42
0.0
 10
4.000000000000016
 20
-8.500000000000014
 42
0.0
 10
0.0
 20
-8.500000000000014
 42
0.0
 10
0.0
 20
-16.0
 42
0.0
 10
5.0
 20
-11.00000000000001
 42
0.0
 10
21.51999999999998
 20
-11.00000000000001
 42
0.0
 10
21.51999999999999
 20
-22.00000000000001
 42
0.0
 10
23.51999999999998
 20
-22.00000000000001
 42
0.0
 10
23.51999999999998
 20
-23.00000000000005
 42
0.0
 10
36.31289321881343
 20
-23.00000000000004
 42
0.1989123673796583
 10
36.6664466094067
 20
-22.8535533905933
 42
0.0
 10
39.37355339059325
 20
-20.14644660940674
 42
0.1989123673796724
 10
39.51999999999998
 20
-19.79289321881345
 42
0.0
 97
        0
 92
       22
 72
     0
 73
     1
 93
       76
 10
26.72849405786868
 20
-17.23698358109736
 10
26.54732512240294
 20
-17.30650189354352
 10
26.36557218980265
 20
-17.39785357312635
 10
26.19018523643782
 20
-17.50003145494807
 10
26.02651644035577
 20
-17.61693773786376
 10
25.88049653389442
 20
-17.74532229957707
 10
25.74601845868155
 20
-17.88574642983967
 10
25.62786033445035
 20
-18.03698882885558
 10
25.5960015050775
 20
-18.08856979069735
 10
24.50611474046866
 20
-18.08856979069735
 10
24.36273542966867
 20
-18.09508703209733
 10
24.22587336026865
 20
-18.11463875629737
 10
24.1034274288454
 20
-18.1467035839854
 10
23.98473542846865
 20
-18.19067323929737
 10
23.88213666952226
 20
-18.24898082568939
 10
23.78704577266864
 20
-18.31884565349736
 10
23.70449404826861
 20
-18.40139737789733
 10
23.63497680666867
 20
-18.49698358509737
 10
25.40561532428804
 20
-18.49698358509737
 10
25.38901662161295
 20
-18.54611574501571
 10
25.35271089993765
 20
-18.73248511628226
 10
25.34068922750835
 20
-18.92723620963718
 10
25.35273288029
 20
-19.11752592358802
 10
25.38884468825452
 20
-19.302899871139
 10
25.39942915552747
 20
-19.33553531189737
 10
23.67190784126866
 20
-19.33553531189737
 10
23.74359749666867
 20
-19.42025945009736
 10
23.83377873833424
 20
-19.49820565724138
 10
23.93192839381825
 20
-19.56581117469738
 10
24.03687335966865
 20
-19.62229393349735
 10
24.15201129106864
 20
-19.6679146232974
 10
24.28018370526864
 20
-19.70084841650537
 10
24.41093694706303
 20
-19.72118220967336
 10
24.54304577506861
 20
-19.72874220969736
 10
25.571508841989
 20
-19.72874220969736
 10
25.62348007343759
 20
-19.81292685180164
 10
25.7371854281809
 20
-19.96341509651428
 10
25.86462132166529
 20
-20.1027687797428
 10
26.00853369003545
 20
-20.23255837628259
 10
26.17136658479625
 20
-20.34817661470812
 10
26.33983299096629
 20
-20.45270630763973
 10
26.52339713476871
 20
-20.54332658116248
 10
26.6839409988212
 20
-20.60639738489737
 10
24.5647699130687
 20
-20.60639738489737
 10
24.35404577446864
 20
-20.59770772969738
 10
24.14549404966861
 20
-20.57163876409735
 10
23.94563198006866
 20
-20.52819048809736
 10
23.75445956566866
 20
-20.4717077292974
 10
23.57381032371583
 20
-20.39801945320135
 10
23.39818370246866
 20
-20.31312152189733
 10
23.23742508126866
 20
-20.2153629008974
 10
23.09008068080093
 20
-20.10491738330541
 10
22.95388163209266
 20
-19.98378358981738
 10
22.83118370066868
 20
-19.85256979629736
 10
22.72473542446862
 20
-19.71136289929735
 10
22.63566645866867
 20
-19.56363876089738
 10
22.56614921706866
 20
-19.40722496729736
 10
22.51183887206862
 20
-19.24646634609739
 10
22.48142507886867
 20
-19.07919048349735
 10
22.47056300986863
 20
-18.90539737949735
 10
22.47925266506862
 20
-18.73160427549733
 10
22.50749404446863
 20
-18.56650082669741
 10
22.55745956186862
 20
-18.40574220549734
 10
22.62045956206863
 20
-18.25150082569737
 10
22.70301128646864
 20
-18.10594910109739
 10
22.80302921782064
 20
-17.9687394454894
 10
22.91429416989803
 20
-17.84048013473739
 10
23.03973542546866
 20
-17.72143185849741
 10
23.18244302592168
 20
-17.6147228926414
 10
23.33301128846864
 20
-17.51939737509733
 10
23.50028715106866
 20
-17.43684565069735
 10
23.67625266886863
 20
-17.36732840909734
 10
23.86090784186866
 20
-17.31301806409737
 10
24.05642508386867
 20
-17.27174220189736
 10
24.25845956726864
 20
-17.24567323629735
 10
24.4713561196687
 20
-17.23698358109736
 97
        0
 92
       22
 72
     0
 73
     1
 93
       73
 10
26.98701130006863
 20
-17.31301806409736
 10
27.19144412830388
 20
-17.27321944328137
 10
27.39816233585664
 20
-17.24775875354537
 10
27.60614923306865
 20
-17.23698358109736
 10
31.04508027846863
 20
-17.23698358109736
 10
29.36363199726862
 20
-18.87063875869738
 10
31.07766648546864
 20
-20.61291462629736
 10
29.75901130886867
 20
-20.61291462629736
 10
27.99283888946862
 20
-18.89453531049734
 10
28.84008027146866
 20
-18.07988013549736
 10
27.57139061226864
 20
-18.07988013549736
 10
27.44732840497829
 20
-18.08509392861735
 10
27.32446537010543
 20
-18.10316841143337
 10
27.20412233524064
 20
-18.1337559977374
 10
27.0875853693535
 20
-18.17659599787338
 10
27.00356509322463
 20
-18.21874082559335
 10
26.92726992056862
 20
-18.26305806711337
 10
26.88702812733743
 20
-18.29025668788939
 10
26.84951488583904
 20
-18.32119186040138
 10
26.73860012686626
 20
-18.42963875729735
 10
26.67552191976944
 20
-18.50767186099342
 10
26.6339940575686
 20
-18.57553806810539
 10
26.59034591949904
 20
-18.67425255117742
 10
26.57213240219986
 20
-18.73594910309734
 10
26.55997557457506
 20
-18.7991228964014
 10
26.55397102283185
 20
-18.8612539310813
 10
26.55261543662063
 20
-18.92355875886542
 10
26.56013198836867
 20
-19.01288841432137
 10
26.58083074705503
 20
-19.10004565597738
 10
26.61025391956226
 20
-19.1814677252014
 10
26.64961805761825
 20
-19.25863186337738
 10
26.69832357501422
 20
-19.33119048429735
 10
26.75338992001663
 20
-19.39905669140937
 10
26.82699129956064
 20
-19.46909531232135
 10
26.95955198963663
 20
-19.56841807125736
 10
27.01323667946225
 20
-19.60100427825737
 10
27.06937185205426
 20
-19.62915876110535
 10
27.17086702479025
 20
-19.67008703709738
 10
27.28798619757583
 20
-19.70441117513734
 10
27.40812068071586
 20
-19.72587462348137
 10
27.50906840517432
 20
-19.73585698575806
 10
27.57573543986864
 20
-19.73960427869734
 10
28.59242509826863
 20
-19.73960427869734
 10
29.47876992866863
 20
-20.61291462629736
 10
27.57573543986865
 20
-20.61291462629736
 10
27.36501130126864
 20
-20.60422497109737
 10
27.15645957646869
 20
-20.57815600549735
 10
26.95965626549909
 20
-20.53444703984136
 10
26.76542509246868
 20
-20.48039738449738
 10
26.58294233326867
 20
-20.40870772909737
 10
26.41132164306863
 20
-20.32398359089738
 10
26.25278757359984
 20
-20.22561669403333
 10
26.10066646966862
 20
-20.11760427989734
 10
25.96837515890384
 20
-19.99829531400137
 10
25.85036964128786
 20
-19.86925393428139
 10
25.74499019267747
 20
-19.72978496832136
 10
25.65314922686863
 20
-19.58101807129736
 10
25.58363198526862
 20
-19.42677669149735
 10
25.53149405406863
 20
-19.26601807029734
 10
25.49890784706863
 20
-19.09874220769735
 10
25.48804577806864
 20
-18.92712151749734
 10
25.49890784706862
 20
-18.75115599969738
 10
25.53149405406864
 20
-18.58388013709731
 10
25.58580439906867
 20
-18.42312151589732
 10
25.65749405446863
 20
-18.26888013609734
 10
25.74873543406865
 20
-18.12115599769738
 10
25.85735612406864
 20
-17.98212151449739
 10
25.98234812446543
 20
-17.85160289339335
 10
26.11804578006865
 20
-17.73229392749736
 10
26.27011474606867
 20
-17.62367323749733
 10
26.43567874659423
 20
-17.52721806477741
 10
26.60683888506862
 20
-17.4411904782974
 10
26.79366647186862
 20
-17.36950082289741
 97
        0
 92
       22
 72
     0
 73
     1
 93
       57
 10
30.83480800193907
 20
-17.71673944468936
 10
30.98488703689824
 20
-17.60724978916937
 10
31.14370786498872
 20
-17.51079461644936
 10
31.31011476206869
 20
-17.42815599549735
 10
31.49476993506865
 20
-17.35646634009734
 10
31.68376993566863
 20
-17.30215599509739
 10
31.8814595914687
 20
-17.26088013289738
 10
32.08783890246864
 20
-17.23263875349737
 10
32.29856304106874
 20
-17.22394909829738
 10
33.53249407946864
 20
-17.22394909829738
 10
33.53249407946864
 20
-18.04946634229735
 10
32.29204579966867
 20
-18.04946634229734
 10
32.14866648886866
 20
-18.05815599749734
 10
32.01397683326857
 20
-18.08526772172138
 10
31.88250235009265
 20
-18.12524013564135
 10
31.75545959106865
 20
-18.17763875649739
 10
31.64805545279668
 20
-18.24472289464137
 10
31.54690786626863
 20
-18.32101806729734
 10
31.46001131426864
 20
-18.41008703309741
 10
31.39049407266864
 20
-18.50784565409735
 10
33.53249407946864
 20
-18.50784565409735
 10
33.53249407946864
 20
-19.33553531189737
 10
31.42742510726864
 20
-19.33553531189737
 10
31.50189545233266
 20
-19.42104151906539
 10
31.58931338364467
 20
-19.50081255380137
 10
31.68637683222865
 20
-19.56841807125737
 10
31.79604028085265
 20
-19.62933255420936
 10
31.91204717777267
 20
-19.67729945091337
 10
32.03265959194865
 20
-19.71162358895337
 10
32.16491614409264
 20
-19.73360841660938
 10
32.29856304106865
 20
-19.74394910629739
 10
33.53249407946864
 20
-19.74394910629739
 10
33.53249407946864
 20
-20.60205255729737
 10
32.32245959286865
 20
-20.60205255729737
 10
32.10956304046864
 20
-20.59336290209738
 10
31.90318372946864
 20
-20.56946635029737
 10
31.70332165986864
 20
-20.52601807429738
 10
31.51214924546862
 20
-20.46953531549734
 10
31.32749407246858
 20
-20.39567324629738
 10
31.15370096846865
 20
-20.31094910809735
 10
30.99294234726865
 20
-20.21319048709737
 10
30.84538331231747
 20
-20.1025711764014
 10
30.70895572567748
 20
-19.9812635898094
 10
30.58909931150387
 20
-19.85091876180939
 10
30.48025269046863
 20
-19.71136289929739
 10
30.39335613846862
 20
-19.56363876089734
 10
30.32166648306863
 20
-19.40722496729738
 10
30.26952855186864
 20
-19.24646634609741
 10
30.23694234486863
 20
-19.07919048349731
 10
30.22608027586866
 20
-18.90539737949735
 10
30.23694234486864
 20
-18.73160427549739
 10
30.26952855186864
 20
-18.56432841289746
 10
30.31949406926864
 20
-18.40356979169738
 10
30.39118372466865
 20
-18.24932841189733
 10
30.47590786286864
 20
-18.1037766872974
 10
30.58018372526867
 20
-17.96474220409732
 10
30.70024869116702
 20
-17.83596151403337
 97
        0
 92
       22
 72
     0
 73
     1
 93
        6
 10
33.76276994226863
 20
-17.23698358109736
 10
34.78597684206865
 20
-17.23698358109736
 10
34.78597684206865
 20
-19.73960427869734
 10
36.00035615626867
 20
-19.73960427869734
 10
36.00035615626866
 20
-20.60639738489736
 10
33.76276994226863
 20
-20.60639738489737
 97
        0
 92
       22
 72
     0
 73
     1
 93
        8
 10
35.01842511866865
 20
-17.23698358109736
 10
38.52035616426868
 20
-17.23698358109736
 10
38.52035616426868
 20
-18.06250082509739
 10
37.27773547066866
 20
-18.06250082509739
 10
37.27773547066864
 20
-20.61291462629736
 10
36.25235615706863
 20
-20.61291462629736
 10
36.25235615706863
 20
-18.06250082509738
 10
35.01842511866865
 20
-18.06250082509739
 97
        0
 75
     0
 76
     1
 52
0.0
 41
0.75
 77
     0
 78
     1
 53
45.0
 43
-0.0000000000000142
 44
-1.329603597017722
 45
-1.683798022700465
 46
1.683798022700466
 79
     0
 47
0.0996147450938974
 98
        9
 10
26.92577332487785
 20
11.57298797206435
 10
26.52705722817204
 20
6.393021305159479
 10
25.82930380926358
 20
-6.756125091888932
 10
25.82930380926358
 20
-11.43801816645306
 10
25.82930380926358
 20
-11.43801816645306
 10
25.82930380926358
 20
-11.43801816645306
 10
25.82930380926358
 20
-11.43801816645306
 10
25.82930380926358
 20
-11.43801816645306
 10
25.82930380926358
 20
-11.43801816645306
1001
ACAD
1010
0.0
1020
0.0
1030
0.0
  0
LWPOLYLINE
  5
9DB
330
99E
100
AcDbEntity
  8
LW 3000-STADIP-01
 62
     1
100
AcDbPolyline
 90
        8
 70
     1
 43
0.0
 10
37.27773547066865
 20
-18.06250082509739
 10
37.27773547066865
 20
-20.61291462629736
 10
36.25235615706863
 20
-20.61291462629736
 10
36.25235615706863
 20
-18.06250082509739
 10
35.01842511866865
 20
-18.06250082509739
 10
35.01842511866865
 20
-17.23698358109736
 10
38.52035616426868
 20
-17.23698358109736
 10
38.52035616426868
 20
-18.06250082509739
  0
LWPOLYLINE
  5
9DC
330
99E
100
AcDbEntity
  8
LW 3000-STADIP-01
 62
     1
100
AcDbPolyline
 90
       73
 70
     1
 43
0.0
 10
27.57573543986867
 20
-19.73960427869734
 10
28.59242509826863
 20
-19.73960427869734
 10
29.47876992866863
 20
-20.61291462629736
 10
27.57573543986867
 20
-20.61291462629736
 10
27.36501130126864
 20
-20.60422497109737
 10
27.15645957646867
 20
-20.57815600549735
 10
26.95965626549908
 20
-20.53444703984137
 10
26.76542509246868
 20
-20.48039738449738
 10
26.58294233326866
 20
-20.40870772909737
 10
26.41132164306863
 20
-20.32398359089738
 10
26.25278757359986
 20
-20.22561669403335
 10
26.10066646966864
 20
-20.11760427989735
 10
25.96837515890384
 20
-19.99829531400137
 10
25.85036964128786
 20
-19.86925393428139
 10
25.74499019267746
 20
-19.72978496832137
 10
25.65314922686862
 20
-19.58101807129735
 10
25.58363198526861
 20
-19.42677669149735
 10
25.53149405406863
 20
-19.26601807029736
 10
25.49890784706863
 20
-19.09874220769738
 10
25.48804577806864
 20
-18.92712151749735
 10
25.49890784706863
 20
-18.75115599969739
 10
25.53149405406863
 20
-18.58388013709735
 10
25.58580439906867
 20
-18.42312151589736
 10
25.65749405446862
 20
-18.26888013609736
 10
25.74873543406865
 20
-18.12115599769736
 10
25.85735612406866
 20
-17.98212151449739
 10
25.98234812446545
 20
-17.85160289339335
 10
26.11804578006861
 20
-17.73229392749736
 10
26.27011474606862
 20
-17.62367323749735
 10
26.43567874659427
 20
-17.52721806477739
 10
26.60683888506863
 20
-17.4411904782974
 10
26.79366647186864
 20
-17.36950082289739
 10
26.98701130006863
 20
-17.31301806409736
 10
27.19144412830384
 20
-17.27321944328138
 10
27.39816233585664
 20
-17.24775875354537
 10
27.60614923306862
 20
-17.23698358109736
 10
31.04508027846863
 20
-17.23698358109736
 10
29.36363199726863
 20
-18.87063875869738
 10
31.07766648546864
 20
-20.61291462629736
 10
29.75901130886867
 20
-20.61291462629736
 10
27.99283888946862
 20
-18.89453531049734
 10
28.84008027146867
 20
-18.07988013549736
 10
27.57139061226868
 20
-18.07988013549736
 10
27.44732840497825
 20
-18.08509392861735
 10
27.32446537010544
 20
-18.10316841143337
 10
27.20412233524065
 20
-18.13375599773739
 10
27.08758536935348
 20
-18.17659599787338
 10
27.00356509322463
 20
-18.21874082559337
 10
26.92726992056864
 20
-18.26305806711336
 10
26.88702812733744
 20
-18.29025668788936
 10
26.84951488583904
 20
-18.32119186040135
 10
26.73860012686624
 20
-18.42963875729735
 10
26.67552191976945
 20
-18.50767186099339
 10
26.63399405756861
 20
-18.57553806810539
 10
26.59034591949906
 20
-18.67425255117739
 10
26.57213240219984
 20
-18.73594910309735
 10
26.55997557457506
 20
-18.79912289640138
 10
26.55397102283185
 20
-18.86125393108135
 10
26.55261543662063
 20
-18.92355875886538
 10
26.56013198836867
 20
-19.01288841432135
 10
26.58083074705503
 20
-19.10004565597738
 10
26.61025391956226
 20
-19.18146772520138
 10
26.64961805761824
 20
-19.25863186337737
 10
26.69832357501424
 20
-19.33119048429738
 10
26.75338992001663
 20
-19.39905669140937
 10
26.82699129956065
 20
-19.46909531232136
 10
26.95955198963664
 20
-19.56841807125737
 10
27.01323667946225
 20
-19.60100427825738
 10
27.06937185205426
 20
-19.62915876110536
 10
27.17086702479027
 20
-19.67008703709739
 10
27.28798619757585
 20
-19.70441117513734
 10
27.40812068071587
 20
-19.72587462348137
 10
27.50906840517423
 20
-19.73585698575805
  0
LWPOLYLINE
  5
9DD
330
99E
100
AcDbEntity
  8
LW 3000-STADIP-01
 62
     1
100
AcDbPolyline
 90
       76
 70
     1
 43
0.0
 10
26.36557218980256
 20
-17.39785357312637
 10
26.19018523643776
 20
-17.50003145494808
 10
26.02651644035577
 20
-17.61693773786378
 10
25.88049653389437
 20
-17.74532229957712
 10
25.74601845868155
 20
-17.88574642983967
 10
25.62786033445038
 20
-18.03698882885554
 10
25.5960015050775
 20
-18.08856979069735
 10
24.50611474046862
 20
-18.08856979069735
 10
24.36273542966866
 20
-18.09508703209734
 10
24.22587336026864
 20
-18.11463875629737
 10
24.10342742884542
 20
-18.1467035839854
 10
23.98473542846865
 20
-18.19067323929736
 10
23.88213666952227
 20
-18.24898082568937
 10
23.78704577266866
 20
-18.31884565349735
 10
23.70449404826862
 20
-18.40139737789734
 10
23.63497680666866
 20
-18.49698358509737
 10
25.40561532428804
 20
-18.49698358509737
 10
25.38901662161296
 20
-18.54611574501568
 10
25.35271089993763
 20
-18.73248511628229
 10
25.34068922750835
 20
-18.9272362096372
 10
25.35273288028999
 20
-19.11752592358799
 10
25.38884468825451
 20
-19.30289987113899
 10
25.39942915552747
 20
-19.33553531189737
 10
23.67190784126866
 20
-19.33553531189737
 10
23.74359749666867
 20
-19.42025945009736
 10
23.83377873833423
 20
-19.49820565724137
 10
23.93192839381824
 20
-19.56581117469737
 10
24.03687335966863
 20
-19.62229393349734
 10
24.15201129106864
 20
-19.66791462329739
 10
24.28018370526861
 20
-19.70084841650536
 10
24.41093694706303
 20
-19.72118220967336
 10
24.54304577506862
 20
-19.72874220969736
 10
25.571508841989
 20
-19.72874220969736
 10
25.62348007343759
 20
-19.81292685180163
 10
25.73718542818092
 20
-19.96341509651431
 10
25.86462132166527
 20
-20.10276877974279
 10
26.00853369003547
 20
-20.2325583762826
 10
26.17136658479622
 20
-20.3481766147081
 10
26.33983299096629
 20
-20.45270630763973
 10
26.5233971347687
 20
-20.54332658116248
 10
26.6839409988212
 20
-20.60639738489737
 10
24.56476991306864
 20
-20.60639738489737
 10
24.35404577446862
 20
-20.59770772969738
 10
24.14549404966864
 20
-20.57163876409736
 10
23.94563198006865
 20
-20.52819048809737
 10
23.75445956566865
 20
-20.47170772929739
 10
23.57381032371582
 20
-20.39801945320134
 10
23.39818370246867
 20
-20.31312152189734
 10
23.23742508126863
 20
-20.21536290089738
 10
23.09008068080091
 20
-20.10491738330539
 10
22.95388163209266
 20
-19.98378358981738
 10
22.83118370066866
 20
-19.85256979629734
 10
22.72473542446865
 20
-19.71136289929738
 10
22.63566645866867
 20
-19.56363876089737
 10
22.56614921706866
 20
-19.40722496729738
 10
22.51183887206862
 20
-19.24646634609739
 10
22.48142507886867
 20
-19.07919048349736
 10
22.47056300986863
 20
-18.90539737949739
 10
22.47925266506861
 20
-18.73160427549736
 10
22.50749404446863
 20
-18.56650082669738
 10
22.55745956186861
 20
-18.40574220549739
 10
22.62045956206863
 20
-18.25150082569739
 10
22.70301128646862
 20
-18.10594910109738
 10
22.80302921782062
 20
-17.96873944548939
 10
22.91429416989799
 20
-17.84048013473737
 10
23.03973542546863
 20
-17.72143185849738
 10
23.18244302592167
 20
-17.61472289264138
 10
23.33301128846866
 20
-17.51939737509734
 10
23.50028715106863
 20
-17.43684565069735
 10
23.67625266886866
 20
-17.36732840909734
 10
23.86090784186867
 20
-17.31301806409736
 10
24.05642508386866
 20
-17.27174220189737
 10
24.25845956726865
 20
-17.24567323629735
 10
24.47135611966867
 20
-17.23698358109736
 10
26.72849405786867
 20
-17.23698358109736
 10
26.54732512240288
 20
-17.30650189354354
  0
LWPOLYLINE
  5
9DE
330
99E
100
AcDbEntity
  8
LW 3000-STADIP-01
 62
     1
100
AcDbPolyline
 90
        6
 70
     1
 43
0.0
 10
36.00035615626867
 20
-20.60639738489737
 10
33.76276994226863
 20
-20.60639738489737
 10
33.76276994226863
 20
-17.23698358109736
 10
34.78597684206865
 20
-17.23698358109736
 10
34.78597684206865
 20
-19.73960427869734
 10
36.00035615626867
 20
-19.73960427869734
  0
LWPOLYLINE
  5
9DF
330
99E
100
AcDbEntity
  8
LW 3000-STADIP-01
 62
     1
100
AcDbPolyline
 90
       57
 70
     1
 43
0.0
 10
30.70895572567743
 20
-19.98126358980936
 10
30.58909931150386
 20
-19.85091876180938
 10
30.48025269046862
 20
-19.71136289929738
 10
30.39335613846863
 20
-19.56363876089737
 10
30.32166648306862
 20
-19.40722496729738
 10
30.26952855186865
 20
-19.24646634609739
 10
30.23694234486864
 20
-19.07919048349736
 10
30.22608027586866
 20
-18.90539737949739
 10
30.23694234486864
 20
-18.73160427549736
 10
30.26952855186865
 20
-18.56432841289738
 10
30.31949406926863
 20
-18.40356979169739
 10
30.39118372466864
 20
-18.24932841189734
 10
30.47590786286863
 20
-18.10377668729738
 10
30.58018372526864
 20
-17.96474220409736
 10
30.70024869116704
 20
-17.83596151403337
 10
30.83480800193907
 20
-17.71673944468936
 10
30.98488703689823
 20
-17.60724978916936
 10
31.14370786498866
 20
-17.51079461644939
 10
31.31011476206864
 20
-17.42815599549736
 10
31.49476993506865
 20
-17.35646634009735
 10
31.68376993566865
 20
-17.30215599509738
 10
31.88145959146864
 20
-17.26088013289738
 10
32.08783890246862
 20
-17.23263875349737
 10
32.29856304106865
 20
-17.22394909829738
 10
33.53249407946864
 20
-17.22394909829738
 10
33.53249407946864
 20
-18.04946634229735
 10
32.29204579966866
 20
-18.04946634229735
 10
32.14866648886864
 20
-18.05815599749734
 10
32.01397683326862
 20
-18.08526772172136
 10
31.88250235009265
 20
-18.12524013564136
 10
31.75545959106866
 20
-18.17763875649738
 10
31.64805545279667
 20
-18.24472289464135
 10
31.54690786626863
 20
-18.32101806729734
 10
31.46001131426864
 20
-18.41008703309738
 10
31.39049407266863
 20
-18.50784565409735
 10
33.53249407946864
 20
-18.50784565409735
 10
33.53249407946864
 20
-19.33553531189737
 10
31.42742510726864
 20
-19.33553531189737
 10
31.50189545233265
 20
-19.42104151906538
 10
31.58931338364467
 20
-19.50081255380137
 10
31.68637683222865
 20
-19.56841807125737
 10
31.79604028085267
 20
-19.62933255420937
 10
31.91204717777266
 20
-19.67729945091337
 10
32.03265959194864
 20
-19.71162358895337
 10
32.16491614409263
 20
-19.73360841660938
 10
32.29856304106865
 20
-19.74394910629739
 10
33.53249407946864
 20
-19.74394910629739
 10
33.53249407946864
 20
-20.60205255729737
 10
32.32245959286867
 20
-20.60205255729737
 10
32.10956304046864
 20
-20.59336290209738
 10
31.90318372946867
 20
-20.56946635029736
 10
31.70332165986862
 20
-20.52601807429737
 10
31.51214924546862
 20
-20.46953531549734
 10
31.32749407246861
 20
-20.39567324629739
 10
31.15370096846864
 20
-20.31094910809735
 10
30.99294234726865
 20
-20.21319048709738
 10
30.84538331231745
 20
-20.10257117640138
  0
ENDBLK
  5
9A3
330
99E
100
AcDbEntity
  8
0
100
AcDbBlockEnd
  0
BLOCK
  5
9E5
330
9E1
100
AcDbEntity
  8
0
100
AcDbBlockBegin
  2
LW 3000-24-01
 70
     0
 10
0.0
 20
0.0
 30
0.0
  3
LW 3000-24-01
  1

  0
LINE
  5
9E7
330
9E1
100
AcDbEntity
  8
LW 3000-STADIP-01
 62
     3
100
AcDbLine
 10
26.51999999999998
 20
6.999999999999985
 30
0.0
 11
43.51999999999998
 21
6.999999999999985
 31
0.0
  0
LINE
  5
9E8
330
9E1
100
AcDbEntity
  8
LW 3000-STADIP-01
 62
     3
100
AcDbLine
 10
43.51999999999998
 20
-7.000000000000014
 30
0.0
 11
26.51999999999998
 21
-7.000000000000014
 31
0.0
  0
LINE
  5
9E9
330
9E1
100
AcDbEntity
  8
LW 3000-STADIP-01
 62
     3
100
AcDbLine
 10
26.51999999999998
 20
6.999999999999985
 30
0.0
 11
26.51999999999998
 21
-7.000000000000014
 31
0.0
  0
LINE
  5
9EA
330
9E1
100
AcDbEntity
  8
LW 3000-STADIP-01
100
AcDbLine
 10
24.51999999999998
 20
-6.053000000000011
 30
0.0
 11
24.51999999999998
 21
6.052999999999954
 31
0.0
  0
LINE
  5
9EB
330
9E1
100
AcDbEntity
  8
LW 3000-STADIP-01
100
AcDbLine
 10
3.999999999999985
 20
8.499999999999957
 30
0.0
 11
3.999999999999985
 21
5.499999999999985
 31
0.0
  0
LINE
  5
9EC
330
9E1
100
AcDbEntity
  8
LW 3000-STADIP-01
100
AcDbLine
 10
3.999999999999985
 20
-5.500000000000014
 30
0.0
 11
3.999999999999985
 21
-8.500000000000014
 31
0.0
  0
LWPOLYLINE
  5
9ED
330
9E1
100
AcDbEntity
  8
LW 3000-STADIP-01
100
AcDbPolyline
 90
       25
 70
     0
 43
0.0
 10
34.01999999999998
 20
22.99999999999998
 10
34.04101778984068
 20
22.99768495559691
 10
34.1043560695648
 20
22.99094486236571
 10
34.21044399261473
 20
22.98008012771605
 10
34.35832907676695
 20
22.96570587158202
 10
34.54153944969176
 20
22.94918823242186
 10
34.75223590850828
 20
22.93196487426756
 10
34.99257971763609
 20
22.91472721099852
 10
35.26519824981688
 20
22.8981738090515
 10
35.56294848442076
 20
22.88374948501585
 10
35.8781187725067
 20
22.87283468246458
 10
36.20067288398741
 20
22.86605644226073
 10
36.51999880790709
 20
22.8637270927429
 10
36.83932473182677
 20
22.86605644226073
 10
37.16188122749327
 20
22.87283468246458
 10
37.47705151557921
 20
22.88374948501585
 10
37.77480294227598
 20
22.8981738090515
 10
38.04742028236388
 20
22.91472721099852
 10
38.28776289939879
 20
22.93196487426756
 10
38.49846055030821
 20
22.94918823242186
 10
38.68167092323302
 20
22.96570587158202
 10
38.82955481529234
 20
22.98008012771605
 10
38.93564393043516
 20
22.99094486236571
 10
38.99898221015929
 20
22.99768495559691
 10
39.01999880790709
 20
22.99999999999998
  0
LINE
  5
9EE
330
9E1
100
AcDbEntity
  8
LW 3000-STADIP-01
100
AcDbLine
 10
39.01999999999998
 20
16.99999999999995
 30
0.0
 11
34.01999999999998
 21
16.99999999999995
 31
0.0
  0
LINE
  5
9EF
330
9E1
100
AcDbEntity
  8
LW 3000-STADIP-01
100
AcDbLine
 10
0.0
 20
-5.500000000000042
 30
0.0
 11
3.999999999999985
 21
-5.500000000000042
 31
0.0
  0
LINE
  5
9F0
330
9E1
100
AcDbEntity
  8
LW 3000-STADIP-01
100
AcDbLine
 10
0.0
 20
15.99999999999998
 30
0.0
 11
0.0
 21
-15.99999999999998
 31
0.0
  0
LINE
  5
9F1
330
9E1
100
AcDbEntity
  8
LW 3000-STADIP-01
100
AcDbLine
 10
3.999999999999985
 20
5.499999999999985
 30
0.0
 11
0.0
 21
5.499999999999985
 31
0.0
  0
LINE
  5
9F2
330
9E1
100
AcDbEntity
  8
LW 3000-STADIP-01
100
AcDbLine
 10
4.866025403784433
 20
6.999999999999957
 30
0.0
 11
4.0
 21
5.499999999999985
 31
0.0
  0
LINE
  5
9F3
330
9E1
100
AcDbEntity
  8
LW 3000-STADIP-01
100
AcDbLine
 10
4.0
 20
8.499999999999985
 30
0.0
 11
4.866025403784433
 21
6.999999999999957
 31
0.0
  0
LINE
  5
9F4
330
9E1
100
AcDbEntity
  8
LW 3000-STADIP-01
100
AcDbLine
 10
0.0
 20
8.499999999999985
 30
0.0
 11
3.999999999999985
 21
8.499999999999985
 31
0.0
  0
LINE
  5
9F5
330
9E1
100
AcDbEntity
  8
LW 3000-STADIP-01
100
AcDbLine
 10
5.0
 20
10.99999999999996
 30
0.0
 11
-0.0000000000000142
 21
15.99999999999998
 31
0.0
  0
LINE
  5
9F6
330
9E1
100
AcDbEntity
  8
LW 3000-STADIP-01
100
AcDbLine
 10
25.51999999999998
 20
10.99999999999998
 30
0.0
 11
5.0
 21
10.99999999999998
 31
0.0
  0
LINE
  5
9F7
330
9E1
100
AcDbEntity
  8
LW 3000-STADIP-01
100
AcDbLine
 10
25.51999999999998
 20
21.99999999999996
 30
0.0
 11
25.51999999999998
 21
10.99999999999998
 31
0.0
  0
LINE
  5
9F8
330
9E1
100
AcDbEntity
  8
LW 3000-STADIP-01
100
AcDbLine
 10
27.51999999999998
 20
21.99999999999996
 30
0.0
 11
25.51999999999998
 21
21.99999999999996
 31
0.0
  0
LINE
  5
9F9
330
9E1
100
AcDbEntity
  8
LW 3000-STADIP-01
100
AcDbLine
 10
27.51999999999998
 20
22.99999999999998
 30
0.0
 11
27.51999999999998
 21
21.99999999999996
 31
0.0
  0
LINE
  5
9FA
330
9E1
100
AcDbEntity
  8
LW 3000-STADIP-01
100
AcDbLine
 10
34.01999999999998
 20
22.99999999999998
 30
0.0
 11
27.51999999999998
 21
22.99999999999998
 31
0.0
  0
LINE
  5
9FB
330
9E1
100
AcDbEntity
  8
LW 3000-STADIP-01
100
AcDbLine
 10
34.01999999999998
 20
16.99999999999995
 30
0.0
 11
34.01999999999998
 21
22.99999999999998
 31
0.0
  0
LINE
  5
9FC
330
9E1
100
AcDbEntity
  8
LW 3000-STADIP-01
100
AcDbLine
 10
36.51999999999998
 20
15.55662432702591
 30
0.0
 11
34.01999999999998
 21
16.99999999999995
 31
0.0
  0
LINE
  5
9FD
330
9E1
100
AcDbEntity
  8
LW 3000-STADIP-01
100
AcDbLine
 10
39.01999999999998
 20
16.99999999999995
 30
0.0
 11
36.51999999999998
 21
15.55662432702591
 31
0.0
  0
LINE
  5
9FE
330
9E1
100
AcDbEntity
  8
LW 3000-STADIP-01
100
AcDbLine
 10
39.01999999999998
 20
22.99999999999998
 30
0.0
 11
39.01999999999998
 21
16.99999999999995
 31
0.0
  0
LINE
  5
9FF
330
9E1
100
AcDbEntity
  8
LW 3000-STADIP-01
100
AcDbLine
 10
40.31289321881343
 20
22.99999999999996
 30
0.0
 11
39.01999999999998
 21
22.99999999999998
 31
0.0
  0
ARC
  5
A00
330
9E1
100
AcDbEntity
  8
LW 3000-STADIP-01
100
AcDbCircle
 10
40.31289321881343
 20
22.49999999999996
 30
0.0
 40
0.5000000000000085
100
AcDbArc
 50
45.00000000000102
 51
90.0
  0
LINE
  5
A01
330
9E1
100
AcDbEntity
  8
LW 3000-STADIP-01
100
AcDbLine
 10
43.37355339059324
 20
20.14644660940672
 30
0.0
 11
40.6664466094067
 21
22.85355339059325
 31
0.0
  0
ARC
  5
A02
330
9E1
100
AcDbEntity
  8
LW 3000-STADIP-01
100
AcDbCircle
 10
43.01999999999999
 20
19.79289321881343
 30
0.0
 40
0.4999999999999938
100
AcDbArc
 50
0.0
 51
45.00000000000276
  0
LINE
  5
A03
330
9E1
100
AcDbEntity
  8
LW 3000-STADIP-01
100
AcDbLine
 10
24.51999999999998
 20
6.052999999999954
 30
0.0
 11
43.51999999999998
 21
6.052999999999954
 31
0.0
  0
LINE
  5
A04
330
9E1
100
AcDbEntity
  8
LW 3000-STADIP-01
100
AcDbLine
 10
21.02529882059519
 20
-0.0000000000000284
 30
0.0
 11
24.51999999999998
 21
6.052999999999954
 31
0.0
  0
LINE
  5
A05
330
9E1
100
AcDbEntity
  8
LW 3000-STADIP-01
100
AcDbLine
 10
24.51999999999998
 20
-6.053000000000011
 30
0.0
 11
21.02529882059519
 21
-0.0000000000000284
 31
0.0
  0
LINE
  5
A06
330
9E1
100
AcDbEntity
  8
LW 3000-STADIP-01
100
AcDbLine
 10
43.51999999999998
 20
-6.053000000000011
 30
0.0
 11
24.51999999999998
 21
-6.053000000000011
 31
0.0
  0
LINE
  5
A07
330
9E1
100
AcDbEntity
  8
LW 3000-STADIP-01
100
AcDbLine
 10
43.51999999999998
 20
-19.79289321881349
 30
0.0
 11
43.51999999999999
 21
19.79289321881343
 31
0.0
  0
ARC
  5
A08
330
9E1
100
AcDbEntity
  8
LW 3000-STADIP-01
100
AcDbCircle
 10
43.01999999999999
 20
-19.79289321881349
 30
0.0
 40
0.4999999999999944
100
AcDbArc
 50
314.9999999999995
 51
0.0
  0
LINE
  5
A09
330
9E1
100
AcDbEntity
  8
LW 3000-STADIP-01
100
AcDbLine
 10
40.6664466094067
 20
-22.85355339059329
 30
0.0
 11
43.37355339059324
 21
-20.14644660940674
 31
0.0
  0
ARC
  5
A0A
330
9E1
100
AcDbEntity
  8
LW 3000-STADIP-01
100
AcDbCircle
 10
40.31289321881343
 20
-22.50000000000004
 30
0.0
 40
0.5000000000000071
100
AcDbArc
 50
270.0
 51
315.0000000000001
  0
LINE
  5
A0B
330
9E1
100
AcDbEntity
  8
LW 3000-STADIP-01
100
AcDbLine
 10
27.51999999999998
 20
-23.00000000000004
 30
0.0
 11
40.31289321881343
 21
-23.00000000000004
 31
0.0
  0
LINE
  5
A0C
330
9E1
100
AcDbEntity
  8
LW 3000-STADIP-01
100
AcDbLine
 10
27.51999999999998
 20
-22.00000000000001
 30
0.0
 11
27.51999999999998
 21
-23.00000000000004
 31
0.0
  0
LINE
  5
A0D
330
9E1
100
AcDbEntity
  8
LW 3000-STADIP-01
100
AcDbLine
 10
25.51999999999998
 20
-22.00000000000001
 30
0.0
 11
27.51999999999998
 21
-22.00000000000001
 31
0.0
  0
LINE
  5
A0E
330
9E1
100
AcDbEntity
  8
LW 3000-STADIP-01
100
AcDbLine
 10
25.51999999999998
 20
-11.00000000000001
 30
0.0
 11
25.51999999999998
 21
-22.00000000000001
 31
0.0
  0
LINE
  5
A0F
330
9E1
100
AcDbEntity
  8
LW 3000-STADIP-01
100
AcDbLine
 10
5.0
 20
-11.00000000000001
 30
0.0
 11
25.51999999999998
 21
-11.00000000000001
 31
0.0
  0
LINE
  5
A10
330
9E1
100
AcDbEntity
  8
LW 3000-STADIP-01
100
AcDbLine
 10
-0.0000000000000142
 20
-16.00000000000001
 30
0.0
 11
5.0
 21
-11.00000000000001
 31
0.0
  0
LINE
  5
A11
330
9E1
100
AcDbEntity
  8
LW 3000-STADIP-01
100
AcDbLine
 10
3.999999999999985
 20
-8.500000000000014
 30
0.0
 11
0.0
 21
-8.500000000000014
 31
0.0
  0
LINE
  5
A12
330
9E1
100
AcDbEntity
  8
LW 3000-STADIP-01
100
AcDbLine
 10
4.866025403784433
 20
-7.000000000000014
 30
0.0
 11
4.0
 21
-8.500000000000042
 31
0.0
  0
LINE
  5
A13
330
9E1
100
AcDbEntity
  8
LW 3000-STADIP-01
100
AcDbLine
 10
4.0
 20
-5.500000000000014
 30
0.0
 11
4.866025403784433
 21
-7.000000000000014
 31
0.0
  0
LINE
  5
A14
330
9E1
100
AcDbEntity
  8
LW 3000-STADIP-01
  6
MITTE2
 62
     3
100
AcDbLine
 10
36.51999999999998
 20
12.63029283982406
 30
0.0
 11
36.51999999999998
 21
25.14953494527482
 31
0.0
  0
LINE
  5
A15
330
9E1
100
AcDbEntity
  8
LW 3000-STADIP-01
  6
MITTE2
 62
     3
100
AcDbLine
 10
45.93947717894095
 20
-0.0000000000000284
 30
0.0
 11
-3.154117270599046
 21
-0.0000000000000284
 31
0.0
  0
LINE
  5
A16
330
9E1
100
AcDbEntity
  8
LW 3000-STADIP-01
  6
MITTE2
 62
     3
100
AcDbLine
 10
6.466010717671451
 20
6.999999999999957
 30
0.0
 11
-2.314777409360431
 21
6.999999999999957
 31
0.0
  0
LINE
  5
A17
330
9E1
100
AcDbEntity
  8
LW 3000-STADIP-01
  6
MITTE2
 62
     3
100
AcDbLine
 10
6.466010717671451
 20
-7.000000000000014
 30
0.0
 11
-2.314777409360431
 21
-7.000000000000014
 31
0.0
  0
INSERT
  5
A18
330
9E1
100
AcDbEntity
  8
insertpoint_ECKELT
100
AcDbBlockReference
 66
     1
  2
insertpoint-ECKELT
 10
0.0
 20
0.0
 30
0.0
  0
ATTRIB
  5
A19
330
A18
100
AcDbEntity
  8
insertpoint_ECKELT
100
AcDbText
 10
-6.931514324693044
 20
-0.0000000000000284
 30
0.0
 40
0.6
  1
LW 3000/24-01
 72
     2
 11
-1.200000000000002
 21
-0.0000000000000284
 31
0.0
100
AcDbAttribute
  2
LINKS
 70
     0
  0
ATTRIB
  5
A1A
330
A18
100
AcDbEntity
  8
insertpoint_ECKELT
100
AcDbText
 10
1.199999999999995
 20
-0.0000000000000284
 30
0.0
 40
0.6
  1

100
AcDbAttribute
  2
RECHTS
 70
     0
  0
SEQEND
  5
A1B
330
A18
100
AcDbEntity
  8
insertpoint_ECKELT
  0
HATCH
  5
A1C
330
9E1
100
AcDbEntity
  8
LW 3000-STADIP-01
 62
     1
100
AcDbHatch
 10
0.0
 20
0.0
 30
0.0
210
0.0
220
0.0
230
1.0
  2
SOLID
 70
     1
 71
     0
 91
        5
 92
        7
 72
     0
 73
     1
 93
       76
 10
29.5960015050775
 20
-18.08856979069735
 10
29.62786033445032
 20
-18.03698882885565
 10
29.74601845868161
 20
-17.88574642983961
 10
29.88049653389437
 20
-17.74532229957712
 10
30.02651644035582
 20
-17.61693773786378
 10
30.19018523643782
 20
-17.50003145494808
 10
30.36557218980256
 20
-17.39785357312637
 10
30.54732512240288
 20
-17.30650189354354
 10
30.72849405786862
 20
-17.23698358109736
 10
28.47135611966855
 20
-17.23698358109736
 10
28.25845956726859
 20
-17.24567323629735
 10
28.0564250838686
 20
-17.27174220189737
 10
27.86090784186861
 20
-17.31301806409736
 10
27.67625266886871
 20
-17.36732840909734
 10
27.50028715106858
 20
-17.43684565069735
 10
27.33301128846866
 20
-17.5193973750974
 10
27.18244302592173
 20
-17.61472289264126
 10
27.03973542546869
 20
-17.72143185849738
 10
26.91429416989804
 20
-17.84048013473743
 10
26.80302921782062
 20
-17.96873944548933
 10
26.70301128646868
 20
-18.10594910109732
 10
26.62045956206863
 20
-18.25150082569733
 10
26.55745956186861
 20
-18.4057422054975
 10
26.50749404446869
 20
-18.56650082669726
 10
26.47925266506867
 20
-18.73160427549736
 10
26.47056300986863
 20
-18.90539737949733
 10
26.48142507886867
 20
-19.07919048349741
 10
26.51183887206862
 20
-19.24646634609739
 10
26.56614921706866
 20
-19.40722496729738
 10
26.63566645866861
 20
-19.56363876089737
 10
26.72473542446871
 20
-19.71136289929744
 10
26.83118370066861
 20
-19.85256979629734
 10
26.95388163209266
 20
-19.98378358981738
 10
27.09008068080085
 20
-20.10491738330534
 10
27.23742508126863
 20
-20.21536290089738
 10
27.39818370246867
 20
-20.31312152189734
 10
27.57381032371588
 20
-20.39801945320134
 10
27.7544595656686
 20
-20.47170772929733
 10
27.94563198006871
 20
-20.52819048809737
 10
28.14549404966864
 20
-20.57163876409736
 10
28.35404577446862
 20
-20.59770772969738
 10
28.56476991306859
 20
-20.60639738489737
 10
30.6839409988212
 20
-20.60639738489737
 10
30.5233971347687
 20
-20.54332658116248
 10
30.33983299096629
 20
-20.45270630763973
 10
30.17136658479622
 20
-20.3481766147081
 10
30.00853369003547
 20
-20.23255837628266
 10
29.86462132166527
 20
-20.10276877974279
 10
29.73718542818092
 20
-19.96341509651431
 10
29.62348007343759
 20
-19.81292685180169
 10
29.571508841989
 20
-19.72874220969736
 10
28.54304577506862
 20
-19.72874220969736
 10
28.41093694706304
 20
-19.72118220967336
 10
28.28018370526861
 20
-19.70084841650536
 10
28.15201129106869
 20
-19.66791462329739
 10
28.03687335966863
 20
-19.62229393349734
 10
27.93192839381824
 20
-19.56581117469737
 10
27.83377873833423
 20
-19.49820565724137
 10
27.74359749666867
 20
-19.42025945009736
 10
27.67190784126866
 20
-19.33553531189737
 10
29.39942915552747
 20
-19.33553531189737
 10
29.38884468825445
 20
-19.30289987113905
 10
29.35273288028999
 20
-19.11752592358793
 10
29.34068922750829
 20
-18.9272362096372
 10
29.35271089993764
 20
-18.73248511628223
 10
29.38901662161296
 20
-18.54611574501568
 10
29.40561532428804
 20
-18.49698358509737
 10
27.63497680666866
 20
-18.49698358509737
 10
27.70449404826861
 20
-18.40139737789745
 10
27.78704577266861
 20
-18.31884565349735
 10
27.88213666952221
 20
-18.24898082568937
 10
27.98473542846866
 20
-18.19067323929736
 10
28.10342742884542
 20
-18.1467035839854
 10
28.22587336026869
 20
-18.11463875629737
 10
28.36273542966866
 20
-18.09508703209739
 10
28.50611474046868
 20
-18.08856979069735
 97
        0
 92
        7
 72
     0
 73
     1
 93
       72
 10
31.32446537010544
 20
-18.10316841143337
 10
31.44732840497825
 20
-18.08509392861735
 10
31.57139061226867
 20
-18.07988013549736
 10
32.84008027146867
 20
-18.07988013549736
 10
31.99283888946862
 20
-18.89453531049734
 10
33.75901130886866
 20
-20.61291462629736
 10
35.07766648546864
 20
-20.61291462629736
 10
33.36363199726863
 20
-18.87063875869738
 10
35.04508027846863
 20
-17.23698358109736
 10
31.60614923306873
 20
-17.23698358109736
 10
31.39816233585658
 20
-17.24775875354537
 10
31.19144412830379
 20
-17.27321944328138
 10
30.98701130006869
 20
-17.31301806409736
 10
30.79366647186863
 20
-17.36950082289739
 10
30.60683888506863
 20
-17.44119047829734
 10
30.43567874659415
 20
-17.52721806477739
 10
30.27011474606867
 20
-17.62367323749741
 10
30.11804578006867
 20
-17.73229392749736
 10
29.9823481244655
 20
-17.85160289339335
 10
29.85735612406866
 20
-17.98212151449739
 10
29.74873543406859
 20
-18.12115599769741
 10
29.65749405446867
 20
-18.26888013609725
 10
29.58580439906866
 20
-18.4231215158973
 10
29.53149405406863
 20
-18.58388013709735
 10
29.49890784706868
 20
-18.75115599969733
 10
29.48804577806864
 20
-18.92712151749747
 10
29.49890784706862
 20
-19.09874220769738
 10
29.53149405406863
 20
-19.26601807029736
 10
29.58363198526861
 20
-19.42677669149735
 10
29.65314922686862
 20
-19.58101807129735
 10
29.74499019267741
 20
-19.72978496832131
 10
29.85036964128786
 20
-19.86925393428144
 10
29.96837515890384
 20
-19.99829531400131
 10
30.10066646966864
 20
-20.11760427989735
 10
30.25278757359986
 20
-20.22561669403341
 10
30.41132164306869
 20
-20.32398359089738
 10
30.58294233326866
 20
-20.40870772909737
 10
30.76542509246862
 20
-20.48039738449738
 10
30.95965626549908
 20
-20.53444703984137
 10
31.15645957646861
 20
-20.57815600549735
 10
31.3650113012687
 20
-20.60422497109737
 10
31.57573543986861
 20
-20.61291462629736
 10
33.47876992866863
 20
-20.61291462629736
 10
32.59242509826864
 20
-19.73960427869734
 10
31.57573543986861
 20
-19.73960427869734
 10
31.50906840517412
 20
-19.73585698575805
 10
31.40812068071587
 20
-19.72587462348137
 10
31.28798619757585
 20
-19.70441117513739
 10
31.17086702479027
 20
-19.67008703709739
 10
31.06937185205426
 20
-19.62915876110536
 10
31.0132366794622
 20
-19.60100427825732
 10
30.95955198963658
 20
-19.56841807125731
 10
30.82699129956065
 20
-19.46909531232136
 10
30.75338992001663
 20
-19.39905669140937
 10
30.69832357501436
 20
-19.33119048429744
 10
30.64961805761824
 20
-19.25863186337737
 10
30.6102539195622
 20
-19.18146772520138
 10
30.58083074705503
 20
-19.10004565597744
 10
30.56013198836861
 20
-19.01288841432135
 10
30.55261543662063
 20
-18.92355875886544
 10
30.55397102283185
 20
-18.86125393108141
 10
30.55997557457506
 20
-18.7991228964015
 10
30.57213240219984
 20
-18.73594910309735
 10
30.59034591949906
 20
-18.67425255117739
 10
30.63399405756861
 20
-18.57553806810544
 10
30.67552191976945
 20
-18.50767186099339
 10
30.73860012686625
 20
-18.42963875729735
 10
30.86800206723105
 20
-18.30311602024373
 10
30.92726992056869
 20
-18.26305806711336
 10
31.00356509322462
 20
-18.21874082559343
 10
31.08758536935342
 20
-18.17659599787338
 10
31.2041223352406
 20
-18.13375599773739
 97
        0
 92
        7
 72
     0
 73
     1
 93
       57
 10
35.88250235009271
 20
-18.12524013564136
 10
36.01397683326867
 20
-18.08526772172136
 10
36.14866648886859
 20
-18.05815599749734
 10
36.29204579966855
 20
-18.04946634229735
 10
37.53249407946864
 20
-18.04946634229735
 10
37.53249407946864
 20
-17.22394909829738
 10
36.2985630410687
 20
-17.22394909829738
 10
36.08783890246868
 20
-17.23263875349737
 10
35.8814595914687
 20
-17.26088013289732
 10
35.68376993566871
 20
-17.30215599509732
 10
35.4947699350687
 20
-17.35646634009735
 10
35.31011476206875
 20
-17.42815599549736
 10
35.14370786498849
 20
-17.51079461644939
 10
34.98488703689818
 20
-17.60724978916941
 10
34.83480800193907
 20
-17.71673944468936
 10
34.70024869116715
 20
-17.83596151403331
 10
34.5801837252687
 20
-17.96474220409736
 10
34.47590786286868
 20
-18.10377668729738
 10
34.39118372466864
 20
-18.24932841189739
 10
34.31949406926863
 20
-18.40356979169739
 10
34.26952855186865
 20
-18.56432841289727
 10
34.23694234486864
 20
-18.7316042754973
 10
34.22608027586865
 20
-18.90539737949733
 10
34.23694234486864
 20
-19.07919048349736
 10
34.26952855186865
 20
-19.24646634609739
 10
34.32166648306863
 20
-19.40722496729738
 10
34.39335613846863
 20
-19.56363876089737
 10
34.48025269046868
 20
-19.71136289929738
 10
34.5890993115038
 20
-19.85091876180938
 10
34.70895572567743
 20
-19.98126358980936
 10
34.84538331231745
 20
-20.10257117640138
 10
34.99294234726865
 20
-20.21319048709738
 10
35.15370096846864
 20
-20.3109491080974
 10
35.32749407246861
 20
-20.39567324629739
 10
35.51214924546862
 20
-20.46953531549734
 10
35.70332165986868
 20
-20.52601807429737
 10
35.90318372946861
 20
-20.56946635029736
 10
36.10956304046864
 20
-20.59336290209738
 10
36.32245959286867
 20
-20.60205255729737
 10
37.53249407946864
 20
-20.60205255729737
 10
37.53249407946864
 20
-19.74394910629739
 10
36.29856304106859
 20
-19.74394910629739
 10
36.16491614409263
 20
-19.73360841660938
 10
36.03265959194864
 20
-19.71162358895337
 10
35.91204717777266
 20
-19.67729945091337
 10
35.79604028085267
 20
-19.62933255420937
 10
35.68637683222865
 20
-19.56841807125737
 10
35.58931338364466
 20
-19.50081255380137
 10
35.50189545233265
 20
-19.42104151906538
 10
35.42742510726863
 20
-19.33553531189737
 10
37.53249407946864
 20
-19.33553531189737
 10
37.53249407946864
 20
-18.50784565409735
 10
35.39049407266863
 20
-18.50784565409735
 10
35.46001131426864
 20
-18.41008703309738
 10
35.54690786626857
 20
-18.3210180672974
 10
35.64805545279667
 20
-18.24472289464135
 10
35.75545959106866
 20
-18.17763875649738
 97
        0
 92
        7
 72
     0
 73
     1
 93
        6
 10
37.76276994226864
 20
-17.23698358109736
 10
37.76276994226864
 20
-20.60639738489737
 10
40.00035615626866
 20
-20.60639738489737
 10
40.00035615626866
 20
-19.73960427869734
 10
38.78597684206865
 20
-19.73960427869734
 10
38.78597684206865
 20
-17.23698358109736
 97
        0
 92
        7
 72
     0
 73
     1
 93
        8
 10
39.01842511866865
 20
-17.23698358109736
 10
39.01842511866865
 20
-18.06250082509739
 10
40.25235615706863
 20
-18.06250082509739
 10
40.25235615706863
 20
-20.61291462629736
 10
41.27773547066865
 20
-20.61291462629736
 10
41.27773547066865
 20
-18.06250082509739
 10
42.52035616426868
 20
-18.06250082509739
 10
42.52035616426868
 20
-17.23698358109736
 97
        0
 75
     0
 76
     1
 47
0.0142553043587597
 98
        5
 10
28.90566163114387
 20
-17.67943325068647
 10
31.17315884448642
 20
-17.82198623569228
 10
35.66537057668798
 20
-17.76496506314457
 10
38.38921966051954
 20
-17.5226248384523
 10
39.80105764274642
 20
-17.62241197086563
450
        0
451
        0
460
0.0
461
0.0
452
        0
462
0.0
453
        0
470

  0
HATCH
  5
A1D
330
9E1
100
AcDbEntity
  8
LW 3000-STADIP-01
 62
     8
100
AcDbHatch
 10
0.0
 20
0.0
 30
0.0
210
0.0
220
0.0
230
1.0
  2
ANSI31
 70
     0
 71
     0
 91
        9
 92
        7
 72
     1
 73
     1
 93
       27
 10
43.51999999999999
 20
19.79289321881343
 42
0.19891236737966
 10
43.37355339059326
 20
20.1464466094067
 42
0.0
 10
40.6664466094067
 20
22.85355339059325
 42
0.1989123673796355
 10
40.31289321881344
 20
22.99999999999996
 42
0.0
 10
39.01999999999998
 20
22.99999999999998
 42
0.0
 10
39.01999999999998
 20
16.99999999999995
 42
0.0
 10
36.51999999999999
 20
15.55662432702591
 42
0.0
 10
34.01999999999998
 20
16.99999999999995
 42
0.0
 10
34.01999999999998
 20
22.99999999999998
 42
0.0
 10
27.51999999999998
 20
22.99999999999999
 42
0.0
 10
27.51999999999998
 20
21.99999999999996
 42
0.0
 10
25.51999999999998
 20
21.99999999999996
 42
0.0
 10
25.51999999999998
 20
10.99999999999998
 42
0.0
 10
4.999999999999979
 20
10.99999999999998
 42
0.0
 10
0.0
 20
15.99999999999998
 42
0.0
 10
0.0
 20
8.499999999999985
 42
0.0
 10
4.0
 20
8.499999999999985
 42
0.0
 10
4.866025403784431
 20
6.999999999999964
 42
0.0
 10
4.0
 20
5.499999999999992
 42
0.0
 10
0.0
 20
5.499999999999985
 42
0.0
 10
0.0
 20
1.200000000000002
 42
-0.4142135623731028
 10
1.199999999999999
 20
-0.0000000000000284
 42
0.0
 10
21.02529882059519
 20
-0.0000000000000284
 42
0.0
 10
24.51999999999999
 20
6.052999999999954
 42
0.0
 10
26.51999999999998
 20
6.052999999999947
 42
0.0
 10
26.51999999999998
 20
6.999999999999985
 42
0.0
 10
43.51999999999999
 20
6.999999999999985
 42
0.0
 97
        0
 92
       23
 72
     0
 73
     1
 93
        4
 10
43.51999999999997
 20
6.999999999999985
 10
26.51999999999999
 20
6.999999999999978
 10
26.51999999999998
 20
6.052999999999968
 10
43.51999999999998
 20
6.052999999999954
 97
        0
 92
       23
 72
     0
 73
     1
 93
        4
 10
43.51999999999998
 20
-6.052999999999997
 10
26.51999999999998
 20
-6.053000000000011
 10
26.51999999999998
 20
-7.000000000000014
 10
43.51999999999999
 20
-7.000000000000014
 97
        0
 92
        7
 72
     1
 73
     1
 93
       23
 10
43.51999999999998
 20
-7.000000000000014
 42
0.0
 10
26.51999999999998
 20
-7.000000000000014
 42
0.0
 10
26.51999999999998
 20
-6.053000000000011
 42
0.0
 10
24.51999999999998
 20
-6.053000000000011
 42
0.0
 10
21.02529882059519
 20
-0.0000000000000284
 42
0.0
 10
1.199999999999999
 20
-0.0000000000000284
 42
-0.4142135623730888
 10
0.0
 20
-1.200000000000002
 42
0.0
 10
0.0
 20
-1.799999999999997
 42
0.0
 10
0.0
 20
-5.500000000000042
 42
0.0
 10
4.000000000000019
 20
-5.500000000000056
 42
0.0
 10
4.866025403784433
 20
-7.000000000000028
 42
0.0
 10
4.000000000000014
 20
-8.500000000000014
 42
0.0
 10
0.0
 20
-8.500000000000014
 42
0.0
 10
0.0
 20
-16.0
 42
0.0
 10
5.000000000000005
 20
-11.00000000000003
 42
0.0
 10
25.51999999999998
 20
-11.00000000000001
 42
0.0
 10
25.51999999999999
 20
-22.00000000000001
 42
0.0
 10
27.51999999999998
 20
-22.00000000000001
 42
0.0
 10
27.51999999999998
 20
-23.00000000000004
 42
0.0
 10
40.31289321881343
 20
-23.00000000000004
 42
0.1989123673796576
 10
40.6664466094067
 20
-22.85355339059329
 42
0.0
 10
43.37355339059324
 20
-20.14644660940674
 42
0.1989123673796705
 10
43.51999999999998
 20
-19.79289321881345
 42
0.0
 97
        0
 92
       22
 72
     0
 73
     1
 93
       73
 10
35.04508027846863
 20
-17.23698358109736
 10
33.36363199726862
 20
-18.87063875869737
 10
35.07766648546866
 20
-20.61291462629734
 10
33.75901130886866
 20
-20.61291462629734
 10
31.99283888946862
 20
-18.89453531049734
 10
32.84008027146867
 20
-18.07988013549736
 10
31.57139061226875
 20
-18.07988013549737
 10
31.44732840497832
 20
-18.08509392861735
 10
31.32446537010531
 20
-18.1031684114334
 10
31.20412233524071
 20
-18.13375599773737
 10
31.08758536935333
 20
-18.1765959978734
 10
31.00356509322478
 20
-18.21874082559336
 10
30.92726992056871
 20
-18.26305806711335
 10
30.88702812733745
 20
-18.29025668788941
 10
30.84951488583912
 20
-18.32119186040128
 10
30.73860012686623
 20
-18.42963875729732
 10
30.67552191976943
 20
-18.50767186099347
 10
30.63399405756863
 20
-18.57553806810526
 10
30.59034591949902
 20
-18.67425255117743
 10
30.57213240219985
 20
-18.73594910309735
 10
30.55997557457506
 20
-18.79912289640136
 10
30.55397102283184
 20
-18.86125393108138
 10
30.55261543662063
 20
-18.9235587588654
 10
30.56013198836867
 20
-19.01288841432135
 10
30.58083074705504
 20
-19.10004565597737
 10
30.61025391956226
 20
-19.18146772520143
 10
30.64961805761825
 20
-19.25863186337739
 10
30.69832357501426
 20
-19.33119048429744
 10
30.75338992001665
 20
-19.39905669140938
 10
30.82699129956062
 20
-19.46909531232133
 10
30.95955198963668
 20
-19.56841807125745
 10
31.01323667946232
 20
-19.6010042782574
 10
31.06937185205421
 20
-19.62915876110534
 10
31.17086702479034
 20
-19.67008703709736
 10
31.28798619757569
 20
-19.70441117513732
 10
31.40812068071559
 20
-19.72587462348134
 10
31.50906840517415
 20
-19.73585698575806
 10
31.57573543986873
 20
-19.73960427869734
 10
32.59242509826863
 20
-19.73960427869733
 10
33.47876992866863
 20
-20.61291462629734
 10
31.57573543986896
 20
-20.61291462629738
 10
31.36501130126864
 20
-20.60422497109737
 10
31.15645957646856
 20
-20.57815600549734
 10
30.95965626549908
 20
-20.53444703984137
 10
30.7654250924687
 20
-20.48039738449738
 10
30.58294233326873
 20
-20.40870772909741
 10
30.41132164306864
 20
-20.32398359089741
 10
30.25278757359971
 20
-20.22561669403321
 10
30.10066646966872
 20
-20.11760427989742
 10
29.96837515890383
 20
-19.99829531400135
 10
29.85036964128793
 20
-19.86925393428149
 10
29.74499019267747
 20
-19.72978496832135
 10
29.65314922686863
 20
-19.58101807129736
 10
29.5836319852686
 20
-19.42677669149731
 10
29.53149405406863
 20
-19.26601807029736
 10
29.49890784706862
 20
-19.09874220769738
 10
29.48804577806864
 20
-18.92712151749738
 10
29.49890784706862
 20
-18.75115599969742
 10
29.53149405406863
 20
-18.58388013709732
 10
29.58580439906865
 20
-18.42312151589739
 10
29.65749405446861
 20
-18.26888013609744
 10
29.74873543406863
 20
-18.12115599769741
 10
29.8573561240687
 20
-17.98212151449743
 10
29.9823481244655
 20
-17.85160289339336
 10
30.1180457800687
 20
-17.73229392749733
 10
30.27011474606866
 20
-17.62367323749731
 10
30.43567874659435
 20
-17.52721806477737
 10
30.60683888506857
 20
-17.44119047829743
 10
30.79366647186869
 20
-17.36950082289741
 10
30.9870113000686
 20
-17.31301806409736
 10
31.19144412830373
 20
-17.27321944328138
 10
31.39816233585651
 20
-17.24775875354538
 10
31.60614923306861
 20
-17.23698358109736
 97
        0
 92
       22
 72
     0
 73
     1
 93
       76
 10
30.72849405786867
 20
-17.23698358109735
 10
30.54732512240279
 20
-17.30650189354357
 10
30.36557218980256
 20
-17.3978535731263
 10
30.1901852364378
 20
-17.5000314549481
 10
30.02651644035578
 20
-17.61693773786378
 10
29.88049653389442
 20
-17.74532229957708
 10
29.74601845868151
 20
-17.8857464298397
 10
29.62786033445033
 20
-18.03698882885555
 10
29.5960015050775
 20
-18.08856979069736
 10
28.50611474046858
 20
-18.08856979069736
 10
28.36273542966854
 20
-18.09508703209735
 10
28.22587336026853
 20
-18.11463875629735
 10
28.10342742884551
 20
-18.14670358398538
 10
27.98473542846867
 20
-18.19067323929734
 10
27.88213666952233
 20
-18.24898082568939
 10
27.78704577266867
 20
-18.31884565349738
 10
27.70449404826857
 20
-18.40139737789737
 10
27.63497680666866
 20
-18.49698358509737
 10
29.40561532428804
 20
-18.49698358509737
 10
29.38901662161294
 20
-18.5461157450157
 10
29.35271089993764
 20
-18.73248511628226
 10
29.34068922750835
 20
-18.92723620963717
 10
29.35273288028999
 20
-19.11752592358799
 10
29.38884468825452
 20
-19.30289987113903
 10
29.39942915552747
 20
-19.33553531189737
 10
27.67190784126866
 20
-19.33553531189737
 10
27.74359749666865
 20
-19.42025945009733
 10
27.83377873833421
 20
-19.49820565724136
 10
27.93192839381826
 20
-19.56581117469738
 10
28.03687335966857
 20
-19.62229393349732
 10
28.15201129106878
 20
-19.66791462329743
 10
28.28018370526851
 20
-19.70084841650538
 10
28.41093694706294
 20
-19.72118220967336
 10
28.54304577506839
 20
-19.72874220969736
 10
29.57150884198901
 20
-19.72874220969737
 10
29.62348007343754
 20
-19.81292685180153
 10
29.73718542818086
 20
-19.96341509651428
 10
29.86462132166524
 20
-20.10276877974272
 10
30.00853369003549
 20
-20.23255837628261
 10
30.17136658479604
 20
-20.34817661470804
 10
30.33983299096626
 20
-20.45270630763972
 10
30.52339713476856
 20
-20.54332658116241
 10
30.68394099882119
 20
-20.60639738489737
 10
28.56476991306884
 20
-20.60639738489737
 10
28.35404577446852
 20
-20.59770772969735
 10
28.14549404966863
 20
-20.57163876409736
 10
27.94563198006857
 20
-20.52819048809732
 10
27.75445956566859
 20
-20.47170772929737
 10
27.57381032371575
 20
-20.39801945320127
 10
27.3981837024686
 20
-20.31312152189736
 10
27.23742508126858
 20
-20.21536290089736
 10
27.0900806808009
 20
-20.10491738330541
 10
26.95388163209274
 20
-19.98378358981746
 10
26.83118370066866
 20
-19.85256979629731
 10
26.72473542446865
 20
-19.71136289929741
 10
26.63566645866868
 20
-19.5636387608974
 10
26.56614921706864
 20
-19.40722496729734
 10
26.51183887206862
 20
-19.24646634609736
 10
26.48142507886867
 20
-19.07919048349731
 10
26.47056300986863
 20
-18.90539737949737
 10
26.47925266506862
 20
-18.73160427549734
 10
26.50749404446863
 20
-18.56650082669739
 10
26.55745956186862
 20
-18.40574220549749
 10
26.62045956206867
 20
-18.25150082569738
 10
26.70301128646862
 20
-18.10594910109735
 10
26.80302921782054
 20
-17.96873944548936
 10
26.91429416989809
 20
-17.84048013473736
 10
27.03973542546855
 20
-17.72143185849744
 10
27.18244302592188
 20
-17.61472289264139
 10
27.3330112884687
 20
-17.51939737509738
 10
27.50028715106857
 20
-17.43684565069741
 10
27.67625266886867
 20
-17.36732840909734
 10
27.86090784186866
 20
-17.31301806409738
 10
28.05642508386878
 20
-17.27174220189735
 10
28.25845956726866
 20
-17.24567323629736
 10
28.47135611966919
 20
-17.23698358109736
 97
        0
 92
       22
 72
     0
 73
     1
 93
       57
 10
35.14370786498866
 20
-17.5107946164494
 10
35.31011476206865
 20
-17.42815599549733
 10
35.49476993506877
 20
-17.35646634009734
 10
35.68376993566879
 20
-17.30215599509733
 10
35.88145959146873
 20
-17.26088013289732
 10
36.08783890246852
 20
-17.23263875349737
 10
36.29856304106878
 20
-17.22394909829738
 10
37.53249407946863
 20
-17.22394909829738
 10
37.53249407946863
 20
-18.04946634229733
 10
36.29204579966865
 20
-18.04946634229736
 10
36.14866648886866
 20
-18.05815599749734
 10
36.01397683326859
 20
-18.08526772172141
 10
35.88250235009282
 20
-18.12524013564128
 10
35.75545959106858
 20
-18.17763875649741
 10
35.64805545279676
 20
-18.24472289464135
 10
35.54690786626858
 20
-18.32101806729733
 10
35.46001131426865
 20
-18.41008703309744
 10
35.39049407266863
 20
-18.50784565409735
 10
37.53249407946864
 20
-18.50784565409734
 10
37.53249407946864
 20
-19.33553531189737
 10
35.42742510726864
 20
-19.33553531189737
 10
35.50189545233264
 20
-19.42104151906538
 10
35.58931338364468
 20
-19.50081255380138
 10
35.68637683222859
 20
-19.56841807125731
 10
35.79604028085261
 20
-19.62933255420941
 10
35.91204717777269
 20
-19.67729945091337
 10
36.03265959194869
 20
-19.7116235889534
 10
36.16491614409283
 20
-19.73360841660941
 10
36.29856304106872
 20
-19.74394910629738
 10
37.53249407946864
 20
-19.74394910629739
 10
37.53249407946864
 20
-20.60205255729737
 10
36.32245959286895
 20
-20.60205255729737
 10
36.10956304046882
 20
-20.59336290209741
 10
35.90318372946863
 20
-20.56946635029735
 10
35.70332165986864
 20
-20.52601807429736
 10
35.51214924546868
 20
-20.46953531549734
 10
35.32749407246857
 20
-20.39567324629735
 10
35.15370096846865
 20
-20.31094910809742
 10
34.99294234726872
 20
-20.21319048709746
 10
34.84538331231741
 20
-20.10257117640136
 10
34.70895572567743
 20
-19.98126358980934
 10
34.58909931150387
 20
-19.85091876180937
 10
34.48025269046861
 20
-19.71136289929734
 10
34.39335613846861
 20
-19.5636387608973
 10
34.32166648306863
 20
-19.40722496729738
 10
34.26952855186865
 20
-19.24646634609738
 10
34.23694234486863
 20
-19.07919048349734
 10
34.22608027586865
 20
-18.90539737949739
 10
34.23694234486865
 20
-18.73160427549732
 10
34.26952855186862
 20
-18.56432841289739
 10
34.31949406926867
 20
-18.40356979169736
 10
34.39118372466857
 20
-18.24932841189736
 10
34.47590786286863
 20
-18.10377668729742
 10
34.58018372526856
 20
-17.96474220409742
 10
34.70024869116705
 20
-17.8359615140333
 10
34.83480800193908
 20
-17.71673944468935
 10
34.98488703689837
 20
-17.60724978916927
 97
        0
 92
       22
 72
     0
 73
     1
 93
        6
 10
37.76276994226863
 20
-17.23698358109735
 10
38.78597684206865
 20
-17.23698358109735
 10
38.78597684206866
 20
-19.73960427869734
 10
40.00035615626866
 20
-19.73960427869736
 10
40.00035615626866
 20
-20.60639738489737
 10
37.76276994226864
 20
-20.60639738489737
 97
        0
 92
       22
 72
     0
 73
     1
 93
        8
 10
39.01842511866865
 20
-17.23698358109738
 10
42.52035616426868
 20
-17.23698358109736
 10
42.52035616426868
 20
-18.06250082509739
 10
41.27773547066865
 20
-18.06250082509739
 10
41.27773547066865
 20
-20.61291462629736
 10
40.25235615706863
 20
-20.61291462629736
 10
40.25235615706862
 20
-18.06250082509739
 10
39.01842511866864
 20
-18.06250082509739
 97
        0
 75
     0
 76
     1
 52
0.0
 41
0.75
 77
     0
 78
     1
 53
45.0
 43
-0.0000000000000142
 44
58.67039640298227
 45
-1.683798022700465
 46
1.683798022700466
 79
     0
 47
0.1209188134341129
 98
        9
 10
32.60107642873443
 20
10.54947494327744
 10
32.23808578676908
 20
6.559154118279835
 10
31.75409846388728
 20
-6.500077785256024
 10
31.75409846388728
 20
-10.97407389931337
 10
31.75409846388728
 20
-10.97407389931337
 10
31.75409846388728
 20
-10.97407389931337
 10
31.75409846388728
 20
-10.97407389931337
 10
31.75409846388728
 20
-10.97407389931337
 10
31.75409846388728
 20
-10.97407389931337
1001
ACAD
1010
0.0
1020
0.0
1030
0.0
  0
LWPOLYLINE
  5
A1E
330
9E1
100
AcDbEntity
  8
LW 3000-STADIP-01
 62
     1
100
AcDbPolyline
 90
        8
 70
     1
 43
0.0
 10
41.27773547066865
 20
-18.06250082509739
 10
41.27773547066865
 20
-20.61291462629736
 10
40.25235615706863
 20
-20.61291462629736
 10
40.25235615706863
 20
-18.06250082509739
 10
39.01842511866865
 20
-18.06250082509739
 10
39.01842511866865
 20
-17.23698358109736
 10
42.52035616426868
 20
-17.23698358109736
 10
42.52035616426868
 20
-18.06250082509739
  0
LWPOLYLINE
  5
A1F
330
9E1
100
AcDbEntity
  8
LW 3000-STADIP-01
 62
     1
100
AcDbPolyline
 90
       73
 70
     1
 43
0.0
 10
31.57573543986867
 20
-19.73960427869734
 10
32.59242509826864
 20
-19.73960427869734
 10
33.47876992866863
 20
-20.61291462629736
 10
31.57573543986867
 20
-20.61291462629736
 10
31.36501130126864
 20
-20.60422497109737
 10
31.15645957646866
 20
-20.57815600549735
 10
30.95965626549908
 20
-20.53444703984137
 10
30.76542509246868
 20
-20.48039738449738
 10
30.58294233326866
 20
-20.40870772909737
 10
30.41132164306863
 20
-20.32398359089738
 10
30.25278757359986
 20
-20.22561669403335
 10
30.10066646966864
 20
-20.11760427989735
 10
29.96837515890384
 20
-19.99829531400137
 10
29.85036964128786
 20
-19.86925393428139
 10
29.74499019267746
 20
-19.72978496832137
 10
29.65314922686862
 20
-19.58101807129735
 10
29.58363198526861
 20
-19.42677669149735
 10
29.53149405406863
 20
-19.26601807029736
 10
29.49890784706862
 20
-19.09874220769738
 10
29.48804577806864
 20
-18.92712151749735
 10
29.49890784706862
 20
-18.75115599969739
 10
29.53149405406863
 20
-18.58388013709735
 10
29.58580439906866
 20
-18.42312151589736
 10
29.65749405446862
 20
-18.26888013609736
 10
29.74873543406865
 20
-18.12115599769736
 10
29.85735612406866
 20
-17.98212151449739
 10
29.98234812446545
 20
-17.85160289339335
 10
30.11804578006862
 20
-17.73229392749736
 10
30.27011474606862
 20
-17.62367323749735
 10
30.43567874659427
 20
-17.52721806477739
 10
30.60683888506863
 20
-17.4411904782974
 10
30.79366647186863
 20
-17.36950082289739
 10
30.98701130006863
 20
-17.31301806409736
 10
31.19144412830384
 20
-17.27321944328138
 10
31.39816233585664
 20
-17.24775875354537
 10
31.60614923306862
 20
-17.23698358109736
 10
35.04508027846863
 20
-17.23698358109736
 10
33.36363199726863
 20
-18.87063875869738
 10
35.07766648546864
 20
-20.61291462629736
 10
33.75901130886866
 20
-20.61291462629736
 10
31.99283888946862
 20
-18.89453531049734
 10
32.84008027146867
 20
-18.07988013549736
 10
31.57139061226867
 20
-18.07988013549736
 10
31.44732840497825
 20
-18.08509392861735
 10
31.32446537010544
 20
-18.10316841143337
 10
31.20412233524066
 20
-18.13375599773739
 10
31.08758536935348
 20
-18.17659599787338
 10
31.00356509322462
 20
-18.21874082559337
 10
30.92726992056864
 20
-18.26305806711336
 10
30.88702812733745
 20
-18.29025668788936
 10
30.84951488583904
 20
-18.32119186040135
 10
30.73860012686625
 20
-18.42963875729735
 10
30.67552191976945
 20
-18.50767186099339
 10
30.63399405756861
 20
-18.57553806810539
 10
30.59034591949906
 20
-18.67425255117739
 10
30.57213240219984
 20
-18.73594910309735
 10
30.55997557457506
 20
-18.79912289640138
 10
30.55397102283185
 20
-18.86125393108135
 10
30.55261543662063
 20
-18.92355875886538
 10
30.56013198836867
 20
-19.01288841432135
 10
30.58083074705503
 20
-19.10004565597738
 10
30.61025391956226
 20
-19.18146772520138
 10
30.64961805761824
 20
-19.25863186337737
 10
30.69832357501424
 20
-19.33119048429738
 10
30.75338992001663
 20
-19.39905669140937
 10
30.82699129956065
 20
-19.46909531232136
 10
30.95955198963664
 20
-19.56841807125737
 10
31.01323667946225
 20
-19.60100427825738
 10
31.06937185205426
 20
-19.62915876110536
 10
31.17086702479027
 20
-19.67008703709739
 10
31.28798619757585
 20
-19.70441117513734
 10
31.40812068071587
 20
-19.72587462348137
 10
31.50906840517424
 20
-19.73585698575805
  0
LWPOLYLINE
  5
A20
330
9E1
100
AcDbEntity
  8
LW 3000-STADIP-01
 62
     1
100
AcDbPolyline
 90
       76
 70
     1
 43
0.0
 10
30.36557218980256
 20
-17.39785357312637
 10
30.19018523643776
 20
-17.50003145494808
 10
30.02651644035577
 20
-17.61693773786378
 10
29.88049653389437
 20
-17.74532229957712
 10
29.74601845868155
 20
-17.88574642983967
 10
29.62786033445038
 20
-18.03698882885554
 10
29.5960015050775
 20
-18.08856979069735
 10
28.50611474046862
 20
-18.08856979069735
 10
28.36273542966866
 20
-18.09508703209734
 10
28.22587336026863
 20
-18.11463875629737
 10
28.10342742884542
 20
-18.1467035839854
 10
27.98473542846866
 20
-18.19067323929736
 10
27.88213666952227
 20
-18.24898082568937
 10
27.78704577266867
 20
-18.31884565349735
 10
27.70449404826861
 20
-18.40139737789734
 10
27.63497680666866
 20
-18.49698358509737
 10
29.40561532428804
 20
-18.49698358509737
 10
29.38901662161296
 20
-18.54611574501568
 10
29.35271089993764
 20
-18.73248511628229
 10
29.34068922750835
 20
-18.9272362096372
 10
29.35273288028999
 20
-19.11752592358799
 10
29.38884468825451
 20
-19.30289987113899
 10
29.39942915552747
 20
-19.33553531189737
 10
27.67190784126866
 20
-19.33553531189737
 10
27.74359749666867
 20
-19.42025945009736
 10
27.83377873833423
 20
-19.49820565724137
 10
27.93192839381824
 20
-19.56581117469737
 10
28.03687335966863
 20
-19.62229393349734
 10
28.15201129106863
 20
-19.66791462329739
 10
28.28018370526861
 20
-19.70084841650536
 10
28.41093694706304
 20
-19.72118220967336
 10
28.54304577506862
 20
-19.72874220969736
 10
29.571508841989
 20
-19.72874220969736
 10
29.62348007343759
 20
-19.81292685180163
 10
29.73718542818092
 20
-19.96341509651431
 10
29.86462132166527
 20
-20.10276877974279
 10
30.00853369003547
 20
-20.2325583762826
 10
30.17136658479622
 20
-20.3481766147081
 10
30.33983299096629
 20
-20.45270630763973
 10
30.5233971347687
 20
-20.54332658116248
 10
30.6839409988212
 20
-20.60639738489737
 10
28.56476991306865
 20
-20.60639738489737
 10
28.35404577446862
 20
-20.59770772969738
 10
28.14549404966864
 20
-20.57163876409736
 10
27.94563198006866
 20
-20.52819048809737
 10
27.75445956566866
 20
-20.47170772929739
 10
27.57381032371582
 20
-20.39801945320134
 10
27.39818370246867
 20
-20.31312152189734
 10
27.23742508126863
 20
-20.21536290089738
 10
27.09008068080091
 20
-20.10491738330539
 10
26.95388163209266
 20
-19.98378358981738
 10
26.83118370066866
 20
-19.85256979629734
 10
26.72473542446865
 20
-19.71136289929738
 10
26.63566645866867
 20
-19.56363876089737
 10
26.56614921706866
 20
-19.40722496729738
 10
26.51183887206862
 20
-19.24646634609739
 10
26.48142507886867
 20
-19.07919048349736
 10
26.47056300986863
 20
-18.90539737949739
 10
26.47925266506862
 20
-18.73160427549736
 10
26.50749404446863
 20
-18.56650082669738
 10
26.55745956186861
 20
-18.40574220549739
 10
26.62045956206863
 20
-18.25150082569739
 10
26.70301128646862
 20
-18.10594910109738
 10
26.80302921782062
 20
-17.96873944548939
 10
26.91429416989798
 20
-17.84048013473737
 10
27.03973542546864
 20
-17.72143185849738
 10
27.18244302592167
 20
-17.61472289264138
 10
27.33301128846866
 20
-17.51939737509734
 10
27.50028715106863
 20
-17.43684565069735
 10
27.67625266886866
 20
-17.36732840909734
 10
27.86090784186867
 20
-17.31301806409736
 10
28.05642508386866
 20
-17.27174220189737
 10
28.25845956726865
 20
-17.24567323629735
 10
28.47135611966867
 20
-17.23698358109736
 10
30.72849405786867
 20
-17.23698358109736
 10
30.54732512240288
 20
-17.30650189354354
  0
LWPOLYLINE
  5
A21
330
9E1
100
AcDbEntity
  8
LW 3000-STADIP-01
 62
     1
100
AcDbPolyline
 90
        6
 70
     1
 43
0.0
 10
40.00035615626866
 20
-20.60639738489737
 10
37.76276994226864
 20
-20.60639738489737
 10
37.76276994226864
 20
-17.23698358109736
 10
38.78597684206865
 20
-17.23698358109736
 10
38.78597684206865
 20
-19.73960427869734
 10
40.00035615626866
 20
-19.73960427869734
  0
LWPOLYLINE
  5
A22
330
9E1
100
AcDbEntity
  8
LW 3000-STADIP-01
 62
     1
100
AcDbPolyline
 90
       57
 70
     1
 43
0.0
 10
34.70895572567743
 20
-19.98126358980936
 10
34.58909931150386
 20
-19.85091876180938
 10
34.48025269046862
 20
-19.71136289929738
 10
34.39335613846863
 20
-19.56363876089737
 10
34.32166648306863
 20
-19.40722496729738
 10
34.26952855186865
 20
-19.24646634609739
 10
34.23694234486864
 20
-19.07919048349736
 10
34.22608027586865
 20
-18.90539737949739
 10
34.23694234486864
 20
-18.73160427549736
 10
34.26952855186865
 20
-18.56432841289738
 10
34.31949406926863
 20
-18.40356979169739
 10
34.39118372466864
 20
-18.24932841189734
 10
34.47590786286863
 20
-18.10377668729738
 10
34.58018372526864
 20
-17.96474220409736
 10
34.70024869116703
 20
-17.83596151403337
 10
34.83480800193907
 20
-17.71673944468936
 10
34.98488703689823
 20
-17.60724978916936
 10
35.14370786498866
 20
-17.51079461644939
 10
35.31011476206864
 20
-17.42815599549736
 10
35.49476993506865
 20
-17.35646634009735
 10
35.68376993566865
 20
-17.30215599509738
 10
35.88145959146864
 20
-17.26088013289738
 10
36.08783890246862
 20
-17.23263875349737
 10
36.29856304106865
 20
-17.22394909829738
 10
37.53249407946864
 20
-17.22394909829738
 10
37.53249407946864
 20
-18.04946634229735
 10
36.29204579966866
 20
-18.04946634229735
 10
36.14866648886864
 20
-18.05815599749734
 10
36.01397683326862
 20
-18.08526772172136
 10
35.88250235009265
 20
-18.12524013564136
 10
35.75545959106866
 20
-18.17763875649738
 10
35.64805545279667
 20
-18.24472289464135
 10
35.54690786626863
 20
-18.32101806729734
 10
35.46001131426864
 20
-18.41008703309738
 10
35.39049407266863
 20
-18.50784565409735
 10
37.53249407946864
 20
-18.50784565409735
 10
37.53249407946864
 20
-19.33553531189737
 10
35.42742510726863
 20
-19.33553531189737
 10
35.50189545233265
 20
-19.42104151906538
 10
35.58931338364466
 20
-19.50081255380137
 10
35.68637683222865
 20
-19.56841807125737
 10
35.79604028085267
 20
-19.62933255420937
 10
35.91204717777266
 20
-19.67729945091337
 10
36.03265959194864
 20
-19.71162358895337
 10
36.16491614409263
 20
-19.73360841660938
 10
36.29856304106865
 20
-19.74394910629739
 10
37.53249407946864
 20
-19.74394910629739
 10
37.53249407946864
 20
-20.60205255729737
 10
36.32245959286867
 20
-20.60205255729737
 10
36.10956304046864
 20
-20.59336290209738
 10
35.90318372946867
 20
-20.56946635029736
 10
35.70332165986862
 20
-20.52601807429737
 10
35.51214924546862
 20
-20.46953531549734
 10
35.32749407246861
 20
-20.39567324629739
 10
35.15370096846864
 20
-20.31094910809735
 10
34.99294234726865
 20
-20.21319048709738
 10
34.84538331231745
 20
-20.10257117640138
  0
ENDBLK
  5
9E6
330
9E1
100
AcDbEntity
  8
0
100
AcDbBlockEnd
  0
ENDSEC
  0
SECTION
  2
ENTITIES
  0
MTEXT
  5
79C
330
1F
100
AcDbEntity
  8
0
100
AcDbMText
 10
67.11277612320762
 20
-52.86855953271436
 30
0.0
 40
5.0
 41
57.03130618910018
 71
     1
 72
     5
  1
LW 3000/24-01
 73
     1
 44
1.0
1001
ACAD
1000
ACAD_MTEXT_DEFINED_HEIGHT_BEGIN
1070
    46
1040
0.0
1000
ACAD_MTEXT_DEFINED_HEIGHT_END
  0
MTEXT
  5
8A1
330
1F
100
AcDbEntity
  8
0
100
AcDbMText
 10
58.35277612320762
 20
67.13144046728564
 30
0.0
 40
5.0
 41
57.03130618910018
 71
     1
 72
     5
  1
LW 3000/15-01
 73
     1
 44
1.0
1001
ACAD
1000
ACAD_MTEXT_DEFINED_HEIGHT_BEGIN
1070
    46
1040
0.0
1000
ACAD_MTEXT_DEFINED_HEIGHT_END
  0
MTEXT
  5
8DE
330
1F
100
AcDbEntity
  8
0
100
AcDbMText
 10
63.11277612320761
 20
7.131440467285642
 30
0.0
 40
5.0
 41
57.03130618910018
 71
     1
 72
     5
  1
LW 3000/20-01
 73
     1
 44
1.0
1001
ACAD
1000
ACAD_MTEXT_DEFINED_HEIGHT_BEGIN
1070
    46
1040
0.0
1000
ACAD_MTEXT_DEFINED_HEIGHT_END
  0
INSERT
  5
922
330
1F
100
AcDbEntity
  8
LW 3000-STADIP-01
100
AcDbBlockReference
  2
LW 3000-15-01
 10
0.0000000000000142
 20
61.32960359701773
 30
0.0
  0
INSERT
  5
9E0
330
1F
100
AcDbEntity
  8
LW 3000-STADIP-01
100
AcDbBlockReference
  2
LW 3000-20-01
 10
0.0000000000000142
 20
1.329603597017722
 30
0.0
  0
INSERT
  5
A23
330
1F
100
AcDbEntity
  8
LW 3000-STADIP-01
100
AcDbBlockReference
  2
LW 3000-24-01
 10
0.0000000000000142
 20
-58.67039640298227
 30
0.0
  0
VIEWPORT
  5
25D
330
1B
100
AcDbEntity
 67
     1
  8
0
100
AcDbViewport
 10
144.2296600341797
 20
98.97533035278321
 30
0.0
 40
355.5619652597054
 41
222.1517806396485
 68
     1
 69
     1
 12
144.2296600341797
 22
98.97533035278321
 13
0.0
 23
0.0
 14
10.0
 24
10.0
 15
10.0
 25
10.0
 16
0.0
 26
0.0
 36
1.0
 17
0.0
 27
0.0
 37
0.0
 42
50.0
 43
0.0
 44
0.0
 45
222.1517806396485
 50
0.0
 51
0.0
 72
   100
 90
    32800
  1

281
     0
 71
     1
 74
     0
110
0.0
120
0.0
130
0.0
111
1.0
121
0.0
131
0.0
112
0.0
122
1.0
132
0.0
 79
     0
146
0.0
170
     0
  0
ENDSEC
  0
SECTION
  2
OBJECTS
  0
DICTIONARY
  5
C
330
0
100
AcDbDictionary
281
     1
  3
ACAD_COLOR
350
331
  3
ACAD_GROUP
350
D
  3
ACAD_LAYOUT
350
1A
  3
ACAD_MATERIAL
350
330
  3
ACAD_MLINESTYLE
350
17
  3
ACAD_PLOTSETTINGS
350
19
  3
ACAD_PLOTSTYLENAME
350
E
  3
ACAD_TABLESTYLE
350
332
  3
AcDbVariableDictionary
350
24F
  0
DICTIONARY
  5
A34
330
2
100
AcDbDictionary
280
     1
281
     1
  3
ACAD_LAYERFILTERS
360
A36
  3
ACLYDICTIONARY
360
A35
  0
DICTIONARY
  5
15E
330
1F
100
AcDbDictionary
280
     1
281
     1
  3
ACAD_LAYOUTSELFREF
360
32B
  3
ACAD_SORTENTS
360
4D9
  0
DICTIONARY
  5
160
330
1B
100
AcDbDictionary
280
     1
281
     1
  3
ACAD_LAYOUTSELFREF
360
32A
  0
DICTIONARY
  5
162
330
23
100
AcDbDictionary
280
     1
281
     1
  3
ACAD_LAYOUTSELFREF
360
32C
  0
DICTIONARY
  5
8E1
330
8E0
100
AcDbDictionary
280
     1
281
     1
  3
AcDbBlockTableRecordData
360
8E2
  0
DICTIONARY
  5
99F
330
99E
100
AcDbDictionary
280
     1
281
     1
  3
AcDbBlockTableRecordData
360
9A0
  0
DICTIONARY
  5
9E2
330
9E1
100
AcDbDictionary
280
     1
281
     1
  3
AcDbBlockTableRecordData
360
9E3
  0
DICTIONARY
  5
331
102
{ACAD_REACTORS
330
C
102
}
330
C
100
AcDbDictionary
281
     1
  0
DICTIONARY
  5
D
102
{ACAD_REACTORS
330
C
102
}
330
C
100
AcDbDictionary
281
     1
  0
DICTIONARY
  5
1A
102
{ACAD_REACTORS
330
C
102
}
330
C
100
AcDbDictionary
281
     1
  3
Layout1
350
1E
  3
Layout2
350
26
  3
Model
350
22
  0
DICTIONARY
  5
330
102
{ACAD_REACTORS
330
C
102
}
330
C
100
AcDbDictionary
281
     1
  0
DICTIONARY
  5
17
102
{ACAD_REACTORS
330
C
102
}
330
C
100
AcDbDictionary
281
     1
  3
Standard
350
18
  0
DICTIONARY
  5
19
102
{ACAD_REACTORS
330
C
102
}
330
C
100
AcDbDictionary
281
     1
  0
ACDBDICTIONARYWDFLT
  5
E
102
{ACAD_REACTORS
330
C
102
}
330
C
100
AcDbDictionary
281
     1
  3
Normal
350
F
100
AcDbDictionaryWithDefault
340
F
  0
DICTIONARY
  5
332
102
{ACAD_REACTORS
330
C
102
}
330
C
100
AcDbDictionary
281
     1
  3
Standard
350
333
  0
DICTIONARY
  5
24F
102
{ACAD_REACTORS
330
C
102
}
330
C
100
AcDbDictionary
281
     1
  3
CTABLESTYLE
350
3B9
  3
DIMASSOC
350
251
  3
HIDETEXT
350
250
  3
PROJECTNAME
350
A30
  0
DICTIONARY
  5
A36
102
{ACAD_REACTORS
330
A34
102
}
330
A34
100
AcDbDictionary
281
     1
  0
DICTIONARY
  5
A35
102
{ACAD_REACTORS
330
A34
102
}
330
A34
100
AcDbDictionary
281
     1
1001
ACAD
1000
<All
  0
XRECORD
  5
32B
102
{ACAD_REACTORS
330
15E
102
}
330
15E
100
AcDbXrecord
280
     1
340
1F
  0
SORTENTSTABLE
  5
4D9
102
{ACAD_REACTORS
330
15E
102
}
330
15E
100
AcDbSortentsTable
330
1F
331
79C
  5
79C
331
8A1
  5
8A0
331
8DE
  5
8DE
  0
XRECORD
  5
32A
102
{ACAD_REACTORS
330
160
102
}
330
160
100
AcDbXrecord
280
     1
340
1B
  0
XRECORD
  5
32C
102
{ACAD_REACTORS
330
162
102
}
330
162
100
AcDbXrecord
280
     1
340
23
  0
DICTIONARY
  5
8E2
102
{ACAD_REACTORS
330
8E1
102
}
330
8E1
100
AcDbDictionary
280
     1
281
     1
  3
Edit
360
8E3
  0
DICTIONARY
  5
9A0
102
{ACAD_REACTORS
330
99F
102
}
330
99F
100
AcDbDictionary
280
     1
281
     1
  3
Edit
360
9A1
  0
DICTIONARY
  5
9E3
102
{ACAD_REACTORS
330
9E2
102
}
330
9E2
100
AcDbDictionary
280
     1
281
     1
  3
Edit
360
9E4
  0
LAYOUT
  5
1E
102
{ACAD_REACTORS
330
1A
102
}
330
1A
100
AcDbPlotSettings
  1

  2
\\A-SERVER\HP LaserJet 5N - AWT
  4
A4
  6

 40
6.011333465576171
 41
4.233341693878173
 42
6.011322021484375
 43
4.23333740234375
 44
209.9733276367187
 45
296.9259948730469
 46
0.0
 47
0.0
 48
0.0
 49
0.0
140
0.0
141
0.0
142
1.0
143
1.0
 70
   688
 72
     1
 73
     1
 74
     5
  7

 75
    16
147
1.0
 76
     0
 77
     2
 78
   300
148
0.0
149
0.0
100
AcDbLayout
  1
Layout1
 70
     1
 71
     1
 10
-4.23333740234375
 20
-6.011333465576171
 11
292.6926574707031
 21
203.9619941711426
 12
0.0
 22
0.0
 32
0.0
 14
1.000000000000000E+20
 24
1.000000000000000E+20
 34
1.000000000000000E+20
 15
-1.000000000000000E+20
 25
-1.000000000000000E+20
 35
-1.000000000000000E+20
146
0.0
 13
0.0
 23
0.0
 33
0.0
 16
1.0
 26
0.0
 36
0.0
 17
0.0
 27
1.0
 37
0.0
 76
     0
330
1B
331
25D
  0
LAYOUT
  5
26
102
{ACAD_REACTORS
330
1A
102
}
330
1A
100
AcDbPlotSettings
  1

  2

  4

  6

 40
0.0
 41
0.0
 42
0.0
 43
0.0
 44
0.0
 45
0.0
 46
0.0
 47
0.0
 48
0.0
 49
0.0
140
0.0
141
0.0
142
1.0
143
1.0
 70
   688
 72
     0
 73
     0
 74
     5
  7

 75
    16
147
1.0
 76
     0
 77
     2
 78
   300
148
0.0
149
0.0
100
AcDbLayout
  1
Layout2
 70
     1
 71
     2
 10
0.0
 20
0.0
 11
12.0
 21
9.0
 12
0.0
 22
0.0
 32
0.0
 14
0.0
 24
0.0
 34
0.0
 15
0.0
 25
0.0
 35
0.0
146
0.0
 13
0.0
 23
0.0
 33
0.0
 16
1.0
 26
0.0
 36
0.0
 17
0.0
 27
1.0
 37
0.0
 76
     0
330
23
  0
LAYOUT
  5
22
102
{ACAD_REACTORS
330
1A
102
}
330
1A
100
AcDbPlotSettings
  1

  2

  4

  6

 40
0.0
 41
0.0
 42
0.0
 43
0.0
 44
0.0
 45
0.0
 46
0.0
 47
0.0
 48
0.0
 49
0.0
140
0.0
141
0.0
142
1.0
143
1.0
 70
  1712
 72
     0
 73
     0
 74
     0
  7

 75
     0
147
1.0
 76
     0
 77
     2
 78
   300
148
0.0
149
0.0
100
AcDbLayout
  1
Model
 70
     1
 71
     0
 10
0.0
 20
0.0
 11
12.0
 21
9.0
 12
0.0
 22
0.0
 32
0.0
 14
0.0
 24
0.0
 34
0.0
 15
0.0
 25
0.0
 35
0.0
146
0.0
 13
0.0
 23
0.0
 33
0.0
 16
1.0
 26
0.0
 36
0.0
 17
0.0
 27
1.0
 37
0.0
 76
     0
330
1F
  0
MLINESTYLE
  5
18
102
{ACAD_REACTORS
330
17
102
}
330
17
100
AcDbMlineStyle
  2
STANDARD
 70
     0
  3

 62
   256
 51
90.0
 52
90.0
 71
     2
 49
0.5
 62
   256
  6
BYLAYER
 49
-0.5
 62
   256
  6
BYLAYER
  0
ACDBPLACEHOLDER
  5
F
102
{ACAD_REACTORS
330
E
102
}
330
E
  0
TABLESTYLE
  5
333
102
{ACAD_REACTORS
330
332
102
}
330
332
100
AcDbTableStyle
  3
Standard
 70
     0
 71
     0
 40
1.5
 41
1.5
280
     0
281
     0
  7
Standard
140
4.5
170
     2
 62
     0
 63
     7
283
     0
274
    -2
284
     1
 64
     0
275
    -2
285
     1
 65
     0
276
    -2
286
     1
 66
     0
277
    -2
287
     1
 67
     0
278
    -2
288
     1
 68
     0
279
    -2
289
     1
 69
     0
  7
Standard
140
6.0
170
     5
 62
     0
 63
     7
283
     0
274
    -2
284
     1
 64
     0
275
    -2
285
     1
 65
     0
276
    -2
286
     1
 66
     0
277
    -2
287
     1
 67
     0
278
    -2
288
     1
 68
     0
279
    -2
289
     1
 69
     0
  7
Standard
140
4.5
170
     5
 62
     0
 63
     7
283
     0
274
    -2
284
     1
 64
     0
275
    -2
285
     1
 65
     0
276
    -2
286
     1
 66
     0
277
    -2
287
     1
 67
     0
278
    -2
288
     1
 68
     0
279
    -2
289
     1
 69
     0
  0
DICTIONARYVAR
  5
3B9
102
{ACAD_REACTORS
330
24F
102
}
330
24F
100
DictionaryVariables
280
     0
  1
STANDARD
  0
DICTIONARYVAR
  5
251
102
{ACAD_REACTORS
330
24F
102
}
330
24F
100
DictionaryVariables
280
     0
  1
2
  0
DICTIONARYVAR
  5
250
102
{ACAD_REACTORS
330
24F
102
}
330
24F
100
DictionaryVariables
280
     0
  1
1
  0
DICTIONARYVAR
  5
A30
102
{ACAD_REACTORS
330
24F
102
}
330
24F
100
DictionaryVariables
280
     0
  1

  0
XRECORD
  5
8E3
102
{ACAD_REACTORS
330
8E2
102
}
330
8E2
100
AcDbXrecord
280
     1
1070
     0
1070
     0
1070
     0
  0
XRECORD
  5
9A1
102
{ACAD_REACTORS
330
9A0
102
}
330
9A0
100
AcDbXrecord
280
     1
1070
     0
1070
     0
1070
     0
  0
XRECORD
  5
9E4
102
{ACAD_REACTORS
330
9E3
102
}
330
9E3
100
AcDbXrecord
280
     1
1070
     0
1070
     0
1070
     0
  0
ENDSEC
  0
EOF
