  0
SECTION
  2
HEADER
  9
$ACADVER
  1
AC1018
  9
$ACADMAINTVER
 70
    76
  9
$DWGCODEPAGE
  3
ANSI_1252
  9
$AUTHOR
  1
Grandl
  9
$INSBASE
 10
0.0
 20
0.0
 30
0.0
  9
$EXTMIN
 10
-2.878433831207861
 20
-76.82591824894881
 30
0.0
  9
$EXTMAX
 10
102.977402630112
 20
93.22087326077088
 30
0.0
  9
$LIMMIN
 10
0.0
 20
0.0
  9
$LIMMAX
 10
18025.7704
 20
13929.0044
  9
$ORTHOMODE
 70
     1
  9
$REGENMODE
 70
     1
  9
$FILLMODE
 70
     1
  9
$QTEXTMODE
 70
     0
  9
$MIRRTEXT
 70
     1
  9
$LTSCALE
 40
0.4
  9
$ATTMODE
 70
     1
  9
$TEXTSIZE
 40
0.2
  9
$TRACEWID
 40
0.05
  9
$TEXTSTYLE
  7
Standard
  9
$CLAYER
  8
0
  9
$CELTYPE
  6
ByLayer
  9
$CECOLOR
 62
   256
  9
$CELTSCALE
 40
1.0
  9
$DISPSILH
 70
     0
  9
$DIMSCALE
 40
1.0
  9
$DIMASZ
 40
1.799999999999999
  9
$DIMEXO
 40
0.0625
  9
$DIMDLI
 40
0.38
  9
$DIMRND
 40
0.0
  9
$DIMDLE
 40
0.0
  9
$DIMEXE
 40
0.18
  9
$DIMTP
 40
0.0
  9
$DIMTM
 40
0.0
  9
$DIMTXT
 40
0.3499999940395355
  9
$DIMCEN
 40
0.09
  9
$DIMTSZ
 40
0.0
  9
$DIMTOL
 70
     0
  9
$DIMLIM
 70
     0
  9
$DIMTIH
 70
     1
  9
$DIMTOH
 70
     1
  9
$DIMSE1
 70
     0
  9
$DIMSE2
 70
     0
  9
$DIMTAD
 70
     0
  9
$DIMZIN
 70
     0
  9
$DIMBLK
  1

  9
$DIMASO
 70
     1
  9
$DIMSHO
 70
     1
  9
$DIMPOST
  1

  9
$DIMAPOST
  1

  9
$DIMALT
 70
     0
  9
$DIMALTD
 70
     2
  9
$DIMALTF
 40
25.4
  9
$DIMLFAC
 40
1.0
  9
$DIMTOFL
 70
     0
  9
$DIMTVP
 40
0.0
  9
$DIMTIX
 70
     0
  9
$DIMSOXD
 70
     0
  9
$DIMSAH
 70
     0
  9
$DIMBLK1
  1

  9
$DIMBLK2
  1

  9
$DIMSTYLE
  2
2dTranslator-Bemaßungsstil
  9
$DIMCLRD
 70
     0
  9
$DIMCLRE
 70
     0
  9
$DIMCLRT
 70
     0
  9
$DIMTFAC
 40
1.0
  9
$DIMGAP
 40
0.09
  9
$DIMJUST
 70
     0
  9
$DIMSD1
 70
     0
  9
$DIMSD2
 70
     0
  9
$DIMTOLJ
 70
     1
  9
$DIMTZIN
 70
     0
  9
$DIMALTZ
 70
     0
  9
$DIMALTTZ
 70
     0
  9
$DIMUPT
 70
     0
  9
$DIMDEC
 70
     4
  9
$DIMTDEC
 70
     4
  9
$DIMALTU
 70
     2
  9
$DIMALTTD
 70
     2
  9
$DIMTXSTY
  7
Standard
  9
$DIMAUNIT
 70
     0
  9
$DIMADEC
 70
     0
  9
$DIMALTRND
 40
0.0
  9
$DIMAZIN
 70
     0
  9
$DIMDSEP
 70
    46
  9
$DIMATFIT
 70
     3
  9
$DIMFRAC
 70
     0
  9
$DIMLDRBLK
  1

  9
$DIMLUNIT
 70
     2
  9
$DIMLWD
 70
    -2
  9
$DIMLWE
 70
    -2
  9
$DIMTMOVE
 70
     0
  9
$LUNITS
 70
     2
  9
$LUPREC
 70
     4
  9
$SKETCHINC
 40
0.1
  9
$FILLETRAD
 40
0.0
  9
$AUNITS
 70
     0
  9
$AUPREC
 70
     0
  9
$MENU
  1
.
  9
$ELEVATION
 40
0.0
  9
$PELEVATION
 40
0.0
  9
$THICKNESS
 40
0.0
  9
$LIMCHECK
 70
     0
  9
$CHAMFERA
 40
0.0
  9
$CHAMFERB
 40
0.0
  9
$CHAMFERC
 40
0.0
  9
$CHAMFERD
 40
0.0
  9
$SKPOLY
 70
     0
  9
$TDCREATE
 40
2452765.555337176
  9
$TDUCREATE
 40
2452765.513670509
  9
$TDUPDATE
 40
2453696.562073878
  9
$TDUUPDATE
 40
2453696.520407210
  9
$TDINDWG
 40
0.0245153704
  9
$TDUSRTIMER
 40
0.0245153704
  9
$USRTIMER
 70
     1
  9
$ANGBASE
 50
0.0
  9
$ANGDIR
 70
     0
  9
$PDMODE
 70
     0
  9
$PDSIZE
 40
0.0
  9
$PLINEWID
 40
0.0
  9
$SPLFRAME
 70
     0
  9
$SPLINETYPE
 70
     6
  9
$SPLINESEGS
 70
     8
  9
$HANDSEED
  5
83E
  9
$SURFTAB1
 70
     6
  9
$SURFTAB2
 70
     6
  9
$SURFTYPE
 70
     6
  9
$SURFU
 70
     6
  9
$SURFV
 70
     6
  9
$UCSBASE
  2

  9
$UCSNAME
  2

  9
$UCSORG
 10
0.0
 20
0.0
 30
0.0
  9
$UCSXDIR
 10
1.0
 20
0.0
 30
0.0
  9
$UCSYDIR
 10
0.0
 20
1.0
 30
0.0
  9
$UCSORTHOREF
  2

  9
$UCSORTHOVIEW
 70
     0
  9
$UCSORGTOP
 10
0.0
 20
0.0
 30
0.0
  9
$UCSORGBOTTOM
 10
0.0
 20
0.0
 30
0.0
  9
$UCSORGLEFT
 10
0.0
 20
0.0
 30
0.0
  9
$UCSORGRIGHT
 10
0.0
 20
0.0
 30
0.0
  9
$UCSORGFRONT
 10
0.0
 20
0.0
 30
0.0
  9
$UCSORGBACK
 10
0.0
 20
0.0
 30
0.0
  9
$PUCSBASE
  2

  9
$PUCSNAME
  2

  9
$PUCSORG
 10
0.0
 20
0.0
 30
0.0
  9
$PUCSXDIR
 10
1.0
 20
0.0
 30
0.0
  9
$PUCSYDIR
 10
0.0
 20
1.0
 30
0.0
  9
$PUCSORTHOREF
  2

  9
$PUCSORTHOVIEW
 70
     0
  9
$PUCSORGTOP
 10
0.0
 20
0.0
 30
0.0
  9
$PUCSORGBOTTOM
 10
0.0
 20
0.0
 30
0.0
  9
$PUCSORGLEFT
 10
0.0
 20
0.0
 30
0.0
  9
$PUCSORGRIGHT
 10
0.0
 20
0.0
 30
0.0
  9
$PUCSORGFRONT
 10
0.0
 20
0.0
 30
0.0
  9
$PUCSORGBACK
 10
0.0
 20
0.0
 30
0.0
  9
$USERI1
 70
     0
  9
$USERI2
 70
     0
  9
$USERI3
 70
     0
  9
$USERI4
 70
     0
  9
$USERI5
 70
     0
  9
$USERR1
 40
0.0
  9
$USERR2
 40
0.0
  9
$USERR3
 40
0.0
  9
$USERR4
 40
0.0
  9
$USERR5
 40
0.0
  9
$WORLDVIEW
 70
     1
  9
$SHADEDGE
 70
     3
  9
$SHADEDIF
 70
    70
  9
$TILEMODE
 70
     1
  9
$MAXACTVP
 70
    48
  9
$PINSBASE
 10
0.0
 20
0.0
 30
0.0
  9
$PLIMCHECK
 70
     0
  9
$PEXTMIN
 10
1.000000000000000E+20
 20
1.000000000000000E+20
 30
1.000000000000000E+20
  9
$PEXTMAX
 10
-1.000000000000000E+20
 20
-1.000000000000000E+20
 30
-1.000000000000000E+20
  9
$PLIMMIN
 10
-4.23333740234375
 20
-6.011333465576171
  9
$PLIMMAX
 10
292.6926574707031
 20
203.9619941711426
  9
$UNITMODE
 70
     0
  9
$VISRETAIN
 70
     1
  9
$PLINEGEN
 70
     0
  9
$PSLTSCALE
 70
     1
  9
$TREEDEPTH
 70
  3020
  9
$CMLSTYLE
  2
Standard
  9
$CMLJUST
 70
     0
  9
$CMLSCALE
 40
1.0
  9
$PROXYGRAPHICS
 70
     1
  9
$MEASUREMENT
 70
     1
  9
$CELWEIGHT
370
    -1
  9
$ENDCAPS
280
     0
  9
$JOINSTYLE
280
     0
  9
$LWDISPLAY
290
     0
  9
$INSUNITS
 70
     0
  9
$HYPERLINKBASE
  1

  9
$STYLESHEET
  1

  9
$XEDIT
290
     1
  9
$CEPSNTYPE
380
     0
  9
$PSTYLEMODE
290
     1
  9
$FINGERPRINTGUID
  2
{273AE88C-D7F3-421A-A0A6-E2DB7480A2D6}
  9
$VERSIONGUID
  2
{00493BB7-30C6-4C22-AF13-56CB3E5C61CE}
  9
$EXTNAMES
290
     1
  9
$PSVPSCALE
 40
0.0
  9
$OLESTARTUP
290
     0
  9
$SORTENTS
280
   127
  9
$INDEXCTL
280
     0
  9
$HIDETEXT
280
     1
  9
$XCLIPFRAME
290
     0
  9
$HALOGAP
280
     0
  9
$OBSCOLOR
 70
   257
  9
$OBSLTYPE
280
     0
  9
$INTERSECTIONDISPLAY
280
     0
  9
$INTERSECTIONCOLOR
 70
   257
  9
$DIMASSOC
280
     2
  9
$PROJECTNAME
  1

  0
ENDSEC
  0
SECTION
  2
CLASSES
  0
CLASS
  1
ACDBDICTIONARYWDFLT
  2
AcDbDictionaryWithDefault
  3
ObjectDBX Classes
 90
        0
 91
        1
280
     0
281
     0
  0
CLASS
  1
DICTIONARYVAR
  2
AcDbDictionaryVar
  3
ObjectDBX Classes
 90
        0
 91
        4
280
     0
281
     0
  0
CLASS
  1
TABLESTYLE
  2
AcDbTableStyle
  3
ObjectDBX Classes
 90
     2047
 91
        1
280
     0
281
     0
  0
CLASS
  1
SORTENTSTABLE
  2
AcDbSortentsTable
  3
ObjectDBX Classes
 90
        0
 91
        1
280
     0
281
     0
  0
ENDSEC
  0
SECTION
  2
TABLES
  0
TABLE
  2
VPORT
  5
8
330
0
100
AcDbSymbolTable
 70
     2
  0
VPORT
  5
83D
330
8
100
AcDbSymbolTableRecord
100
AcDbViewportTableRecord
  2
*Active
 70
     0
 10
0.0
 20
0.0
 11
1.0
 21
1.0
 12
49.86653206504346
 22
7.810310845859945
 13
0.0
 23
0.0
 14
1.0
 24
1.0
 15
0.0
 25
0.0
 16
0.0
 26
0.0
 36
1.0
 17
0.0
 27
0.0
 37
0.0
 40
172.9362319412108
 41
1.773333333333333
 42
50.0
 43
0.0
 44
0.0
 50
0.0
 51
0.0
 71
     0
 72
   100
 73
     1
 74
     1
 75
     0
 76
     0
 77
     0
 78
     0
281
     0
 65
     1
110
0.0
120
0.0
130
0.0
111
1.0
121
0.0
131
0.0
112
0.0
122
1.0
132
0.0
 79
     0
146
0.0
  0
ENDTAB
  0
TABLE
  2
LTYPE
  5
5
330
0
100
AcDbSymbolTable
 70
     2
  0
LTYPE
  5
14
330
5
100
AcDbSymbolTableRecord
100
AcDbLinetypeTableRecord
  2
ByBlock
 70
     0
  3

 72
    65
 73
     0
 40
0.0
  0
LTYPE
  5
15
330
5
100
AcDbSymbolTableRecord
100
AcDbLinetypeTableRecord
  2
ByLayer
 70
     0
  3

 72
    65
 73
     0
 40
0.0
  0
LTYPE
  5
16
330
5
100
AcDbSymbolTableRecord
100
AcDbLinetypeTableRecord
  2
Continuous
 70
     0
  3
Solid line
 72
    65
 73
     0
 40
0.0
  0
LTYPE
  5
25C
330
5
100
AcDbSymbolTableRecord
100
AcDbLinetypeTableRecord
  2
MITTE2
 70
     0
  3
Mitte (.5x) ___ _ ___ _ ___ _ ___ _ ___ _ ___
 72
    65
 73
     4
 40
28.575
 49
19.05
 74
     0
 49
-3.174999999999999
 74
     0
 49
3.174999999999999
 74
     0
 49
-3.174999999999999
 74
     0
  0
ENDTAB
  0
TABLE
  2
LAYER
  5
2
102
{ACAD_XDICTIONARY
360
82C
102
}
330
0
100
AcDbSymbolTable
 70
     3
  0
LAYER
  5
10
330
2
100
AcDbSymbolTableRecord
100
AcDbLayerTableRecord
  2
0
 70
     0
 62
     7
  6
Continuous
370
    -3
390
F
  0
LAYER
  5
25D
330
2
100
AcDbSymbolTableRecord
100
AcDbLayerTableRecord
  2
LW 3030-STADIP-01
 70
     0
 62
     7
  6
Continuous
370
    -3
390
F
  0
LAYER
  5
329
330
2
100
AcDbSymbolTableRecord
100
AcDbLayerTableRecord
  2
insertpoint_ECKELT
 70
     0
 62
   141
  6
Continuous
370
    -3
390
F
  0
ENDTAB
  0
TABLE
  2
STYLE
  5
3
330
0
100
AcDbSymbolTable
 70
     1
  0
STYLE
  5
11
330
3
100
AcDbSymbolTableRecord
100
AcDbTextStyleTableRecord
  2
Standard
 70
     0
 40
0.0
 41
1.0
 50
0.0
 71
     0
 42
0.2
  3
ARIAL.TTF
  4

1001
ACAD
1000
Arial
1071
      256
  0
ENDTAB
  0
TABLE
  2
VIEW
  5
6
330
0
100
AcDbSymbolTable
 70
     0
  0
ENDTAB
  0
TABLE
  2
UCS
  5
7
330
0
100
AcDbSymbolTable
 70
     0
  0
ENDTAB
  0
TABLE
  2
APPID
  5
9
330
0
100
AcDbSymbolTable
 70
     2
  0
APPID
  5
12
330
9
100
AcDbSymbolTableRecord
100
AcDbRegAppTableRecord
  2
ACAD
 70
     0
  0
APPID
  5
3FF
330
9
100
AcDbSymbolTableRecord
100
AcDbRegAppTableRecord
  2
ACAD_EXEMPT_FROM_CAD_STANDARDS
 70
     0
  0
ENDTAB
  0
TABLE
  2
DIMSTYLE
  5
A
330
0
100
AcDbSymbolTable
 70
     2
100
AcDbDimStyleTable
 71
     1
340
57
  0
DIMSTYLE
105
27
330
A
100
AcDbSymbolTableRecord
100
AcDbDimStyleTableRecord
  2
Standard
 70
     0
340
11
  0
DIMSTYLE
105
57
330
A
100
AcDbSymbolTableRecord
100
AcDbDimStyleTableRecord
  2
2dTranslator-Bemaßungsstil
 70
     0
 41
1.799999999999999
140
1.799999999999999
340
11
  0
ENDTAB
  0
TABLE
  2
BLOCK_RECORD
  5
1
330
0
100
AcDbSymbolTable
 70
     5
  0
BLOCK_RECORD
  5
1F
102
{ACAD_XDICTIONARY
360
153
102
}
330
1
100
AcDbSymbolTableRecord
100
AcDbBlockTableRecord
  2
*Model_Space
340
22
  0
BLOCK_RECORD
  5
1B
102
{ACAD_XDICTIONARY
360
155
102
}
330
1
100
AcDbSymbolTableRecord
100
AcDbBlockTableRecord
  2
*Paper_Space
340
1E
  0
BLOCK_RECORD
  5
23
102
{ACAD_XDICTIONARY
360
157
102
}
330
1
100
AcDbSymbolTableRecord
100
AcDbBlockTableRecord
  2
*Paper_Space0
340
26
  0
BLOCK_RECORD
  5
32A
330
1
100
AcDbSymbolTableRecord
100
AcDbBlockTableRecord
  2
insertpoint-ECKELT
340
0
102
{BLKREFS
331
7A4
331
7DA
331
810
102
}
  0
BLOCK_RECORD
  5
77A
102
{ACAD_XDICTIONARY
360
77B
102
}
330
1
100
AcDbSymbolTableRecord
100
AcDbBlockTableRecord
  2
LW 3030-15-01
340
0
310
2800000020000000200000000100080000000000000400000000000000000000000000000000000000000000000080000080000000808000800000008000800080800000C0C0C000C0DCC000F0CAA6000020400000206000002080000020A0000020C0000020E00000400000004020000040400000406000004080000040A0
310
000040C0000040E00000600000006020000060400000606000006080000060A0000060C0000060E00000800000008020000080400000806000008080000080A0000080C0000080E00000A0000000A0200000A0400000A0600000A0800000A0A00000A0C00000A0E00000C0000000C0200000C0400000C0600000C0800000C0
310
A00000C0C00000C0E00000E0000000E0200000E0400000E0600000E0800000E0A00000E0C00000E0E00040000000400020004000400040006000400080004000A0004000C0004000E00040200000402020004020400040206000402080004020A0004020C0004020E000404000004040200040404000404060004040800040
310
40A0004040C0004040E00040600000406020004060400040606000406080004060A0004060C0004060E00040800000408020004080400040806000408080004080A0004080C0004080E00040A0000040A0200040A0400040A0600040A0800040A0A00040A0C00040A0E00040C0000040C0200040C0400040C0600040C08000
310
40C0A00040C0C00040C0E00040E0000040E0200040E0400040E0600040E0800040E0A00040E0C00040E0E00080000000800020008000400080006000800080008000A0008000C0008000E00080200000802020008020400080206000802080008020A0008020C0008020E00080400000804020008040400080406000804080
310
008040A0008040C0008040E00080600000806020008060400080606000806080008060A0008060C0008060E00080800000808020008080400080806000808080008080A0008080C0008080E00080A0000080A0200080A0400080A0600080A0800080A0A00080A0C00080A0E00080C0000080C0200080C0400080C0600080C0
310
800080C0A00080C0C00080C0E00080E0000080E0200080E0400080E0600080E0800080E0A00080E0C00080E0E000C0000000C0002000C0004000C0006000C0008000C000A000C000C000C000E000C0200000C0202000C0204000C0206000C0208000C020A000C020C000C020E000C0400000C0402000C0404000C0406000C0
310
408000C040A000C040C000C040E000C0600000C0602000C0604000C0606000C0608000C060A000C060C000C060E000C0800000C0802000C0804000C0806000C0808000C080A000C080C000C080E000C0A00000C0A02000C0A04000C0A06000C0A08000C0A0A000C0A0C000C0A0E000C0C00000C0C02000C0C04000C0C06000
310
C0C08000C0C0A000F0FBFF00A4A0A000808080000000FF0000FF000000FFFF00FF000000FF00FF00FFFF0000FFFFFF000000000000000000000000000000000000000000000000000000000000000000000000000000000000000000000000000000A4FFA4A4FFA4FFFF000000000000000000000000000000000000000000
310
00A4FFFFA400A4A400A400FF000000000000000000000000000000000000000000FFF9F9F9F9F9F9F9F9F9FFFF0000000000000000000000000000000000000000A4F9F9F9F9F9F9F9F9F9F9FF0000000000000000000000FF0000000000000000FFA4F9F9F9F9F9F9F9F9F9A40000000000000000000000A4FF0000000000
310
0000A400A400A400A400A400A4FF0000000000000000000000FFA4FF000000000000FFA400A400A400A400A4A4A40000000000000000000000A400A4FFA4FFA4FFA4A400A400A4A4A4A4A4A400A40000000000000000000000FFA400A400A400A400A4A400A4A400A400A400A4FF0000000000000000000000FF00A400A400
310
A400A400A4A4A400A400A400A400A40000000000000000000000FF0000A4FFA4FFA4FFA4FFA4FFA4FFA4FFA4FFA4FF0000000000000000000000FF0000FF00000000000000000000000000000000FF0000000000000000000000090000FF00000000000000000000000000000000FF00000000000000090909090909FAFAFA
310
FAFAFAFAFAFAFAFAFAFAFAFAFAFAFAFAFA00000000000009090909090000FF00000000000000000000000000000000FF0000000000000000000000FF0000FF00000000000000000000000000000000FF0000000000000000000000FF0000FFA4FFA4FFA4FFA4A4FFA4FFA4FFA4FFA4FF0000000000000000000000FF00A400
310
00A400A400A400A4A400A400A400A400A40000000000000000000000FFFFA4A40000A400A400A400A4A400A400A400A4FF0000000000000000000000FFA400A4A400A400A40000A4A400A400A400A400A40000000000000000000000A400A4A4FFA4FFA4FFA400A400A400A4FAA400A4FF0000000000000000000000FFA4FF
310
000000000000FFA400A400A400A400A400A40000000000000000000000A40000000000000000A400A400A400A4FAA400A4FF0000000000000000000000000000000000000000FFA400A400A4FFFAFFA400A40000000000000000000000000000000000000000A400A4A4A4FF00FAA400A4FF00000000000000000000000000
310
00000000000000FFA4A400A4A400FAFFA4FFA40000000000000000000000000000000000000000A4FFFFA4FFA4FFFAA4A4A400000000000000000000000000000000000000000000000000000000FA00000000000000000000000000000000000000000000000000000000000000FA00000000000000000000000000000000
310
000000000000000000000000000000FA00000000000000000000000000000000000000000000000000000000000000000000000000000000
102
{BLKREFS
331
7AF
102
}
  0
BLOCK_RECORD
  5
7B0
102
{ACAD_XDICTIONARY
360
7B1
102
}
330
1
100
AcDbSymbolTableRecord
100
AcDbBlockTableRecord
  2
LW 3030-20-01
340
0
310
2800000020000000200000000100080000000000000400000000000000000000000000000000000000000000000080000080000000808000800000008000800080800000C0C0C000C0DCC000F0CAA6000020400000206000002080000020A0000020C0000020E00000400000004020000040400000406000004080000040A0
310
000040C0000040E00000600000006020000060400000606000006080000060A0000060C0000060E00000800000008020000080400000806000008080000080A0000080C0000080E00000A0000000A0200000A0400000A0600000A0800000A0A00000A0C00000A0E00000C0000000C0200000C0400000C0600000C0800000C0
310
A00000C0C00000C0E00000E0000000E0200000E0400000E0600000E0800000E0A00000E0C00000E0E00040000000400020004000400040006000400080004000A0004000C0004000E00040200000402020004020400040206000402080004020A0004020C0004020E000404000004040200040404000404060004040800040
310
40A0004040C0004040E00040600000406020004060400040606000406080004060A0004060C0004060E00040800000408020004080400040806000408080004080A0004080C0004080E00040A0000040A0200040A0400040A0600040A0800040A0A00040A0C00040A0E00040C0000040C0200040C0400040C0600040C08000
310
40C0A00040C0C00040C0E00040E0000040E0200040E0400040E0600040E0800040E0A00040E0C00040E0E00080000000800020008000400080006000800080008000A0008000C0008000E00080200000802020008020400080206000802080008020A0008020C0008020E00080400000804020008040400080406000804080
310
008040A0008040C0008040E00080600000806020008060400080606000806080008060A0008060C0008060E00080800000808020008080400080806000808080008080A0008080C0008080E00080A0000080A0200080A0400080A0600080A0800080A0A00080A0C00080A0E00080C0000080C0200080C0400080C0600080C0
310
800080C0A00080C0C00080C0E00080E0000080E0200080E0400080E0600080E0800080E0A00080E0C00080E0E000C0000000C0002000C0004000C0006000C0008000C000A000C000C000C000E000C0200000C0202000C0204000C0206000C0208000C020A000C020C000C020E000C0400000C0402000C0404000C0406000C0
310
408000C040A000C040C000C040E000C0600000C0602000C0604000C0606000C0608000C060A000C060C000C060E000C0800000C0802000C0804000C0806000C0808000C080A000C080C000C080E000C0A00000C0A02000C0A04000C0A06000C0A08000C0A0A000C0A0C000C0A0E000C0C00000C0C02000C0C04000C0C06000
310
C0C08000C0C0A000F0FBFF00A4A0A000808080000000FF0000FF000000FFFF00FF000000FF00FF00FFFF0000FFFFFF00000000000000000000000000000000000000000000000000000000000000000000000000000000000000000000000000000000FFA4FFA4FFA4FFA40000000000000000000000000000000000000000
310
000000FFA400A400A400A400A400000000000000000000000000000000000000000000F9F9F9F9F9F9F9F9F9F9A4000000000000000000000000000000000000000000F9F9F9F9F9F9F9F9F9F9FF000000000000000000FF0000000000000000000000FFF9F9F9F9F9F9F9F9F9A4000000000000000000A4FF000000000000
310
00000000A400A4A400A400A400A4FF000000000000000000A4A400000000000000000000FFA400A4A400A400A400A4000000000000000000FFA4A4FFA4FFA4FFA4FFA4FFA400A400A4A400A400A4FF000000000000000000FFFFA4A400A400A400A400A400A400A400A4A400A400A4000000000000000000FF00A400A400A4
310
00A400A400A400A400A400A4A400A4FF000000000000000000FF0000A4FFA4FFA4FFA4FFA4FFA4FFA4FFA4FFA4A4FFA4000000000000000000FF0000FF000000000000000000000000000000000000FF000000000000000000090000FF000000000000000000000000000000000000FF0000000000090909090909FAFAFAFA
310
FAFAFAFAFAFAFAFAFAFAFAFAFAFAFAFAFAFA0000000009090909090000FF000000000000000000000000000000000000FF000000000000000000FF0000FF000000000000000000000000000000000000FF000000000000000000FF0000FFA4FFA4FFA4FFA4A4FFA4FFA4FFA4FFA4FFA4FF000000000000000000FF00A40000
310
A400A400A400A4A400A400A400A400A400A4000000000000000000FFA400A40000A400A400A400A4A400A400A400A400A4FF000000000000000000A400A400A400A400A400A40000A4A400A400A400A400A4000000000000000000A4A4A4A4FFA4FFA4FFA4FFA4A400A4A400A4FAA400A4FF000000000000000000FFA40000
310
0000000000000000FFA400A4A400A400A400A4000000000000000000A40000000000000000000000A400A400A4A4FAA400A4FF000000000000000000000000000000000000000000FFA400A400A4FAFFA400A4000000000000000000000000000000000000000000A400A400A4FFFAA400A4FF000000000000000000000000
310
000000000000000000FFA400A400A4FAFFA400A4000000000000000000000000000000000000000000FFFFA4FFA4FFFAA4FFA400000000000000000000000000000000000000000000000000000000FA00000000000000000000000000000000000000000000000000000000000000FA000000000000000000000000000000
310
00000000000000000000000000000000FA000000000000000000000000000000000000000000000000000000000000000000000000000000
102
{BLKREFS
331
7E5
102
}
  0
BLOCK_RECORD
  5
7E6
102
{ACAD_XDICTIONARY
360
7E7
102
}
330
1
100
AcDbSymbolTableRecord
100
AcDbBlockTableRecord
  2
LW 3030-24-01
340
0
310
2800000020000000200000000100080000000000000400000000000000000000000000000000000000000000000080000080000000808000800000008000800080800000C0C0C000C0DCC000F0CAA6000020400000206000002080000020A0000020C0000020E00000400000004020000040400000406000004080000040A0
310
000040C0000040E00000600000006020000060400000606000006080000060A0000060C0000060E00000800000008020000080400000806000008080000080A0000080C0000080E00000A0000000A0200000A0400000A0600000A0800000A0A00000A0C00000A0E00000C0000000C0200000C0400000C0600000C0800000C0
310
A00000C0C00000C0E00000E0000000E0200000E0400000E0600000E0800000E0A00000E0C00000E0E00040000000400020004000400040006000400080004000A0004000C0004000E00040200000402020004020400040206000402080004020A0004020C0004020E000404000004040200040404000404060004040800040
310
40A0004040C0004040E00040600000406020004060400040606000406080004060A0004060C0004060E00040800000408020004080400040806000408080004080A0004080C0004080E00040A0000040A0200040A0400040A0600040A0800040A0A00040A0C00040A0E00040C0000040C0200040C0400040C0600040C08000
310
40C0A00040C0C00040C0E00040E0000040E0200040E0400040E0600040E0800040E0A00040E0C00040E0E00080000000800020008000400080006000800080008000A0008000C0008000E00080200000802020008020400080206000802080008020A0008020C0008020E00080400000804020008040400080406000804080
310
008040A0008040C0008040E00080600000806020008060400080606000806080008060A0008060C0008060E00080800000808020008080400080806000808080008080A0008080C0008080E00080A0000080A0200080A0400080A0600080A0800080A0A00080A0C00080A0E00080C0000080C0200080C0400080C0600080C0
310
800080C0A00080C0C00080C0E00080E0000080E0200080E0400080E0600080E0800080E0A00080E0C00080E0E000C0000000C0002000C0004000C0006000C0008000C000A000C000C000C000E000C0200000C0202000C0204000C0206000C0208000C020A000C020C000C020E000C0400000C0402000C0404000C0406000C0
310
408000C040A000C040C000C040E000C0600000C0602000C0604000C0606000C0608000C060A000C060C000C060E000C0800000C0802000C0804000C0806000C0808000C080A000C080C000C080E000C0A00000C0A02000C0A04000C0A06000C0A08000C0A0A000C0A0C000C0A0E000C0C00000C0C02000C0C04000C0C06000
310
C0C08000C0C0A000F0FBFF00A4A0A000808080000000FF0000FF000000FFFF00FF000000FF00FF00FFFF0000FFFFFF0000000000000000000000000000000000000000000000000000000000000000000000000000000000000000000000000000000000000000000000000000000000000000000000000000000000000000
310
0000000000FFA4FFA4FFA4FFA40000000000000000000000000000000000000000000000A4F9F9F9F9F9F9F9F9A400000000000000000000000000000000000000000000F9F9F9F9F9F9F9F9F9A400000000000000000000000000000000000000000000F9F9F9F9F9F9F9F9F9F90000000000000000FF0000000000000000
310
0000000000FFA400A4A400A400A4A40000000000000000FFFF000000000000000000000000A400A400A4A400A400A40000000000000000A400FF0000000000000000000000FFA400A400A4A400A4FF0000000000000000FFA400A4FFA4A4FFA4FFA4FFA4FFA400A400A400A4A400A40000000000000000FFFFA4A4A4A4A4A4
310
A4A4A4A4A4A4A4A4A4A400A400A4A4FF0000000000000000FF0000FFA4FFA4FFA4A4FFA4FFA4FFA4FFA4A4FFA4FFA4A40000000000000000FF0000FF00000000000000000000000000000000000000FF0000000000000000090000FF00000000000000000000000000000000000000FF00000000090909090909FAFAFAFAFA
310
FAFAFAFAFAFAFAFAFAFAFAFAFAFAFAFAFAFAFA000009090909090000FF00000000000000000000000000000000000000FF0000000000000000FF0000FF00000000000000000000000000000000000000FF0000000000000000FF0000A4A4FFA4FFA4FFA4FFA4A4FFA4FFA4FFA4FFA4A4FF0000000000000000FF00A400A4A4
310
00A400A400A400A4A400A400A400A400A4A40000000000000000FFA400A400A4A400A400A400A400A4A400A400A400A4A4FF0000000000000000A400A4FFA4FFA4A4FFA4FFA4FFA4FFA4A400A400A4A400A40000000000000000FFA4A40000000000000000000000A4A400A400A4A400A4FF0000000000000000A4A4000000
310
000000000000000000FFA4A400A400A4A400A40000000000000000FF00000000000000000000000000A400A4A4FFA4FAA4A4FF00000000000000000000000000000000000000000000FFA4A400A400FAFFA4A400000000000000000000000000000000000000000000A400A4A4FF00FAA400A4000000000000000000000000
310
00000000000000000000FFA4A400A400FAFFA4FF0000000000000000000000000000000000000000000000FFA4A4FFFFFAA4FF0000000000000000000000000000000000000000000000000000000000FA00000000000000000000000000000000000000000000000000000000000000FA0000000000000000000000000000
310
0000000000000000000000000000000000000000000000000000000000000000000000000000000000000000000000000000000000000000
102
{BLKREFS
331
81B
102
}
  0
ENDTAB
  0
ENDSEC
  0
SECTION
  2
BLOCKS
  0
BLOCK
  5
20
330
1F
100
AcDbEntity
  8
0
100
AcDbBlockBegin
  2
*Model_Space
 70
     0
 10
0.0
 20
0.0
 30
0.0
  3
*Model_Space
  1

  0
ENDBLK
  5
21
330
1F
100
AcDbEntity
  8
0
100
AcDbBlockEnd
  0
BLOCK
  5
1C
330
1B
100
AcDbEntity
 67
     1
  8
0
100
AcDbBlockBegin
  2
*Paper_Space
 70
     0
 10
0.0
 20
0.0
 30
0.0
  3
*Paper_Space
  1

  0
ENDBLK
  5
1D
330
1B
100
AcDbEntity
 67
     1
  8
0
100
AcDbBlockEnd
  0
BLOCK
  5
24
330
23
100
AcDbEntity
 67
     1
  8
0
100
AcDbBlockBegin
  2
*Paper_Space0
 70
     0
 10
0.0
 20
0.0
 30
0.0
  3
*Paper_Space0
  1

  0
ENDBLK
  5
25
330
23
100
AcDbEntity
 67
     1
  8
0
100
AcDbBlockEnd
  0
BLOCK
  5
331
330
32A
100
AcDbEntity
  8
0
100
AcDbBlockBegin
  2
insertpoint-ECKELT
 70
     2
 10
0.0
 20
0.0
 30
0.0
  3
insertpoint-ECKELT
  1

  0
ATTDEF
  5
32B
330
32A
100
AcDbEntity
  8
insertpoint_ECKELT
100
AcDbText
 10
-2.457298772169167
 20
-0.0000000000000255
 30
0.0
 40
0.6
  1
LW
 72
     2
 11
-1.199999999999999
 21
-0.0000000000000255
 31
0.0
100
AcDbAttributeDefinition
  3
Nr. links
  2
LINKS
 70
     0
  0
ATTDEF
  5
32C
330
32A
100
AcDbEntity
  8
insertpoint_ECKELT
100
AcDbText
 10
1.199999999999999
 20
-0.0000000000000255
 30
0.0
 40
0.6
  1
LW
100
AcDbAttributeDefinition
  3
Nr. rechts
  2
RECHTS
 70
     0
  0
LINE
  5
32D
102
{ACAD_REACTORS
330
330
102
}
330
32A
100
AcDbEntity
  8
insertpoint_ECKELT
100
AcDbLine
 10
0.0
 20
1.799999999999999
 30
0.0
 11
0.0
 21
-1.799999999999999
 31
0.0
  0
LINE
  5
32E
102
{ACAD_REACTORS
330
330
102
}
330
32A
100
AcDbEntity
  8
insertpoint_ECKELT
100
AcDbLine
 10
-1.8
 20
-0.0000000000000255
 30
0.0
 11
1.8
 21
-0.0000000000000255
 31
0.0
  0
CIRCLE
  5
32F
102
{ACAD_REACTORS
330
330
102
}
330
32A
100
AcDbEntity
  8
insertpoint_ECKELT
100
AcDbCircle
 10
0.0
 20
0.0
 30
0.0
 40
1.199999999999999
  0
HATCH
  5
330
330
32A
100
AcDbEntity
  8
insertpoint_ECKELT
100
AcDbHatch
 10
0.0
 20
0.0
 30
0.0
210
0.0
220
0.0
230
1.0
  2
SOLID
 70
     1
 71
     1
 91
        2
 92
        7
 72
     1
 73
     1
 93
        3
 10
0.0
 20
-0.0000000000000255
 42
0.0
 10
0.0
 20
1.199999999999999
 42
0.4142135623731013
 10
-1.199999999999999
 20
-0.0000000000000255
 42
0.0
 97
        3
330
32F
330
32E
330
32D
 92
        7
 72
     1
 73
     1
 93
        3
 10
1.199999999999999
 20
-0.0000000000000255
 42
0.0
 10
0.0
 20
-0.0000000000000255
 42
0.0
 10
0.0
 20
-1.199999999999999
 42
0.4142135623730888
 97
        3
330
32E
330
32D
330
32F
 75
     0
 76
     1
 47
0.0223086566480813
 98
        2
 10
-0.3163651093721391
 20
0.2714132920773493
 10
0.7415965996738798
 20
-0.4513871917946231
450
        0
451
        0
460
0.0
461
0.0
452
        0
462
0.0
453
        0
470

  0
ENDBLK
  5
332
330
32A
100
AcDbEntity
  8
0
100
AcDbBlockEnd
  0
BLOCK
  5
77E
330
77A
100
AcDbEntity
  8
0
100
AcDbBlockBegin
  2
LW 3030-15-01
 70
     0
 10
0.0
 20
0.0
 30
0.0
  3
LW 3030-15-01
  1

  0
LINE
  5
780
330
77A
100
AcDbEntity
  8
LW 3030-STADIP-01
 48
0.0
100
AcDbLine
 10
18.76
 20
-23.0
 30
0.0
 11
31.55289321881344
 21
-23.0
 31
0.0
  0
LINE
  5
781
330
77A
100
AcDbEntity
  8
LW 3030-STADIP-01
 48
0.0
100
AcDbLine
 10
34.76
 20
-5.5
 30
0.0
 11
5.25
 21
-5.5
 31
0.0
  0
LINE
  5
782
330
77A
100
AcDbEntity
  8
LW 3030-STADIP-01
 48
0.0
100
AcDbLine
 10
5.25
 20
5.5
 30
0.0
 11
34.76
 21
5.5
 31
0.0
  0
LINE
  5
783
330
77A
100
AcDbEntity
  8
LW 3030-STADIP-01
 48
0.0
100
AcDbLine
 10
25.26
 20
23.0
 30
0.0
 11
18.76
 21
23.0
 31
0.0
  0
LINE
  5
784
330
77A
100
AcDbEntity
  8
LW 3030-STADIP-01
 48
0.0
100
AcDbLine
 10
16.76
 20
-11.0
 30
0.0
 11
16.76
 21
-22.0
 31
0.0
  0
LINE
  5
785
330
77A
100
AcDbEntity
  8
LW 3030-STADIP-01
 48
0.0
100
AcDbLine
 10
16.76
 20
-22.0
 30
0.0
 11
18.76
 21
-22.0
 31
0.0
  0
LINE
  5
786
330
77A
100
AcDbEntity
  8
LW 3030-STADIP-01
 48
0.0
100
AcDbLine
 10
18.76
 20
-22.0
 30
0.0
 11
18.76
 21
-23.0
 31
0.0
  0
LINE
  5
787
330
77A
100
AcDbEntity
  8
LW 3030-STADIP-01
 48
0.0
100
AcDbLine
 10
5.25
 20
5.5
 30
0.0
 11
5.25
 21
-5.5
 31
0.0
  0
LINE
  5
788
330
77A
100
AcDbEntity
  8
LW 3030-STADIP-01
 48
0.0
100
AcDbLine
 10
5.0
 20
-11.0
 30
0.0
 11
0.0
 21
-16.0
 31
0.0
  0
LINE
  5
789
330
77A
100
AcDbEntity
  8
LW 3030-STADIP-01
 48
0.0
100
AcDbLine
 10
0.0
 20
-16.0
 30
0.0
 11
5.0
 21
-11.0
 31
0.0
  0
LINE
  5
78A
330
77A
100
AcDbEntity
  8
LW 3030-STADIP-01
 48
0.0
100
AcDbLine
 10
5.25
 20
-5.5
 30
0.0
 11
0.0
 21
-10.75
 31
0.0
  0
LINE
  5
78B
330
77A
100
AcDbEntity
  8
LW 3030-STADIP-01
 48
0.0
100
AcDbLine
 10
0.0
 20
16.0
 30
0.0
 11
0.0
 21
-16.0
 31
0.0
  0
LINE
  5
78C
330
77A
100
AcDbEntity
  8
LW 3030-STADIP-01
 48
0.0
100
AcDbLine
 10
5.0
 20
-11.0
 30
0.0
 11
16.76
 21
-11.0
 31
0.0
  0
LINE
  5
78D
330
77A
100
AcDbEntity
  8
LW 3030-STADIP-01
 48
0.0
100
AcDbLine
 10
0.0
 20
16.0
 30
0.0
 11
5.0
 21
11.0
 31
0.0
  0
LINE
  5
78E
330
77A
100
AcDbEntity
  8
LW 3030-STADIP-01
 48
0.0
100
AcDbLine
 10
0.0
 20
10.75
 30
0.0
 11
5.25
 21
5.5
 31
0.0
  0
LINE
  5
78F
330
77A
100
AcDbEntity
  8
LW 3030-STADIP-01
 48
0.0
100
AcDbLine
 10
5.0
 20
11.0
 30
0.0
 11
0.0
 21
16.0
 31
0.0
  0
LINE
  5
790
330
77A
100
AcDbEntity
  8
LW 3030-STADIP-01
 48
0.0
100
AcDbLine
 10
18.76
 20
23.0
 30
0.0
 11
18.76
 21
22.0
 31
0.0
  0
LINE
  5
791
330
77A
100
AcDbEntity
  8
LW 3030-STADIP-01
 48
0.0
100
AcDbLine
 10
18.76
 20
22.0
 30
0.0
 11
16.76
 21
22.0
 31
0.0
  0
LINE
  5
792
330
77A
100
AcDbEntity
  8
LW 3030-STADIP-01
 48
0.0
100
AcDbLine
 10
16.76
 20
22.0
 30
0.0
 11
16.76
 21
11.0
 31
0.0
  0
LINE
  5
793
330
77A
100
AcDbEntity
  8
LW 3030-STADIP-01
 48
0.0
100
AcDbLine
 10
16.76
 20
11.0
 30
0.0
 11
5.0
 21
11.0
 31
0.0
  0
LINE
  5
794
330
77A
100
AcDbEntity
  8
LW 3030-STADIP-01
 48
0.0
100
AcDbLine
 10
34.76
 20
-19.79289321881345
 30
0.0
 11
34.76
 21
19.79289321881345
 31
0.0
  0
ARC
  5
795
330
77A
100
AcDbEntity
  8
LW 3030-STADIP-01
 48
0.0
100
AcDbCircle
 10
31.55289321881344
 20
-22.5
 30
0.0
 40
0.4999999999999983
100
AcDbArc
 50
270.0
 51
314.9999999999998
  0
LINE
  5
796
330
77A
100
AcDbEntity
  8
LW 3030-STADIP-01
 48
0.0
100
AcDbLine
 10
31.90644660940666
 20
-22.85355339059322
 30
0.0
 11
34.61355339059322
 21
-20.14644660940667
 31
0.0
  0
ARC
  5
797
330
77A
100
AcDbEntity
  8
LW 3030-STADIP-01
 48
0.0
100
AcDbCircle
 10
34.26
 20
-19.79289321881345
 30
0.0
 40
0.500000000000007
100
AcDbArc
 50
314.9999999999998
 51
0.0
  0
ARC
  5
798
330
77A
100
AcDbEntity
  8
LW 3030-STADIP-01
 48
0.0
100
AcDbCircle
 10
34.26
 20
19.79289321881345
 30
0.0
 40
0.5000000000000071
100
AcDbArc
 50
0.0
 51
44.99999999999791
  0
LINE
  5
799
330
77A
100
AcDbEntity
  8
LW 3030-STADIP-01
 48
0.0
100
AcDbLine
 10
34.61355339059322
 20
20.14644660940678
 30
0.0
 11
31.90644660940666
 21
22.85355339059333
 31
0.0
  0
ARC
  5
79A
330
77A
100
AcDbEntity
  8
LW 3030-STADIP-01
 48
0.0
100
AcDbCircle
 10
31.55289321881344
 20
22.50000000000011
 30
0.0
 40
0.4999999999999991
100
AcDbArc
 50
45.00000000000022
 51
90.0
  0
LINE
  5
79B
330
77A
100
AcDbEntity
  8
LW 3030-STADIP-01
 48
0.0
100
AcDbLine
 10
31.55289321881344
 20
23.0
 30
0.0
 11
30.26
 21
23.0
 31
0.0
  0
LINE
  5
79C
330
77A
100
AcDbEntity
  8
LW 3030-STADIP-01
 48
0.0
100
AcDbLine
 10
30.26
 20
23.0
 30
0.0
 11
30.26
 21
17.0
 31
0.0
  0
LINE
  5
79D
330
77A
100
AcDbEntity
  8
LW 3030-STADIP-01
 48
0.0
100
AcDbLine
 10
30.26
 20
17.00000000000011
 30
0.0
 11
27.76
 21
15.55662432702593
 31
0.0
  0
LINE
  5
79E
330
77A
100
AcDbEntity
  8
LW 3030-STADIP-01
 48
0.0
100
AcDbLine
 10
27.76
 20
15.55662432702593
 30
0.0
 11
25.26
 21
17.00000000000011
 31
0.0
  0
LINE
  5
79F
330
77A
100
AcDbEntity
  8
LW 3030-STADIP-01
 48
0.0
100
AcDbLine
 10
25.26
 20
17.0
 30
0.0
 11
25.26
 21
23.0
 31
0.0
  0
LINE
  5
7A0
330
77A
100
AcDbEntity
  8
LW 3030-STADIP-01
 48
0.0
100
AcDbLine
 10
30.26
 20
17.0
 30
0.0
 11
25.26
 21
17.0
 31
0.0
  0
LWPOLYLINE
  5
7A1
330
77A
100
AcDbEntity
  8
LW 3030-STADIP-01
 48
0.0
100
AcDbPolyline
 90
       25
 70
     0
 43
0.0
 10
25.25999976158142
 20
22.99999952316284
 10
25.28101755142212
 20
22.99768447875977
 10
25.34435583114624
 20
22.99094438552856
 10
25.45044494628906
 20
22.98007965087891
 10
25.59832883834839
 20
22.96570539474487
 10
25.78154040336609
 20
22.94918775558472
 10
25.99223567008972
 20
22.93196439743042
 10
26.23257947921753
 20
22.91472673416138
 10
26.50519801139831
 20
22.89817333221435
 10
26.80294943809509
 20
22.88374900817871
 10
27.11811853408813
 20
22.87283420562744
 10
27.44067383766174
 20
22.86605596542358
 10
27.75999976158142
 20
22.86372661590576
 10
28.0793256855011
 20
22.86605596542358
 10
28.4018821811676
 20
22.87283420562744
 10
28.71705127716064
 20
22.88374900817871
 10
29.01480270385742
 20
22.89817333221435
 10
29.28742004394531
 20
22.91472673416138
 10
29.52776266098022
 20
22.93196439743042
 10
29.73846031188965
 20
22.94918775558472
 10
29.92167068481445
 20
22.96570539474487
 10
30.06955457687378
 20
22.98007965087891
 10
30.1756436920166
 20
22.99094438552856
 10
30.23898197174072
 20
22.99768447875977
 10
30.26000095367431
 20
22.99999952316284
  0
LINE
  5
7A2
330
77A
100
AcDbEntity
  8
LW 3030-STADIP-01
  6
MITTE2
 62
     3
100
AcDbLine
 10
27.76
 20
11.55662432702604
 30
0.0
 11
27.76
 21
27.0467915097197
 31
0.0
  0
LINE
  5
7A3
330
77A
100
AcDbEntity
  8
LW 3030-STADIP-01
  6
MITTE2
 62
     3
100
AcDbLine
 10
-2.5
 20
0.0
 30
0.0
 11
37.26
 21
0.0000000000001137
 31
0.0
  0
INSERT
  5
7A4
330
77A
100
AcDbEntity
  8
insertpoint_ECKELT
100
AcDbBlockReference
 66
     1
  2
insertpoint-ECKELT
 10
0.0
 20
0.0
 30
0.0
  0
ATTRIB
  5
7A5
330
7A4
100
AcDbEntity
  8
insertpoint_ECKELT
100
AcDbText
 10
-6.931514324693087
 20
0.0
 30
0.0
 40
0.6
  1
LW 3030/15-01
 72
     2
 11
-1.200000000000045
 21
0.0
 31
0.0
100
AcDbAttribute
  2
LINKS
 70
     0
  0
ATTRIB
  5
7A6
330
7A4
100
AcDbEntity
  8
insertpoint_ECKELT
100
AcDbText
 10
1.200000000000045
 20
0.0
 30
0.0
 40
0.6
  1

100
AcDbAttribute
  2
RECHTS
 70
     0
  0
SEQEND
  5
7A7
330
7A4
100
AcDbEntity
  8
insertpoint_ECKELT
  0
HATCH
  5
7A8
330
77A
100
AcDbEntity
  8
LW 3030-STADIP-01
 62
     1
100
AcDbHatch
 10
0.0
 20
0.0
 30
0.0
210
0.0
220
0.0
230
1.0
  2
SOLID
 70
     1
 71
     0
 91
        5
 92
        7
 72
     0
 73
     1
 93
       76
 10
20.83600150507756
 20
-18.08856979069753
 10
20.86786033445038
 20
-18.03698882885578
 10
20.98601845868167
 20
-17.88574642983974
 10
21.12049653389432
 20
-17.74532229957731
 10
21.26651644035588
 20
-17.61693773786396
 10
21.43018523643787
 20
-17.50003145494827
 10
21.60557218980262
 20
-17.39785357312655
 10
21.78732512240288
 20
-17.30650189354367
 10
21.96849405786862
 20
-17.23698358109755
 10
19.71135611966861
 20
-17.23698358109755
 10
19.49845956726859
 20
-17.24567323629753
 10
19.2964250838686
 20
-17.27174220189749
 10
19.10090784186855
 20
-17.31301806409749
 10
18.91625266886877
 20
-17.36732840909747
 10
18.74028715106852
 20
-17.43684565069748
 10
18.57301128846871
 20
-17.51939737509758
 10
18.42244302592167
 20
-17.61472289264145
 10
18.27973542546875
 20
-17.72143185849756
 10
18.1542941698981
 20
-17.84048013473762
 10
18.04302921782062
 20
-17.96873944548952
 10
17.94301128646862
 20
-18.10594910109751
 10
17.86045956206863
 20
-18.25150082569746
 10
17.79745956186867
 20
-18.40574220549763
 10
17.74749404446868
 20
-18.56650082669739
 10
17.71925266506867
 20
-18.73160427549749
 10
17.71056300986857
 20
-18.90539737949746
 10
17.72142507886861
 20
-19.07919048349754
 10
17.75183887206868
 20
-19.24646634609757
 10
17.80614921706866
 20
-19.40722496729756
 10
17.87566645866855
 20
-19.56363876089756
 10
17.96473542446871
 20
-19.71136289929757
 10
18.0711837006686
 20
-19.85256979629753
 10
18.1938816320926
 20
-19.98378358981756
 10
18.33008068080085
 20
-20.10491738330552
 10
18.47742508126863
 20
-20.2153629008975
 10
18.63818370246873
 20
-20.31312152189753
 10
18.81381032371588
 20
-20.39801945320153
 10
18.99445956566865
 20
-20.47170772929746
 10
19.18563198006871
 20
-20.52819048809749
 10
19.38549404966864
 20
-20.57163876409754
 10
19.59404577446867
 20
-20.5977077296975
 10
19.80476991306865
 20
-20.60639738489749
 10
21.9239409988212
 20
-20.60639738489749
 10
21.76339713476865
 20
-20.54332658116266
 10
21.57983299096623
 20
-20.45270630763992
 10
21.41136658479628
 20
-20.34817661470822
 10
21.24853369003541
 20
-20.23255837628278
 10
21.10462132166527
 20
-20.10276877974297
 10
20.97718542818098
 20
-19.96341509651449
 10
20.86348007343759
 20
-19.81292685180187
 10
20.81150884198906
 20
-19.72874220969754
 10
19.78304577506856
 20
-19.72874220969754
 10
19.65093694706298
 20
-19.72118220967354
 10
19.52018370526867
 20
-19.70084841650555
 10
19.39201129106869
 20
-19.66791462329752
 10
19.27687335966858
 20
-19.62229393349753
 10
19.17192839381824
 20
-19.5658111746975
 10
19.07377873833423
 20
-19.49820565724155
 10
18.98359749666861
 20
-19.42025945009755
 10
18.91190784126866
 20
-19.3355353118975
 10
20.63942915552753
 20
-19.3355353118975
 10
20.62884468825451
 20
-19.30289987113917
 10
20.59273288028999
 20
-19.11752592358812
 10
20.58068922750829
 20
-18.92723620963738
 10
20.59271089993764
 20
-18.73248511628242
 10
20.6290166216129
 20
-18.54611574501587
 10
20.64561532428798
 20
-18.49698358509749
 10
18.87497680666866
 20
-18.49698358509749
 10
18.94449404826856
 20
-18.40139737789764
 10
19.02704577266855
 20
-18.31884565349753
 10
19.12213666952221
 20
-18.2489808256895
 10
19.22473542846865
 20
-18.19067323929755
 10
19.34342742884542
 20
-18.14670358398553
 10
19.46587336026869
 20
-18.11463875629749
 10
19.60273542966866
 20
-18.09508703209758
 10
19.74611474046868
 20
-18.08856979069753
 97
        0
 92
        7
 72
     0
 73
     1
 93
       72
 10
22.56446537010539
 20
-18.10316841143356
 10
22.6873284049782
 20
-18.08509392861754
 10
22.81139061226873
 20
-18.07988013549755
 10
24.08008027146867
 20
-18.07988013549755
 10
23.23283888946868
 20
-18.89453531049753
 10
24.99901130886861
 20
-20.61291462629754
 10
26.31766648546864
 20
-20.61291462629754
 10
24.60363199726863
 20
-18.87063875869751
 10
26.28508027846863
 20
-17.23698358109755
 10
22.84614923306868
 20
-17.23698358109755
 10
22.63816233585659
 20
-17.24775875354555
 10
22.43144412830385
 20
-17.2732194432815
 10
22.22701130006863
 20
-17.31301806409749
 10
22.03366647186864
 20
-17.36950082289752
 10
21.84683888506857
 20
-17.44119047829747
 10
21.67567874659415
 20
-17.52721806477757
 10
21.51011474606868
 20
-17.62367323749754
 10
21.35804578006867
 20
-17.73229392749749
 10
21.22234812446551
 20
-17.85160289339353
 10
21.09735612406872
 20
-17.98212151449752
 10
20.98873543406854
 20
-18.12115599769754
 10
20.89749405446867
 20
-18.26888013609744
 10
20.82580439906861
 20
-18.42312151589749
 10
20.77149405406863
 20
-18.58388013709748
 10
20.73890784706874
 20
-18.75115599969752
 10
20.7280457780687
 20
-18.92712151749765
 10
20.73890784706863
 20
-19.09874220769757
 10
20.77149405406863
 20
-19.26601807029749
 10
20.82363198526856
 20
-19.42677669149748
 10
20.89314922686868
 20
-19.58101807129753
 10
20.98499019267741
 20
-19.72978496832149
 10
21.09036964128792
 20
-19.86925393428157
 10
21.2083751589039
 20
-19.99829531400144
 10
21.34066646966858
 20
-20.11760427989748
 10
21.49278757359981
 20
-20.22561669403353
 10
21.65132164306875
 20
-20.32398359089757
 10
21.82294233326866
 20
-20.4087077290975
 10
22.00542509246862
 20
-20.48039738449757
 10
22.19965626549902
 20
-20.53444703984155
 10
22.39645957646861
 20
-20.57815600549748
 10
22.60501130126864
 20
-20.60422497109755
 10
22.81573543986861
 20
-20.61291462629754
 10
24.71876992866863
 20
-20.61291462629754
 10
23.83242509826869
 20
-19.73960427869747
 10
22.81573543986861
 20
-19.73960427869747
 10
22.74906840517406
 20
-19.73585698575823
 10
22.64812068071593
 20
-19.72587462348156
 10
22.52798619757585
 20
-19.70441117513758
 10
22.41086702479027
 20
-19.67008703709757
 10
22.30937185205426
 20
-19.62915876110549
 10
22.25323667946214
 20
-19.6010042782575
 10
22.19955198963658
 20
-19.5684180712575
 10
22.06699129956065
 20
-19.46909531232154
 10
21.99338992001663
 20
-19.39905669140955
 10
21.93832357501436
 20
-19.33119048429762
 10
21.88961805761824
 20
-19.25863186337756
 10
21.8502539195622
 20
-19.18146772520151
 10
21.82083074705498
 20
-19.10004565597762
 10
21.80013198836856
 20
-19.01288841432154
 10
21.79261543662063
 20
-18.92355875886562
 10
21.79397102283179
 20
-18.86125393108159
 10
21.79997557457501
 20
-18.79912289640163
 10
21.81213240219984
 20
-18.73594910309748
 10
21.830345919499
 20
-18.67425255117757
 10
21.87399405756856
 20
-18.57553806810563
 10
21.9155219197694
 20
-18.50767186099358
 10
21.97860012686625
 20
-18.42963875729754
 10
22.10800206723105
 20
-18.30311602024392
 10
22.16726992056875
 20
-18.26305806711355
 10
22.24356509322457
 20
-18.21874082559361
 10
22.32758536935342
 20
-18.1765959978735
 10
22.44412233524054
 20
-18.13375599773758
 97
        0
 92
        7
 72
     0
 73
     1
 93
       57
 10
27.12250235009265
 20
-18.12524013564155
 10
27.25397683326868
 20
-18.08526772172149
 10
27.38866648886859
 20
-18.05815599749746
 10
27.5320457996686
 20
-18.04946634229748
 10
28.77249407946864
 20
-18.04946634229748
 10
28.77249407946864
 20
-17.22394909829757
 10
27.53856304106876
 20
-17.22394909829757
 10
27.32783890246868
 20
-17.23263875349755
 10
27.1214595914687
 20
-17.26088013289745
 10
26.92376993566871
 20
-17.30215599509745
 10
26.7347699350687
 20
-17.35646634009754
 10
26.55011476206869
 20
-17.42815599549749
 10
26.38370786498855
 20
-17.51079461644951
 10
26.22488703689818
 20
-17.6072497891696
 10
26.07480800193913
 20
-17.71673944468955
 10
25.94024869116721
 20
-17.83596151403344
 10
25.82018372526864
 20
-17.96474220409755
 10
25.71590786286868
 20
-18.10377668729756
 10
25.63118372466864
 20
-18.24932841189752
 10
25.55949406926858
 20
-18.40356979169758
 10
25.50952855186871
 20
-18.56432841289745
 10
25.47694234486858
 20
-18.73160427549749
 10
25.46608027586866
 20
-18.90539737949746
 10
25.47694234486858
 20
-19.07919048349754
 10
25.50952855186871
 20
-19.24646634609757
 10
25.56166648306863
 20
-19.40722496729756
 10
25.63335613846858
 20
-19.56363876089756
 10
25.72025269046868
 20
-19.71136289929757
 10
25.82909931150381
 20
-19.85091876180957
 10
25.94895572567749
 20
-19.98126358980949
 10
26.0853833123174
 20
-20.10257117640151
 10
26.2329423472686
 20
-20.21319048709756
 10
26.3937009684687
 20
-20.31094910809759
 10
26.56749407246867
 20
-20.39567324629752
 10
26.75214924546868
 20
-20.46953531549752
 10
26.94332165986863
 20
-20.52601807429756
 10
27.14318372946856
 20
-20.56946635029749
 10
27.34956304046864
 20
-20.59336290209751
 10
27.56245959286867
 20
-20.6020525572975
 10
28.77249407946864
 20
-20.6020525572975
 10
28.77249407946864
 20
-19.74394910629758
 10
27.53856304106854
 20
-19.74394910629758
 10
27.40491614409258
 20
-19.73360841660951
 10
27.2726595919487
 20
-19.71162358895355
 10
27.15204717777261
 20
-19.67729945091355
 10
27.03604028085261
 20
-19.62933255420955
 10
26.92637683222871
 20
-19.5684180712575
 10
26.82931338364461
 20
-19.50081255380155
 10
26.74189545233265
 20
-19.42104151906551
 10
26.66742510726864
 20
-19.3355353118975
 10
28.77249407946864
 20
-19.3355353118975
 10
28.77249407946864
 20
-18.50784565409753
 10
26.63049407266863
 20
-18.50784565409753
 10
26.70001131426865
 20
-18.41008703309751
 10
26.78690786626863
 20
-18.32101806729759
 10
26.88805545279662
 20
-18.24472289464154
 10
26.99545959106866
 20
-18.17763875649757
 97
        0
 92
        7
 72
     0
 73
     1
 93
        6
 10
29.00276994226864
 20
-17.23698358109755
 10
29.00276994226864
 20
-20.60639738489749
 10
31.24035615626873
 20
-20.60639738489749
 10
31.24035615626873
 20
-19.73960427869747
 10
30.02597684206865
 20
-19.73960427869747
 10
30.02597684206865
 20
-17.23698358109755
 97
        0
 92
        7
 72
     0
 73
     1
 93
        8
 10
30.25842511866859
 20
-17.23698358109755
 10
30.25842511866859
 20
-18.06250082509757
 10
31.49235615706858
 20
-18.06250082509757
 10
31.49235615706858
 20
-20.61291462629754
 10
32.51773547066865
 20
-20.61291462629754
 10
32.51773547066865
 20
-18.06250082509757
 10
33.76035616426862
 20
-18.06250082509757
 10
33.76035616426862
 20
-17.23698358109755
 97
        0
 75
     0
 76
     1
 47
0.0142553043587597
 98
        5
 10
20.14566163114388
 20
-17.67943325068666
 10
22.41315884448637
 20
-17.82198623569241
 10
26.90537057668804
 20
-17.7649650631447
 10
29.62921966051954
 20
-17.52262483845243
 10
31.04105764274642
 20
-17.62241197086575
450
        0
451
        0
460
0.0
461
0.0
452
        0
462
0.0
453
        0
470

  0
HATCH
  5
7A9
330
77A
100
AcDbEntity
  8
LW 3030-STADIP-01
 62
     8
100
AcDbHatch
 10
0.0
 20
0.0
 30
0.0
210
0.0
220
0.0
230
1.0
  2
ANSI31
 70
     0
 71
     0
 91
        7
 92
        7
 72
     1
 73
     1
 93
       18
 10
34.76
 20
19.79289321881345
 42
0.1989123673796578
 10
34.61355339059327
 20
20.14644660940672
 42
0.0
 10
31.90644660940666
 20
22.85355339059333
 42
0.1989123673796719
 10
31.55289321881334
 20
23.0
 42
0.0
 10
30.26
 20
23.0
 42
0.0
 10
30.26
 20
17.00000000000011
 42
0.0
 10
27.76
 20
15.55662432702594
 42
0.0
 10
25.26
 20
17.0000000000001
 42
0.0
 10
25.26
 20
23.0
 42
0.0
 10
18.76
 20
23.0
 42
0.0
 10
18.76
 20
22.0
 42
0.0
 10
16.76
 20
22.0
 42
0.0
 10
16.76
 20
11.0
 42
0.0
 10
4.999999999999989
 20
11.0
 42
0.0
 10
0.0
 20
16.0
 42
0.0
 10
0.0
 20
10.75
 42
0.0
 10
5.250000000000007
 20
5.500000000000014
 42
0.0
 10
34.76000000000001
 20
5.5
 42
0.0
 97
        0
 92
        7
 72
     1
 73
     1
 93
       13
 10
34.76000000000001
 20
-5.499999999999992
 42
0.0
 10
5.249999999999996
 20
-5.5
 42
0.0
 10
0.0
 20
-10.74999999999999
 42
0.0
 10
0.0
 20
-16.0
 42
0.0
 10
5.0
 20
-11.0
 42
0.0
 10
16.76
 20
-11.0
 42
0.0
 10
16.76
 20
-22.0
 42
0.0
 10
18.76
 20
-22.0
 42
0.0
 10
18.76
 20
-23.0
 42
0.0
 10
31.55289321881344
 20
-23.0
 42
0.1989123673796378
 10
31.90644660940666
 20
-22.85355339059323
 42
0.0
 10
34.61355339059322
 20
-20.14644660940667
 42
0.198912367379698
 10
34.76
 20
-19.79289321881333
 42
0.0
 97
        0
 92
       22
 72
     0
 73
     1
 93
       73
 10
26.28508027846863
 20
-17.23698358109755
 10
24.60363199726862
 20
-18.87063875869752
 10
26.31766648546864
 20
-20.61291462629754
 10
24.99901130886861
 20
-20.61291462629753
 10
23.23283888946868
 20
-18.89453531049754
 10
24.08008027146867
 20
-18.07988013549755
 10
22.8113906122688
 20
-18.07988013549755
 10
22.68732840497816
 20
-18.08509392861753
 10
22.56446537010537
 20
-18.10316841143358
 10
22.44412233524056
 20
-18.13375599773759
 10
22.32758536935349
 20
-18.17659599787353
 10
22.24356509322457
 20
-18.21874082559353
 10
22.16726992056866
 20
-18.26305806711351
 10
22.12702812733745
 20
-18.2902566878895
 10
22.08951488583897
 20
-18.32119186040156
 10
21.97860012686625
 20
-18.42963875729754
 10
21.91552191976939
 20
-18.5076718609936
 10
21.87399405756856
 20
-18.57553806810551
 10
21.83034591949901
 20
-18.67425255117757
 10
21.81213240219983
 20
-18.73594910309748
 10
21.79997557457501
 20
-18.79912289640147
 10
21.79397102283179
 20
-18.86125393108145
 10
21.79261543662063
 20
-18.92355875886554
 10
21.80013198836867
 20
-19.01288841432152
 10
21.82083074705497
 20
-19.10004565597747
 10
21.85025391956222
 20
-19.18146772520156
 10
21.88961805761825
 20
-19.25863186337757
 10
21.93832357501427
 20
-19.33119048429761
 10
21.99338992001663
 20
-19.39905669140955
 10
22.06699129956065
 20
-19.46909531232158
 10
22.19955198963657
 20
-19.56841807125745
 10
22.25323667946223
 20
-19.6010042782575
 10
22.30937185205419
 20
-19.62915876110552
 10
22.41086702479026
 20
-19.67008703709758
 10
22.52798619757584
 20
-19.70441117513748
 10
22.64812068071587
 20
-19.72587462348157
 10
22.74906840517429
 20
-19.73585698575822
 10
22.81573543986862
 20
-19.73960427869746
 10
23.83242509826869
 20
-19.73960427869747
 10
24.71876992866862
 20
-20.61291462629754
 10
22.81573543986891
 20
-20.61291462629755
 10
22.60501130126864
 20
-20.60422497109755
 10
22.39645957646864
 20
-20.57815600549746
 10
22.19965626549895
 20
-20.53444703984154
 10
22.00542509246857
 20
-20.48039738449756
 10
21.82294233326865
 20
-20.40870772909749
 10
21.65132164306855
 20
-20.32398359089758
 10
21.49278757359985
 20
-20.22561669403356
 10
21.34066646966865
 20
-20.11760427989748
 10
21.2083751589039
 20
-19.9982953140015
 10
21.09036964128796
 20
-19.86925393428157
 10
20.98499019267754
 20
-19.72978496832147
 10
20.89314922686869
 20
-19.58101807129755
 10
20.82363198526856
 20
-19.42677669149746
 10
20.77149405406863
 20
-19.2660180702975
 10
20.73890784706863
 20
-19.09874220769759
 10
20.7280457780687
 20
-18.92712151749756
 10
20.73890784706862
 20
-18.75115599969754
 10
20.77149405406863
 20
-18.58388013709747
 10
20.8258043990686
 20
-18.4231215158975
 10
20.89749405446855
 20
-18.26888013609755
 10
20.98873543406868
 20
-18.1211559976975
 10
21.09735612406872
 20
-17.9821215144975
 10
21.2223481244655
 20
-17.85160289339354
 10
21.35804578006861
 20
-17.73229392749745
 10
21.51011474606879
 20
-17.62367323749745
 10
21.67567874659423
 20
-17.52721806477765
 10
21.8468388850686
 20
-17.44119047829761
 10
22.03366647186862
 20
-17.36950082289752
 10
22.22701130006876
 20
-17.31301806409747
 10
22.43144412830382
 20
-17.27321944328151
 10
22.63816233585644
 20
-17.24775875354556
 10
22.84614923306854
 20
-17.23698358109755
 97
        0
 92
       22
 72
     0
 73
     1
 93
       76
 10
21.96849405786862
 20
-17.23698358109755
 10
21.78732512240294
 20
-17.30650189354367
 10
21.60557218980248
 20
-17.39785357312662
 10
21.43018523643773
 20
-17.5000314549483
 10
21.2665164403558
 20
-17.61693773786393
 10
21.12049653389434
 20
-17.74532229957729
 10
20.98601845868155
 20
-17.88574642983986
 10
20.8678603344504
 20
-18.03698882885564
 10
20.83600150507756
 20
-18.08856979069753
 10
19.74611474046845
 20
-18.08856979069754
 10
19.60273542966862
 20
-18.09508703209747
 10
19.4658733602687
 20
-18.11463875629749
 10
19.34342742884542
 20
-18.14670358398553
 10
19.22473542846863
 20
-18.19067323929755
 10
19.12213666952217
 20
-18.24898082568952
 10
19.02704577266865
 20
-18.31884565349755
 10
18.94449404826856
 20
-18.40139737789751
 10
18.87497680666866
 20
-18.49698358509749
 10
20.64561532428798
 20
-18.49698358509749
 10
20.62901662161289
 20
-18.54611574501589
 10
20.59271089993763
 20
-18.73248511628247
 10
20.58068922750841
 20
-18.92723620963742
 10
20.59273288028999
 20
-19.1175259235881
 10
20.62884468825452
 20
-19.30289987113915
 10
20.63942915552754
 20
-19.3355353118975
 10
18.91190784126866
 20
-19.3355353118975
 10
18.98359749666857
 20
-19.42025945009753
 10
19.0737787383342
 20
-19.49820565724153
 10
19.17192839381828
 20
-19.56581117469751
 10
19.27687335966866
 20
-19.62229393349754
 10
19.3920112910687
 20
-19.66791462329753
 10
19.52018370526862
 20
-19.70084841650555
 10
19.65093694706289
 20
-19.72118220967353
 10
19.78304577506854
 20
-19.72874220969756
 10
20.81150884198907
 20
-19.72874220969754
 10
20.86348007343752
 20
-19.81292685180177
 10
20.97718542818097
 20
-19.96341509651457
 10
21.10462132166529
 20
-20.10276877974295
 10
21.24853369003536
 20
-20.23255837628279
 10
21.41136658479625
 20
-20.34817661470817
 10
21.57983299096615
 20
-20.45270630763988
 10
21.76339713476859
 20
-20.54332658116265
 10
21.9239409988212
 20
-20.6063973848975
 10
19.80476991306858
 20
-20.60639738489749
 10
19.59404577446873
 20
-20.59770772969752
 10
19.38549404966863
 20
-20.57163876409755
 10
19.18563198006862
 20
-20.52819048809749
 10
18.99445956566866
 20
-20.47170772929756
 10
18.81381032371592
 20
-20.39801945320154
 10
18.63818370246877
 20
-20.31312152189753
 10
18.47742508126864
 20
-20.21536290089747
 10
18.33008068080084
 20
-20.10491738330557
 10
18.1938816320926
 20
-19.98378358981763
 10
18.07118370066866
 20
-19.8525697962976
 10
17.96473542446872
 20
-19.71136289929757
 10
17.87566645866865
 20
-19.56363876089757
 10
17.80614921706868
 20
-19.40722496729762
 10
17.75183887206869
 20
-19.2464663460976
 10
17.72142507886861
 20
-19.07919048349752
 10
17.71056300986857
 20
-18.90539737949761
 10
17.71925266506856
 20
-18.73160427549748
 10
17.74749404446857
 20
-18.56650082669753
 10
17.79745956186866
 20
-18.40574220549753
 10
17.86045956206864
 20
-18.25150082569757
 10
17.94301128646862
 20
-18.1059491010975
 10
18.04302921782061
 20
-17.96873944548953
 10
18.15429416989796
 20
-17.84048013473754
 10
18.27973542546865
 20
-17.72143185849759
 10
18.42244302592165
 20
-17.61472289264161
 10
18.57301128846869
 20
-17.51939737509745
 10
18.74028715106874
 20
-17.43684565069743
 10
18.91625266886871
 20
-17.36732840909746
 10
19.10090784186865
 20
-17.3130180640975
 10
19.29642508386865
 20
-17.27174220189748
 10
19.49845956726854
 20
-17.24567323629755
 10
19.71135611966862
 20
-17.23698358109754
 97
        0
 92
       22
 72
     0
 73
     1
 93
       57
 10
26.7347699350687
 20
-17.35646634009755
 10
26.92376993566843
 20
-17.3021559950976
 10
27.12145959146853
 20
-17.26088013289758
 10
27.32783890246873
 20
-17.23263875349753
 10
27.53856304106854
 20
-17.22394909829757
 10
28.77249407946864
 20
-17.22394909829757
 10
28.77249407946864
 20
-18.04946634229748
 10
27.53204579966859
 20
-18.04946634229748
 10
27.38866648886873
 20
-18.05815599749746
 10
27.25397683326852
 20
-18.0852677217215
 10
27.12250235009262
 20
-18.12524013564157
 10
26.99545959106867
 20
-18.17763875649756
 10
26.88805545279667
 20
-18.2447228946415
 10
26.78690786626863
 20
-18.32101806729747
 10
26.70001131426866
 20
-18.41008703309747
 10
26.63049407266864
 20
-18.50784565409753
 10
28.77249407946864
 20
-18.50784565409754
 10
28.77249407946864
 20
-19.3355353118975
 10
26.66742510726863
 20
-19.33553531189749
 10
26.74189545233261
 20
-19.42104151906552
 10
26.8293133836446
 20
-19.50081255380151
 10
26.92637683222867
 20
-19.56841807125746
 10
27.03604028085264
 20
-19.62933255420955
 10
27.1520471777726
 20
-19.67729945091356
 10
27.27265959194866
 20
-19.71162358895355
 10
27.40491614409262
 20
-19.7336084166095
 10
27.53856304106867
 20
-19.74394910629758
 10
28.77249407946864
 20
-19.74394910629758
 10
28.77249407946864
 20
-20.6020525572975
 10
27.56245959286866
 20
-20.6020525572975
 10
27.34956304046857
 20
-20.59336290209751
 10
27.14318372946865
 20
-20.56946635029747
 10
26.94332165986864
 20
-20.5260180742976
 10
26.75214924546877
 20
-20.46953531549758
 10
26.56749407246859
 20
-20.39567324629748
 10
26.3937009684687
 20
-20.31094910809743
 10
26.23294234726865
 20
-20.21319048709762
 10
26.08538331231736
 20
-20.10257117640156
 10
25.94895572567744
 20
-19.98126358980949
 10
25.82909931150388
 20
-19.8509187618097
 10
25.72025269046867
 20
-19.71136289929752
 10
25.63335613846858
 20
-19.56363876089755
 10
25.56166648306862
 20
-19.40722496729751
 10
25.5095285518687
 20
-19.24646634609753
 10
25.47694234486858
 20
-19.07919048349757
 10
25.46608027586866
 20
-18.90539737949755
 10
25.47694234486858
 20
-18.73160427549749
 10
25.5095285518687
 20
-18.56432841289757
 10
25.55949406926857
 20
-18.40356979169759
 10
25.63118372466864
 20
-18.24932841189751
 10
25.71590786286856
 20
-18.10377668729758
 10
25.82018372526865
 20
-17.96474220409755
 10
25.94024869116696
 20
-17.83596151403358
 10
26.07480800193916
 20
-17.7167394446895
 10
26.22488703689834
 20
-17.60724978916949
 10
26.38370786498864
 20
-17.51079461644952
 10
26.55011476206864
 20
-17.42815599549752
 97
        0
 92
       22
 72
     0
 73
     1
 93
        6
 10
29.00276994226863
 20
-17.23698358109755
 10
30.02597684206865
 20
-17.23698358109755
 10
30.02597684206865
 20
-19.73960427869746
 10
31.24035615626873
 20
-19.73960427869747
 10
31.24035615626873
 20
-20.60639738489749
 10
29.00276994226864
 20
-20.60639738489749
 97
        0
 92
       22
 72
     0
 73
     1
 93
        8
 10
30.25842511866859
 20
-17.23698358109755
 10
33.76035616426863
 20
-17.23698358109755
 10
33.76035616426862
 20
-18.06250082509758
 10
32.51773547066864
 20
-18.06250082509758
 10
32.51773547066865
 20
-20.61291462629754
 10
31.49235615706859
 20
-20.61291462629754
 10
31.49235615706858
 20
-18.06250082509758
 10
30.2584251186686
 20
-18.06250082509757
 97
        0
 75
     0
 76
     1
 52
0.0
 41
0.75
 77
     0
 78
     1
 53
45.0
 43
-4.053080493485225
 44
-66.17408175105119
 45
-1.683798022700465
 46
1.683798022700466
 79
     0
 47
0.0875996654827305
 98
        7
 10
30.6839286070996
 20
10.92810826725514
 10
23.84674400136177
 20
-9.570213557370436
 10
23.84674400136177
 20
-9.570213557370436
 10
23.84674400136177
 20
-9.570213557370436
 10
23.84674400136177
 20
-9.570213557370436
 10
23.84674400136177
 20
-9.570213557370436
 10
23.84674400136177
 20
-9.570213557370436
1001
ACAD
1010
0.0
1020
0.0
1030
0.0
  0
LWPOLYLINE
  5
7AA
330
77A
100
AcDbEntity
  8
LW 3030-STADIP-01
 62
     1
100
AcDbPolyline
 90
        8
 70
     1
 43
0.0
 10
32.51773547066865
 20
-18.06250082509757
 10
32.51773547066865
 20
-20.61291462629754
 10
31.49235615706858
 20
-20.61291462629754
 10
31.49235615706858
 20
-18.06250082509757
 10
30.25842511866859
 20
-18.06250082509757
 10
30.25842511866859
 20
-17.23698358109755
 10
33.76035616426862
 20
-17.23698358109755
 10
33.76035616426862
 20
-18.06250082509757
  0
LWPOLYLINE
  5
7AB
330
77A
100
AcDbEntity
  8
LW 3030-STADIP-01
 62
     1
100
AcDbPolyline
 90
       73
 70
     1
 43
0.0
 10
22.81573543986861
 20
-19.73960427869747
 10
23.83242509826869
 20
-19.73960427869747
 10
24.71876992866863
 20
-20.61291462629754
 10
22.81573543986861
 20
-20.61291462629754
 10
22.60501130126864
 20
-20.60422497109755
 10
22.39645957646872
 20
-20.57815600549748
 10
22.19965626549902
 20
-20.53444703984155
 10
22.00542509246862
 20
-20.48039738449757
 10
21.82294233326866
 20
-20.4087077290975
 10
21.65132164306863
 20
-20.32398359089757
 10
21.49278757359981
 20
-20.22561669403353
 10
21.34066646966858
 20
-20.11760427989748
 10
21.2083751589039
 20
-19.99829531400155
 10
21.09036964128792
 20
-19.86925393428157
 10
20.98499019267752
 20
-19.72978496832149
 10
20.89314922686868
 20
-19.58101807129753
 10
20.82363198526856
 20
-19.42677669149748
 10
20.77149405406863
 20
-19.26601807029749
 10
20.73890784706863
 20
-19.09874220769757
 10
20.7280457780687
 20
-18.92712151749754
 10
20.73890784706863
 20
-18.75115599969752
 10
20.77149405406863
 20
-18.58388013709748
 10
20.82580439906861
 20
-18.42312151589749
 10
20.89749405446856
 20
-18.26888013609755
 10
20.98873543406865
 20
-18.12115599769754
 10
21.09735612406872
 20
-17.98212151449752
 10
21.22234812446551
 20
-17.85160289339353
 10
21.35804578006856
 20
-17.73229392749749
 10
21.51011474606868
 20
-17.62367323749754
 10
21.67567874659427
 20
-17.52721806477757
 10
21.84683888506857
 20
-17.44119047829758
 10
22.03366647186864
 20
-17.36950082289752
 10
22.22701130006863
 20
-17.31301806409749
 10
22.43144412830385
 20
-17.2732194432815
 10
22.63816233585659
 20
-17.24775875354555
 10
22.84614923306868
 20
-17.23698358109755
 10
26.28508027846863
 20
-17.23698358109755
 10
24.60363199726863
 20
-18.87063875869751
 10
26.31766648546864
 20
-20.61291462629754
 10
24.99901130886861
 20
-20.61291462629754
 10
23.23283888946868
 20
-18.89453531049753
 10
24.08008027146867
 20
-18.07988013549755
 10
22.81139061226873
 20
-18.07988013549755
 10
22.6873284049782
 20
-18.08509392861754
 10
22.56446537010539
 20
-18.10316841143356
 10
22.44412233524066
 20
-18.13375599773758
 10
22.32758536935353
 20
-18.1765959978735
 10
22.24356509322457
 20
-18.2187408255935
 10
22.16726992056864
 20
-18.26305806711355
 10
22.12702812733745
 20
-18.29025668788949
 10
22.08951488583899
 20
-18.32119186040154
 10
21.97860012686625
 20
-18.42963875729754
 10
21.9155219197694
 20
-18.50767186099358
 10
21.87399405756856
 20
-18.57553806810551
 10
21.830345919499
 20
-18.67425255117757
 10
21.81213240219984
 20
-18.73594910309748
 10
21.79997557457501
 20
-18.79912289640151
 10
21.79397102283179
 20
-18.86125393108148
 10
21.79261543662063
 20
-18.92355875886551
 10
21.80013198836867
 20
-19.01288841432154
 10
21.82083074705498
 20
-19.10004565597751
 10
21.8502539195622
 20
-19.18146772520151
 10
21.88961805761824
 20
-19.25863186337756
 10
21.93832357501424
 20
-19.33119048429751
 10
21.99338992001663
 20
-19.39905669140955
 10
22.06699129956065
 20
-19.46909531232154
 10
22.19955198963658
 20
-19.5684180712575
 10
22.25323667946225
 20
-19.6010042782575
 10
22.30937185205426
 20
-19.62915876110549
 10
22.41086702479027
 20
-19.67008703709757
 10
22.52798619757585
 20
-19.70441117513746
 10
22.64812068071593
 20
-19.72587462348156
 10
22.74906840517429
 20
-19.73585698575823
  0
LWPOLYLINE
  5
7AC
330
77A
100
AcDbEntity
  8
LW 3030-STADIP-01
 62
     1
100
AcDbPolyline
 90
       76
 70
     1
 43
0.0
 10
21.60557218980262
 20
-17.39785357312655
 10
21.43018523643776
 20
-17.50003145494827
 10
21.26651644035577
 20
-17.61693773786396
 10
21.12049653389432
 20
-17.74532229957731
 10
20.98601845868155
 20
-17.88574642983985
 10
20.86786033445038
 20
-18.03698882885567
 10
20.83600150507756
 20
-18.08856979069753
 10
19.74611474046856
 20
-18.08856979069753
 10
19.60273542966866
 20
-18.09508703209747
 10
19.46587336026869
 20
-18.11463875629749
 10
19.34342742884542
 20
-18.14670358398553
 10
19.22473542846865
 20
-18.19067323929755
 10
19.12213666952221
 20
-18.2489808256895
 10
19.02704577266866
 20
-18.31884565349753
 10
18.94449404826856
 20
-18.40139737789752
 10
18.87497680666866
 20
-18.49698358509749
 10
20.64561532428798
 20
-18.49698358509749
 10
20.6290166216129
 20
-18.54611574501587
 10
20.59271089993764
 20
-18.73248511628242
 10
20.58068922750841
 20
-18.92723620963738
 10
20.59273288028999
 20
-19.11752592358812
 10
20.62884468825451
 20
-19.30289987113917
 10
20.63942915552753
 20
-19.3355353118975
 10
18.91190784126866
 20
-19.3355353118975
 10
18.98359749666861
 20
-19.42025945009755
 10
19.07377873833423
 20
-19.49820565724155
 10
19.17192839381824
 20
-19.5658111746975
 10
19.27687335966858
 20
-19.62229393349753
 10
19.39201129106869
 20
-19.66791462329752
 10
19.52018370526867
 20
-19.70084841650555
 10
19.65093694706298
 20
-19.72118220967354
 10
19.78304577506856
 20
-19.72874220969754
 10
20.81150884198906
 20
-19.72874220969754
 10
20.86348007343759
 20
-19.81292685180176
 10
20.97718542818098
 20
-19.96341509651449
 10
21.10462132166527
 20
-20.10276877974297
 10
21.24853369003541
 20
-20.23255837628278
 10
21.41136658479628
 20
-20.34817661470822
 10
21.57983299096623
 20
-20.45270630763992
 10
21.76339713476865
 20
-20.54332658116266
 10
21.9239409988212
 20
-20.60639738489749
 10
19.80476991306865
 20
-20.60639738489749
 10
19.59404577446867
 20
-20.5977077296975
 10
19.38549404966864
 20
-20.57163876409754
 10
19.1856319800686
 20
-20.52819048809749
 10
18.99445956566865
 20
-20.47170772929758
 10
18.81381032371588
 20
-20.39801945320153
 10
18.63818370246873
 20
-20.31312152189753
 10
18.47742508126863
 20
-20.2153629008975
 10
18.33008068080085
 20
-20.10491738330552
 10
18.1938816320926
 20
-19.98378358981756
 10
18.0711837006686
 20
-19.85256979629753
 10
17.96473542446871
 20
-19.71136289929757
 10
17.87566645866867
 20
-19.56363876089756
 10
17.80614921706866
 20
-19.40722496729756
 10
17.75183887206868
 20
-19.24646634609757
 10
17.72142507886861
 20
-19.07919048349754
 10
17.71056300986857
 20
-18.90539737949757
 10
17.71925266506856
 20
-18.73160427549749
 10
17.74749404446857
 20
-18.56650082669751
 10
17.79745956186867
 20
-18.40574220549752
 10
17.86045956206863
 20
-18.25150082569757
 10
17.94301128646862
 20
-18.10594910109751
 10
18.04302921782062
 20
-17.96873944548952
 10
18.15429416989799
 20
-17.8404801347375
 10
18.27973542546864
 20
-17.72143185849756
 10
18.42244302592167
 20
-17.61472289264156
 10
18.57301128846871
 20
-17.51939737509747
 10
18.74028715106863
 20
-17.43684565069748
 10
18.91625266886866
 20
-17.36732840909747
 10
19.10090784186867
 20
-17.31301806409749
 10
19.2964250838686
 20
-17.27174220189749
 10
19.49845956726859
 20
-17.24567323629753
 10
19.71135611966861
 20
-17.23698358109755
 10
21.96849405786862
 20
-17.23698358109755
 10
21.78732512240288
 20
-17.30650189354367
  0
LWPOLYLINE
  5
7AD
330
77A
100
AcDbEntity
  8
LW 3030-STADIP-01
 62
     1
100
AcDbPolyline
 90
        6
 70
     1
 43
0.0
 10
31.24035615626873
 20
-20.60639738489749
 10
29.00276994226864
 20
-20.60639738489749
 10
29.00276994226864
 20
-17.23698358109755
 10
30.02597684206865
 20
-17.23698358109755
 10
30.02597684206865
 20
-19.73960427869747
 10
31.24035615626873
 20
-19.73960427869747
  0
LWPOLYLINE
  5
7AE
330
77A
100
AcDbEntity
  8
LW 3030-STADIP-01
 62
     1
100
AcDbPolyline
 90
       57
 70
     1
 43
0.0
 10
25.94895572567749
 20
-19.98126358980949
 10
25.82909931150381
 20
-19.85091876180957
 10
25.72025269046868
 20
-19.71136289929757
 10
25.63335613846858
 20
-19.56363876089756
 10
25.56166648306863
 20
-19.40722496729756
 10
25.50952855186871
 20
-19.24646634609757
 10
25.47694234486858
 20
-19.07919048349754
 10
25.46608027586866
 20
-18.90539737949757
 10
25.47694234486858
 20
-18.73160427549749
 10
25.50952855186871
 20
-18.56432841289757
 10
25.55949406926858
 20
-18.40356979169758
 10
25.63118372466864
 20
-18.24932841189752
 10
25.71590786286857
 20
-18.10377668729756
 10
25.82018372526864
 20
-17.96474220409755
 10
25.94024869116698
 20
-17.83596151403355
 10
26.07480800193913
 20
-17.71673944468955
 10
26.22488703689829
 20
-17.60724978916949
 10
26.38370786498866
 20
-17.51079461644951
 10
26.55011476206869
 20
-17.42815599549749
 10
26.7347699350687
 20
-17.35646634009754
 10
26.9237699356686
 20
-17.30215599509756
 10
27.1214595914687
 20
-17.26088013289757
 10
27.32783890246857
 20
-17.23263875349755
 10
27.53856304106865
 20
-17.22394909829757
 10
28.77249407946864
 20
-17.22394909829757
 10
28.77249407946864
 20
-18.04946634229748
 10
27.5320457996686
 20
-18.04946634229748
 10
27.3886664888687
 20
-18.05815599749746
 10
27.25397683326856
 20
-18.08526772172149
 10
27.12250235009265
 20
-18.12524013564155
 10
26.99545959106866
 20
-18.17763875649757
 10
26.88805545279662
 20
-18.24472289464154
 10
26.78690786626863
 20
-18.32101806729747
 10
26.70001131426865
 20
-18.41008703309751
 10
26.63049407266863
 20
-18.50784565409753
 10
28.77249407946864
 20
-18.50784565409753
 10
28.77249407946864
 20
-19.3355353118975
 10
26.66742510726864
 20
-19.3355353118975
 10
26.74189545233265
 20
-19.42104151906551
 10
26.82931338364461
 20
-19.50081255380155
 10
26.92637683222871
 20
-19.5684180712575
 10
27.03604028085261
 20
-19.62933255420955
 10
27.15204717777261
 20
-19.67729945091355
 10
27.2726595919487
 20
-19.71162358895355
 10
27.40491614409258
 20
-19.73360841660951
 10
27.53856304106865
 20
-19.74394910629758
 10
28.77249407946864
 20
-19.74394910629758
 10
28.77249407946864
 20
-20.6020525572975
 10
27.56245959286867
 20
-20.6020525572975
 10
27.34956304046864
 20
-20.59336290209751
 10
27.14318372946867
 20
-20.56946635029749
 10
26.94332165986863
 20
-20.52601807429756
 10
26.75214924546868
 20
-20.46953531549752
 10
26.56749407246867
 20
-20.39567324629752
 10
26.3937009684687
 20
-20.31094910809748
 10
26.2329423472686
 20
-20.21319048709756
 10
26.0853833123174
 20
-20.10257117640151
  0
ENDBLK
  5
77F
330
77A
100
AcDbEntity
  8
0
100
AcDbBlockEnd
  0
BLOCK
  5
7B4
330
7B0
100
AcDbEntity
  8
0
100
AcDbBlockBegin
  2
LW 3030-20-01
 70
     0
 10
0.0
 20
0.0
 30
0.0
  3
LW 3030-20-01
  1

  0
LINE
  5
7B6
330
7B0
100
AcDbEntity
  8
LW 3030-STADIP-01
 48
0.0
100
AcDbLine
 10
23.52
 20
-23.0
 30
0.0
 11
36.31289321881344
 21
-23.0
 31
0.0
  0
LINE
  5
7B7
330
7B0
100
AcDbEntity
  8
LW 3030-STADIP-01
 48
0.0
100
AcDbLine
 10
39.52
 20
-5.5
 30
0.0
 11
5.25
 21
-5.5
 31
0.0
  0
LINE
  5
7B8
330
7B0
100
AcDbEntity
  8
LW 3030-STADIP-01
 48
0.0
100
AcDbLine
 10
5.25
 20
5.5
 30
0.0
 11
39.52
 21
5.5
 31
0.0
  0
LINE
  5
7B9
330
7B0
100
AcDbEntity
  8
LW 3030-STADIP-01
 48
0.0
100
AcDbLine
 10
30.02
 20
23.0
 30
0.0
 11
23.52
 21
23.0
 31
0.0
  0
LINE
  5
7BA
330
7B0
100
AcDbEntity
  8
LW 3030-STADIP-01
 48
0.0
100
AcDbLine
 10
21.52
 20
-11.0
 30
0.0
 11
21.52
 21
-22.0
 31
0.0
  0
LINE
  5
7BB
330
7B0
100
AcDbEntity
  8
LW 3030-STADIP-01
 48
0.0
100
AcDbLine
 10
21.52
 20
-22.0
 30
0.0
 11
23.52
 21
-22.0
 31
0.0
  0
LINE
  5
7BC
330
7B0
100
AcDbEntity
  8
LW 3030-STADIP-01
 48
0.0
100
AcDbLine
 10
23.52
 20
-22.0
 30
0.0
 11
23.52
 21
-23.0
 31
0.0
  0
LINE
  5
7BD
330
7B0
100
AcDbEntity
  8
LW 3030-STADIP-01
 48
0.0
100
AcDbLine
 10
5.25
 20
5.5
 30
0.0
 11
5.25
 21
-5.5
 31
0.0
  0
LINE
  5
7BE
330
7B0
100
AcDbEntity
  8
LW 3030-STADIP-01
 48
0.0
100
AcDbLine
 10
5.0
 20
-11.0
 30
0.0
 11
0.0
 21
-16.0
 31
0.0
  0
LINE
  5
7BF
330
7B0
100
AcDbEntity
  8
LW 3030-STADIP-01
 48
0.0
100
AcDbLine
 10
0.0
 20
-16.0
 30
0.0
 11
5.0
 21
-11.0
 31
0.0
  0
LINE
  5
7C0
330
7B0
100
AcDbEntity
  8
LW 3030-STADIP-01
 48
0.0
100
AcDbLine
 10
5.25
 20
-5.5
 30
0.0
 11
0.0
 21
-10.75
 31
0.0
  0
LINE
  5
7C1
330
7B0
100
AcDbEntity
  8
LW 3030-STADIP-01
 48
0.0
100
AcDbLine
 10
0.0
 20
16.0
 30
0.0
 11
0.0
 21
-16.0
 31
0.0
  0
LINE
  5
7C2
330
7B0
100
AcDbEntity
  8
LW 3030-STADIP-01
 48
0.0
100
AcDbLine
 10
5.0
 20
-11.0
 30
0.0
 11
21.52
 21
-11.0
 31
0.0
  0
LINE
  5
7C3
330
7B0
100
AcDbEntity
  8
LW 3030-STADIP-01
 48
0.0
100
AcDbLine
 10
0.0
 20
16.0
 30
0.0
 11
5.0
 21
11.0
 31
0.0
  0
LINE
  5
7C4
330
7B0
100
AcDbEntity
  8
LW 3030-STADIP-01
 48
0.0
100
AcDbLine
 10
0.0
 20
10.75
 30
0.0
 11
5.25
 21
5.5
 31
0.0
  0
LINE
  5
7C5
330
7B0
100
AcDbEntity
  8
LW 3030-STADIP-01
 48
0.0
100
AcDbLine
 10
5.0
 20
11.0
 30
0.0
 11
0.0
 21
16.0
 31
0.0
  0
LINE
  5
7C6
330
7B0
100
AcDbEntity
  8
LW 3030-STADIP-01
 48
0.0
100
AcDbLine
 10
23.52
 20
23.0
 30
0.0
 11
23.52
 21
22.0
 31
0.0
  0
LINE
  5
7C7
330
7B0
100
AcDbEntity
  8
LW 3030-STADIP-01
 48
0.0
100
AcDbLine
 10
23.52
 20
22.0
 30
0.0
 11
21.52
 21
22.0
 31
0.0
  0
LINE
  5
7C8
330
7B0
100
AcDbEntity
  8
LW 3030-STADIP-01
 48
0.0
100
AcDbLine
 10
21.52
 20
22.0
 30
0.0
 11
21.52
 21
11.0
 31
0.0
  0
LINE
  5
7C9
330
7B0
100
AcDbEntity
  8
LW 3030-STADIP-01
 48
0.0
100
AcDbLine
 10
21.52
 20
11.0
 30
0.0
 11
5.0
 21
11.0
 31
0.0
  0
LINE
  5
7CA
330
7B0
100
AcDbEntity
  8
LW 3030-STADIP-01
 48
0.0
100
AcDbLine
 10
39.52
 20
-19.79289321881345
 30
0.0
 11
39.52
 21
19.79289321881345
 31
0.0
  0
ARC
  5
7CB
330
7B0
100
AcDbEntity
  8
LW 3030-STADIP-01
 48
0.0
100
AcDbCircle
 10
36.31289321881344
 20
-22.5
 30
0.0
 40
0.4999999999999983
100
AcDbArc
 50
270.0
 51
315.0000000000001
  0
LINE
  5
7CC
330
7B0
100
AcDbEntity
  8
LW 3030-STADIP-01
 48
0.0
100
AcDbLine
 10
36.66644660940666
 20
-22.85355339059322
 30
0.0
 11
39.37355339059322
 21
-20.14644660940667
 31
0.0
  0
ARC
  5
7CD
330
7B0
100
AcDbEntity
  8
LW 3030-STADIP-01
 48
0.0
100
AcDbCircle
 10
39.02
 20
-19.79289321881345
 30
0.0
 40
0.500000000000007
100
AcDbArc
 50
315.0000000000001
 51
0.0
  0
ARC
  5
7CE
330
7B0
100
AcDbEntity
  8
LW 3030-STADIP-01
 48
0.0
100
AcDbCircle
 10
39.02
 20
19.79289321881345
 30
0.0
 40
0.5000000000000071
100
AcDbArc
 50
0.0
 51
44.99999999999759
  0
LINE
  5
7CF
330
7B0
100
AcDbEntity
  8
LW 3030-STADIP-01
 48
0.0
100
AcDbLine
 10
39.37355339059322
 20
20.14644660940678
 30
0.0
 11
36.66644660940666
 21
22.85355339059333
 31
0.0
  0
ARC
  5
7D0
330
7B0
100
AcDbEntity
  8
LW 3030-STADIP-01
 48
0.0
100
AcDbCircle
 10
36.31289321881344
 20
22.50000000000011
 30
0.0
 40
0.4999999999999991
100
AcDbArc
 50
44.99999999999991
 51
90.0
  0
LINE
  5
7D1
330
7B0
100
AcDbEntity
  8
LW 3030-STADIP-01
 48
0.0
100
AcDbLine
 10
36.31289321881344
 20
23.0
 30
0.0
 11
35.02
 21
23.0
 31
0.0
  0
LINE
  5
7D2
330
7B0
100
AcDbEntity
  8
LW 3030-STADIP-01
 48
0.0
100
AcDbLine
 10
35.02
 20
23.0
 30
0.0
 11
35.02
 21
17.0
 31
0.0
  0
LINE
  5
7D3
330
7B0
100
AcDbEntity
  8
LW 3030-STADIP-01
 48
0.0
100
AcDbLine
 10
35.02
 20
17.00000000000011
 30
0.0
 11
32.52
 21
15.55662432702593
 31
0.0
  0
LINE
  5
7D4
330
7B0
100
AcDbEntity
  8
LW 3030-STADIP-01
 48
0.0
100
AcDbLine
 10
32.52
 20
15.55662432702593
 30
0.0
 11
30.02
 21
17.00000000000011
 31
0.0
  0
LINE
  5
7D5
330
7B0
100
AcDbEntity
  8
LW 3030-STADIP-01
 48
0.0
100
AcDbLine
 10
30.02
 20
17.0
 30
0.0
 11
30.02
 21
23.0
 31
0.0
  0
LINE
  5
7D6
330
7B0
100
AcDbEntity
  8
LW 3030-STADIP-01
 48
0.0
100
AcDbLine
 10
35.02
 20
17.0
 30
0.0
 11
30.02
 21
17.0
 31
0.0
  0
LWPOLYLINE
  5
7D7
330
7B0
100
AcDbEntity
  8
LW 3030-STADIP-01
 48
0.0
100
AcDbPolyline
 90
       25
 70
     0
 43
0.0
 10
30.01999976158142
 20
22.99999952316284
 10
30.04101755142212
 20
22.99768447875977
 10
30.10435583114624
 20
22.99094438552856
 10
30.21044494628906
 20
22.98007965087891
 10
30.35832883834839
 20
22.96570539474487
 10
30.54154040336609
 20
22.94918775558472
 10
30.75223567008972
 20
22.93196439743042
 10
30.99257947921753
 20
22.91472673416138
 10
31.26519801139831
 20
22.89817333221435
 10
31.56294943809509
 20
22.88374900817871
 10
31.87811853408813
 20
22.87283420562744
 10
32.20067383766174
 20
22.86605596542358
 10
32.51999976158142
 20
22.86372661590576
 10
32.8393256855011
 20
22.86605596542358
 10
33.1618821811676
 20
22.87283420562744
 10
33.47705127716064
 20
22.88374900817871
 10
33.77480270385742
 20
22.89817333221435
 10
34.04742004394531
 20
22.91472673416138
 10
34.28776266098022
 20
22.93196439743042
 10
34.49846031188965
 20
22.94918775558472
 10
34.68167068481445
 20
22.96570539474487
 10
34.82955457687378
 20
22.98007965087891
 10
34.9356436920166
 20
22.99094438552856
 10
34.99898197174072
 20
22.99768447875977
 10
35.02000095367431
 20
22.99999952316284
  0
LINE
  5
7D8
330
7B0
100
AcDbEntity
  8
LW 3030-STADIP-01
  6
MITTE2
 62
     3
100
AcDbLine
 10
32.52
 20
11.55662432702604
 30
0.0
 11
32.52
 21
27.0467915097197
 31
0.0
  0
LINE
  5
7D9
330
7B0
100
AcDbEntity
  8
LW 3030-STADIP-01
  6
MITTE2
 62
     3
100
AcDbLine
 10
-2.5
 20
0.0
 30
0.0
 11
42.01999999999999
 21
0.0000000000001137
 31
0.0
  0
INSERT
  5
7DA
330
7B0
100
AcDbEntity
  8
insertpoint_ECKELT
100
AcDbBlockReference
 66
     1
  2
insertpoint-ECKELT
 10
0.0
 20
0.0
 30
0.0
  0
ATTRIB
  5
7DB
330
7DA
100
AcDbEntity
  8
insertpoint_ECKELT
100
AcDbText
 10
-6.931514324693087
 20
0.0
 30
0.0
 40
0.6
  1
LW 3030/20-01
 72
     2
 11
-1.200000000000045
 21
0.0
 31
0.0
100
AcDbAttribute
  2
LINKS
 70
     0
  0
ATTRIB
  5
7DC
330
7DA
100
AcDbEntity
  8
insertpoint_ECKELT
100
AcDbText
 10
1.200000000000045
 20
0.0
 30
0.0
 40
0.6
  1

100
AcDbAttribute
  2
RECHTS
 70
     0
  0
SEQEND
  5
7DD
330
7DA
100
AcDbEntity
  8
insertpoint_ECKELT
  0
HATCH
  5
7DE
330
7B0
100
AcDbEntity
  8
LW 3030-STADIP-01
 62
     1
100
AcDbHatch
 10
0.0
 20
0.0
 30
0.0
210
0.0
220
0.0
230
1.0
  2
SOLID
 70
     1
 71
     0
 91
        5
 92
        7
 72
     0
 73
     1
 93
       76
 10
25.59600150507755
 20
-18.08856979069753
 10
25.62786033445038
 20
-18.03698882885578
 10
25.74601845868166
 20
-17.88574642983974
 10
25.88049653389432
 20
-17.74532229957731
 10
26.02651644035588
 20
-17.61693773786396
 10
26.19018523643787
 20
-17.50003145494827
 10
26.36557218980262
 20
-17.39785357312655
 10
26.54732512240288
 20
-17.30650189354367
 10
26.72849405786862
 20
-17.23698358109755
 10
24.47135611966861
 20
-17.23698358109755
 10
24.25845956726859
 20
-17.24567323629753
 10
24.0564250838686
 20
-17.27174220189749
 10
23.86090784186855
 20
-17.31301806409749
 10
23.67625266886877
 20
-17.36732840909747
 10
23.50028715106852
 20
-17.43684565069748
 10
23.33301128846871
 20
-17.51939737509758
 10
23.18244302592167
 20
-17.61472289264145
 10
23.03973542546875
 20
-17.72143185849756
 10
22.9142941698981
 20
-17.84048013473762
 10
22.80302921782062
 20
-17.96873944548952
 10
22.70301128646862
 20
-18.10594910109751
 10
22.62045956206863
 20
-18.25150082569746
 10
22.55745956186867
 20
-18.40574220549763
 10
22.50749404446869
 20
-18.56650082669739
 10
22.47925266506867
 20
-18.73160427549749
 10
22.47056300986857
 20
-18.90539737949746
 10
22.48142507886861
 20
-19.07919048349754
 10
22.51183887206868
 20
-19.24646634609757
 10
22.56614921706866
 20
-19.40722496729756
 10
22.63566645866855
 20
-19.56363876089756
 10
22.72473542446871
 20
-19.71136289929757
 10
22.8311837006686
 20
-19.85256979629753
 10
22.9538816320926
 20
-19.98378358981756
 10
23.09008068080085
 20
-20.10491738330552
 10
23.23742508126863
 20
-20.2153629008975
 10
23.39818370246873
 20
-20.31312152189753
 10
23.57381032371588
 20
-20.39801945320153
 10
23.75445956566865
 20
-20.47170772929746
 10
23.94563198006871
 20
-20.52819048809749
 10
24.14549404966864
 20
-20.57163876409754
 10
24.35404577446867
 20
-20.5977077296975
 10
24.56476991306864
 20
-20.60639738489749
 10
26.6839409988212
 20
-20.60639738489749
 10
26.52339713476865
 20
-20.54332658116266
 10
26.33983299096623
 20
-20.45270630763992
 10
26.17136658479628
 20
-20.34817661470822
 10
26.00853369003541
 20
-20.23255837628278
 10
25.86462132166527
 20
-20.10276877974297
 10
25.73718542818098
 20
-19.96341509651449
 10
25.62348007343759
 20
-19.81292685180187
 10
25.57150884198906
 20
-19.72874220969754
 10
24.54304577506857
 20
-19.72874220969754
 10
24.41093694706298
 20
-19.72118220967354
 10
24.28018370526867
 20
-19.70084841650555
 10
24.15201129106869
 20
-19.66791462329752
 10
24.03687335966858
 20
-19.62229393349753
 10
23.93192839381824
 20
-19.5658111746975
 10
23.83377873833423
 20
-19.49820565724155
 10
23.74359749666862
 20
-19.42025945009755
 10
23.67190784126866
 20
-19.3355353118975
 10
25.39942915552753
 20
-19.3355353118975
 10
25.38884468825451
 20
-19.30289987113917
 10
25.35273288028999
 20
-19.11752592358812
 10
25.34068922750829
 20
-18.92723620963738
 10
25.35271089993763
 20
-18.73248511628242
 10
25.3890166216129
 20
-18.54611574501587
 10
25.40561532428798
 20
-18.49698358509749
 10
23.63497680666866
 20
-18.49698358509749
 10
23.70449404826856
 20
-18.40139737789764
 10
23.78704577266855
 20
-18.31884565349753
 10
23.88213666952221
 20
-18.2489808256895
 10
23.98473542846865
 20
-18.19067323929755
 10
24.10342742884542
 20
-18.14670358398553
 10
24.22587336026869
 20
-18.11463875629749
 10
24.36273542966866
 20
-18.09508703209758
 10
24.50611474046868
 20
-18.08856979069753
 97
        0
 92
        7
 72
     0
 73
     1
 93
       72
 10
27.32446537010539
 20
-18.10316841143356
 10
27.4473284049782
 20
-18.08509392861754
 10
27.57139061226873
 20
-18.07988013549755
 10
28.84008027146867
 20
-18.07988013549755
 10
27.99283888946867
 20
-18.89453531049753
 10
29.75901130886861
 20
-20.61291462629754
 10
31.07766648546864
 20
-20.61291462629754
 10
29.36363199726863
 20
-18.87063875869751
 10
31.04508027846863
 20
-17.23698358109755
 10
27.60614923306868
 20
-17.23698358109755
 10
27.39816233585659
 20
-17.24775875354555
 10
27.19144412830384
 20
-17.2732194432815
 10
26.98701130006863
 20
-17.31301806409749
 10
26.79366647186864
 20
-17.36950082289752
 10
26.60683888506857
 20
-17.44119047829747
 10
26.43567874659415
 20
-17.52721806477757
 10
26.27011474606867
 20
-17.62367323749754
 10
26.11804578006867
 20
-17.73229392749749
 10
25.98234812446551
 20
-17.85160289339353
 10
25.85735612406871
 20
-17.98212151449752
 10
25.74873543406854
 20
-18.12115599769754
 10
25.65749405446867
 20
-18.26888013609744
 10
25.58580439906861
 20
-18.42312151589749
 10
25.53149405406863
 20
-18.58388013709748
 10
25.49890784706874
 20
-18.75115599969752
 10
25.48804577806869
 20
-18.92712151749765
 10
25.49890784706863
 20
-19.09874220769757
 10
25.53149405406863
 20
-19.26601807029749
 10
25.58363198526855
 20
-19.42677669149748
 10
25.65314922686868
 20
-19.58101807129753
 10
25.74499019267741
 20
-19.72978496832149
 10
25.85036964128792
 20
-19.86925393428157
 10
25.9683751589039
 20
-19.99829531400144
 10
26.10066646966858
 20
-20.11760427989748
 10
26.25278757359981
 20
-20.22561669403353
 10
26.41132164306875
 20
-20.32398359089757
 10
26.58294233326866
 20
-20.4087077290975
 10
26.76542509246862
 20
-20.48039738449757
 10
26.95965626549902
 20
-20.53444703984155
 10
27.15645957646861
 20
-20.57815600549748
 10
27.36501130126864
 20
-20.60422497109755
 10
27.57573543986861
 20
-20.61291462629754
 10
29.47876992866863
 20
-20.61291462629754
 10
28.59242509826869
 20
-19.73960427869747
 10
27.57573543986861
 20
-19.73960427869747
 10
27.50906840517406
 20
-19.73585698575823
 10
27.40812068071593
 20
-19.72587462348156
 10
27.28798619757585
 20
-19.70441117513758
 10
27.17086702479027
 20
-19.67008703709757
 10
27.06937185205426
 20
-19.62915876110549
 10
27.01323667946214
 20
-19.6010042782575
 10
26.95955198963658
 20
-19.5684180712575
 10
26.82699129956065
 20
-19.46909531232154
 10
26.75338992001663
 20
-19.39905669140955
 10
26.69832357501436
 20
-19.33119048429762
 10
26.64961805761824
 20
-19.25863186337756
 10
26.6102539195622
 20
-19.18146772520151
 10
26.58083074705498
 20
-19.10004565597762
 10
26.56013198836856
 20
-19.01288841432154
 10
26.55261543662063
 20
-18.92355875886562
 10
26.55397102283179
 20
-18.86125393108159
 10
26.55997557457501
 20
-18.79912289640163
 10
26.57213240219984
 20
-18.73594910309748
 10
26.590345919499
 20
-18.67425255117757
 10
26.63399405756856
 20
-18.57553806810563
 10
26.6755219197694
 20
-18.50767186099358
 10
26.73860012686624
 20
-18.42963875729754
 10
26.86800206723105
 20
-18.30311602024392
 10
26.92726992056875
 20
-18.26305806711355
 10
27.00356509322457
 20
-18.21874082559361
 10
27.08758536935342
 20
-18.1765959978735
 10
27.20412233524054
 20
-18.13375599773758
 97
        0
 92
        7
 72
     0
 73
     1
 93
       57
 10
31.88250235009265
 20
-18.12524013564155
 10
32.01397683326867
 20
-18.08526772172149
 10
32.14866648886859
 20
-18.05815599749746
 10
32.2920457996686
 20
-18.04946634229748
 10
33.53249407946864
 20
-18.04946634229748
 10
33.53249407946864
 20
-17.22394909829757
 10
32.29856304106876
 20
-17.22394909829757
 10
32.08783890246868
 20
-17.23263875349755
 10
31.8814595914687
 20
-17.26088013289745
 10
31.68376993566871
 20
-17.30215599509745
 10
31.4947699350687
 20
-17.35646634009754
 10
31.31011476206869
 20
-17.42815599549749
 10
31.14370786498855
 20
-17.51079461644951
 10
30.98488703689817
 20
-17.6072497891696
 10
30.83480800193913
 20
-17.71673944468955
 10
30.7002486911672
 20
-17.83596151403344
 10
30.58018372526864
 20
-17.96474220409755
 10
30.47590786286868
 20
-18.10377668729756
 10
30.39118372466864
 20
-18.24932841189752
 10
30.31949406926857
 20
-18.40356979169758
 10
30.2695285518687
 20
-18.56432841289745
 10
30.23694234486858
 20
-18.73160427549749
 10
30.22608027586866
 20
-18.90539737949746
 10
30.23694234486858
 20
-19.07919048349754
 10
30.2695285518687
 20
-19.24646634609757
 10
30.32166648306862
 20
-19.40722496729756
 10
30.39335613846858
 20
-19.56363876089756
 10
30.48025269046867
 20
-19.71136289929757
 10
30.5890993115038
 20
-19.85091876180957
 10
30.70895572567748
 20
-19.98126358980949
 10
30.8453833123174
 20
-20.10257117640151
 10
30.9929423472686
 20
-20.21319048709756
 10
31.1537009684687
 20
-20.31094910809759
 10
31.32749407246867
 20
-20.39567324629752
 10
31.51214924546868
 20
-20.46953531549752
 10
31.70332165986862
 20
-20.52601807429756
 10
31.90318372946855
 20
-20.56946635029749
 10
32.10956304046864
 20
-20.59336290209751
 10
32.32245959286867
 20
-20.6020525572975
 10
33.53249407946864
 20
-20.6020525572975
 10
33.53249407946864
 20
-19.74394910629758
 10
32.29856304106853
 20
-19.74394910629758
 10
32.16491614409257
 20
-19.73360841660951
 10
32.0326595919487
 20
-19.71162358895355
 10
31.91204717777261
 20
-19.67729945091355
 10
31.79604028085261
 20
-19.62933255420955
 10
31.68637683222871
 20
-19.5684180712575
 10
31.58931338364461
 20
-19.50081255380155
 10
31.50189545233265
 20
-19.42104151906551
 10
31.42742510726864
 20
-19.3355353118975
 10
33.53249407946864
 20
-19.3355353118975
 10
33.53249407946864
 20
-18.50784565409753
 10
31.39049407266863
 20
-18.50784565409753
 10
31.46001131426864
 20
-18.41008703309751
 10
31.54690786626863
 20
-18.32101806729759
 10
31.64805545279661
 20
-18.24472289464154
 10
31.75545959106866
 20
-18.17763875649757
 97
        0
 92
        7
 72
     0
 73
     1
 93
        6
 10
33.76276994226863
 20
-17.23698358109755
 10
33.76276994226863
 20
-20.60639738489749
 10
36.00035615626872
 20
-20.60639738489749
 10
36.00035615626872
 20
-19.73960427869747
 10
34.78597684206865
 20
-19.73960427869747
 10
34.78597684206865
 20
-17.23698358109755
 97
        0
 92
        7
 72
     0
 73
     1
 93
        8
 10
35.01842511866859
 20
-17.23698358109755
 10
35.01842511866859
 20
-18.06250082509757
 10
36.25235615706858
 20
-18.06250082509757
 10
36.25235615706858
 20
-20.61291462629754
 10
37.27773547066865
 20
-20.61291462629754
 10
37.27773547066865
 20
-18.06250082509757
 10
38.52035616426862
 20
-18.06250082509757
 10
38.52035616426862
 20
-17.23698358109755
 97
        0
 75
     0
 76
     1
 47
0.0142553043587597
 98
        5
 10
24.90566163114387
 20
-17.67943325068666
 10
27.17315884448637
 20
-17.82198623569241
 10
31.66537057668803
 20
-17.7649650631447
 10
34.38921966051954
 20
-17.52262483845243
 10
35.80105764274641
 20
-17.62241197086575
450
        0
451
        0
460
0.0
461
0.0
452
        0
462
0.0
453
        0
470

  0
HATCH
  5
7DF
330
7B0
100
AcDbEntity
  8
LW 3030-STADIP-01
 62
     8
100
AcDbHatch
 10
0.0
 20
0.0
 30
0.0
210
0.0
220
0.0
230
1.0
  2
ANSI31
 70
     0
 71
     0
 91
        7
 92
        7
 72
     1
 73
     1
 93
       18
 10
39.52
 20
19.79289321881345
 42
0.1989123673796613
 10
39.37355339059326
 20
20.14644660940673
 42
0.0
 10
36.66644660940666
 20
22.85355339059333
 42
0.1989123673796712
 10
36.31289321881334
 20
23.0
 42
0.0
 10
35.02
 20
23.0
 42
0.0
 10
35.02
 20
17.00000000000011
 42
0.0
 10
32.52
 20
15.55662432702593
 42
0.0
 10
30.02
 20
17.00000000000011
 42
0.0
 10
30.02
 20
23.0
 42
0.0
 10
23.52
 20
23.0
 42
0.0
 10
23.52
 20
22.0
 42
0.0
 10
21.52
 20
22.00000000000001
 42
0.0
 10
21.52
 20
10.99999999999999
 42
0.0
 10
5.0
 20
11.0
 42
0.0
 10
0.0
 20
16.0
 42
0.0
 10
0.0
 20
10.74999999999999
 42
0.0
 10
5.25
 20
5.500000000000001
 42
0.0
 10
39.51999999999999
 20
5.499999999999998
 42
0.0
 97
        0
 92
        7
 72
     1
 73
     1
 93
       13
 10
39.52
 20
-5.5
 42
0.0
 10
5.25
 20
-5.5
 42
0.0
 10
0.0
 20
-10.75
 42
0.0
 10
0.0000000000000009
 20
-16.0
 42
0.0
 10
5.000000000000001
 20
-11.0
 42
0.0
 10
21.51999999999999
 20
-11.0
 42
0.0
 10
21.52
 20
-22.0
 42
0.0
 10
23.52
 20
-22.0
 42
0.0
 10
23.52
 20
-23.0
 42
0.0
 10
36.31289321881344
 20
-23.0
 42
0.1989123673796431
 10
36.66644660940666
 20
-22.85355339059322
 42
0.0
 10
39.37355339059322
 20
-20.14644660940667
 42
0.198912367379699
 10
39.52
 20
-19.79289321881333
 42
0.0
 97
        0
 92
       22
 72
     0
 73
     1
 93
       73
 10
31.04508027846863
 20
-17.23698358109755
 10
29.36363199726863
 20
-18.87063875869751
 10
31.07766648546864
 20
-20.61291462629754
 10
29.75901130886862
 20
-20.61291462629754
 10
27.99283888946867
 20
-18.89453531049753
 10
28.84008027146867
 20
-18.07988013549755
 10
27.57139061226875
 20
-18.07988013549755
 10
27.44732840497821
 20
-18.08509392861754
 10
27.32446537010539
 20
-18.10316841143356
 10
27.20412233524067
 20
-18.13375599773758
 10
27.08758536935359
 20
-18.17659599787348
 10
27.00356509322456
 20
-18.21874082559349
 10
26.92726992056866
 20
-18.26305806711352
 10
26.88702812733743
 20
-18.29025668788947
 10
26.84951488583897
 20
-18.3211918604015
 10
26.73860012686623
 20
-18.42963875729759
 10
26.6755219197694
 20
-18.5076718609936
 10
26.63399405756855
 20
-18.57553806810551
 10
26.59034591949901
 20
-18.67425255117755
 10
26.57213240219983
 20
-18.73594910309751
 10
26.55997557457501
 20
-18.79912289640152
 10
26.55397102283179
 20
-18.86125393108151
 10
26.55261543662062
 20
-18.92355875886555
 10
26.56013198836868
 20
-19.01288841432155
 10
26.58083074705498
 20
-19.10004565597751
 10
26.61025391956217
 20
-19.18146772520147
 10
26.64961805761823
 20
-19.25863186337758
 10
26.69832357501423
 20
-19.33119048429749
 10
26.75338992001663
 20
-19.39905669140956
 10
26.82699129956067
 20
-19.46909531232155
 10
26.95955198963655
 20
-19.56841807125747
 10
27.01323667946223
 20
-19.60100427825748
 10
27.06937185205424
 20
-19.62915876110548
 10
27.17086702479026
 20
-19.67008703709757
 10
27.28798619757585
 20
-19.70441117513746
 10
27.40812068071593
 20
-19.72587462348156
 10
27.50906840517434
 20
-19.73585698575824
 10
27.57573543986861
 20
-19.73960427869747
 10
28.59242509826869
 20
-19.73960427869747
 10
29.47876992866863
 20
-20.61291462629754
 10
27.57573543986863
 20
-20.61291462629754
 10
27.36501130126865
 20
-20.60422497109755
 10
27.15645957646872
 20
-20.57815600549748
 10
26.959656265499
 20
-20.53444703984154
 10
26.76542509246865
 20
-20.48039738449757
 10
26.58294233326867
 20
-20.40870772909751
 10
26.41132164306863
 20
-20.32398359089757
 10
26.25278757359984
 20
-20.22561669403356
 10
26.10066646966858
 20
-20.11760427989749
 10
25.9683751589039
 20
-19.99829531400155
 10
25.8503696412879
 20
-19.86925393428155
 10
25.74499019267754
 20
-19.7297849683215
 10
25.65314922686869
 20
-19.58101807129756
 10
25.58363198526855
 20
-19.42677669149747
 10
25.53149405406863
 20
-19.26601807029749
 10
25.49890784706862
 20
-19.09874220769757
 10
25.4880457780687
 20
-18.92712151749752
 10
25.49890784706862
 20
-18.75115599969754
 10
25.53149405406861
 20
-18.58388013709749
 10
25.5858043990686
 20
-18.42312151589748
 10
25.65749405446856
 20
-18.26888013609754
 10
25.74873543406866
 20
-18.12115599769755
 10
25.8573561240687
 20
-17.98212151449751
 10
25.98234812446552
 20
-17.85160289339352
 10
26.11804578006857
 20
-17.7322939274975
 10
26.27011474606864
 20
-17.62367323749755
 10
26.43567874659425
 20
-17.52721806477758
 10
26.60683888506854
 20
-17.44119047829761
 10
26.79366647186863
 20
-17.36950082289751
 10
26.98701130006861
 20
-17.3130180640975
 10
27.19144412830385
 20
-17.2732194432815
 10
27.39816233585655
 20
-17.24775875354556
 10
27.60614923306868
 20
-17.23698358109755
 97
        0
 92
       22
 72
     0
 73
     1
 93
       57
 10
31.68376993566859
 20
-17.30215599509756
 10
31.88145959146873
 20
-17.26088013289757
 10
32.08783890246859
 20
-17.23263875349755
 10
32.29856304106863
 20
-17.22394909829757
 10
33.53249407946864
 20
-17.22394909829757
 10
33.53249407946864
 20
-18.04946634229748
 10
32.29204579966861
 20
-18.04946634229748
 10
32.1486664888687
 20
-18.05815599749746
 10
32.01397683326856
 20
-18.0852677217215
 10
31.88250235009264
 20
-18.12524013564154
 10
31.75545959106865
 20
-18.17763875649757
 10
31.6480554527966
 20
-18.24472289464153
 10
31.54690786626865
 20
-18.32101806729745
 10
31.46001131426862
 20
-18.41008703309749
 10
31.39049407266864
 20
-18.50784565409753
 10
33.53249407946864
 20
-18.50784565409753
 10
33.53249407946864
 20
-19.3355353118975
 10
31.42742510726864
 20
-19.3355353118975
 10
31.50189545233266
 20
-19.42104151906551
 10
31.58931338364463
 20
-19.50081255380156
 10
31.68637683222873
 20
-19.56841807125751
 10
31.7960402808526
 20
-19.62933255420955
 10
31.91204717777261
 20
-19.67729945091355
 10
32.0326595919487
 20
-19.71162358895355
 10
32.16491614409255
 20
-19.73360841660951
 10
32.29856304106866
 20
-19.74394910629758
 10
33.53249407946863
 20
-19.74394910629757
 10
33.53249407946863
 20
-20.6020525572975
 10
32.32245959286867
 20
-20.6020525572975
 10
32.10956304046865
 20
-20.59336290209751
 10
31.90318372946865
 20
-20.56946635029749
 10
31.70332165986862
 20
-20.52601807429755
 10
31.51214924546867
 20
-20.46953531549752
 10
31.32749407246868
 20
-20.39567324629753
 10
31.1537009684687
 20
-20.31094910809747
 10
30.99294234726858
 20
-20.21319048709756
 10
30.8453833123174
 20
-20.10257117640151
 10
30.70895572567746
 20
-19.98126358980946
 10
30.5890993115038
 20
-19.85091876180955
 10
30.4802526904687
 20
-19.7113628992976
 10
30.39335613846855
 20
-19.56363876089756
 10
30.32166648306863
 20
-19.40722496729756
 10
30.26952855186872
 20
-19.24646634609762
 10
30.23694234486859
 20
-19.07919048349756
 10
30.22608027586866
 20
-18.90539737949761
 10
30.23694234486858
 20
-18.7316042754975
 10
30.26952855186869
 20
-18.56432841289762
 10
30.31949406926858
 20
-18.40356979169757
 10
30.39118372466866
 20
-18.24932841189751
 10
30.47590786286861
 20
-18.10377668729755
 10
30.58018372526861
 20
-17.96474220409762
 10
30.70024869116698
 20
-17.83596151403356
 10
30.83480800193914
 20
-17.71673944468953
 10
30.98488703689832
 20
-17.6072497891695
 10
31.14370786498867
 20
-17.51079461644953
 10
31.31011476206868
 20
-17.42815599549748
 10
31.4947699350687
 20
-17.35646634009754
 97
        0
 92
       22
 72
     0
 73
     1
 93
       76
 10
26.72849405786861
 20
-17.23698358109755
 10
26.54732512240287
 20
-17.30650189354367
 10
26.36557218980259
 20
-17.39785357312654
 10
26.19018523643773
 20
-17.50003145494828
 10
26.0265164403558
 20
-17.61693773786396
 10
25.8804965338943
 20
-17.74532229957733
 10
25.74601845868161
 20
-17.88574642983982
 10
25.62786033445038
 20
-18.03698882885569
 10
25.59600150507755
 20
-18.08856979069753
 10
24.50611474046852
 20
-18.08856979069753
 10
24.36273542966868
 20
-18.09508703209747
 10
24.22587336026872
 20
-18.1146387562975
 10
24.10342742884544
 20
-18.14670358398553
 10
23.98473542846867
 20
-18.19067323929753
 10
23.8821366695222
 20
-18.24898082568948
 10
23.78704577266861
 20
-18.31884565349755
 10
23.70449404826856
 20
-18.4013973778975
 10
23.63497680666866
 20
-18.49698358509749
 10
25.40561532428798
 20
-18.49698358509749
 10
25.3890166216129
 20
-18.54611574501591
 10
25.35271089993764
 20
-18.7324851162824
 10
25.34068922750841
 20
-18.92723620963736
 10
25.35273288028999
 20
-19.11752592358811
 10
25.38884468825452
 20
-19.30289987113919
 10
25.39942915552753
 20
-19.3355353118975
 10
23.67190784126867
 20
-19.3355353118975
 10
23.74359749666862
 20
-19.42025945009756
 10
23.83377873833424
 20
-19.49820565724156
 10
23.93192839381823
 20
-19.56581117469749
 10
24.03687335966859
 20
-19.62229393349754
 10
24.15201129106869
 20
-19.66791462329752
 10
24.28018370526869
 20
-19.70084841650556
 10
24.41093694706297
 20
-19.72118220967354
 10
24.54304577506859
 20
-19.72874220969754
 10
25.57150884198906
 20
-19.72874220969754
 10
25.62348007343761
 20
-19.81292685180179
 10
25.73718542818102
 20
-19.96341509651452
 10
25.86462132166528
 20
-20.10276877974296
 10
26.00853369003542
 20
-20.23255837628279
 10
26.17136658479632
 20
-20.34817661470825
 10
26.33983299096623
 20
-20.45270630763991
 10
26.52339713476865
 20
-20.54332658116267
 10
26.6839409988212
 20
-20.60639738489749
 10
24.56476991306862
 20
-20.60639738489749
 10
24.35404577446868
 20
-20.5977077296975
 10
24.14549404966865
 20
-20.57163876409755
 10
23.94563198006864
 20
-20.52819048809751
 10
23.75445956566867
 20
-20.47170772929758
 10
23.57381032371587
 20
-20.39801945320153
 10
23.39818370246872
 20
-20.31312152189753
 10
23.23742508126863
 20
-20.2153629008975
 10
23.09008068080087
 20
-20.10491738330552
 10
22.95388163209262
 20
-19.98378358981758
 10
22.83118370066862
 20
-19.85256979629754
 10
22.72473542446872
 20
-19.71136289929758
 10
22.63566645866864
 20
-19.56363876089752
 10
22.56614921706864
 20
-19.40722496729756
 10
22.51183887206869
 20
-19.2464663460976
 10
22.48142507886861
 20
-19.07919048349755
 10
22.47056300986857
 20
-18.90539737949756
 10
22.47925266506855
 20
-18.73160427549752
 10
22.50749404446857
 20
-18.56650082669753
 10
22.55745956186867
 20
-18.40574220549753
 10
22.62045956206863
 20
-18.25150082569757
 10
22.70301128646864
 20
-18.10594910109751
 10
22.80302921782064
 20
-17.9687394454895
 10
22.91429416989798
 20
-17.84048013473751
 10
23.03973542546864
 20
-17.72143185849756
 10
23.18244302592162
 20
-17.61472289264157
 10
23.33301128846872
 20
-17.51939737509747
 10
23.50028715106865
 20
-17.43684565069748
 10
23.67625266886866
 20
-17.36732840909747
 10
23.86090784186865
 20
-17.31301806409749
 10
24.05642508386859
 20
-17.2717422018975
 10
24.25845956726858
 20
-17.24567323629753
 10
24.47135611966861
 20
-17.23698358109755
 97
        0
 92
       22
 72
     0
 73
     1
 93
        6
 10
33.76276994226863
 20
-17.23698358109755
 10
34.78597684206865
 20
-17.23698358109755
 10
34.78597684206865
 20
-19.73960427869747
 10
36.00035615626872
 20
-19.73960427869747
 10
36.00035615626872
 20
-20.60639738489749
 10
33.76276994226863
 20
-20.60639738489749
 97
        0
 92
       22
 72
     0
 73
     1
 93
        8
 10
35.01842511866859
 20
-17.23698358109755
 10
38.52035616426862
 20
-17.23698358109755
 10
38.52035616426861
 20
-18.06250082509757
 10
37.27773547066865
 20
-18.06250082509757
 10
37.27773547066865
 20
-20.61291462629754
 10
36.25235615706858
 20
-20.61291462629754
 10
36.25235615706858
 20
-18.06250082509757
 10
35.01842511866859
 20
-18.06250082509757
 97
        0
 75
     0
 76
     1
 52
0.0
 41
0.75
 77
     0
 78
     1
 53
45.0
 43
-4.053080493485225
 44
-6.17408175105119
 45
-1.683798022700465
 46
1.683798022700466
 79
     0
 47
0.1337080556257257
 98
        7
 10
23.6511289437799
 20
10.56277508365556
 10
29.93946410346874
 20
-10.56309772255024
 10
29.93946410346874
 20
-10.56309772255024
 10
29.93946410346874
 20
-10.56309772255024
 10
29.93946410346874
 20
-10.56309772255024
 10
29.93946410346874
 20
-10.56309772255024
 10
29.93946410346874
 20
-10.56309772255024
1001
ACAD
1010
0.0
1020
0.0
1030
0.0
  0
LWPOLYLINE
  5
7E0
330
7B0
100
AcDbEntity
  8
LW 3030-STADIP-01
 62
     1
100
AcDbPolyline
 90
        8
 70
     1
 43
0.0
 10
37.27773547066865
 20
-18.06250082509757
 10
37.27773547066865
 20
-20.61291462629754
 10
36.25235615706858
 20
-20.61291462629754
 10
36.25235615706858
 20
-18.06250082509757
 10
35.01842511866859
 20
-18.06250082509757
 10
35.01842511866859
 20
-17.23698358109755
 10
38.52035616426862
 20
-17.23698358109755
 10
38.52035616426862
 20
-18.06250082509757
  0
LWPOLYLINE
  5
7E1
330
7B0
100
AcDbEntity
  8
LW 3030-STADIP-01
 62
     1
100
AcDbPolyline
 90
       73
 70
     1
 43
0.0
 10
27.57573543986861
 20
-19.73960427869747
 10
28.59242509826869
 20
-19.73960427869747
 10
29.47876992866863
 20
-20.61291462629754
 10
27.57573543986861
 20
-20.61291462629754
 10
27.36501130126864
 20
-20.60422497109755
 10
27.15645957646872
 20
-20.57815600549748
 10
26.95965626549902
 20
-20.53444703984155
 10
26.76542509246862
 20
-20.48039738449757
 10
26.58294233326866
 20
-20.4087077290975
 10
26.41132164306863
 20
-20.32398359089757
 10
26.25278757359981
 20
-20.22561669403353
 10
26.10066646966858
 20
-20.11760427989748
 10
25.9683751589039
 20
-19.99829531400155
 10
25.85036964128792
 20
-19.86925393428157
 10
25.74499019267752
 20
-19.72978496832149
 10
25.65314922686868
 20
-19.58101807129753
 10
25.58363198526855
 20
-19.42677669149748
 10
25.53149405406863
 20
-19.26601807029749
 10
25.49890784706863
 20
-19.09874220769757
 10
25.48804577806869
 20
-18.92712151749754
 10
25.49890784706863
 20
-18.75115599969752
 10
25.53149405406863
 20
-18.58388013709748
 10
25.58580439906861
 20
-18.42312151589749
 10
25.65749405446856
 20
-18.26888013609755
 10
25.74873543406865
 20
-18.12115599769754
 10
25.85735612406871
 20
-17.98212151449752
 10
25.98234812446551
 20
-17.85160289339353
 10
26.11804578006856
 20
-17.73229392749749
 10
26.27011474606867
 20
-17.62367323749754
 10
26.43567874659427
 20
-17.52721806477757
 10
26.60683888506857
 20
-17.44119047829758
 10
26.79366647186864
 20
-17.36950082289752
 10
26.98701130006863
 20
-17.31301806409749
 10
27.19144412830384
 20
-17.2732194432815
 10
27.39816233585659
 20
-17.24775875354555
 10
27.60614923306868
 20
-17.23698358109755
 10
31.04508027846863
 20
-17.23698358109755
 10
29.36363199726863
 20
-18.87063875869751
 10
31.07766648546864
 20
-20.61291462629754
 10
29.75901130886861
 20
-20.61291462629754
 10
27.99283888946867
 20
-18.89453531049753
 10
28.84008027146867
 20
-18.07988013549755
 10
27.57139061226873
 20
-18.07988013549755
 10
27.4473284049782
 20
-18.08509392861754
 10
27.32446537010539
 20
-18.10316841143356
 10
27.20412233524065
 20
-18.13375599773758
 10
27.08758536935353
 20
-18.1765959978735
 10
27.00356509322457
 20
-18.2187408255935
 10
26.92726992056864
 20
-18.26305806711355
 10
26.88702812733744
 20
-18.29025668788949
 10
26.84951488583898
 20
-18.32119186040154
 10
26.73860012686624
 20
-18.42963875729754
 10
26.6755219197694
 20
-18.50767186099358
 10
26.63399405756856
 20
-18.57553806810551
 10
26.590345919499
 20
-18.67425255117757
 10
26.57213240219984
 20
-18.73594910309748
 10
26.55997557457501
 20
-18.79912289640151
 10
26.55397102283179
 20
-18.86125393108148
 10
26.55261543662063
 20
-18.92355875886551
 10
26.56013198836867
 20
-19.01288841432154
 10
26.58083074705498
 20
-19.10004565597751
 10
26.6102539195622
 20
-19.18146772520151
 10
26.64961805761824
 20
-19.25863186337756
 10
26.69832357501424
 20
-19.33119048429751
 10
26.75338992001663
 20
-19.39905669140955
 10
26.82699129956065
 20
-19.46909531232154
 10
26.95955198963658
 20
-19.5684180712575
 10
27.01323667946225
 20
-19.6010042782575
 10
27.06937185205426
 20
-19.62915876110549
 10
27.17086702479027
 20
-19.67008703709757
 10
27.28798619757585
 20
-19.70441117513746
 10
27.40812068071593
 20
-19.72587462348156
 10
27.50906840517429
 20
-19.73585698575823
  0
LWPOLYLINE
  5
7E2
330
7B0
100
AcDbEntity
  8
LW 3030-STADIP-01
 62
     1
100
AcDbPolyline
 90
       76
 70
     1
 43
0.0
 10
26.36557218980262
 20
-17.39785357312655
 10
26.19018523643776
 20
-17.50003145494827
 10
26.02651644035577
 20
-17.61693773786396
 10
25.88049653389432
 20
-17.74532229957731
 10
25.74601845868155
 20
-17.88574642983985
 10
25.62786033445038
 20
-18.03698882885567
 10
25.59600150507755
 20
-18.08856979069753
 10
24.50611474046856
 20
-18.08856979069753
 10
24.36273542966866
 20
-18.09508703209747
 10
24.22587336026869
 20
-18.11463875629749
 10
24.10342742884542
 20
-18.14670358398553
 10
23.98473542846865
 20
-18.19067323929755
 10
23.88213666952221
 20
-18.2489808256895
 10
23.78704577266866
 20
-18.31884565349753
 10
23.70449404826856
 20
-18.40139737789752
 10
23.63497680666866
 20
-18.49698358509749
 10
25.40561532428798
 20
-18.49698358509749
 10
25.3890166216129
 20
-18.54611574501587
 10
25.35271089993763
 20
-18.73248511628242
 10
25.34068922750841
 20
-18.92723620963738
 10
25.35273288028999
 20
-19.11752592358812
 10
25.38884468825451
 20
-19.30289987113917
 10
25.39942915552753
 20
-19.3355353118975
 10
23.67190784126866
 20
-19.3355353118975
 10
23.74359749666862
 20
-19.42025945009755
 10
23.83377873833423
 20
-19.49820565724155
 10
23.93192839381824
 20
-19.5658111746975
 10
24.03687335966858
 20
-19.62229393349753
 10
24.15201129106869
 20
-19.66791462329752
 10
24.28018370526867
 20
-19.70084841650555
 10
24.41093694706298
 20
-19.72118220967354
 10
24.54304577506857
 20
-19.72874220969754
 10
25.57150884198906
 20
-19.72874220969754
 10
25.62348007343759
 20
-19.81292685180176
 10
25.73718542818098
 20
-19.96341509651449
 10
25.86462132166527
 20
-20.10276877974297
 10
26.00853369003541
 20
-20.23255837628278
 10
26.17136658479628
 20
-20.34817661470822
 10
26.33983299096623
 20
-20.45270630763992
 10
26.52339713476865
 20
-20.54332658116266
 10
26.6839409988212
 20
-20.60639738489749
 10
24.56476991306864
 20
-20.60639738489749
 10
24.35404577446867
 20
-20.5977077296975
 10
24.14549404966864
 20
-20.57163876409754
 10
23.9456319800686
 20
-20.52819048809749
 10
23.75445956566865
 20
-20.47170772929758
 10
23.57381032371588
 20
-20.39801945320153
 10
23.39818370246873
 20
-20.31312152189753
 10
23.23742508126863
 20
-20.2153629008975
 10
23.09008068080085
 20
-20.10491738330552
 10
22.9538816320926
 20
-19.98378358981756
 10
22.8311837006686
 20
-19.85256979629753
 10
22.72473542446871
 20
-19.71136289929757
 10
22.63566645866867
 20
-19.56363876089756
 10
22.56614921706866
 20
-19.40722496729756
 10
22.51183887206868
 20
-19.24646634609757
 10
22.48142507886861
 20
-19.07919048349754
 10
22.47056300986857
 20
-18.90539737949757
 10
22.47925266506856
 20
-18.73160427549749
 10
22.50749404446857
 20
-18.56650082669751
 10
22.55745956186867
 20
-18.40574220549752
 10
22.62045956206863
 20
-18.25150082569757
 10
22.70301128646862
 20
-18.10594910109751
 10
22.80302921782062
 20
-17.96873944548952
 10
22.91429416989799
 20
-17.8404801347375
 10
23.03973542546863
 20
-17.72143185849756
 10
23.18244302592167
 20
-17.61472289264156
 10
23.33301128846871
 20
-17.51939737509747
 10
23.50028715106863
 20
-17.43684565069748
 10
23.67625266886866
 20
-17.36732840909747
 10
23.86090784186867
 20
-17.31301806409749
 10
24.0564250838686
 20
-17.27174220189749
 10
24.25845956726859
 20
-17.24567323629753
 10
24.47135611966861
 20
-17.23698358109755
 10
26.72849405786862
 20
-17.23698358109755
 10
26.54732512240288
 20
-17.30650189354367
  0
LWPOLYLINE
  5
7E3
330
7B0
100
AcDbEntity
  8
LW 3030-STADIP-01
 62
     1
100
AcDbPolyline
 90
        6
 70
     1
 43
0.0
 10
36.00035615626872
 20
-20.60639738489749
 10
33.76276994226863
 20
-20.60639738489749
 10
33.76276994226863
 20
-17.23698358109755
 10
34.78597684206865
 20
-17.23698358109755
 10
34.78597684206865
 20
-19.73960427869747
 10
36.00035615626872
 20
-19.73960427869747
  0
LWPOLYLINE
  5
7E4
330
7B0
100
AcDbEntity
  8
LW 3030-STADIP-01
 62
     1
100
AcDbPolyline
 90
       57
 70
     1
 43
0.0
 10
30.70895572567748
 20
-19.98126358980949
 10
30.5890993115038
 20
-19.85091876180957
 10
30.48025269046867
 20
-19.71136289929757
 10
30.39335613846858
 20
-19.56363876089756
 10
30.32166648306862
 20
-19.40722496729756
 10
30.2695285518687
 20
-19.24646634609757
 10
30.23694234486858
 20
-19.07919048349754
 10
30.22608027586866
 20
-18.90539737949757
 10
30.23694234486858
 20
-18.73160427549749
 10
30.2695285518687
 20
-18.56432841289757
 10
30.31949406926857
 20
-18.40356979169758
 10
30.39118372466864
 20
-18.24932841189752
 10
30.47590786286857
 20
-18.10377668729756
 10
30.58018372526864
 20
-17.96474220409755
 10
30.70024869116698
 20
-17.83596151403355
 10
30.83480800193913
 20
-17.71673944468955
 10
30.98488703689829
 20
-17.60724978916949
 10
31.14370786498866
 20
-17.51079461644951
 10
31.31011476206869
 20
-17.42815599549749
 10
31.4947699350687
 20
-17.35646634009754
 10
31.68376993566859
 20
-17.30215599509756
 10
31.8814595914687
 20
-17.26088013289757
 10
32.08783890246856
 20
-17.23263875349755
 10
32.29856304106865
 20
-17.22394909829757
 10
33.53249407946864
 20
-17.22394909829757
 10
33.53249407946864
 20
-18.04946634229748
 10
32.2920457996686
 20
-18.04946634229748
 10
32.1486664888687
 20
-18.05815599749746
 10
32.01397683326856
 20
-18.08526772172149
 10
31.88250235009265
 20
-18.12524013564155
 10
31.75545959106866
 20
-18.17763875649757
 10
31.64805545279661
 20
-18.24472289464154
 10
31.54690786626863
 20
-18.32101806729747
 10
31.46001131426864
 20
-18.41008703309751
 10
31.39049407266863
 20
-18.50784565409753
 10
33.53249407946864
 20
-18.50784565409753
 10
33.53249407946864
 20
-19.3355353118975
 10
31.42742510726864
 20
-19.3355353118975
 10
31.50189545233265
 20
-19.42104151906551
 10
31.58931338364461
 20
-19.50081255380155
 10
31.68637683222871
 20
-19.5684180712575
 10
31.79604028085261
 20
-19.62933255420955
 10
31.91204717777261
 20
-19.67729945091355
 10
32.0326595919487
 20
-19.71162358895355
 10
32.16491614409257
 20
-19.73360841660951
 10
32.29856304106865
 20
-19.74394910629758
 10
33.53249407946864
 20
-19.74394910629758
 10
33.53249407946864
 20
-20.6020525572975
 10
32.32245959286867
 20
-20.6020525572975
 10
32.10956304046864
 20
-20.59336290209751
 10
31.90318372946867
 20
-20.56946635029749
 10
31.70332165986862
 20
-20.52601807429756
 10
31.51214924546868
 20
-20.46953531549752
 10
31.32749407246867
 20
-20.39567324629752
 10
31.1537009684687
 20
-20.31094910809748
 10
30.9929423472686
 20
-20.21319048709756
 10
30.8453833123174
 20
-20.10257117640151
  0
ENDBLK
  5
7B5
330
7B0
100
AcDbEntity
  8
0
100
AcDbBlockEnd
  0
BLOCK
  5
7EA
330
7E6
100
AcDbEntity
  8
0
100
AcDbBlockBegin
  2
LW 3030-24-01
 70
     0
 10
0.0
 20
0.0
 30
0.0
  3
LW 3030-24-01
  1

  0
LINE
  5
7EC
330
7E6
100
AcDbEntity
  8
LW 3030-STADIP-01
 48
0.0
100
AcDbLine
 10
27.52
 20
-23.0
 30
0.0
 11
40.31289321881344
 21
-23.0
 31
0.0
  0
LINE
  5
7ED
330
7E6
100
AcDbEntity
  8
LW 3030-STADIP-01
 48
0.0
100
AcDbLine
 10
43.51999999999999
 20
-5.5
 30
0.0
 11
5.25
 21
-5.5
 31
0.0
  0
LINE
  5
7EE
330
7E6
100
AcDbEntity
  8
LW 3030-STADIP-01
 48
0.0
100
AcDbLine
 10
5.25
 20
5.5
 30
0.0
 11
43.51999999999999
 21
5.5
 31
0.0
  0
LINE
  5
7EF
330
7E6
100
AcDbEntity
  8
LW 3030-STADIP-01
 48
0.0
100
AcDbLine
 10
34.02
 20
23.0
 30
0.0
 11
27.52
 21
23.0
 31
0.0
  0
LINE
  5
7F0
330
7E6
100
AcDbEntity
  8
LW 3030-STADIP-01
 48
0.0
100
AcDbLine
 10
25.52
 20
-11.0
 30
0.0
 11
25.52
 21
-22.0
 31
0.0
  0
LINE
  5
7F1
330
7E6
100
AcDbEntity
  8
LW 3030-STADIP-01
 48
0.0
100
AcDbLine
 10
25.52
 20
-22.0
 30
0.0
 11
27.52
 21
-22.0
 31
0.0
  0
LINE
  5
7F2
330
7E6
100
AcDbEntity
  8
LW 3030-STADIP-01
 48
0.0
100
AcDbLine
 10
27.52
 20
-22.0
 30
0.0
 11
27.52
 21
-23.0
 31
0.0
  0
LINE
  5
7F3
330
7E6
100
AcDbEntity
  8
LW 3030-STADIP-01
 48
0.0
100
AcDbLine
 10
5.25
 20
5.5
 30
0.0
 11
5.25
 21
-5.5
 31
0.0
  0
LINE
  5
7F4
330
7E6
100
AcDbEntity
  8
LW 3030-STADIP-01
 48
0.0
100
AcDbLine
 10
5.0
 20
-11.0
 30
0.0
 11
0.0
 21
-16.0
 31
0.0
  0
LINE
  5
7F5
330
7E6
100
AcDbEntity
  8
LW 3030-STADIP-01
 48
0.0
100
AcDbLine
 10
0.0
 20
-16.0
 30
0.0
 11
5.0
 21
-11.0
 31
0.0
  0
LINE
  5
7F6
330
7E6
100
AcDbEntity
  8
LW 3030-STADIP-01
 48
0.0
100
AcDbLine
 10
5.25
 20
-5.5
 30
0.0
 11
0.0
 21
-10.75
 31
0.0
  0
LINE
  5
7F7
330
7E6
100
AcDbEntity
  8
LW 3030-STADIP-01
 48
0.0
100
AcDbLine
 10
0.0
 20
16.0
 30
0.0
 11
0.0
 21
-16.0
 31
0.0
  0
LINE
  5
7F8
330
7E6
100
AcDbEntity
  8
LW 3030-STADIP-01
 48
0.0
100
AcDbLine
 10
5.0
 20
-11.0
 30
0.0
 11
25.52
 21
-11.0
 31
0.0
  0
LINE
  5
7F9
330
7E6
100
AcDbEntity
  8
LW 3030-STADIP-01
 48
0.0
100
AcDbLine
 10
0.0
 20
16.0
 30
0.0
 11
5.0
 21
11.0
 31
0.0
  0
LINE
  5
7FA
330
7E6
100
AcDbEntity
  8
LW 3030-STADIP-01
 48
0.0
100
AcDbLine
 10
0.0
 20
10.75
 30
0.0
 11
5.25
 21
5.5
 31
0.0
  0
LINE
  5
7FB
330
7E6
100
AcDbEntity
  8
LW 3030-STADIP-01
 48
0.0
100
AcDbLine
 10
5.0
 20
11.0
 30
0.0
 11
0.0
 21
16.0
 31
0.0
  0
LINE
  5
7FC
330
7E6
100
AcDbEntity
  8
LW 3030-STADIP-01
 48
0.0
100
AcDbLine
 10
27.52
 20
23.0
 30
0.0
 11
27.52
 21
22.0
 31
0.0
  0
LINE
  5
7FD
330
7E6
100
AcDbEntity
  8
LW 3030-STADIP-01
 48
0.0
100
AcDbLine
 10
27.52
 20
22.0
 30
0.0
 11
25.52
 21
22.0
 31
0.0
  0
LINE
  5
7FE
330
7E6
100
AcDbEntity
  8
LW 3030-STADIP-01
 48
0.0
100
AcDbLine
 10
25.52
 20
22.0
 30
0.0
 11
25.52
 21
11.0
 31
0.0
  0
LINE
  5
7FF
330
7E6
100
AcDbEntity
  8
LW 3030-STADIP-01
 48
0.0
100
AcDbLine
 10
25.52
 20
11.0
 30
0.0
 11
5.0
 21
11.0
 31
0.0
  0
LINE
  5
800
330
7E6
100
AcDbEntity
  8
LW 3030-STADIP-01
 48
0.0
100
AcDbLine
 10
43.51999999999999
 20
-19.79289321881345
 30
0.0
 11
43.51999999999999
 21
19.79289321881345
 31
0.0
  0
ARC
  5
801
330
7E6
100
AcDbEntity
  8
LW 3030-STADIP-01
 48
0.0
100
AcDbCircle
 10
40.31289321881344
 20
-22.5
 30
0.0
 40
0.4999999999999983
100
AcDbArc
 50
270.0
 51
315.0000000000001
  0
LINE
  5
802
330
7E6
100
AcDbEntity
  8
LW 3030-STADIP-01
 48
0.0
100
AcDbLine
 10
40.66644660940666
 20
-22.85355339059322
 30
0.0
 11
43.37355339059321
 21
-20.14644660940667
 31
0.0
  0
ARC
  5
803
330
7E6
100
AcDbEntity
  8
LW 3030-STADIP-01
 48
0.0
100
AcDbCircle
 10
43.01999999999999
 20
-19.79289321881345
 30
0.0
 40
0.500000000000007
100
AcDbArc
 50
315.0000000000001
 51
0.0
  0
ARC
  5
804
330
7E6
100
AcDbEntity
  8
LW 3030-STADIP-01
 48
0.0
100
AcDbCircle
 10
43.01999999999999
 20
19.79289321881345
 30
0.0
 40
0.5000000000000071
100
AcDbArc
 50
0.0
 51
44.99999999999759
  0
LINE
  5
805
330
7E6
100
AcDbEntity
  8
LW 3030-STADIP-01
 48
0.0
100
AcDbLine
 10
43.37355339059321
 20
20.14644660940678
 30
0.0
 11
40.66644660940666
 21
22.85355339059333
 31
0.0
  0
ARC
  5
806
330
7E6
100
AcDbEntity
  8
LW 3030-STADIP-01
 48
0.0
100
AcDbCircle
 10
40.31289321881344
 20
22.50000000000011
 30
0.0
 40
0.4999999999999991
100
AcDbArc
 50
44.99999999999989
 51
90.0
  0
LINE
  5
807
330
7E6
100
AcDbEntity
  8
LW 3030-STADIP-01
 48
0.0
100
AcDbLine
 10
40.31289321881344
 20
23.0
 30
0.0
 11
39.02
 21
23.0
 31
0.0
  0
LINE
  5
808
330
7E6
100
AcDbEntity
  8
LW 3030-STADIP-01
 48
0.0
100
AcDbLine
 10
39.02
 20
23.0
 30
0.0
 11
39.02
 21
17.0
 31
0.0
  0
LINE
  5
809
330
7E6
100
AcDbEntity
  8
LW 3030-STADIP-01
 48
0.0
100
AcDbLine
 10
39.02
 20
17.00000000000011
 30
0.0
 11
36.52
 21
15.55662432702593
 31
0.0
  0
LINE
  5
80A
330
7E6
100
AcDbEntity
  8
LW 3030-STADIP-01
 48
0.0
100
AcDbLine
 10
36.52
 20
15.55662432702593
 30
0.0
 11
34.02
 21
17.00000000000011
 31
0.0
  0
LINE
  5
80B
330
7E6
100
AcDbEntity
  8
LW 3030-STADIP-01
 48
0.0
100
AcDbLine
 10
34.02
 20
17.0
 30
0.0
 11
34.02
 21
23.0
 31
0.0
  0
LINE
  5
80C
330
7E6
100
AcDbEntity
  8
LW 3030-STADIP-01
 48
0.0
100
AcDbLine
 10
39.02
 20
17.0
 30
0.0
 11
34.02
 21
17.0
 31
0.0
  0
LWPOLYLINE
  5
80D
330
7E6
100
AcDbEntity
  8
LW 3030-STADIP-01
 48
0.0
100
AcDbPolyline
 90
       25
 70
     0
 43
0.0
 10
34.01999976158142
 20
22.99999952316284
 10
34.04101755142212
 20
22.99768447875977
 10
34.10435583114624
 20
22.99094438552856
 10
34.21044494628906
 20
22.98007965087891
 10
34.35832883834839
 20
22.96570539474487
 10
34.54154040336609
 20
22.94918775558472
 10
34.75223567008972
 20
22.93196439743042
 10
34.99257947921753
 20
22.91472673416138
 10
35.26519801139831
 20
22.89817333221435
 10
35.56294943809509
 20
22.88374900817871
 10
35.87811853408813
 20
22.87283420562744
 10
36.20067383766174
 20
22.86605596542358
 10
36.51999976158142
 20
22.86372661590576
 10
36.8393256855011
 20
22.86605596542358
 10
37.1618821811676
 20
22.87283420562744
 10
37.47705127716064
 20
22.88374900817871
 10
37.77480270385742
 20
22.89817333221435
 10
38.04742004394531
 20
22.91472673416138
 10
38.28776266098022
 20
22.93196439743042
 10
38.49846031188965
 20
22.94918775558472
 10
38.68167068481445
 20
22.96570539474487
 10
38.82955457687378
 20
22.98007965087891
 10
38.9356436920166
 20
22.99094438552856
 10
38.99898197174072
 20
22.99768447875977
 10
39.02000095367431
 20
22.99999952316284
  0
LINE
  5
80E
330
7E6
100
AcDbEntity
  8
LW 3030-STADIP-01
  6
MITTE2
 62
     3
100
AcDbLine
 10
36.52
 20
11.55662432702604
 30
0.0
 11
36.52
 21
27.0467915097197
 31
0.0
  0
LINE
  5
80F
330
7E6
100
AcDbEntity
  8
LW 3030-STADIP-01
  6
MITTE2
 62
     3
100
AcDbLine
 10
-2.5
 20
0.0
 30
0.0
 11
46.01999999999999
 21
0.0000000000001137
 31
0.0
  0
INSERT
  5
810
330
7E6
100
AcDbEntity
  8
insertpoint_ECKELT
100
AcDbBlockReference
 66
     1
  2
insertpoint-ECKELT
 10
0.0
 20
0.0
 30
0.0
  0
ATTRIB
  5
811
330
810
100
AcDbEntity
  8
insertpoint_ECKELT
100
AcDbText
 10
-6.931514324693087
 20
0.0
 30
0.0
 40
0.6
  1
LW 3030/24-01
 72
     2
 11
-1.200000000000045
 21
0.0
 31
0.0
100
AcDbAttribute
  2
LINKS
 70
     0
  0
ATTRIB
  5
812
330
810
100
AcDbEntity
  8
insertpoint_ECKELT
100
AcDbText
 10
1.200000000000045
 20
0.0
 30
0.0
 40
0.6
  1

100
AcDbAttribute
  2
RECHTS
 70
     0
  0
SEQEND
  5
813
330
810
100
AcDbEntity
  8
insertpoint_ECKELT
  0
HATCH
  5
814
330
7E6
100
AcDbEntity
  8
LW 3030-STADIP-01
 62
     1
100
AcDbHatch
 10
0.0
 20
0.0
 30
0.0
210
0.0
220
0.0
230
1.0
  2
SOLID
 70
     1
 71
     0
 91
        5
 92
        7
 72
     0
 73
     1
 93
       76
 10
29.59600150507755
 20
-18.08856979069753
 10
29.62786033445038
 20
-18.03698882885578
 10
29.74601845868166
 20
-17.88574642983974
 10
29.88049653389431
 20
-17.74532229957731
 10
30.02651644035588
 20
-17.61693773786396
 10
30.19018523643787
 20
-17.50003145494827
 10
30.36557218980262
 20
-17.39785357312655
 10
30.54732512240288
 20
-17.30650189354367
 10
30.72849405786862
 20
-17.23698358109755
 10
28.47135611966861
 20
-17.23698358109755
 10
28.25845956726859
 20
-17.24567323629753
 10
28.0564250838686
 20
-17.27174220189749
 10
27.86090784186856
 20
-17.31301806409749
 10
27.67625266886877
 20
-17.36732840909747
 10
27.50028715106852
 20
-17.43684565069748
 10
27.33301128846871
 20
-17.51939737509758
 10
27.18244302592167
 20
-17.61472289264145
 10
27.03973542546875
 20
-17.72143185849756
 10
26.9142941698981
 20
-17.84048013473762
 10
26.80302921782062
 20
-17.96873944548952
 10
26.70301128646862
 20
-18.10594910109751
 10
26.62045956206863
 20
-18.25150082569746
 10
26.55745956186867
 20
-18.40574220549763
 10
26.50749404446869
 20
-18.56650082669739
 10
26.47925266506867
 20
-18.73160427549749
 10
26.47056300986857
 20
-18.90539737949746
 10
26.48142507886861
 20
-19.07919048349754
 10
26.51183887206868
 20
-19.24646634609757
 10
26.56614921706866
 20
-19.40722496729756
 10
26.63566645866855
 20
-19.56363876089756
 10
26.72473542446871
 20
-19.71136289929757
 10
26.83118370066861
 20
-19.85256979629753
 10
26.95388163209261
 20
-19.98378358981756
 10
27.09008068080085
 20
-20.10491738330552
 10
27.23742508126863
 20
-20.2153629008975
 10
27.39818370246873
 20
-20.31312152189753
 10
27.57381032371588
 20
-20.39801945320153
 10
27.75445956566866
 20
-20.47170772929746
 10
27.94563198006871
 20
-20.52819048809749
 10
28.14549404966864
 20
-20.57163876409754
 10
28.35404577446868
 20
-20.5977077296975
 10
28.56476991306865
 20
-20.60639738489749
 10
30.6839409988212
 20
-20.60639738489749
 10
30.52339713476865
 20
-20.54332658116266
 10
30.33983299096623
 20
-20.45270630763992
 10
30.17136658479627
 20
-20.34817661470822
 10
30.00853369003541
 20
-20.23255837628278
 10
29.86462132166527
 20
-20.10276877974297
 10
29.73718542818098
 20
-19.96341509651449
 10
29.62348007343759
 20
-19.81292685180187
 10
29.57150884198906
 20
-19.72874220969754
 10
28.54304577506857
 20
-19.72874220969754
 10
28.41093694706298
 20
-19.72118220967354
 10
28.28018370526867
 20
-19.70084841650555
 10
28.15201129106869
 20
-19.66791462329752
 10
28.03687335966858
 20
-19.62229393349753
 10
27.93192839381824
 20
-19.5658111746975
 10
27.83377873833423
 20
-19.49820565724155
 10
27.74359749666861
 20
-19.42025945009755
 10
27.67190784126866
 20
-19.3355353118975
 10
29.39942915552753
 20
-19.3355353118975
 10
29.38884468825451
 20
-19.30289987113917
 10
29.35273288028999
 20
-19.11752592358812
 10
29.34068922750829
 20
-18.92723620963738
 10
29.35271089993764
 20
-18.73248511628242
 10
29.3890166216129
 20
-18.54611574501587
 10
29.40561532428798
 20
-18.49698358509749
 10
27.63497680666866
 20
-18.49698358509749
 10
27.70449404826856
 20
-18.40139737789764
 10
27.78704577266855
 20
-18.31884565349753
 10
27.88213666952221
 20
-18.2489808256895
 10
27.98473542846866
 20
-18.19067323929755
 10
28.10342742884542
 20
-18.14670358398553
 10
28.22587336026869
 20
-18.11463875629749
 10
28.36273542966866
 20
-18.09508703209758
 10
28.50611474046868
 20
-18.08856979069753
 97
        0
 92
        7
 72
     0
 73
     1
 93
       72
 10
31.32446537010539
 20
-18.10316841143356
 10
31.4473284049782
 20
-18.08509392861754
 10
31.57139061226873
 20
-18.07988013549755
 10
32.84008027146867
 20
-18.07988013549755
 10
31.99283888946867
 20
-18.89453531049753
 10
33.75901130886861
 20
-20.61291462629754
 10
35.07766648546864
 20
-20.61291462629754
 10
33.36363199726863
 20
-18.87063875869751
 10
35.04508027846863
 20
-17.23698358109755
 10
31.60614923306868
 20
-17.23698358109755
 10
31.39816233585658
 20
-17.24775875354555
 10
31.19144412830384
 20
-17.2732194432815
 10
30.98701130006863
 20
-17.31301806409749
 10
30.79366647186863
 20
-17.36950082289752
 10
30.60683888506857
 20
-17.44119047829747
 10
30.43567874659415
 20
-17.52721806477757
 10
30.27011474606867
 20
-17.62367323749754
 10
30.11804578006867
 20
-17.73229392749749
 10
29.9823481244655
 20
-17.85160289339353
 10
29.85735612406872
 20
-17.98212151449752
 10
29.74873543406854
 20
-18.12115599769754
 10
29.65749405446867
 20
-18.26888013609744
 10
29.58580439906861
 20
-18.42312151589749
 10
29.53149405406863
 20
-18.58388013709748
 10
29.49890784706873
 20
-18.75115599969752
 10
29.4880457780687
 20
-18.92712151749765
 10
29.49890784706862
 20
-19.09874220769757
 10
29.53149405406863
 20
-19.26601807029749
 10
29.58363198526856
 20
-19.42677669149748
 10
29.65314922686868
 20
-19.58101807129753
 10
29.74499019267741
 20
-19.72978496832149
 10
29.85036964128791
 20
-19.86925393428157
 10
29.9683751589039
 20
-19.99829531400144
 10
30.10066646966858
 20
-20.11760427989748
 10
30.25278757359981
 20
-20.22561669403353
 10
30.41132164306875
 20
-20.32398359089757
 10
30.58294233326866
 20
-20.4087077290975
 10
30.76542509246862
 20
-20.48039738449757
 10
30.95965626549902
 20
-20.53444703984155
 10
31.15645957646861
 20
-20.57815600549748
 10
31.36501130126864
 20
-20.60422497109755
 10
31.57573543986861
 20
-20.61291462629754
 10
33.47876992866863
 20
-20.61291462629754
 10
32.59242509826869
 20
-19.73960427869747
 10
31.57573543986861
 20
-19.73960427869747
 10
31.50906840517406
 20
-19.73585698575823
 10
31.40812068071593
 20
-19.72587462348156
 10
31.28798619757585
 20
-19.70441117513758
 10
31.17086702479027
 20
-19.67008703709757
 10
31.06937185205426
 20
-19.62915876110549
 10
31.01323667946214
 20
-19.6010042782575
 10
30.95955198963658
 20
-19.5684180712575
 10
30.82699129956065
 20
-19.46909531232154
 10
30.75338992001663
 20
-19.39905669140955
 10
30.69832357501436
 20
-19.33119048429762
 10
30.64961805761824
 20
-19.25863186337756
 10
30.6102539195622
 20
-19.18146772520151
 10
30.58083074705498
 20
-19.10004565597762
 10
30.56013198836855
 20
-19.01288841432154
 10
30.55261543662063
 20
-18.92355875886562
 10
30.55397102283179
 20
-18.86125393108159
 10
30.55997557457501
 20
-18.79912289640163
 10
30.57213240219984
 20
-18.73594910309748
 10
30.590345919499
 20
-18.67425255117757
 10
30.63399405756856
 20
-18.57553806810563
 10
30.6755219197694
 20
-18.50767186099358
 10
30.73860012686625
 20
-18.42963875729754
 10
30.86800206723105
 20
-18.30311602024392
 10
30.92726992056875
 20
-18.26305806711355
 10
31.00356509322457
 20
-18.21874082559361
 10
31.08758536935342
 20
-18.1765959978735
 10
31.20412233524054
 20
-18.13375599773758
 97
        0
 92
        7
 72
     0
 73
     1
 93
       57
 10
35.88250235009265
 20
-18.12524013564155
 10
36.01397683326867
 20
-18.08526772172149
 10
36.14866648886859
 20
-18.05815599749746
 10
36.2920457996686
 20
-18.04946634229748
 10
37.53249407946864
 20
-18.04946634229748
 10
37.53249407946864
 20
-17.22394909829757
 10
36.29856304106876
 20
-17.22394909829757
 10
36.08783890246868
 20
-17.23263875349755
 10
35.8814595914687
 20
-17.26088013289745
 10
35.68376993566871
 20
-17.30215599509745
 10
35.4947699350687
 20
-17.35646634009754
 10
35.31011476206869
 20
-17.42815599549749
 10
35.14370786498854
 20
-17.51079461644951
 10
34.98488703689818
 20
-17.6072497891696
 10
34.83480800193913
 20
-17.71673944468955
 10
34.7002486911672
 20
-17.83596151403344
 10
34.58018372526864
 20
-17.96474220409755
 10
34.47590786286868
 20
-18.10377668729756
 10
34.39118372466864
 20
-18.24932841189752
 10
34.31949406926857
 20
-18.40356979169758
 10
34.26952855186871
 20
-18.56432841289745
 10
34.23694234486858
 20
-18.73160427549749
 10
34.22608027586865
 20
-18.90539737949746
 10
34.23694234486858
 20
-19.07919048349754
 10
34.26952855186871
 20
-19.24646634609757
 10
34.32166648306863
 20
-19.40722496729756
 10
34.39335613846858
 20
-19.56363876089756
 10
34.48025269046868
 20
-19.71136289929757
 10
34.5890993115038
 20
-19.85091876180957
 10
34.70895572567748
 20
-19.98126358980949
 10
34.84538331231739
 20
-20.10257117640151
 10
34.9929423472686
 20
-20.21319048709756
 10
35.1537009684687
 20
-20.31094910809759
 10
35.32749407246867
 20
-20.39567324629752
 10
35.51214924546868
 20
-20.46953531549752
 10
35.70332165986862
 20
-20.52601807429756
 10
35.90318372946855
 20
-20.56946635029749
 10
36.10956304046864
 20
-20.59336290209751
 10
36.32245959286867
 20
-20.6020525572975
 10
37.53249407946864
 20
-20.6020525572975
 10
37.53249407946864
 20
-19.74394910629758
 10
36.29856304106854
 20
-19.74394910629758
 10
36.16491614409258
 20
-19.73360841660951
 10
36.0326595919487
 20
-19.71162358895355
 10
35.91204717777261
 20
-19.67729945091355
 10
35.79604028085261
 20
-19.62933255420955
 10
35.68637683222871
 20
-19.5684180712575
 10
35.58931338364461
 20
-19.50081255380155
 10
35.50189545233265
 20
-19.42104151906551
 10
35.42742510726863
 20
-19.3355353118975
 10
37.53249407946864
 20
-19.3355353118975
 10
37.53249407946864
 20
-18.50784565409753
 10
35.39049407266863
 20
-18.50784565409753
 10
35.46001131426864
 20
-18.41008703309751
 10
35.54690786626863
 20
-18.32101806729759
 10
35.64805545279661
 20
-18.24472289464154
 10
35.75545959106866
 20
-18.17763875649757
 97
        0
 92
        7
 72
     0
 73
     1
 93
        6
 10
37.76276994226864
 20
-17.23698358109755
 10
37.76276994226864
 20
-20.60639738489749
 10
40.00035615626872
 20
-20.60639738489749
 10
40.00035615626872
 20
-19.73960427869747
 10
38.78597684206865
 20
-19.73960427869747
 10
38.78597684206865
 20
-17.23698358109755
 97
        0
 92
        7
 72
     0
 73
     1
 93
        8
 10
39.01842511866859
 20
-17.23698358109755
 10
39.01842511866859
 20
-18.06250082509757
 10
40.25235615706857
 20
-18.06250082509757
 10
40.25235615706857
 20
-20.61291462629754
 10
41.27773547066865
 20
-20.61291462629754
 10
41.27773547066865
 20
-18.06250082509757
 10
42.52035616426861
 20
-18.06250082509757
 10
42.52035616426861
 20
-17.23698358109755
 97
        0
 75
     0
 76
     1
 47
0.0142553043587597
 98
        5
 10
28.90566163114387
 20
-17.67943325068666
 10
31.17315884448637
 20
-17.82198623569241
 10
35.66537057668803
 20
-17.7649650631447
 10
38.38921966051954
 20
-17.52262483845243
 10
39.80105764274642
 20
-17.62241197086575
450
        0
451
        0
460
0.0
461
0.0
452
        0
462
0.0
453
        0
470

  0
HATCH
  5
815
330
7E6
100
AcDbEntity
  8
LW 3030-STADIP-01
 62
     8
100
AcDbHatch
 10
0.0
 20
0.0
 30
0.0
210
0.0
220
0.0
230
1.0
  2
ANSI31
 70
     0
 71
     0
 91
        7
 92
        7
 72
     1
 73
     1
 93
       18
 10
43.51999999999999
 20
19.79289321881345
 42
0.1989123673796612
 10
43.37355339059326
 20
20.14644660940673
 42
0.0
 10
40.66644660940666
 20
22.85355339059333
 42
0.1989123673796713
 10
40.31289321881334
 20
23.0
 42
0.0
 10
39.01999999999999
 20
23.0
 42
0.0
 10
39.02
 20
17.0000000000001
 42
0.0
 10
36.51999999999999
 20
15.55662432702593
 42
0.0
 10
34.02
 20
17.00000000000011
 42
0.0
 10
34.02
 20
23.0
 42
0.0
 10
27.52
 20
23.0
 42
0.0
 10
27.52
 20
22.0
 42
0.0
 10
25.52
 20
22.0
 42
0.0
 10
25.51999999999999
 20
11.0
 42
0.0
 10
4.999999999999998
 20
11.0
 42
0.0
 10
0.0
 20
16.0
 42
0.0
 10
0.0
 20
10.75000000000001
 42
0.0
 10
5.250000000000001
 20
5.5
 42
0.0
 10
43.51999999999999
 20
5.5
 42
0.0
 97
        0
 92
        7
 72
     1
 73
     1
 93
       13
 10
43.51999999999999
 20
-5.500000000000007
 42
0.0
 10
5.249999999999998
 20
-5.5
 42
0.0
 10
0.0
 20
-10.75
 42
0.0
 10
0.0000000000000009
 20
-16.0
 42
0.0
 10
5.00000000000001
 20
-11.0
 42
0.0
 10
25.52
 20
-11.00000000000001
 42
0.0
 10
25.52
 20
-22.0
 42
0.0
 10
27.52
 20
-22.0
 42
0.0
 10
27.52
 20
-23.0
 42
0.0
 10
40.31289321881344
 20
-23.0
 42
0.1989123673796446
 10
40.66644660940666
 20
-22.85355339059322
 42
0.0
 10
43.37355339059321
 20
-20.14644660940667
 42
0.1989123673797054
 10
43.51999999999999
 20
-19.79289321881332
 42
0.0
 97
        0
 92
       22
 72
     0
 73
     1
 93
       76
 10
30.72849405786862
 20
-17.23698358109755
 10
30.54732512240283
 20
-17.3065018935437
 10
30.36557218980274
 20
-17.39785357312651
 10
30.19018523643766
 20
-17.50003145494833
 10
30.02651644035584
 20
-17.61693773786396
 10
29.88049653389429
 20
-17.74532229957724
 10
29.7460184586815
 20
-17.88574642983988
 10
29.62786033445039
 20
-18.03698882885572
 10
29.59600150507756
 20
-18.08856979069753
 10
28.50611474046856
 20
-18.08856979069753
 10
28.36273542966881
 20
-18.09508703209745
 10
28.22587336026879
 20
-18.11463875629749
 10
28.10342742884548
 20
-18.14670358398553
 10
27.98473542846857
 20
-18.19067323929758
 10
27.88213666952222
 20
-18.24898082568953
 10
27.78704577266868
 20
-18.3188456534975
 10
27.70449404826852
 20
-18.40139737789752
 10
27.63497680666866
 20
-18.49698358509749
 10
29.40561532428798
 20
-18.49698358509749
 10
29.38901662161289
 20
-18.54611574501585
 10
29.35271089993764
 20
-18.73248511628246
 10
29.34068922750841
 20
-18.92723620963734
 10
29.35273288028998
 20
-19.11752592358813
 10
29.38884468825452
 20
-19.30289987113916
 10
29.39942915552754
 20
-19.3355353118975
 10
27.67190784126867
 20
-19.3355353118975
 10
27.74359749666861
 20
-19.42025945009753
 10
27.83377873833425
 20
-19.4982056572416
 10
27.93192839381836
 20
-19.56581117469754
 10
28.03687335966865
 20
-19.62229393349758
 10
28.15201129106872
 20
-19.66791462329752
 10
28.28018370526871
 20
-19.70084841650556
 10
28.41093694706286
 20
-19.72118220967353
 10
28.54304577506848
 20
-19.72874220969753
 10
29.57150884198906
 20
-19.72874220969754
 10
29.62348007343759
 20
-19.81292685180175
 10
29.73718542818097
 20
-19.96341509651442
 10
29.86462132166523
 20
-20.10276877974296
 10
30.00853369003537
 20
-20.23255837628275
 10
30.17136658479615
 20
-20.34817661470807
 10
30.33983299096632
 20
-20.45270630763996
 10
30.52339713476873
 20
-20.54332658116269
 10
30.6839409988212
 20
-20.60639738489748
 10
28.5647699130687
 20
-20.60639738489749
 10
28.35404577446873
 20
-20.5977077296975
 10
28.14549404966872
 20
-20.57163876409754
 10
27.94563198006852
 20
-20.52819048809751
 10
27.75445956566863
 20
-20.47170772929758
 10
27.57381032371582
 20
-20.39801945320147
 10
27.39818370246868
 20
-20.31312152189757
 10
27.23742508126853
 20
-20.21536290089746
 10
27.09008068080089
 20
-20.10491738330555
 10
26.95388163209264
 20
-19.98378358981762
 10
26.83118370066861
 20
-19.85256979629754
 10
26.72473542446871
 20
-19.71136289929759
 10
26.63566645866867
 20
-19.56363876089756
 10
26.56614921706865
 20
-19.40722496729755
 10
26.51183887206867
 20
-19.24646634609756
 10
26.48142507886861
 20
-19.07919048349757
 10
26.47056300986857
 20
-18.90539737949758
 10
26.47925266506856
 20
-18.73160427549753
 10
26.50749404446858
 20
-18.56650082669752
 10
26.55745956186868
 20
-18.40574220549752
 10
26.62045956206867
 20
-18.25150082569752
 10
26.70301128646862
 20
-18.10594910109763
 10
26.80302921782068
 20
-17.96873944548959
 10
26.91429416989798
 20
-17.84048013473752
 10
27.03973542546867
 20
-17.72143185849756
 10
27.18244302592164
 20
-17.61472289264156
 10
27.3330112884687
 20
-17.51939737509748
 10
27.50028715106865
 20
-17.43684565069751
 10
27.67625266886864
 20
-17.36732840909747
 10
27.8609078418687
 20
-17.31301806409752
 10
28.05642508386867
 20
-17.27174220189747
 10
28.2584595672685
 20
-17.24567323629753
 10
28.47135611966832
 20
-17.23698358109755
 97
        0
 92
       22
 72
     0
 73
     1
 93
       73
 10
31.39816233585658
 20
-17.24775875354555
 10
31.60614923306879
 20
-17.23698358109755
 10
35.04508027846863
 20
-17.23698358109755
 10
33.36363199726863
 20
-18.87063875869751
 10
35.07766648546864
 20
-20.61291462629754
 10
33.75901130886861
 20
-20.61291462629752
 10
31.99283888946866
 20
-18.89453531049752
 10
32.84008027146867
 20
-18.07988013549753
 10
31.57139061226886
 20
-18.07988013549755
 10
31.44732840497797
 20
-18.08509392861755
 10
31.32446537010523
 20
-18.10316841143357
 10
31.20412233524071
 20
-18.13375599773756
 10
31.08758536935339
 20
-18.17659599787356
 10
31.00356509322466
 20
-18.2187408255934
 10
30.92726992056851
 20
-18.26305806711343
 10
30.88702812733744
 20
-18.29025668788951
 10
30.84951488583912
 20
-18.3211918604015
 10
30.73860012686623
 20
-18.42963875729757
 10
30.67552191976937
 20
-18.50767186099367
 10
30.63399405756854
 20
-18.57553806810561
 10
30.59034591949899
 20
-18.67425255117757
 10
30.57213240219986
 20
-18.73594910309741
 10
30.559975574575
 20
-18.79912289640148
 10
30.55397102283179
 20
-18.86125393108146
 10
30.55261543662063
 20
-18.92355875886555
 10
30.56013198836867
 20
-19.01288841432155
 10
30.58083074705497
 20
-19.10004565597747
 10
30.6102539195622
 20
-19.18146772520153
 10
30.64961805761825
 20
-19.25863186337756
 10
30.69832357501425
 20
-19.33119048429751
 10
30.75338992001667
 20
-19.3990566914096
 10
30.82699129956063
 20
-19.46909531232153
 10
30.95955198963659
 20
-19.5684180712575
 10
31.01323667946227
 20
-19.60100427825749
 10
31.06937185205428
 20
-19.62915876110544
 10
31.17086702479039
 20
-19.67008703709761
 10
31.28798619757592
 20
-19.70441117513749
 10
31.40812068071602
 20
-19.72587462348154
 10
31.50906840517431
 20
-19.73585698575823
 10
31.57573543986863
 20
-19.73960427869747
 10
32.59242509826869
 20
-19.73960427869745
 10
33.47876992866862
 20
-20.61291462629754
 10
31.57573543986897
 20
-20.61291462629754
 10
31.36501130126864
 20
-20.60422497109756
 10
31.15645957646867
 20
-20.5781560054975
 10
30.95965626549918
 20
-20.53444703984157
 10
30.76542509246857
 20
-20.48039738449758
 10
30.5829423332687
 20
-20.40870772909754
 10
30.41132164306857
 20
-20.32398359089754
 10
30.2527875735999
 20
-20.22561669403362
 10
30.10066646966853
 20
-20.11760427989746
 10
29.96837515890387
 20
-19.99829531400152
 10
29.85036964128792
 20
-19.86925393428154
 10
29.74499019267751
 20
-19.72978496832149
 10
29.65314922686871
 20
-19.58101807129757
 10
29.58363198526858
 20
-19.42677669149755
 10
29.53149405406862
 20
-19.26601807029746
 10
29.49890784706863
 20
-19.0987422076976
 10
29.4880457780687
 20
-18.92712151749755
 10
29.49890784706862
 20
-18.75115599969749
 10
29.53149405406863
 20
-18.58388013709749
 10
29.5858043990686
 20
-18.42312151589745
 10
29.65749405446862
 20
-18.26888013609752
 10
29.74873543406871
 20
-18.1211559976974
 10
29.85735612406879
 20
-17.98212151449756
 10
29.98234812446556
 20
-17.85160289339357
 10
30.1180457800686
 20
-17.73229392749746
 10
30.2701147460686
 20
-17.62367323749757
 10
30.43567874659437
 20
-17.52721806477753
 10
30.60683888506849
 20
-17.4411904782976
 10
30.7936664718686
 20
-17.36950082289753
 10
30.98701130006868
 20
-17.31301806409748
 10
31.1914441283037
 20
-17.27321944328152
 97
        0
 92
       22
 72
     0
 73
     1
 93
       57
 10
34.9848870368983
 20
-17.6072497891695
 10
35.14370786498868
 20
-17.51079461644948
 10
35.31011476206864
 20
-17.42815599549752
 10
35.49476993506868
 20
-17.35646634009752
 10
35.68376993566861
 20
-17.30215599509761
 10
35.88145959146858
 20
-17.26088013289761
 10
36.08783890246865
 20
-17.23263875349757
 10
36.29856304106871
 20
-17.22394909829757
 10
37.53249407946863
 20
-17.22394909829755
 10
37.53249407946864
 20
-18.04946634229749
 10
36.29204579966876
 20
-18.04946634229746
 10
36.14866648886863
 20
-18.05815599749746
 10
36.01397683326848
 20
-18.08526772172152
 10
35.88250235009259
 20
-18.12524013564159
 10
35.75545959106857
 20
-18.1776387564976
 10
35.64805545279661
 20
-18.24472289464157
 10
35.54690786626861
 20
-18.32101806729754
 10
35.46001131426866
 20
-18.4100870330975
 10
35.39049407266862
 20
-18.50784565409753
 10
37.53249407946864
 20
-18.50784565409755
 10
37.53249407946864
 20
-19.33553531189751
 10
35.42742510726863
 20
-19.33553531189749
 10
35.50189545233261
 20
-19.42104151906548
 10
35.58931338364462
 20
-19.50081255380155
 10
35.68637683222871
 20
-19.56841807125748
 10
35.79604028085264
 20
-19.62933255420957
 10
35.91204717777261
 20
-19.67729945091352
 10
36.03265959194852
 20
-19.71162358895351
 10
36.16491614409248
 20
-19.7336084166095
 10
36.29856304106856
 20
-19.74394910629758
 10
37.53249407946864
 20
-19.74394910629758
 10
37.53249407946864
 20
-20.6020525572975
 10
36.32245959286837
 20
-20.60205255729748
 10
36.10956304046859
 20
-20.59336290209751
 10
35.90318372946857
 20
-20.56946635029747
 10
35.70332165986872
 20
-20.52601807429761
 10
35.51214924546874
 20
-20.46953531549752
 10
35.32749407246861
 20
-20.39567324629752
 10
35.15370096846881
 20
-20.31094910809755
 10
34.99294234726865
 20
-20.21319048709756
 10
34.84538331231751
 20
-20.1025711764016
 10
34.70895572567742
 20
-19.98126358980943
 10
34.58909931150385
 20
-19.85091876180962
 10
34.48025269046868
 20
-19.71136289929757
 10
34.39335613846858
 20
-19.56363876089756
 10
34.32166648306863
 20
-19.40722496729756
 10
34.26952855186871
 20
-19.24646634609759
 10
34.23694234486858
 20
-19.07919048349755
 10
34.22608027586865
 20
-18.90539737949758
 10
34.23694234486859
 20
-18.73160427549752
 10
34.26952855186872
 20
-18.56432841289748
 10
34.31949406926856
 20
-18.40356979169758
 10
34.39118372466867
 20
-18.24932841189751
 10
34.47590786286859
 20
-18.10377668729752
 10
34.58018372526856
 20
-17.96474220409759
 10
34.70024869116698
 20
-17.83596151403354
 10
34.83480800193916
 20
-17.71673944468956
 97
        0
 92
       22
 72
     0
 73
     1
 93
        6
 10
37.76276994226864
 20
-17.23698358109755
 10
38.78597684206865
 20
-17.23698358109755
 10
38.78597684206866
 20
-19.73960427869747
 10
40.00035615626872
 20
-19.73960427869747
 10
40.00035615626872
 20
-20.60639738489749
 10
37.76276994226863
 20
-20.60639738489749
 97
        0
 92
       22
 72
     0
 73
     1
 93
        8
 10
39.0184251186686
 20
-17.23698358109755
 10
42.52035616426861
 20
-17.23698358109755
 10
42.52035616426861
 20
-18.06250082509757
 10
41.27773547066865
 20
-18.06250082509756
 10
41.27773547066865
 20
-20.61291462629754
 10
40.25235615706857
 20
-20.61291462629752
 10
40.25235615706858
 20
-18.06250082509759
 10
39.01842511866859
 20
-18.06250082509757
 97
        0
 75
     0
 76
     1
 52
0.0
 41
0.75
 77
     0
 78
     1
 53
45.0
 43
-4.053080493485225
 44
53.8259182489488
 45
-1.683798022700465
 46
1.683798022700466
 79
     0
 47
0.1306013971110141
 98
        7
 10
36.50169409383844
 20
10.11377284906086
 10
30.75152310108882
 20
-11.69666048989988
 10
30.75152310108882
 20
-11.69666048989988
 10
30.75152310108882
 20
-11.69666048989988
 10
30.75152310108882
 20
-11.69666048989988
 10
30.75152310108882
 20
-11.69666048989988
 10
30.75152310108882
 20
-11.69666048989988
1001
ACAD
1010
0.0
1020
0.0
1030
0.0
  0
LWPOLYLINE
  5
816
330
7E6
100
AcDbEntity
  8
LW 3030-STADIP-01
 62
     1
100
AcDbPolyline
 90
        8
 70
     1
 43
0.0
 10
41.27773547066865
 20
-18.06250082509757
 10
41.27773547066865
 20
-20.61291462629754
 10
40.25235615706857
 20
-20.61291462629754
 10
40.25235615706857
 20
-18.06250082509757
 10
39.01842511866859
 20
-18.06250082509757
 10
39.01842511866859
 20
-17.23698358109755
 10
42.52035616426861
 20
-17.23698358109755
 10
42.52035616426861
 20
-18.06250082509757
  0
LWPOLYLINE
  5
817
330
7E6
100
AcDbEntity
  8
LW 3030-STADIP-01
 62
     1
100
AcDbPolyline
 90
       73
 70
     1
 43
0.0
 10
31.57573543986861
 20
-19.73960427869747
 10
32.59242509826869
 20
-19.73960427869747
 10
33.47876992866863
 20
-20.61291462629754
 10
31.57573543986861
 20
-20.61291462629754
 10
31.36501130126864
 20
-20.60422497109755
 10
31.15645957646872
 20
-20.57815600549748
 10
30.95965626549902
 20
-20.53444703984155
 10
30.76542509246862
 20
-20.48039738449757
 10
30.58294233326866
 20
-20.4087077290975
 10
30.41132164306863
 20
-20.32398359089757
 10
30.25278757359981
 20
-20.22561669403353
 10
30.10066646966858
 20
-20.11760427989748
 10
29.9683751589039
 20
-19.99829531400155
 10
29.85036964128791
 20
-19.86925393428157
 10
29.74499019267752
 20
-19.72978496832149
 10
29.65314922686868
 20
-19.58101807129753
 10
29.58363198526856
 20
-19.42677669149748
 10
29.53149405406863
 20
-19.26601807029749
 10
29.49890784706862
 20
-19.09874220769757
 10
29.4880457780687
 20
-18.92712151749754
 10
29.49890784706862
 20
-18.75115599969752
 10
29.53149405406863
 20
-18.58388013709748
 10
29.58580439906861
 20
-18.42312151589749
 10
29.65749405446856
 20
-18.26888013609755
 10
29.74873543406865
 20
-18.12115599769754
 10
29.85735612406872
 20
-17.98212151449752
 10
29.9823481244655
 20
-17.85160289339353
 10
30.11804578006856
 20
-17.73229392749749
 10
30.27011474606867
 20
-17.62367323749754
 10
30.43567874659427
 20
-17.52721806477757
 10
30.60683888506857
 20
-17.44119047829758
 10
30.79366647186863
 20
-17.36950082289752
 10
30.98701130006863
 20
-17.31301806409749
 10
31.19144412830384
 20
-17.2732194432815
 10
31.39816233585658
 20
-17.24775875354555
 10
31.60614923306868
 20
-17.23698358109755
 10
35.04508027846863
 20
-17.23698358109755
 10
33.36363199726863
 20
-18.87063875869751
 10
35.07766648546864
 20
-20.61291462629754
 10
33.75901130886861
 20
-20.61291462629754
 10
31.99283888946867
 20
-18.89453531049753
 10
32.84008027146867
 20
-18.07988013549755
 10
31.57139061226873
 20
-18.07988013549755
 10
31.4473284049782
 20
-18.08509392861754
 10
31.32446537010539
 20
-18.10316841143356
 10
31.20412233524066
 20
-18.13375599773758
 10
31.08758536935353
 20
-18.1765959978735
 10
31.00356509322457
 20
-18.2187408255935
 10
30.92726992056864
 20
-18.26305806711355
 10
30.88702812733745
 20
-18.29025668788949
 10
30.84951488583899
 20
-18.32119186040154
 10
30.73860012686625
 20
-18.42963875729754
 10
30.6755219197694
 20
-18.50767186099358
 10
30.63399405756856
 20
-18.57553806810551
 10
30.590345919499
 20
-18.67425255117757
 10
30.57213240219984
 20
-18.73594910309748
 10
30.55997557457501
 20
-18.79912289640151
 10
30.55397102283179
 20
-18.86125393108148
 10
30.55261543662063
 20
-18.92355875886551
 10
30.56013198836867
 20
-19.01288841432154
 10
30.58083074705498
 20
-19.10004565597751
 10
30.6102539195622
 20
-19.18146772520151
 10
30.64961805761824
 20
-19.25863186337756
 10
30.69832357501424
 20
-19.33119048429751
 10
30.75338992001663
 20
-19.39905669140955
 10
30.82699129956065
 20
-19.46909531232154
 10
30.95955198963658
 20
-19.5684180712575
 10
31.01323667946225
 20
-19.6010042782575
 10
31.06937185205426
 20
-19.62915876110549
 10
31.17086702479027
 20
-19.67008703709757
 10
31.28798619757585
 20
-19.70441117513746
 10
31.40812068071593
 20
-19.72587462348156
 10
31.50906840517429
 20
-19.73585698575823
  0
LWPOLYLINE
  5
818
330
7E6
100
AcDbEntity
  8
LW 3030-STADIP-01
 62
     1
100
AcDbPolyline
 90
       76
 70
     1
 43
0.0
 10
30.36557218980262
 20
-17.39785357312655
 10
30.19018523643776
 20
-17.50003145494827
 10
30.02651644035577
 20
-17.61693773786396
 10
29.88049653389431
 20
-17.74532229957731
 10
29.74601845868155
 20
-17.88574642983985
 10
29.62786033445038
 20
-18.03698882885567
 10
29.59600150507755
 20
-18.08856979069753
 10
28.50611474046856
 20
-18.08856979069753
 10
28.36273542966866
 20
-18.09508703209747
 10
28.22587336026869
 20
-18.11463875629749
 10
28.10342742884542
 20
-18.14670358398553
 10
27.98473542846866
 20
-18.19067323929755
 10
27.88213666952221
 20
-18.2489808256895
 10
27.78704577266867
 20
-18.31884565349753
 10
27.70449404826856
 20
-18.40139737789752
 10
27.63497680666866
 20
-18.49698358509749
 10
29.40561532428798
 20
-18.49698358509749
 10
29.3890166216129
 20
-18.54611574501587
 10
29.35271089993764
 20
-18.73248511628242
 10
29.34068922750841
 20
-18.92723620963738
 10
29.35273288028999
 20
-19.11752592358812
 10
29.38884468825451
 20
-19.30289987113917
 10
29.39942915552753
 20
-19.3355353118975
 10
27.67190784126866
 20
-19.3355353118975
 10
27.74359749666861
 20
-19.42025945009755
 10
27.83377873833423
 20
-19.49820565724155
 10
27.93192839381824
 20
-19.5658111746975
 10
28.03687335966858
 20
-19.62229393349753
 10
28.15201129106869
 20
-19.66791462329752
 10
28.28018370526867
 20
-19.70084841650555
 10
28.41093694706298
 20
-19.72118220967354
 10
28.54304577506857
 20
-19.72874220969754
 10
29.57150884198906
 20
-19.72874220969754
 10
29.62348007343759
 20
-19.81292685180176
 10
29.73718542818098
 20
-19.96341509651449
 10
29.86462132166527
 20
-20.10276877974297
 10
30.00853369003541
 20
-20.23255837628278
 10
30.17136658479627
 20
-20.34817661470822
 10
30.33983299096623
 20
-20.45270630763992
 10
30.52339713476865
 20
-20.54332658116266
 10
30.6839409988212
 20
-20.60639738489749
 10
28.56476991306865
 20
-20.60639738489749
 10
28.35404577446868
 20
-20.5977077296975
 10
28.14549404966864
 20
-20.57163876409754
 10
27.9456319800686
 20
-20.52819048809749
 10
27.75445956566866
 20
-20.47170772929758
 10
27.57381032371588
 20
-20.39801945320153
 10
27.39818370246873
 20
-20.31312152189753
 10
27.23742508126863
 20
-20.2153629008975
 10
27.09008068080085
 20
-20.10491738330552
 10
26.95388163209261
 20
-19.98378358981756
 10
26.83118370066861
 20
-19.85256979629753
 10
26.72473542446871
 20
-19.71136289929757
 10
26.63566645866867
 20
-19.56363876089756
 10
26.56614921706866
 20
-19.40722496729756
 10
26.51183887206868
 20
-19.24646634609757
 10
26.48142507886861
 20
-19.07919048349754
 10
26.47056300986857
 20
-18.90539737949757
 10
26.47925266506856
 20
-18.73160427549749
 10
26.50749404446858
 20
-18.56650082669751
 10
26.55745956186867
 20
-18.40574220549752
 10
26.62045956206863
 20
-18.25150082569757
 10
26.70301128646862
 20
-18.10594910109751
 10
26.80302921782062
 20
-17.96873944548952
 10
26.91429416989798
 20
-17.8404801347375
 10
27.03973542546864
 20
-17.72143185849756
 10
27.18244302592167
 20
-17.61472289264156
 10
27.33301128846871
 20
-17.51939737509747
 10
27.50028715106863
 20
-17.43684565069748
 10
27.67625266886866
 20
-17.36732840909747
 10
27.86090784186867
 20
-17.31301806409749
 10
28.0564250838686
 20
-17.27174220189749
 10
28.25845956726859
 20
-17.24567323629753
 10
28.47135611966861
 20
-17.23698358109755
 10
30.72849405786862
 20
-17.23698358109755
 10
30.54732512240288
 20
-17.30650189354367
  0
LWPOLYLINE
  5
819
330
7E6
100
AcDbEntity
  8
LW 3030-STADIP-01
 62
     1
100
AcDbPolyline
 90
        6
 70
     1
 43
0.0
 10
40.00035615626872
 20
-20.60639738489749
 10
37.76276994226864
 20
-20.60639738489749
 10
37.76276994226864
 20
-17.23698358109755
 10
38.78597684206865
 20
-17.23698358109755
 10
38.78597684206865
 20
-19.73960427869747
 10
40.00035615626872
 20
-19.73960427869747
  0
LWPOLYLINE
  5
81A
330
7E6
100
AcDbEntity
  8
LW 3030-STADIP-01
 62
     1
100
AcDbPolyline
 90
       57
 70
     1
 43
0.0
 10
34.70895572567748
 20
-19.98126358980949
 10
34.5890993115038
 20
-19.85091876180957
 10
34.48025269046868
 20
-19.71136289929757
 10
34.39335613846858
 20
-19.56363876089756
 10
34.32166648306863
 20
-19.40722496729756
 10
34.26952855186871
 20
-19.24646634609757
 10
34.23694234486858
 20
-19.07919048349754
 10
34.22608027586865
 20
-18.90539737949757
 10
34.23694234486858
 20
-18.73160427549749
 10
34.26952855186871
 20
-18.56432841289757
 10
34.31949406926857
 20
-18.40356979169758
 10
34.39118372466864
 20
-18.24932841189752
 10
34.47590786286857
 20
-18.10377668729756
 10
34.58018372526864
 20
-17.96474220409755
 10
34.70024869116698
 20
-17.83596151403355
 10
34.83480800193913
 20
-17.71673944468955
 10
34.98488703689829
 20
-17.60724978916949
 10
35.14370786498866
 20
-17.51079461644951
 10
35.31011476206869
 20
-17.42815599549749
 10
35.4947699350687
 20
-17.35646634009754
 10
35.6837699356686
 20
-17.30215599509756
 10
35.8814595914687
 20
-17.26088013289757
 10
36.08783890246856
 20
-17.23263875349755
 10
36.29856304106865
 20
-17.22394909829757
 10
37.53249407946864
 20
-17.22394909829757
 10
37.53249407946864
 20
-18.04946634229748
 10
36.2920457996686
 20
-18.04946634229748
 10
36.1486664888687
 20
-18.05815599749746
 10
36.01397683326856
 20
-18.08526772172149
 10
35.88250235009265
 20
-18.12524013564155
 10
35.75545959106866
 20
-18.17763875649757
 10
35.64805545279661
 20
-18.24472289464154
 10
35.54690786626863
 20
-18.32101806729747
 10
35.46001131426864
 20
-18.41008703309751
 10
35.39049407266863
 20
-18.50784565409753
 10
37.53249407946864
 20
-18.50784565409753
 10
37.53249407946864
 20
-19.3355353118975
 10
35.42742510726863
 20
-19.3355353118975
 10
35.50189545233265
 20
-19.42104151906551
 10
35.58931338364461
 20
-19.50081255380155
 10
35.68637683222871
 20
-19.5684180712575
 10
35.79604028085261
 20
-19.62933255420955
 10
35.91204717777261
 20
-19.67729945091355
 10
36.0326595919487
 20
-19.71162358895355
 10
36.16491614409258
 20
-19.73360841660951
 10
36.29856304106865
 20
-19.74394910629758
 10
37.53249407946864
 20
-19.74394910629758
 10
37.53249407946864
 20
-20.6020525572975
 10
36.32245959286867
 20
-20.6020525572975
 10
36.10956304046864
 20
-20.59336290209751
 10
35.90318372946867
 20
-20.56946635029749
 10
35.70332165986862
 20
-20.52601807429756
 10
35.51214924546868
 20
-20.46953531549752
 10
35.32749407246867
 20
-20.39567324629752
 10
35.1537009684687
 20
-20.31094910809748
 10
34.9929423472686
 20
-20.21319048709756
 10
34.84538331231739
 20
-20.10257117640151
  0
ENDBLK
  5
7EB
330
7E6
100
AcDbEntity
  8
0
100
AcDbBlockEnd
  0
ENDSEC
  0
SECTION
  2
ENTITIES
  0
MTEXT
  5
3ED
330
1F
100
AcDbEntity
  8
0
100
AcDbMText
 10
55.72637943775188
 20
71.97591862131925
 30
0.0
 40
5.0
 41
57.03130618910018
 71
     1
 72
     5
  1
LW 3030/15-01
 73
     1
 44
1.0
1001
ACAD
1000
ACAD_MTEXT_DEFINED_HEIGHT_BEGIN
1070
    46
1040
0.0
1000
ACAD_MTEXT_DEFINED_HEIGHT_END
  0
MTEXT
  5
539
330
1F
100
AcDbEntity
  8
0
100
AcDbMText
 10
55.72637943775188
 20
11.97591862131925
 30
0.0
 40
5.0
 41
57.03130618910018
 71
     1
 72
     5
  1
LW 3030/20-01
 73
     1
 44
1.0
1001
ACAD
1000
ACAD_MTEXT_DEFINED_HEIGHT_BEGIN
1070
    46
1040
0.0
1000
ACAD_MTEXT_DEFINED_HEIGHT_END
  0
MTEXT
  5
672
330
1F
100
AcDbEntity
  8
0
100
AcDbMText
 10
55.72637943775188
 20
-48.02408137868074
 30
0.0
 40
5.0
 41
57.03130618910018
 71
     1
 72
     5
  1
LW 3030/24-01
 73
     1
 44
1.0
1001
ACAD
1000
ACAD_MTEXT_DEFINED_HEIGHT_BEGIN
1070
    46
1040
0.0
1000
ACAD_MTEXT_DEFINED_HEIGHT_END
  0
INSERT
  5
7AF
330
1F
100
AcDbEntity
  8
0
100
AcDbBlockReference
  2
LW 3030-15-01
 10
4.053080493485225
 20
66.17408175105119
 30
0.0
  0
INSERT
  5
7E5
330
1F
100
AcDbEntity
  8
0
100
AcDbBlockReference
  2
LW 3030-20-01
 10
4.053080493485225
 20
6.17408175105119
 30
0.0
  0
INSERT
  5
81B
330
1F
100
AcDbEntity
  8
0
100
AcDbBlockReference
  2
LW 3030-24-01
 10
4.053080493485225
 20
-53.8259182489488
 30
0.0
  0
VIEWPORT
  5
252
330
1B
100
AcDbEntity
 67
     1
  8
0
100
AcDbViewport
 10
144.2296600341797
 20
98.97533035278321
 30
0.0
 40
338.7692671638768
 41
211.6598603888209
 68
     1
 69
     1
 12
144.2296600341797
 22
98.97533035278321
 13
0.0
 23
0.0
 14
10.0
 24
10.0
 15
10.0
 25
10.0
 16
0.0
 26
0.0
 36
1.0
 17
0.0
 27
0.0
 37
0.0
 42
50.0
 43
0.0
 44
0.0
 45
211.6598603888209
 50
0.0
 51
0.0
 72
   100
 90
    32800
  1

281
     0
 71
     1
 74
     0
110
0.0
120
0.0
130
0.0
111
1.0
121
0.0
131
0.0
112
0.0
122
1.0
132
0.0
 79
     0
146
0.0
170
     0
  0
ENDSEC
  0
SECTION
  2
OBJECTS
  0
DICTIONARY
  5
C
330
0
100
AcDbDictionary
281
     1
  3
ACAD_COLOR
350
37D
  3
ACAD_GROUP
350
D
  3
ACAD_LAYOUT
350
1A
  3
ACAD_MATERIAL
350
37C
  3
ACAD_MLINESTYLE
350
17
  3
ACAD_PLOTSETTINGS
350
19
  3
ACAD_PLOTSTYLENAME
350
E
  3
ACAD_TABLESTYLE
350
37E
  3
AcDbVariableDictionary
350
244
  0
DICTIONARY
  5
82C
330
2
100
AcDbDictionary
280
     1
281
     1
  3
ACAD_LAYERFILTERS
360
82E
  3
ACLYDICTIONARY
360
82D
  0
DICTIONARY
  5
153
330
1F
100
AcDbDictionary
280
     1
281
     1
  3
ACAD_LAYOUTSELFREF
360
377
  3
ACAD_SORTENTS
360
507
  0
DICTIONARY
  5
155
330
1B
100
AcDbDictionary
280
     1
281
     1
  3
ACAD_LAYOUTSELFREF
360
376
  0
DICTIONARY
  5
157
330
23
100
AcDbDictionary
280
     1
281
     1
  3
ACAD_LAYOUTSELFREF
360
378
  0
DICTIONARY
  5
77B
330
77A
100
AcDbDictionary
280
     1
281
     1
  3
AcDbBlockTableRecordData
360
77C
  0
DICTIONARY
  5
7B1
330
7B0
100
AcDbDictionary
280
     1
281
     1
  3
AcDbBlockTableRecordData
360
7B2
  0
DICTIONARY
  5
7E7
330
7E6
100
AcDbDictionary
280
     1
281
     1
  3
AcDbBlockTableRecordData
360
7E8
  0
DICTIONARY
  5
37D
102
{ACAD_REACTORS
330
C
102
}
330
C
100
AcDbDictionary
281
     1
  0
DICTIONARY
  5
D
102
{ACAD_REACTORS
330
C
102
}
330
C
100
AcDbDictionary
281
     1
  0
DICTIONARY
  5
1A
102
{ACAD_REACTORS
330
C
102
}
330
C
100
AcDbDictionary
281
     1
  3
Layout1
350
1E
  3
Layout2
350
26
  3
Model
350
22
  0
DICTIONARY
  5
37C
102
{ACAD_REACTORS
330
C
102
}
330
C
100
AcDbDictionary
281
     1
  0
DICTIONARY
  5
17
102
{ACAD_REACTORS
330
C
102
}
330
C
100
AcDbDictionary
281
     1
  3
Standard
350
18
  0
DICTIONARY
  5
19
102
{ACAD_REACTORS
330
C
102
}
330
C
100
AcDbDictionary
281
     1
  0
ACDBDICTIONARYWDFLT
  5
E
102
{ACAD_REACTORS
330
C
102
}
330
C
100
AcDbDictionary
281
     1
  3
Normal
350
F
100
AcDbDictionaryWithDefault
340
F
  0
DICTIONARY
  5
37E
102
{ACAD_REACTORS
330
C
102
}
330
C
100
AcDbDictionary
281
     1
  3
Standard
350
37F
  0
DICTIONARY
  5
244
102
{ACAD_REACTORS
330
C
102
}
330
C
100
AcDbDictionary
281
     1
  3
CTABLESTYLE
350
3EF
  3
DIMASSOC
350
246
  3
HIDETEXT
350
245
  3
PROJECTNAME
350
828
  0
DICTIONARY
  5
82E
102
{ACAD_REACTORS
330
82C
102
}
330
82C
100
AcDbDictionary
281
     1
  0
DICTIONARY
  5
82D
102
{ACAD_REACTORS
330
82C
102
}
330
82C
100
AcDbDictionary
281
     1
1001
ACAD
1000
<All
  0
XRECORD
  5
377
102
{ACAD_REACTORS
330
153
102
}
330
153
100
AcDbXrecord
280
     1
340
1F
  0
SORTENTSTABLE
  5
507
102
{ACAD_REACTORS
330
153
102
}
330
153
100
AcDbSortentsTable
330
1F
331
3ED
  5
3FD
331
539
  5
53A
331
672
  5
673
  0
XRECORD
  5
376
102
{ACAD_REACTORS
330
155
102
}
330
155
100
AcDbXrecord
280
     1
340
1B
  0
XRECORD
  5
378
102
{ACAD_REACTORS
330
157
102
}
330
157
100
AcDbXrecord
280
     1
340
23
  0
DICTIONARY
  5
77C
102
{ACAD_REACTORS
330
77B
102
}
330
77B
100
AcDbDictionary
280
     1
281
     1
  3
Edit
360
77D
  0
DICTIONARY
  5
7B2
102
{ACAD_REACTORS
330
7B1
102
}
330
7B1
100
AcDbDictionary
280
     1
281
     1
  3
Edit
360
7B3
  0
DICTIONARY
  5
7E8
102
{ACAD_REACTORS
330
7E7
102
}
330
7E7
100
AcDbDictionary
280
     1
281
     1
  3
Edit
360
7E9
  0
LAYOUT
  5
1E
102
{ACAD_REACTORS
330
1A
102
}
330
1A
100
AcDbPlotSettings
  1

  2
\\A-SERVER\HP LaserJet 5N - AWT
  4
A4
  6

 40
6.011333465576171
 41
4.233341693878173
 42
6.011322021484375
 43
4.23333740234375
 44
209.9733276367187
 45
296.9259948730469
 46
0.0
 47
0.0
 48
0.0
 49
0.0
140
0.0
141
0.0
142
1.0
143
1.0
 70
   688
 72
     1
 73
     1
 74
     5
  7

 75
    16
147
1.0
 76
     0
 77
     2
 78
   300
148
0.0
149
0.0
100
AcDbLayout
  1
Layout1
 70
     1
 71
     1
 10
-4.23333740234375
 20
-6.011333465576171
 11
292.6926574707031
 21
203.9619941711426
 12
0.0
 22
0.0
 32
0.0
 14
1.000000000000000E+20
 24
1.000000000000000E+20
 34
1.000000000000000E+20
 15
-1.000000000000000E+20
 25
-1.000000000000000E+20
 35
-1.000000000000000E+20
146
0.0
 13
0.0
 23
0.0
 33
0.0
 16
1.0
 26
0.0
 36
0.0
 17
0.0
 27
1.0
 37
0.0
 76
     0
330
1B
331
252
  0
LAYOUT
  5
26
102
{ACAD_REACTORS
330
1A
102
}
330
1A
100
AcDbPlotSettings
  1

  2

  4

  6

 40
0.0
 41
0.0
 42
0.0
 43
0.0
 44
0.0
 45
0.0
 46
0.0
 47
0.0
 48
0.0
 49
0.0
140
0.0
141
0.0
142
1.0
143
1.0
 70
   688
 72
     0
 73
     0
 74
     5
  7

 75
    16
147
1.0
 76
     0
 77
     2
 78
   300
148
0.0
149
0.0
100
AcDbLayout
  1
Layout2
 70
     1
 71
     2
 10
0.0
 20
0.0
 11
12.0
 21
9.0
 12
0.0
 22
0.0
 32
0.0
 14
0.0
 24
0.0
 34
0.0
 15
0.0
 25
0.0
 35
0.0
146
0.0
 13
0.0
 23
0.0
 33
0.0
 16
1.0
 26
0.0
 36
0.0
 17
0.0
 27
1.0
 37
0.0
 76
     0
330
23
  0
LAYOUT
  5
22
102
{ACAD_REACTORS
330
1A
102
}
330
1A
100
AcDbPlotSettings
  1

  2

  4

  6

 40
0.0
 41
0.0
 42
0.0
 43
0.0
 44
0.0
 45
0.0
 46
0.0
 47
0.0
 48
0.0
 49
0.0
140
0.0
141
0.0
142
1.0
143
1.0
 70
  1712
 72
     0
 73
     0
 74
     0
  7

 75
     0
147
1.0
 76
     0
 77
     2
 78
   300
148
0.0
149
0.0
100
AcDbLayout
  1
Model
 70
     1
 71
     0
 10
0.0
 20
0.0
 11
12.0
 21
9.0
 12
0.0
 22
0.0
 32
0.0
 14
0.0
 24
0.0
 34
0.0
 15
0.0
 25
0.0
 35
0.0
146
0.0
 13
0.0
 23
0.0
 33
0.0
 16
1.0
 26
0.0
 36
0.0
 17
0.0
 27
1.0
 37
0.0
 76
     0
330
1F
  0
MLINESTYLE
  5
18
102
{ACAD_REACTORS
330
17
102
}
330
17
100
AcDbMlineStyle
  2
STANDARD
 70
     0
  3

 62
   256
 51
90.0
 52
90.0
 71
     2
 49
0.5
 62
   256
  6
BYLAYER
 49
-0.5
 62
   256
  6
BYLAYER
  0
ACDBPLACEHOLDER
  5
F
102
{ACAD_REACTORS
330
E
102
}
330
E
  0
TABLESTYLE
  5
37F
102
{ACAD_REACTORS
330
37E
102
}
330
37E
100
AcDbTableStyle
  3
Standard
 70
     0
 71
     0
 40
1.5
 41
1.5
280
     0
281
     0
  7
Standard
140
4.5
170
     2
 62
     0
 63
     7
283
     0
274
    -2
284
     1
 64
     0
275
    -2
285
     1
 65
     0
276
    -2
286
     1
 66
     0
277
    -2
287
     1
 67
     0
278
    -2
288
     1
 68
     0
279
    -2
289
     1
 69
     0
  7
Standard
140
6.0
170
     5
 62
     0
 63
     7
283
     0
274
    -2
284
     1
 64
     0
275
    -2
285
     1
 65
     0
276
    -2
286
     1
 66
     0
277
    -2
287
     1
 67
     0
278
    -2
288
     1
 68
     0
279
    -2
289
     1
 69
     0
  7
Standard
140
4.5
170
     5
 62
     0
 63
     7
283
     0
274
    -2
284
     1
 64
     0
275
    -2
285
     1
 65
     0
276
    -2
286
     1
 66
     0
277
    -2
287
     1
 67
     0
278
    -2
288
     1
 68
     0
279
    -2
289
     1
 69
     0
  0
DICTIONARYVAR
  5
3EF
102
{ACAD_REACTORS
330
244
102
}
330
244
100
DictionaryVariables
280
     0
  1
STANDARD
  0
DICTIONARYVAR
  5
246
102
{ACAD_REACTORS
330
244
102
}
330
244
100
DictionaryVariables
280
     0
  1
2
  0
DICTIONARYVAR
  5
245
102
{ACAD_REACTORS
330
244
102
}
330
244
100
DictionaryVariables
280
     0
  1
1
  0
DICTIONARYVAR
  5
828
102
{ACAD_REACTORS
330
244
102
}
330
244
100
DictionaryVariables
280
     0
  1

  0
XRECORD
  5
77D
102
{ACAD_REACTORS
330
77C
102
}
330
77C
100
AcDbXrecord
280
     1
1070
     0
1070
     0
1070
     0
  0
XRECORD
  5
7B3
102
{ACAD_REACTORS
330
7B2
102
}
330
7B2
100
AcDbXrecord
280
     1
1070
     0
1070
     0
1070
     0
  0
XRECORD
  5
7E9
102
{ACAD_REACTORS
330
7E8
102
}
330
7E8
100
AcDbXrecord
280
     1
1070
     0
1070
     0
1070
     0
  0
ENDSEC
  0
EOF
