  0
SECTION
  2
HEADER
  9
$ACADVER
  1
AC1018
  9
$ACADMAINTVER
 70
    76
  9
$DWGCODEPAGE
  3
ANSI_1252
  9
$LASTSAVEDBY
  1
Autodesk
  9
$INSBASE
 10
0.0
 20
0.0
 30
0.0
  9
$EXTMIN
 10
-50.0
 20
-412.9800515784792
 30
0.0
  9
$EXTMAX
 10
50.00000000000046
 20
233.0000000000001
 30
0.0
  9
$LIMMIN
 10
0.0
 20
0.0
  9
$LIMMAX
 10
420.0
 20
297.0
  9
$ORTHOMODE
 70
     1
  9
$REGENMODE
 70
     1
  9
$FILLMODE
 70
     1
  9
$QTEXTMODE
 70
     0
  9
$MIRRTEXT
 70
     0
  9
$LTSCALE
 40
1.0
  9
$ATTMODE
 70
     1
  9
$TEXTSIZE
 40
2.5
  9
$TRACEWID
 40
1.0
  9
$TEXTSTYLE
  7
Standard
  9
$CLAYER
  8
0
  9
$CELTYPE
  6
ByLayer
  9
$CECOLOR
 62
   256
  9
$CELTSCALE
 40
1.0
  9
$DISPSILH
 70
     0
  9
$DIMSCALE
 40
1.0
  9
$DIMASZ
 40
2.5
  9
$DIMEXO
 40
0.625
  9
$DIMDLI
 40
3.75
  9
$DIMRND
 40
0.0
  9
$DIMDLE
 40
0.0
  9
$DIMEXE
 40
1.25
  9
$DIMTP
 40
0.0
  9
$DIMTM
 40
0.0
  9
$DIMTXT
 40
2.5
  9
$DIMCEN
 40
2.5
  9
$DIMTSZ
 40
0.0
  9
$DIMTOL
 70
     0
  9
$DIMLIM
 70
     0
  9
$DIMTIH
 70
     0
  9
$DIMTOH
 70
     0
  9
$DIMSE1
 70
     0
  9
$DIMSE2
 70
     0
  9
$DIMTAD
 70
     1
  9
$DIMZIN
 70
     8
  9
$DIMBLK
  1

  9
$DIMASO
 70
     1
  9
$DIMSHO
 70
     1
  9
$DIMPOST
  1

  9
$DIMAPOST
  1

  9
$DIMALT
 70
     0
  9
$DIMALTD
 70
     3
  9
$DIMALTF
 40
0.03937007874016
  9
$DIMLFAC
 40
1.0
  9
$DIMTOFL
 70
     1
  9
$DIMTVP
 40
0.0
  9
$DIMTIX
 70
     0
  9
$DIMSOXD
 70
     0
  9
$DIMSAH
 70
     0
  9
$DIMBLK1
  1

  9
$DIMBLK2
  1

  9
$DIMSTYLE
  2
ISO-25
  9
$DIMCLRD
 70
     0
  9
$DIMCLRE
 70
     0
  9
$DIMCLRT
 70
     0
  9
$DIMTFAC
 40
1.0
  9
$DIMGAP
 40
0.625
  9
$DIMJUST
 70
     0
  9
$DIMSD1
 70
     0
  9
$DIMSD2
 70
     0
  9
$DIMTOLJ
 70
     0
  9
$DIMTZIN
 70
     8
  9
$DIMALTZ
 70
     0
  9
$DIMALTTZ
 70
     0
  9
$DIMUPT
 70
     0
  9
$DIMDEC
 70
     2
  9
$DIMTDEC
 70
     2
  9
$DIMALTU
 70
     2
  9
$DIMALTTD
 70
     3
  9
$DIMTXSTY
  7
Standard
  9
$DIMAUNIT
 70
     0
  9
$DIMADEC
 70
     0
  9
$DIMALTRND
 40
0.0
  9
$DIMAZIN
 70
     0
  9
$DIMDSEP
 70
    44
  9
$DIMATFIT
 70
     3
  9
$DIMFRAC
 70
     0
  9
$DIMLDRBLK
  1

  9
$DIMLUNIT
 70
     2
  9
$DIMLWD
 70
    -2
  9
$DIMLWE
 70
    -2
  9
$DIMTMOVE
 70
     0
  9
$LUNITS
 70
     2
  9
$LUPREC
 70
     4
  9
$SKETCHINC
 40
1.0
  9
$FILLETRAD
 40
0.0
  9
$AUNITS
 70
     0
  9
$AUPREC
 70
     0
  9
$MENU
  1
.
  9
$ELEVATION
 40
0.0
  9
$PELEVATION
 40
0.0
  9
$THICKNESS
 40
0.0
  9
$LIMCHECK
 70
     0
  9
$CHAMFERA
 40
1.0
  9
$CHAMFERB
 40
1.0
  9
$CHAMFERC
 40
0.0
  9
$CHAMFERD
 40
0.0
  9
$SKPOLY
 70
     0
  9
$TDCREATE
 40
2453712.598813287
  9
$TDUCREATE
 40
2453712.557146621
  9
$TDUPDATE
 40
2453780.338381250
  9
$TDUUPDATE
 40
2453780.296714584
  9
$TDINDWG
 40
0.0365015625
  9
$TDUSRTIMER
 40
0.0365013889
  9
$USRTIMER
 70
     1
  9
$ANGBASE
 50
0.0
  9
$ANGDIR
 70
     0
  9
$PDMODE
 70
     0
  9
$PDSIZE
 40
0.0
  9
$PLINEWID
 40
0.0
  9
$SPLFRAME
 70
     0
  9
$SPLINETYPE
 70
     6
  9
$SPLINESEGS
 70
     8
  9
$HANDSEED
  5
AA5
  9
$SURFTAB1
 70
     6
  9
$SURFTAB2
 70
     6
  9
$SURFTYPE
 70
     6
  9
$SURFU
 70
     6
  9
$SURFV
 70
     6
  9
$UCSBASE
  2

  9
$UCSNAME
  2

  9
$UCSORG
 10
0.0
 20
0.0
 30
0.0
  9
$UCSXDIR
 10
1.0
 20
0.0
 30
0.0
  9
$UCSYDIR
 10
0.0
 20
1.0
 30
0.0
  9
$UCSORTHOREF
  2

  9
$UCSORTHOVIEW
 70
     0
  9
$UCSORGTOP
 10
0.0
 20
0.0
 30
0.0
  9
$UCSORGBOTTOM
 10
0.0
 20
0.0
 30
0.0
  9
$UCSORGLEFT
 10
0.0
 20
0.0
 30
0.0
  9
$UCSORGRIGHT
 10
0.0
 20
0.0
 30
0.0
  9
$UCSORGFRONT
 10
0.0
 20
0.0
 30
0.0
  9
$UCSORGBACK
 10
0.0
 20
0.0
 30
0.0
  9
$PUCSBASE
  2

  9
$PUCSNAME
  2

  9
$PUCSORG
 10
0.0
 20
0.0
 30
0.0
  9
$PUCSXDIR
 10
1.0
 20
0.0
 30
0.0
  9
$PUCSYDIR
 10
0.0
 20
1.0
 30
0.0
  9
$PUCSORTHOREF
  2

  9
$PUCSORTHOVIEW
 70
     0
  9
$PUCSORGTOP
 10
0.0
 20
0.0
 30
0.0
  9
$PUCSORGBOTTOM
 10
0.0
 20
0.0
 30
0.0
  9
$PUCSORGLEFT
 10
0.0
 20
0.0
 30
0.0
  9
$PUCSORGRIGHT
 10
0.0
 20
0.0
 30
0.0
  9
$PUCSORGFRONT
 10
0.0
 20
0.0
 30
0.0
  9
$PUCSORGBACK
 10
0.0
 20
0.0
 30
0.0
  9
$USERI1
 70
     0
  9
$USERI2
 70
     0
  9
$USERI3
 70
     0
  9
$USERI4
 70
     0
  9
$USERI5
 70
     0
  9
$USERR1
 40
0.0
  9
$USERR2
 40
0.0
  9
$USERR3
 40
0.0
  9
$USERR4
 40
0.0
  9
$USERR5
 40
0.0
  9
$WORLDVIEW
 70
     1
  9
$SHADEDGE
 70
     3
  9
$SHADEDIF
 70
    70
  9
$TILEMODE
 70
     1
  9
$MAXACTVP
 70
    64
  9
$PINSBASE
 10
0.0
 20
0.0
 30
0.0
  9
$PLIMCHECK
 70
     0
  9
$PEXTMIN
 10
0.0
 20
0.0
 30
0.0
  9
$PEXTMAX
 10
0.0
 20
0.0
 30
0.0
  9
$PLIMMIN
 10
0.0
 20
0.0
  9
$PLIMMAX
 10
12.0
 20
9.0
  9
$UNITMODE
 70
     0
  9
$VISRETAIN
 70
     1
  9
$PLINEGEN
 70
     0
  9
$PSLTSCALE
 70
     1
  9
$TREEDEPTH
 70
  3020
  9
$CMLSTYLE
  2
Standard
  9
$CMLJUST
 70
     0
  9
$CMLSCALE
 40
20.0
  9
$PROXYGRAPHICS
 70
     1
  9
$MEASUREMENT
 70
     1
  9
$CELWEIGHT
370
    -1
  9
$ENDCAPS
280
     0
  9
$JOINSTYLE
280
     0
  9
$LWDISPLAY
290
     0
  9
$INSUNITS
 70
     4
  9
$HYPERLINKBASE
  1

  9
$STYLESHEET
  1

  9
$XEDIT
290
     1
  9
$CEPSNTYPE
380
     0
  9
$PSTYLEMODE
290
     1
  9
$FINGERPRINTGUID
  2
{7CEED8B7-EC0C-46A7-B52D-805D1F4EC2BB}
  9
$VERSIONGUID
  2
{525599A0-76BF-4CB4-85FC-AE5063B80405}
  9
$EXTNAMES
290
     1
  9
$PSVPSCALE
 40
0.0
  9
$OLESTARTUP
290
     0
  9
$SORTENTS
280
   127
  9
$INDEXCTL
280
     0
  9
$HIDETEXT
280
     1
  9
$XCLIPFRAME
290
     0
  9
$HALOGAP
280
     0
  9
$OBSCOLOR
 70
   257
  9
$OBSLTYPE
280
     0
  9
$INTERSECTIONDISPLAY
280
     0
  9
$INTERSECTIONCOLOR
 70
   257
  9
$DIMASSOC
280
     2
  9
$PROJECTNAME
  1

  0
ENDSEC
  0
SECTION
  2
CLASSES
  0
CLASS
  1
ACDBDICTIONARYWDFLT
  2
AcDbDictionaryWithDefault
  3
ObjectDBX Classes
 90
        0
 91
        1
280
     0
281
     0
  0
CLASS
  1
DICTIONARYVAR
  2
AcDbDictionaryVar
  3
ObjectDBX Classes
 90
        0
 91
        4
280
     0
281
     0
  0
CLASS
  1
TABLESTYLE
  2
AcDbTableStyle
  3
ObjectDBX Classes
 90
     2047
 91
        1
280
     0
281
     0
  0
CLASS
  1
SORTENTSTABLE
  2
AcDbSortentsTable
  3
ObjectDBX Classes
 90
        0
 91
        2
280
     0
281
     0
  0
ENDSEC
  0
SECTION
  2
TABLES
  0
TABLE
  2
VPORT
  5
8
330
0
100
AcDbSymbolTable
 70
     2
  0
VPORT
  5
AA4
330
8
100
AcDbSymbolTableRecord
100
AcDbViewportTableRecord
  2
*Active
 70
     0
 10
0.0
 20
0.0
 11
1.0
 21
1.0
 12
-0.0050333060760295
 22
-89.98489441800542
 13
0.0
 23
0.0
 14
10.0
 24
10.0
 15
10.0
 25
10.0
 16
0.0
 26
0.0
 36
1.0
 17
0.0
 27
0.0
 37
0.0
 40
651.7896811453351
 41
1.778603268945022
 42
50.0
 43
0.0
 44
0.0
 50
0.0
 51
0.0
 71
     0
 72
  1000
 73
     1
 74
     3
 75
     0
 76
     0
 77
     0
 78
     0
281
     0
 65
     1
110
0.0
120
0.0
130
0.0
111
1.0
121
0.0
131
0.0
112
0.0
122
1.0
132
0.0
 79
     0
146
0.0
  0
ENDTAB
  0
TABLE
  2
LTYPE
  5
5
330
0
100
AcDbSymbolTable
 70
     3
  0
LTYPE
  5
14
330
5
100
AcDbSymbolTableRecord
100
AcDbLinetypeTableRecord
  2
ByBlock
 70
     0
  3

 72
    65
 73
     0
 40
0.0
  0
LTYPE
  5
15
330
5
100
AcDbSymbolTableRecord
100
AcDbLinetypeTableRecord
  2
ByLayer
 70
     0
  3

 72
    65
 73
     0
 40
0.0
  0
LTYPE
  5
16
330
5
100
AcDbSymbolTableRecord
100
AcDbLinetypeTableRecord
  2
Continuous
 70
     0
  3
Solid line
 72
    65
 73
     0
 40
0.0
  0
LTYPE
  5
FA
330
5
100
AcDbSymbolTableRecord
100
AcDbLinetypeTableRecord
  2
MITTE2
 70
     0
  3
Mitte (.5x) ___ _ ___ _ ___ _ ___ _ ___ _ ___
 72
    65
 73
     4
 40
28.575
 49
19.05
 74
     0
 49
-3.174999999999999
 74
     0
 49
3.174999999999999
 74
     0
 49
-3.174999999999999
 74
     0
  0
LTYPE
  5
FB
330
5
100
AcDbSymbolTableRecord
100
AcDbLinetypeTableRecord
  2
VERDECKT
 70
     0
  3
Verdeckt __ __ __ __ __ __ __ __ __ __ __ __ __
 72
    65
 73
     2
 40
9.524999999999998
 49
6.349999999999999
 74
     0
 49
-3.174999999999999
 74
     0
  0
ENDTAB
  0
TABLE
  2
LAYER
  5
2
102
{ACAD_XDICTIONARY
360
34B
102
}
330
0
100
AcDbSymbolTable
 70
     3
  0
LAYER
  5
10
330
2
100
AcDbSymbolTableRecord
100
AcDbLayerTableRecord
  2
0
 70
     0
 62
     7
  6
Continuous
370
    -3
390
F
  0
LAYER
  5
FC
330
2
100
AcDbSymbolTableRecord
100
AcDbLayerTableRecord
  2
LW 3350-39-00
 70
     0
 62
     7
  6
Continuous
370
    -3
390
F
  0
LAYER
  5
FD
330
2
100
AcDbSymbolTableRecord
100
AcDbLayerTableRecord
  2
insertpoint_ECKELT
 70
     0
 62
   141
  6
Continuous
370
    -3
390
F
  0
ENDTAB
  0
TABLE
  2
STYLE
  5
3
330
0
100
AcDbSymbolTable
 70
     1
  0
STYLE
  5
11
330
3
100
AcDbSymbolTableRecord
100
AcDbTextStyleTableRecord
  2
Standard
 70
     0
 40
0.0
 41
1.0
 50
0.0
 71
     0
 42
2.5
  3
txt
  4

  0
ENDTAB
  0
TABLE
  2
VIEW
  5
6
330
0
100
AcDbSymbolTable
 70
     0
  0
ENDTAB
  0
TABLE
  2
UCS
  5
7
330
0
100
AcDbSymbolTable
 70
     0
  0
ENDTAB
  0
TABLE
  2
APPID
  5
9
330
0
100
AcDbSymbolTable
 70
     3
  0
APPID
  5
12
330
9
100
AcDbSymbolTableRecord
100
AcDbRegAppTableRecord
  2
ACAD
 70
     0
  0
APPID
  5
9E
330
9
100
AcDbSymbolTableRecord
100
AcDbRegAppTableRecord
  2
ACAD_PSEXT
 70
     0
  0
APPID
  5
7B1
330
9
100
AcDbSymbolTableRecord
100
AcDbRegAppTableRecord
  2
ACAD_EXEMPT_FROM_CAD_STANDARDS
 70
     0
  0
ENDTAB
  0
TABLE
  2
DIMSTYLE
  5
A
330
0
100
AcDbSymbolTable
 70
     2
100
AcDbDimStyleTable
 71
     1
340
27
  0
DIMSTYLE
105
27
330
A
100
AcDbSymbolTableRecord
100
AcDbDimStyleTableRecord
  2
ISO-25
 70
     0
 41
2.5
 42
0.625
 43
3.75
 44
1.25
 73
     0
 74
     0
 77
     1
 78
     8
140
2.5
141
2.5
143
0.03937007874016
147
0.625
171
     3
172
     1
271
     2
272
     2
274
     3
278
    44
283
     0
284
     8
340
11
  0
DIMSTYLE
105
FE
330
A
100
AcDbSymbolTableRecord
100
AcDbDimStyleTableRecord
  2
Standard
 70
     0
340
11
  0
ENDTAB
  0
TABLE
  2
BLOCK_RECORD
  5
1
330
0
100
AcDbSymbolTable
 70
     4
  0
BLOCK_RECORD
  5
1F
102
{ACAD_XDICTIONARY
360
492
102
}
330
1
100
AcDbSymbolTableRecord
100
AcDbBlockTableRecord
  2
*Model_Space
340
22
  0
BLOCK_RECORD
  5
D2
330
1
100
AcDbSymbolTableRecord
100
AcDbBlockTableRecord
  2
*Paper_Space
340
D3
  0
BLOCK_RECORD
  5
D6
330
1
100
AcDbSymbolTableRecord
100
AcDbBlockTableRecord
  2
*Paper_Space0
340
D7
  0
BLOCK_RECORD
  5
EF
102
{ACAD_XDICTIONARY
360
F0
102
}
330
1
100
AcDbSymbolTableRecord
100
AcDbBlockTableRecord
  2
insertpoint-ECKELT
340
0
102
{BLKREFS
331
A3E
331
A70
331
A74
102
}
  0
BLOCK_RECORD
  5
A15
330
1
100
AcDbSymbolTableRecord
100
AcDbBlockTableRecord
  2
LW 3350-39-00_a
340
0
310
2800000020000000200000000100080000000000000400000000000000000000000000000000000000000000000080000080000000808000800000008000800080800000C0C0C000C0DCC000F0CAA6000020400000206000002080000020A0000020C0000020E00000400000004020000040400000406000004080000040A0
310
000040C0000040E00000600000006020000060400000606000006080000060A0000060C0000060E00000800000008020000080400000806000008080000080A0000080C0000080E00000A0000000A0200000A0400000A0600000A0800000A0A00000A0C00000A0E00000C0000000C0200000C0400000C0600000C0800000C0
310
A00000C0C00000C0E00000E0000000E0200000E0400000E0600000E0800000E0A00000E0C00000E0E00040000000400020004000400040006000400080004000A0004000C0004000E00040200000402020004020400040206000402080004020A0004020C0004020E000404000004040200040404000404060004040800040
310
40A0004040C0004040E00040600000406020004060400040606000406080004060A0004060C0004060E00040800000408020004080400040806000408080004080A0004080C0004080E00040A0000040A0200040A0400040A0600040A0800040A0A00040A0C00040A0E00040C0000040C0200040C0400040C0600040C08000
310
40C0A00040C0C00040C0E00040E0000040E0200040E0400040E0600040E0800040E0A00040E0C00040E0E00080000000800020008000400080006000800080008000A0008000C0008000E00080200000802020008020400080206000802080008020A0008020C0008020E00080400000804020008040400080406000804080
310
008040A0008040C0008040E00080600000806020008060400080606000806080008060A0008060C0008060E00080800000808020008080400080806000808080008080A0008080C0008080E00080A0000080A0200080A0400080A0600080A0800080A0A00080A0C00080A0E00080C0000080C0200080C0400080C0600080C0
310
800080C0A00080C0C00080C0E00080E0000080E0200080E0400080E0600080E0800080E0A00080E0C00080E0E000C0000000C0002000C0004000C0006000C0008000C000A000C000C000C000E000C0200000C0202000C0204000C0206000C0208000C020A000C020C000C020E000C0400000C0402000C0404000C0406000C0
310
408000C040A000C040C000C040E000C0600000C0602000C0604000C0606000C0608000C060A000C060C000C060E000C0800000C0802000C0804000C0806000C0808000C080A000C080C000C080E000C0A00000C0A02000C0A04000C0A06000C0A08000C0A0A000C0A0C000C0A0E000C0C00000C0C02000C0C04000C0C06000
310
C0C08000C0C0A000F0FBFF00A4A0A000808080000000FF0000FF000000FFFF00FF000000FF00FF00FFFF0000FFFFFF00000000000000000000000000000000000000000000000000000000000000000000000000000000000000000000FFFFFFFFFFFF00000000000000000000000000000000000000000000000000FF0000
310
00000000FF000000000000000000000000000000000000000000000000FF0000FAFF0000FF000000000000000000000000000000000000000000000000FF00FAFFFFFA00FF000000000000000000000000000000000000000000000000FF0000FAFF0000FF000000000000000000000000000000000000000000000000FF00
310
00FAFF0000FF000000000000000000000000000000000000000000000000FF000000000000FF000000000000000000000000000000000000000000000000FF000000000000FF000000000000000000000000000000000000000000000000FF0000FAFF0000FF000000000000000000000000000000000000000000000000FF
310
00FAFFFFFA00FF000000000000000000000000000000000000000000000000FF0000FAFF0000FF000000000000000000000000000000000000000000000000FF0000FAFF0000FF000000000000000000000000000000000000000000000000FF000000000000FF000000000000000000000000000000000000000000000000
310
FF000000000000FF000000000000000000000000000000000000000000000000FFFDFD0909FDFDFF000000000000000000000000000000000000000000000000FFFDFD0909FDFDFF000000000000000000000000000000000000000000000000FF0000F9F90000FF0000000000000000000000000000000000000000000000
310
00FF000000000000FF000000000000000000000000000000000000000000000000FF0000FAFF0000FF000000000000000000000000000000000000000000000000FF0000FAFF0000FF000000000000000000000000000000000000000000000000FF00FAFFFFFA00FF00000000000000000000000000000000000000000000
310
0000FF0000FAFF0000FF000000000000000000000000000000000000000000000000FF000000000000FF000000000000000000000000000000000000000000000000FF000000000000FF000000000000000000000000000000000000000000000000FF0000FAFF0000FF000000000000000000000000000000000000000000
310
000000FF0000FAFF0000FF000000000000000000000000000000000000000000000000FF00FAFFFFFA00FF000000000000000000000000000000000000000000000000FF0000FAFF0000FF000000000000000000000000000000000000000000000000FF000000000000FF0000000000000000000000000000000000000000
310
0000000000FFFFFFFFFFFF000000000000000000000000000000000000000000000000000000000000000000000000000000000000000000
102
{BLKREFS
331
A4A
102
}
1001
ACAD
1000
DesignCenter Data
1002
{
1070
     1
1070
     4
1002
}
  0
BLOCK_RECORD
  5
A4B
330
1
100
AcDbSymbolTableRecord
100
AcDbBlockTableRecord
  2
LW 3350-39-00_b
340
0
310
2800000020000000200000000100080000000000000400000000000000000000000000000000000000000000000080000080000000808000800000008000800080800000C0C0C000C0DCC000F0CAA6000020400000206000002080000020A0000020C0000020E00000400000004020000040400000406000004080000040A0
310
000040C0000040E00000600000006020000060400000606000006080000060A0000060C0000060E00000800000008020000080400000806000008080000080A0000080C0000080E00000A0000000A0200000A0400000A0600000A0800000A0A00000A0C00000A0E00000C0000000C0200000C0400000C0600000C0800000C0
310
A00000C0C00000C0E00000E0000000E0200000E0400000E0600000E0800000E0A00000E0C00000E0E00040000000400020004000400040006000400080004000A0004000C0004000E00040200000402020004020400040206000402080004020A0004020C0004020E000404000004040200040404000404060004040800040
310
40A0004040C0004040E00040600000406020004060400040606000406080004060A0004060C0004060E00040800000408020004080400040806000408080004080A0004080C0004080E00040A0000040A0200040A0400040A0600040A0800040A0A00040A0C00040A0E00040C0000040C0200040C0400040C0600040C08000
310
40C0A00040C0C00040C0E00040E0000040E0200040E0400040E0600040E0800040E0A00040E0C00040E0E00080000000800020008000400080006000800080008000A0008000C0008000E00080200000802020008020400080206000802080008020A0008020C0008020E00080400000804020008040400080406000804080
310
008040A0008040C0008040E00080600000806020008060400080606000806080008060A0008060C0008060E00080800000808020008080400080806000808080008080A0008080C0008080E00080A0000080A0200080A0400080A0600080A0800080A0A00080A0C00080A0E00080C0000080C0200080C0400080C0600080C0
310
800080C0A00080C0C00080C0E00080E0000080E0200080E0400080E0600080E0800080E0A00080E0C00080E0E000C0000000C0002000C0004000C0006000C0008000C000A000C000C000C000E000C0200000C0202000C0204000C0206000C0208000C020A000C020C000C020E000C0400000C0402000C0404000C0406000C0
310
408000C040A000C040C000C040E000C0600000C0602000C0604000C0606000C0608000C060A000C060C000C060E000C0800000C0802000C0804000C0806000C0808000C080A000C080C000C080E000C0A00000C0A02000C0A04000C0A06000C0A08000C0A0A000C0A0C000C0A0E000C0C00000C0C02000C0C04000C0C06000
310
C0C08000C0C0A000F0FBFF00A4A0A000808080000000FF0000FF000000FFFF00FF000000FF00FF00FFFF0000FFFFFF000000000000000000000000000000000000000000000000000000000000000000000000000000000000000000000000FA00000000000000000000000000000000000000000000000000000000000000
310
FA00000000000000000000000000000000000000000000000000000000000000FA00000000000000000000000000000000000000000000000000000000000000FA00000000000000000000000000000000000000000000000000000000000000FA000000000000000000000000000000000000000000000000000000000000
310
00FA00000000000000000000000000000000000000000000000000000000000000FA0000000000000000000000000000000000000000FFFFFFFFFFFFFFFFFDFFFDFAFFFDFFFDFFFFFFFFFFFFFFFF0000000000000000FF0000000000000000FDFDFDFDFDFD0000000000000000FF0000000000000000FFFFFFFFFFFFFFFFFF
310
FFFD0909FDFFFFFFFFFFFFFFFFFFFF000000000000000000FFFFFFFFFFFFFFFFFFFD0909FDFFFFFFFFFFFFFFFFFF00000000000000000000000000000000000000FDFA00FD00000000000000000000000000000000000000000000000000000000FDFDFDFD0000000000000000000000000000000000000000000000000000
310
0000FDFDFDFD0000000000000000000000000000000000000000000000000000000000FA00000000000000000000000000000000000000000000000000000000000000FA000000000000000000000000000000000000000000000000000000000000FDFDFDFD00000000000000000000000000000000000000000000000000
310
000000FDFDFDFD00000000000000000000000000000000000000000000000000000000FDFA00FD00000000000000000000000000000000000000FFFFFFFFFFFFFFFFFFFD0909FDFFFFFFFFFFFFFFFFFF000000000000000000FFFFF9F9F9F9FFFFFFFFFD09FFFDFFFFFFFFFFFFFFFFFFFF0000000000000000FFF9F9F9F9F9
310
00000000FDFDFDFD000000000000000000FF0000000000000000FFFFFFFFFFFFFFFFFDFDFDFAFFFDFDFDFFFFFFFFFFFFFFFF00000000000000000000000000000000000000FA00000000000000000000000000000000000000000000000000000000000000FA00000000000000000000000000000000000000000000000000
310
000000000000FA00000000000000000000000000000000000000000000000000000000000000FA00000000000000000000000000000000000000000000000000000000000000FA00000000000000000000000000000000000000000000000000000000000000FA000000000000000000000000000000000000000000000000
310
00000000000000FA000000000000000000000000000000000000000000000000000000000000000000000000000000000000000000000000
102
{BLKREFS
331
A9D
102
}
1001
ACAD
1000
DesignCenter Data
1002
{
1070
     1
1070
     4
1002
}
  0
ENDTAB
  0
ENDSEC
  0
SECTION
  2
BLOCKS
  0
BLOCK
  5
20
330
1F
100
AcDbEntity
  8
0
100
AcDbBlockBegin
  2
*Model_Space
 70
     0
 10
0.0
 20
0.0
 30
0.0
  3
*Model_Space
  1

  0
ENDBLK
  5
21
330
1F
100
AcDbEntity
  8
0
100
AcDbBlockEnd
  0
BLOCK
  5
D4
330
D2
100
AcDbEntity
 67
     1
  8
0
100
AcDbBlockBegin
  2
*Paper_Space
 70
     0
 10
0.0
 20
0.0
 30
0.0
  3
*Paper_Space
  1

  0
ENDBLK
  5
D5
330
D2
100
AcDbEntity
 67
     1
  8
0
100
AcDbBlockEnd
  0
BLOCK
  5
D8
330
D6
100
AcDbEntity
 67
     1
  8
0
100
AcDbBlockBegin
  2
*Paper_Space0
 70
     0
 10
0.0
 20
0.0
 30
0.0
  3
*Paper_Space0
  1

  0
ENDBLK
  5
D9
330
D6
100
AcDbEntity
 67
     1
  8
0
100
AcDbBlockEnd
  0
BLOCK
  5
F2
330
EF
100
AcDbEntity
  8
0
100
AcDbBlockBegin
  2
insertpoint-ECKELT
 70
     2
 10
0.0
 20
0.0
 30
0.0
  3
insertpoint-ECKELT
  1

  0
ATTDEF
  5
F3
330
EF
100
AcDbEntity
  8
insertpoint_ECKELT
100
AcDbText
 10
-2.399999999999999
 20
-0.0000000000000284
 30
0.0
 40
0.6
  1
LW
 72
     2
 11
-1.199999999999999
 21
-0.0000000000000284
 31
0.0
100
AcDbAttributeDefinition
  3
Nr. links
  2
LINKS
 70
     0
  0
ATTDEF
  5
F4
330
EF
100
AcDbEntity
  8
insertpoint_ECKELT
100
AcDbText
 10
1.199999999999999
 20
-0.0000000000000284
 30
0.0
 40
0.6
  1
LW
100
AcDbAttributeDefinition
  3
Nr. rechts
  2
RECHTS
 70
     0
  0
LINE
  5
F5
102
{ACAD_REACTORS
330
F8
102
}
330
EF
100
AcDbEntity
  8
insertpoint_ECKELT
100
AcDbLine
 10
0.0
 20
1.799999999999997
 30
0.0
 11
0.0
 21
-1.799999999999997
 31
0.0
  0
LINE
  5
F6
102
{ACAD_REACTORS
330
F8
102
}
330
EF
100
AcDbEntity
  8
insertpoint_ECKELT
100
AcDbLine
 10
-1.8
 20
-0.0000000000000284
 30
0.0
 11
1.8
 21
-0.0000000000000284
 31
0.0
  0
CIRCLE
  5
F7
102
{ACAD_REACTORS
330
F8
102
}
330
EF
100
AcDbEntity
  8
insertpoint_ECKELT
100
AcDbCircle
 10
0.0
 20
0.0
 30
0.0
 40
1.199999999999999
  0
HATCH
  5
F8
330
EF
100
AcDbEntity
  8
insertpoint_ECKELT
100
AcDbHatch
 10
0.0
 20
0.0
 30
0.0
210
0.0
220
0.0
230
1.0
  2
SOLID
 70
     1
 71
     1
 91
        2
 92
        7
 72
     1
 73
     1
 93
        3
 10
0.0
 20
-0.0000000000000284
 42
0.0
 10
0.0
 20
1.200000000000002
 42
0.4142135623731013
 10
-1.199999999999999
 20
-0.0000000000000284
 42
0.0
 97
        3
330
F7
330
F6
330
F5
 92
        7
 72
     1
 73
     1
 93
        3
 10
1.199999999999999
 20
-0.0000000000000284
 42
0.0
 10
0.0
 20
-0.0000000000000284
 42
0.0
 10
0.0
 20
-1.200000000000002
 42
0.4142135623730888
 97
        3
330
F6
330
F5
330
F7
 75
     0
 76
     1
 47
0.0223086566480813
 98
        2
 10
-0.3163651093721391
 20
0.271413292077348
 10
0.7415965996738798
 20
-0.4513871917946233
450
        0
451
        0
460
0.0
461
0.0
452
        0
462
0.0
453
        0
470

  0
ENDBLK
  5
F9
330
EF
100
AcDbEntity
  8
0
100
AcDbBlockEnd
  0
BLOCK
  5
A16
330
A15
100
AcDbEntity
  8
0
100
AcDbBlockBegin
  2
LW 3350-39-00_a
 70
     0
 10
0.0
 20
0.0
 30
0.0
  3
LW 3350-39-00_a
  1

  0
LINE
  5
A18
330
A15
100
AcDbEntity
  8
LW 3350-39-00
  6
VERDECKT
 62
     6
100
AcDbLine
 10
45.0
 20
3.000000000000113
 30
0.0
 11
-45.0
 21
3.0
 31
0.0
  0
LINE
  5
A19
330
A15
100
AcDbEntity
  8
LW 3350-39-00
  6
VERDECKT
 62
     6
100
AcDbLine
 10
-45.0
 20
3.0
 30
0.0
 11
-45.0
 21
-3.0
 31
0.0
  0
LINE
  5
A1A
330
A15
100
AcDbEntity
  8
LW 3350-39-00
  6
VERDECKT
 62
     6
100
AcDbLine
 10
-45.0
 20
-3.0
 30
0.0
 11
45.0
 21
-2.999999999999886
 31
0.0
  0
LINE
  5
A1B
330
A15
100
AcDbEntity
  8
LW 3350-39-00
  6
VERDECKT
 62
     6
100
AcDbLine
 10
45.0
 20
3.000000000000113
 30
0.0
 11
45.0
 21
-2.999999999999886
 31
0.0
  0
CIRCLE
  5
A1C
330
A15
100
AcDbEntity
  8
LW 3350-39-00
100
AcDbCircle
 10
0.0
 20
-82.99999999999988
 30
0.0
 40
14.1
  0
CIRCLE
  5
A1D
330
A15
100
AcDbEntity
  8
LW 3350-39-00
100
AcDbCircle
 10
0.0
 20
-182.9999999999999
 30
0.0
 40
14.1
  0
CIRCLE
  5
A1E
330
A15
100
AcDbEntity
  8
LW 3350-39-00
100
AcDbCircle
 10
0.0
 20
83.00000000000011
 30
0.0
 40
14.1
  0
CIRCLE
  5
A1F
330
A15
100
AcDbEntity
  8
LW 3350-39-00
100
AcDbCircle
 10
0.0
 20
183.0000000000001
 30
0.0
 40
14.1
  0
CIRCLE
  5
A20
330
A15
100
AcDbEntity
  8
LW 3350-39-00
100
AcDbCircle
 10
0.0000000000002274
 20
161.0000000000001
 30
0.0
 40
3.0
  0
CIRCLE
  5
A21
330
A15
100
AcDbEntity
  8
LW 3350-39-00
100
AcDbCircle
 10
0.0000000000002274
 20
61.00000000000012
 30
0.0
 40
3.0
  0
CIRCLE
  5
A22
330
A15
100
AcDbEntity
  8
LW 3350-39-00
100
AcDbCircle
 10
0.0
 20
-105.0
 30
0.0
 40
3.0
  0
CIRCLE
  5
A23
330
A15
100
AcDbEntity
  8
LW 3350-39-00
100
AcDbCircle
 10
0.0
 20
-204.9999999999999
 30
0.0
 40
3.0
  0
CIRCLE
  5
A24
330
A15
100
AcDbEntity
  8
LW 3350-39-00
100
AcDbCircle
 10
0.0000000000002274
 20
205.0000000000001
 30
0.0
 40
3.0
  0
CIRCLE
  5
A25
330
A15
100
AcDbEntity
  8
LW 3350-39-00
100
AcDbCircle
 10
0.0000000000002274
 20
105.0000000000001
 30
0.0
 40
3.0
  0
CIRCLE
  5
A26
330
A15
100
AcDbEntity
  8
LW 3350-39-00
100
AcDbCircle
 10
0.0
 20
-61.0
 30
0.0
 40
3.0
  0
CIRCLE
  5
A27
330
A15
100
AcDbEntity
  8
LW 3350-39-00
100
AcDbCircle
 10
0.0
 20
-161.0
 30
0.0
 40
3.0
  0
LINE
  5
A28
330
A15
100
AcDbEntity
  8
LW 3350-39-00
100
AcDbLine
 10
-50.0
 20
-228.0
 30
0.0
 11
-49.99999999999977
 21
228.0000000000001
 31
0.0
  0
ARC
  5
A29
330
A15
100
AcDbEntity
  8
LW 3350-39-00
100
AcDbCircle
 10
-44.99999999999977
 20
228.0000000000001
 30
0.0
 40
4.999999999999974
100
AcDbArc
 50
90.0
 51
180.0
  0
LINE
  5
A2A
330
A15
100
AcDbEntity
  8
LW 3350-39-00
100
AcDbLine
 10
-44.99999999999977
 20
233.0
 30
0.0
 11
45.00000000000023
 21
233.0
 31
0.0
  0
ARC
  5
A2B
330
A15
100
AcDbEntity
  8
LW 3350-39-00
100
AcDbCircle
 10
45.00000000000023
 20
227.9999999999999
 30
0.0
 40
5.000000000000035
100
AcDbArc
 50
0.0
 51
90.0
  0
LINE
  5
A2C
330
A15
100
AcDbEntity
  8
LW 3350-39-00
100
AcDbLine
 10
50.00000000000023
 20
228.0000000000001
 30
0.0
 11
50.0
 21
-228.0000000000001
 31
0.0
  0
ARC
  5
A2D
330
A15
100
AcDbEntity
  8
LW 3350-39-00
100
AcDbCircle
 10
45.0
 20
-227.9999999999999
 30
0.0
 40
4.999999999999991
100
AcDbArc
 50
270.0
 51
0.0
  0
LINE
  5
A2E
330
A15
100
AcDbEntity
  8
LW 3350-39-00
100
AcDbLine
 10
45.0
 20
-233.0
 30
0.0
 11
-45.0
 21
-233.0
 31
0.0
  0
ARC
  5
A2F
330
A15
100
AcDbEntity
  8
LW 3350-39-00
100
AcDbCircle
 10
-45.0
 20
-227.9999999999999
 30
0.0
 40
5.0
100
AcDbArc
 50
180.0
 51
270.0
  0
LINE
  5
A30
330
A15
100
AcDbEntity
  8
LW 3350-39-00
  6
MITTE2
 62
     3
100
AcDbLine
 10
23.74999999999977
 20
183.0000000000001
 30
0.0
 11
-23.75000000000023
 21
183.0000000000001
 31
0.0
  0
LINE
  5
A31
330
A15
100
AcDbEntity
  8
LW 3350-39-00
  6
MITTE2
 62
     3
100
AcDbLine
 10
-0.0000000000002274
 20
206.7500000000001
 30
0.0
 11
-0.0000000000002274
 21
159.2500000000001
 31
0.0
  0
LINE
  5
A32
330
A15
100
AcDbEntity
  8
LW 3350-39-00
  6
MITTE2
 62
     3
100
AcDbLine
 10
23.74999999999977
 20
83.00000000000011
 30
0.0
 11
-23.75
 21
83.00000000000011
 31
0.0
  0
LINE
  5
A33
330
A15
100
AcDbEntity
  8
LW 3350-39-00
  6
MITTE2
 62
     3
100
AcDbLine
 10
0.0
 20
106.7500000000001
 30
0.0
 11
0.0
 21
59.25000000000011
 31
0.0
  0
LINE
  5
A34
330
A15
100
AcDbEntity
  8
LW 3350-39-00
  6
MITTE2
 62
     3
100
AcDbLine
 10
23.75
 20
-82.99999999999988
 30
0.0
 11
-23.75000000000023
 21
-82.99999999999988
 31
0.0
  0
LINE
  5
A35
330
A15
100
AcDbEntity
  8
LW 3350-39-00
  6
MITTE2
 62
     3
100
AcDbLine
 10
0.0
 20
-59.24999999999989
 30
0.0
 11
0.0
 21
-106.75
 31
0.0
  0
LINE
  5
A36
330
A15
100
AcDbEntity
  8
LW 3350-39-00
  6
MITTE2
 62
     3
100
AcDbLine
 10
23.75
 20
-182.9999999999999
 30
0.0
 11
-23.75
 21
-182.9999999999999
 31
0.0
  0
LINE
  5
A37
330
A15
100
AcDbEntity
  8
LW 3350-39-00
  6
MITTE2
 62
     3
100
AcDbLine
 10
0.0
 20
-159.2499999999999
 30
0.0
 11
0.0
 21
-206.75
 31
0.0
  0
HATCH
  5
A38
330
A15
100
AcDbEntity
  8
LW 3350-39-00
 62
     1
100
AcDbHatch
 10
0.0
 20
0.0
 30
0.0
210
0.0
220
0.0
230
1.0
  2
SOLID
 70
     1
 71
     0
 91
        5
 92
        7
 72
     0
 73
     1
 93
       76
 10
-4.687948601842208
 20
30.70366410204724
 10
-4.656089772469385
 20
30.75524506388888
 10
-4.5379316482381
 20
30.90648746290481
 10
-4.403453573025444
 20
31.04691159316735
 10
-4.257433666563883
 20
31.1752961548807
 10
-4.093764870481891
 20
31.29220243779651
 10
-3.91837791711714
 20
31.39438031961822
 10
-3.736624984516765
 20
31.48573199920111
 10
-3.555456049051144
 20
31.55525031164712
 10
-5.812593987251148
 20
31.55525031164712
 10
-6.025490539651173
 20
31.54656065644713
 10
-6.227525023051157
 20
31.52049169084717
 10
-6.423042265051208
 20
31.47921582864706
 10
-6.60769743805099
 20
31.42490548364708
 10
-6.783662955851241
 20
31.35538824204719
 10
-6.950938818451049
 20
31.27283651764697
 10
-7.101507080998089
 20
31.17751100010309
 10
-7.244214681451012
 20
31.07080203424698
 10
-7.369655937021661
 20
30.95175375800705
 10
-7.480920889099024
 20
30.82349444725514
 10
-7.580938820451137
 20
30.68628479164704
 10
-7.663490544851129
 20
30.54073306704709
 10
-7.726490545051092
 20
30.38649168724692
 10
-7.776456062450961
 20
30.22573306604704
 10
-7.804697441850976
 20
30.06062961724706
 10
-7.813387097050963
 20
29.88683651324709
 10
-7.802525028050922
 20
29.71304340924689
 10
-7.772111234851081
 20
29.54576754664709
 10
-7.717800889850877
 20
29.38500892544698
 10
-7.648283648250981
 20
29.22859513184699
 10
-7.559214682450829
 20
29.08087099344698
 10
-7.45276640625093
 20
28.93966409644713
 10
-7.33006847482693
 20
28.80845030292699
 10
-7.193869426118681
 20
28.68731650943914
 10
-7.046525025650907
 20
28.57687099184705
 10
-6.885766404450805
 20
28.47911237084714
 10
-6.710139783203658
 20
28.39421443954302
 10
-6.529490541251107
 20
28.32052616344709
 10
-6.338318126850936
 20
28.26404340464705
 10
-6.138456057251005
 20
28.22059512864712
 10
-5.929904332451087
 20
28.19452616304716
 10
-5.719180193851116
 20
28.18583650784717
 10
-3.600009108098447
 20
28.18583650784717
 10
-3.76055297215089
 20
28.24890731158212
 10
-3.944117115953304
 20
28.33952758510486
 10
-4.112583522123486
 20
28.44405727803632
 10
-4.275416416884127
 20
28.55967551646177
 10
-4.419328785254265
 20
28.68946511300169
 10
-4.546764678738554
 20
28.82881879623028
 10
-4.660470033481942
 20
28.97930704094278
 10
-4.712441264930703
 20
29.06349168304723
 10
-5.74090433185097
 20
29.063491683047
 10
-5.873013159856554
 20
29.07105168307112
 10
-6.003766401651091
 20
29.09138547623911
 10
-6.131938815850844
 20
29.12431926944714
 10
-6.247076747250957
 20
29.16993995924713
 10
-6.352021713101294
 20
29.22642271804716
 10
-6.450171368585415
 20
29.29402823550299
 10
-6.54035261025092
 20
29.37197444264711
 10
-6.61204226565087
 20
29.45669858084716
 10
-4.884520951392232
 20
29.45669858084716
 10
-4.895105418665252
 20
29.48933402160538
 10
-4.931217226629541
 20
29.67470796915654
 10
-4.943260879411354
 20
29.86499768310728
 10
-4.931239206981899
 20
30.05974877646236
 10
-4.894933485306637
 20
30.24611814772879
 10
-4.878334782631782
 20
30.29525030764717
 10
-6.6489733002511
 20
30.29525030764717
 10
-6.579456058650976
 20
30.39083651484702
 10
-6.496904334250984
 20
30.47338823924702
 10
-6.401813437397549
 20
30.54325306705505
 10
-6.299214678451107
 20
30.60156065344723
 10
-6.180522678074339
 20
30.64553030875913
 10
-6.058076746651067
 20
30.67759513644706
 10
-5.9212146772511
 20
30.69714686064708
 10
-5.777835366450972
 20
30.70366410204702
 97
        0
 92
        7
 72
     0
 73
     1
 93
       72
 10
-2.959484736814374
 20
30.68906548131122
 10
-2.836621701941567
 20
30.70713996412724
 10
-2.712559494651031
 20
30.71235375724723
 10
-1.443869835451096
 20
30.71235375724723
 10
-2.291111217451089
 20
29.89769858224736
 10
-0.5249387980509255
 20
28.17931926644724
 10
0.7937163785488793
 20
28.17931926644724
 10
-0.9203181096509069
 20
29.92159513404727
 10
0.7611301715489845
 20
31.55525031164734
 10
-2.677800873851083
 20
31.55525031164712
 10
-2.885787771063178
 20
31.54447513919922
 10
-3.092505978615918
 20
31.51901444946316
 10
-3.29693880685113
 20
31.47921582864729
 10
-3.490283635051127
 20
31.42273306984725
 10
-3.677111221851191
 20
31.35104341444708
 10
-3.848271360325497
 20
31.26501582796709
 10
-4.013835360851089
 20
31.16856065524712
 10
-4.165904326850977
 20
31.05993996524717
 10
-4.301601982454258
 20
30.94063099935124
 10
-4.426593982851045
 20
30.81011237824714
 10
-4.535214672851225
 20
30.67107789504712
 10
-4.626456052450976
 20
30.52335375664734
 10
-4.698145707851153
 20
30.36911237684717
 10
-4.75245605285113
 20
30.20835375564707
 10
-4.785042259851024
 20
30.04107789304703
 10
-4.795904328851065
 20
29.86511237524701
 10
-4.785042259851024
 20
29.69349168504709
 10
-4.752456052850902
 20
29.52621582244729
 10
-4.70031812165098
 20
29.36545720124718
 10
-4.630800880051083
 20
29.21121582144724
 10
-4.538959914242241
 20
29.06244892442328
 10
-4.433580465631848
 20
28.9229799584632
 10
-4.315574948015637
 20
28.79393857874334
 10
-4.183283637250951
 20
28.67462961284719
 10
-4.031162533319729
 20
28.56661719871113
 10
-3.872628463851015
 20
28.46825030184709
 10
-3.701007773650871
 20
28.38352616364728
 10
-3.518525014450915
 20
28.3118365082471
 10
-3.324293841420512
 20
28.25778685290311
 10
-3.127490530451041
 20
28.21407788724719
 10
-2.918938805650896
 20
28.18800892164722
 10
-2.708214667050924
 20
28.17931926644724
 10
-0.805180178251021
 20
28.17931926644724
 10
-1.691525008651069
 20
29.05262961404719
 10
-2.708214667050924
 20
29.05262961404719
 10
-2.774881701745471
 20
29.05637690698654
 10
-2.875829426203836
 20
29.0663592692631
 10
-2.995963909343799
 20
29.0878227176072
 10
-3.113083082129378
 20
29.12214685564709
 10
-3.214578254865273
 20
29.16307513163929
 10
-3.270713427457394
 20
29.19122961448716
 10
-3.324398117282953
 20
29.22381582148728
 10
-3.456958807359114
 20
29.32313858042312
 10
-3.530560186902903
 20
29.39317720133522
 10
-3.58562653190529
 20
29.46104340844704
 10
-3.634332049301519
 20
29.5336020293671
 10
-3.673696187357563
 20
29.61076616754303
 10
-3.703119359864558
 20
29.69218823676715
 10
-3.72381811855098
 20
29.77934547842324
 10
-3.73133467029902
 20
29.86867513387915
 10
-3.729979084087744
 20
29.93097996166307
 10
-3.723974532344527
 20
29.99311099634315
 10
-3.711817704719805
 20
30.05628478964718
 10
-3.693604187420532
 20
30.1179813415672
 10
-3.649956049351203
 20
30.21669582463915
 10
-3.608428187150138
 20
30.2845620317512
 10
-3.545349980053515
 20
30.36259513544724
 10
-3.415948039688601
 20
30.48911787250086
 10
-3.356680186351013
 20
30.52917582563123
 10
-3.280385013694967
 20
30.57349306715105
 10
-3.196364737566227
 20
30.61563789487127
 10
-3.079827771678992
 20
30.65847789500731
 97
        0
 92
        7
 72
     0
 73
     1
 93
       57
 10
1.598552243173116
 20
30.66699375710346
 10
1.730026726349024
 20
30.7069661710234
 10
1.864716381948937
 20
30.73407789524754
 10
2.008095692748838
 20
30.7427675504473
 10
3.248543972548986
 20
30.74276755044753
 10
3.248543972548986
 20
31.56828479444744
 10
2.014612934148999
 20
31.56828479444744
 10
1.803888795549028
 20
31.55959513924745
 10
1.597509484548936
 20
31.53135375984744
 10
1.399819828749059
 20
31.49007789764733
 10
1.210819828148942
 20
31.43576755264735
 10
1.026164655148932
 20
31.3640778972474
 10
0.8597577580687811
 20
31.28143927629526
 10
0.7009369299785249
 20
31.18498410357529
 10
0.5508578950193624
 20
31.07549444805523
 10
0.4162985842474427
 20
30.95627237871145
 10
0.2962336183488787
 20
30.82749168864734
 10
0.1919577559490335
 20
30.68845720544732
 10
0.1072336177489888
 20
30.54290548084737
 10
0.035543962348811
 20
30.3886641010472
 10
-0.014421555051058
 20
30.22790547984732
 10
-0.0470077620509528
 20
30.06062961724751
 10
-0.0578698310509935
 20
29.88683651324732
 10
-0.0470077620509528
 20
29.71304340924735
 10
-0.014421555051058
 20
29.54576754664731
 10
0.0377163761488646
 20
29.38500892544721
 10
0.1094060315490424
 20
29.22859513184744
 10
0.1963025835491407
 20
29.08087099344744
 10
0.3051492045842679
 20
28.94131513093544
 10
0.425005618757723
 20
28.8109703029354
 10
0.5614332053978615
 20
28.68966271634326
 10
0.7089922403490619
 20
28.57904340564733
 10
0.8697508615489368
 20
28.48128478464719
 10
1.043543965548906
 20
28.39656064644737
 10
1.228199138549143
 20
28.32269857724737
 10
1.419371552949087
 20
28.26621581844733
 10
1.619233622549018
 20
28.2227675424474
 10
1.825612933549109
 20
28.19887099064727
 10
2.038509485949134
 20
28.19018133544728
 10
3.248543972548986
 20
28.19018133544751
 10
3.248543972548986
 20
29.04828478644731
 10
2.014612934148999
 20
29.04828478644731
 10
1.880966037173038
 20
29.05862547613537
 10
1.748709485029166
 20
29.08061030379144
 10
1.628097070853073
 20
29.11493444183134
 10
1.512090173933074
 20
29.16290133853545
 10
1.402426725308941
 20
29.22381582148751
 10
1.305363276725074
 20
29.29142133894334
 10
1.217945345412999
 20
29.37119237367938
 10
1.143475000349098
 20
29.45669858084739
 10
3.248543972548986
 20
29.45669858084739
 10
3.248543972548986
 20
30.28438823864735
 10
1.106543965748869
 20
30.28438823864735
 10
1.176061207348993
 20
30.38214685964727
 10
1.262957759348864
 20
30.47121582544719
 10
1.364105345877078
 20
30.54751099810346
 10
1.471509484149009
 20
30.61459513624732
 97
        0
 92
        7
 72
     0
 73
     1
 93
        6
 10
3.478819835348986
 20
31.55525031164757
 10
3.478819835348986
 20
28.1858365078474
 10
5.716406049349188
 20
28.18583650784763
 10
5.716406049348961
 20
29.05262961404765
 10
4.502026735149001
 20
29.05262961404765
 10
4.502026735149001
 20
31.55525031164757
 97
        0
 92
        7
 72
     0
 73
     1
 93
        8
 10
4.734475011748827
 20
31.55525031164757
 10
4.734475011748827
 20
30.72973306764743
 10
5.968406050149042
 20
30.72973306764766
 10
5.968406050149042
 20
28.17931926644746
 10
6.993785363749111
 20
28.17931926644746
 10
6.993785363748884
 20
30.72973306764743
 10
8.236406057348858
 20
30.72973306764766
 10
8.236406057348858
 20
31.55525031164757
 97
        0
 75
     0
 76
     1
 47
0.0142553043587597
 98
        5
 10
-5.378288475775889
 20
31.11280064205812
 10
-3.110791262433167
 20
30.97024765705237
 10
1.381420469768272
 20
31.02726882960019
 10
4.10526955360001
 20
31.26960905429269
 10
5.517107535826653
 20
31.16982192187925
450
        0
451
        0
460
0.0
461
0.0
452
        0
462
0.0
453
        0
470

  0
LWPOLYLINE
  5
A39
330
A15
100
AcDbEntity
  8
LW 3350-39-00
 62
     1
100
AcDbPolyline
 90
        8
 70
     1
 43
0.0
 10
6.993785363748884
 20
30.72973306764743
 10
6.993785363749111
 20
28.17931926644746
 10
5.968406050149042
 20
28.17931926644746
 10
5.968406050149042
 20
30.72973306764766
 10
4.734475011748827
 20
30.72973306764743
 10
4.734475011748827
 20
31.55525031164757
 10
8.236406057348858
 20
31.55525031164757
 10
8.236406057348858
 20
30.72973306764766
  0
LWPOLYLINE
  5
A3A
330
A15
100
AcDbEntity
  8
LW 3350-39-00
 62
     1
100
AcDbPolyline
 90
       73
 70
     1
 43
0.0
 10
-2.708214667050924
 20
29.05262961404719
 10
-1.691525008651069
 20
29.05262961404719
 10
-0.805180178251021
 20
28.17931926644724
 10
-2.708214667050924
 20
28.17931926644724
 10
-2.918938805650896
 20
28.18800892164722
 10
-3.127490530451041
 20
28.21407788724719
 10
-3.324293841420512
 20
28.25778685290311
 10
-3.518525014450915
 20
28.3118365082471
 10
-3.701007773650871
 20
28.38352616364728
 10
-3.872628463851015
 20
28.46825030184709
 10
-4.031162533319729
 20
28.56661719871113
 10
-4.183283637250951
 20
28.67462961284719
 10
-4.315574948015864
 20
28.79393857874311
 10
-4.433580465631848
 20
28.9229799584632
 10
-4.538959914242241
 20
29.06244892442328
 10
-4.630800880051083
 20
29.21121582144724
 10
-4.70031812165098
 20
29.36545720124718
 10
-4.752456052850902
 20
29.52621582244729
 10
-4.785042259851024
 20
29.69349168504709
 10
-4.795904328851065
 20
29.86511237524723
 10
-4.785042259851024
 20
30.04107789304703
 10
-4.75245605285113
 20
30.20835375564707
 10
-4.698145707850926
 20
30.36911237684717
 10
-4.626456052450976
 20
30.52335375664711
 10
-4.535214672850997
 20
30.67107789504712
 10
-4.426593982851045
 20
30.81011237824714
 10
-4.301601982454258
 20
30.94063099935124
 10
-4.165904326851205
 20
31.05993996524717
 10
-4.013835360851089
 20
31.16856065524712
 10
-3.848271360325497
 20
31.26501582796709
 10
-3.677111221851191
 20
31.35104341444708
 10
-3.490283635051127
 20
31.42273306984725
 10
-3.29693880685113
 20
31.47921582864729
 10
-3.092505978615918
 20
31.51901444946316
 10
-2.885787771063178
 20
31.54447513919922
 10
-2.677800873851083
 20
31.55525031164712
 10
0.7611301715489845
 20
31.55525031164734
 10
-0.9203181096509069
 20
29.92159513404727
 10
0.7937163785488793
 20
28.17931926644724
 10
-0.5249387980509255
 20
28.17931926644724
 10
-2.291111217451089
 20
29.89769858224736
 10
-1.443869835451096
 20
30.71235375724723
 10
-2.712559494651031
 20
30.71235375724723
 10
-2.836621701941567
 20
30.70713996412724
 10
-2.959484736814374
 20
30.68906548131122
 10
-3.079827771678992
 20
30.65847789500731
 10
-3.196364737566227
 20
30.61563789487105
 10
-3.280385013695195
 20
30.57349306715128
 10
-3.356680186351013
 20
30.52917582563123
 10
-3.396921979582202
 20
30.50197720485517
 10
-3.434435221080548
 20
30.47104203234312
 10
-3.545349980053515
 20
30.36259513544724
 10
-3.608428187150138
 20
30.2845620317512
 10
-3.649956049350976
 20
30.21669582463915
 10
-3.693604187420532
 20
30.1179813415672
 10
-3.711817704719805
 20
30.05628478964718
 10
-3.723974532344527
 20
29.99311099634315
 10
-3.729979084087744
 20
29.9309799616633
 10
-3.73133467029902
 20
29.86867513387915
 10
-3.72381811855098
 20
29.77934547842324
 10
-3.703119359864558
 20
29.69218823676715
 10
-3.673696187357336
 20
29.61076616754326
 10
-3.634332049301519
 20
29.5336020293671
 10
-3.585626531905518
 20
29.46104340844727
 10
-3.530560186902903
 20
29.39317720133522
 10
-3.456958807359114
 20
29.32313858042312
 10
-3.324398117282953
 20
29.22381582148728
 10
-3.270713427457394
 20
29.19122961448716
 10
-3.214578254865273
 20
29.16307513163929
 10
-3.113083082129378
 20
29.12214685564709
 10
-2.995963909343799
 20
29.0878227176072
 10
-2.875829426203836
 20
29.0663592692631
 10
-2.774881701745471
 20
29.05637690698654
  0
LWPOLYLINE
  5
A3B
330
A15
100
AcDbEntity
  8
LW 3350-39-00
 62
     1
100
AcDbPolyline
 90
       76
 70
     1
 43
0.0
 10
-3.91837791711714
 20
31.39438031961822
 10
-4.093764870481891
 20
31.29220243779651
 10
-4.257433666563883
 20
31.1752961548807
 10
-4.403453573025444
 20
31.04691159316735
 10
-4.5379316482381
 20
30.90648746290481
 10
-4.656089772469385
 20
30.75524506388888
 10
-4.687948601842208
 20
30.70366410204724
 10
-5.777835366450972
 20
30.70366410204724
 10
-5.9212146772511
 20
30.69714686064708
 10
-6.058076746651067
 20
30.67759513644706
 10
-6.180522678074339
 20
30.64553030875913
 10
-6.299214678451107
 20
30.60156065344723
 10
-6.401813437397322
 20
30.54325306705505
 10
-6.496904334250984
 20
30.47338823924702
 10
-6.579456058651203
 20
30.39083651484702
 10
-6.6489733002511
 20
30.29525030764717
 10
-4.878334782631782
 20
30.29525030764717
 10
-4.894933485306637
 20
30.24611814772879
 10
-4.931239206982127
 20
30.05974877646213
 10
-4.943260879411354
 20
29.86499768310728
 10
-4.931217226629541
 20
29.67470796915654
 10
-4.895105418665025
 20
29.4893340216056
 10
-4.884520951392232
 20
29.45669858084716
 10
-6.61204226565087
 20
29.45669858084716
 10
-6.54035261025092
 20
29.37197444264711
 10
-6.450171368585415
 20
29.29402823550299
 10
-6.352021713101294
 20
29.22642271804716
 10
-6.247076747250957
 20
29.16993995924713
 10
-6.131938815850844
 20
29.12431926944714
 10
-6.003766401651091
 20
29.09138547623911
 10
-5.873013159856554
 20
29.07105168307112
 10
-5.74090433185097
 20
29.063491683047
 10
-4.712441264930703
 20
29.06349168304723
 10
-4.660470033481942
 20
28.97930704094278
 10
-4.546764678738554
 20
28.82881879623028
 10
-4.419328785254265
 20
28.68946511300169
 10
-4.275416416884127
 20
28.559675516462
 10
-4.112583522123486
 20
28.44405727803632
 10
-3.944117115953304
 20
28.33952758510486
 10
-3.76055297215089
 20
28.24890731158212
 10
-3.600009108098447
 20
28.18583650784717
 10
-5.719180193850888
 20
28.18583650784694
 10
-5.929904332451087
 20
28.19452616304716
 10
-6.138456057251005
 20
28.22059512864712
 10
-6.338318126850936
 20
28.26404340464705
 10
-6.529490541250879
 20
28.32052616344709
 10
-6.710139783203885
 20
28.39421443954302
 10
-6.885766404450805
 20
28.47911237084714
 10
-7.046525025650907
 20
28.57687099184705
 10
-7.193869426118681
 20
28.68731650943914
 10
-7.33006847482693
 20
28.80845030292699
 10
-7.45276640625093
 20
28.93966409644713
 10
-7.559214682451056
 20
29.08087099344698
 10
-7.648283648250981
 20
29.22859513184699
 10
-7.717800889850877
 20
29.38500892544698
 10
-7.772111234851081
 20
29.54576754664709
 10
-7.802525028050922
 20
29.71304340924712
 10
-7.813387097050963
 20
29.88683651324709
 10
-7.804697441851203
 20
30.06062961724706
 10
-7.776456062450961
 20
30.22573306604704
 10
-7.726490545051092
 20
30.38649168724692
 10
-7.663490544851129
 20
30.54073306704709
 10
-7.580938820451137
 20
30.68628479164704
 10
-7.480920889099024
 20
30.82349444725514
 10
-7.369655937021661
 20
30.95175375800705
 10
-7.244214681451012
 20
31.07080203424698
 10
-7.101507080998089
 20
31.17751100010309
 10
-6.950938818451049
 20
31.27283651764719
 10
-6.783662955851013
 20
31.35538824204696
 10
-6.60769743805099
 20
31.42490548364708
 10
-6.42304226505098
 20
31.47921582864706
 10
-6.227525023051157
 20
31.52049169084717
 10
-6.025490539651173
 20
31.54656065644713
 10
-5.812593987251148
 20
31.55525031164712
 10
-3.555456049050917
 20
31.55525031164734
 10
-3.736624984516765
 20
31.48573199920111
  0
LWPOLYLINE
  5
A3C
330
A15
100
AcDbEntity
  8
LW 3350-39-00
 62
     1
100
AcDbPolyline
 90
        6
 70
     1
 43
0.0
 10
5.716406049349188
 20
28.18583650784763
 10
3.478819835348986
 20
28.1858365078474
 10
3.478819835348986
 20
31.55525031164757
 10
4.502026735149001
 20
31.55525031164757
 10
4.502026735149001
 20
29.05262961404765
 10
5.716406049348961
 20
29.05262961404765
  0
LWPOLYLINE
  5
A3D
330
A15
100
AcDbEntity
  8
LW 3350-39-00
 62
     1
100
AcDbPolyline
 90
       57
 70
     1
 43
0.0
 10
0.425005618757723
 20
28.8109703029354
 10
0.3051492045842679
 20
28.94131513093521
 10
0.1963025835489134
 20
29.08087099344721
 10
0.1094060315490424
 20
29.22859513184744
 10
0.0377163761488646
 20
29.38500892544721
 10
-0.014421555051058
 20
29.54576754664731
 10
-0.0470077620509528
 20
29.71304340924735
 10
-0.0578698310509935
 20
29.88683651324732
 10
-0.0470077620509528
 20
30.06062961724729
 10
-0.014421555051058
 20
30.22790547984732
 10
0.035543962348811
 20
30.3886641010472
 10
0.1072336177489888
 20
30.54290548084737
 10
0.1919577559488061
 20
30.68845720544732
 10
0.2962336183488787
 20
30.82749168864734
 10
0.4162985842472154
 20
30.95627237871122
 10
0.5508578950193624
 20
31.07549444805523
 10
0.7009369299785249
 20
31.18498410357529
 10
0.8597577580690085
 20
31.28143927629549
 10
1.026164655148932
 20
31.3640778972474
 10
1.210819828148942
 20
31.43576755264735
 10
1.399819828749059
 20
31.49007789764733
 10
1.597509484548936
 20
31.53135375984744
 10
1.803888795549028
 20
31.55959513924745
 10
2.014612934148999
 20
31.56828479444744
 10
3.248543972548986
 20
31.56828479444744
 10
3.248543972548986
 20
30.74276755044753
 10
2.008095692749066
 20
30.7427675504473
 10
1.864716381948937
 20
30.73407789524731
 10
1.730026726349024
 20
30.7069661710234
 10
1.598552243172889
 20
30.66699375710346
 10
1.471509484149009
 20
30.61459513624732
 10
1.364105345877078
 20
30.54751099810346
 10
1.262957759348864
 20
30.47121582544742
 10
1.176061207348993
 20
30.38214685964727
 10
1.106543965748869
 20
30.28438823864735
 10
3.248543972548986
 20
30.28438823864735
 10
3.248543972548986
 20
29.45669858084739
 10
1.143475000349098
 20
29.45669858084739
 10
1.217945345412999
 20
29.37119237367938
 10
1.305363276725074
 20
29.29142133894334
 10
1.402426725308941
 20
29.22381582148751
 10
1.512090173933074
 20
29.16290133853545
 10
1.628097070853073
 20
29.11493444183134
 10
1.748709485029166
 20
29.08061030379144
 10
1.880966037173038
 20
29.05862547613537
 10
2.014612934148999
 20
29.04828478644731
 10
3.248543972548986
 20
29.04828478644731
 10
3.248543972548986
 20
28.19018133544751
 10
2.038509485949134
 20
28.19018133544728
 10
1.825612933549109
 20
28.19887099064727
 10
1.619233622549018
 20
28.2227675424474
 10
1.419371552949087
 20
28.26621581844733
 10
1.228199138549143
 20
28.32269857724737
 10
1.043543965548906
 20
28.39656064644737
 10
0.8697508615489368
 20
28.48128478464742
 10
0.7089922403490619
 20
28.57904340564733
 10
0.5614332053978615
 20
28.68966271634326
  0
INSERT
  5
A3E
330
A15
100
AcDbEntity
  8
LW 3350-39-00
100
AcDbBlockReference
 66
     1
  2
insertpoint-ECKELT
 10
0.0
 20
0.0
 30
0.0
  0
ATTRIB
  5
A3F
330
A3E
100
AcDbEntity
  8
insertpoint_ECKELT
100
AcDbText
 10
-8.699999999999818
 20
0.0
 30
0.0
 40
0.6
  1
LW 3350/39-00
 72
     2
 11
-1.199999999999818
 21
0.0
 31
0.0
100
AcDbAttribute
  2
LINKS
 70
     0
  0
ATTRIB
  5
A40
330
A3E
100
AcDbEntity
  8
insertpoint_ECKELT
100
AcDbText
 10
1.199999999999818
 20
0.0
 30
0.0
 40
0.6
  1

100
AcDbAttribute
  2
RECHTS
 70
     0
  0
SEQEND
  5
A41
330
A3E
100
AcDbEntity
  8
LW 3350-39-00
  0
CIRCLE
  5
A42
330
A15
100
AcDbEntity
  8
LW 3350-39-00
100
AcDbCircle
 10
-7.000000000000227
 20
183.0000000000001
 30
0.0
 40
1.5
  0
CIRCLE
  5
A43
330
A15
100
AcDbEntity
  8
LW 3350-39-00
100
AcDbCircle
 10
6.999999999999772
 20
183.0000000000001
 30
0.0
 40
1.5
  0
CIRCLE
  5
A44
330
A15
100
AcDbEntity
  8
LW 3350-39-00
100
AcDbCircle
 10
-7.000000000000227
 20
83.00000000000011
 30
0.0
 40
1.5
  0
CIRCLE
  5
A45
330
A15
100
AcDbEntity
  8
LW 3350-39-00
100
AcDbCircle
 10
6.999999999999772
 20
83.00000000000011
 30
0.0
 40
1.5
  0
CIRCLE
  5
A46
330
A15
100
AcDbEntity
  8
LW 3350-39-00
100
AcDbCircle
 10
-7.000000000000227
 20
-82.99999999999988
 30
0.0
 40
1.5
  0
CIRCLE
  5
A47
330
A15
100
AcDbEntity
  8
LW 3350-39-00
100
AcDbCircle
 10
6.999999999999772
 20
-82.99999999999988
 30
0.0
 40
1.5
  0
CIRCLE
  5
A48
330
A15
100
AcDbEntity
  8
LW 3350-39-00
100
AcDbCircle
 10
-7.000000000000227
 20
-182.9999999999999
 30
0.0
 40
1.5
  0
CIRCLE
  5
A49
330
A15
100
AcDbEntity
  8
LW 3350-39-00
100
AcDbCircle
 10
6.999999999999772
 20
-182.9999999999999
 30
0.0
 40
1.5
  0
ENDBLK
  5
A17
330
A15
100
AcDbEntity
  8
0
100
AcDbBlockEnd
  0
BLOCK
  5
A4C
330
A4B
100
AcDbEntity
  8
0
100
AcDbBlockBegin
  2
LW 3350-39-00_b
 70
     0
 10
0.0
 20
0.0
 30
0.0
  3
LW 3350-39-00_b
  1

  0
LINE
  5
A4E
330
A4B
100
AcDbEntity
  8
LW 3350-39-00
100
AcDbLine
 10
-48.00000000000022
 20
-0.0000000000009095
 30
0.0
 11
-48.00000000000022
 21
1.99999999999909
 31
0.0
  0
LINE
  5
A4F
330
A4B
100
AcDbEntity
  8
LW 3350-39-00
100
AcDbLine
 10
47.99999999999977
 20
-0.0000000000009095
 30
0.0
 11
47.99999999999977
 21
1.99999999999909
 31
0.0
  0
LINE
  5
A50
330
A4B
100
AcDbEntity
  8
LW 3350-39-00
100
AcDbLine
 10
-48.00000000000022
 20
0.0
 30
0.0
 11
47.99999999999977
 21
0.0
 31
0.0
  0
LINE
  5
A51
330
A4B
100
AcDbEntity
  8
LW 3350-39-00
100
AcDbLine
 10
-48.0
 20
-44.04000000000098
 30
0.0
 11
-48.0
 21
-42.04000000000099
 31
0.0
  0
LINE
  5
A52
330
A4B
100
AcDbEntity
  8
LW 3350-39-00
100
AcDbLine
 10
48.0
 20
-44.04000000000098
 30
0.0
 11
48.0
 21
-42.04000000000099
 31
0.0
  0
LINE
  5
A53
330
A4B
100
AcDbEntity
  8
LW 3350-39-00
100
AcDbLine
 10
48.0
 20
-42.04000000000007
 30
0.0
 11
-48.0
 21
-42.04000000000013
 31
0.0
  0
LINE
  5
A54
330
A4B
100
AcDbEntity
  8
LW 3350-39-00
100
AcDbLine
 10
-50.0
 20
11.99999999999909
 30
0.0
 11
-50.0
 21
1.99999999999909
 31
0.0
  0
LINE
  5
A55
330
A4B
100
AcDbEntity
  8
LW 3350-39-00
100
AcDbLine
 10
-45.0
 20
2.000000000000568
 30
0.0
 11
-50.0
 21
1.99999999999909
 31
0.0
  0
LINE
  5
A56
330
A4B
100
AcDbEntity
  8
LW 3350-39-00
100
AcDbLine
 10
-50.0
 20
11.99999999999909
 30
0.0
 11
-45.0
 21
12.00000000000057
 31
0.0
  0
LINE
  5
A57
330
A4B
100
AcDbEntity
  8
LW 3350-39-00
100
AcDbLine
 10
-45.0
 20
2.000000000000568
 30
0.0
 11
45.0
 21
2.000000000000568
 31
0.0
  0
LINE
  5
A58
330
A4B
100
AcDbEntity
  8
LW 3350-39-00
100
AcDbLine
 10
45.0
 20
12.00000000000057
 30
0.0
 11
-45.0
 21
12.00000000000057
 31
0.0
  0
LINE
  5
A59
330
A4B
100
AcDbEntity
  8
LW 3350-39-00
  6
VERDECKT
 62
     6
 48
0.5
100
AcDbLine
 10
-5.499999999999999
 20
8.000000000000511
 30
0.0
 11
-8.499999999999998
 21
8.000000000000511
 31
0.0
  0
LINE
  5
A5A
330
A4B
100
AcDbEntity
  8
LW 3350-39-00
100
AcDbLine
 10
50.00000000000023
 20
1.99999999999909
 30
0.0
 11
45.0
 21
2.000000000000568
 31
0.0
  0
LINE
  5
A5B
330
A4B
100
AcDbEntity
  8
LW 3350-39-00
100
AcDbLine
 10
50.00000000000023
 20
11.99999999999909
 30
0.0
 11
50.00000000000023
 21
1.99999999999909
 31
0.0
  0
LINE
  5
A5C
330
A4B
100
AcDbEntity
  8
LW 3350-39-00
100
AcDbLine
 10
45.00000000000023
 20
12.00000000000057
 30
0.0
 11
50.00000000000023
 21
11.99999999999909
 31
0.0
  0
LINE
  5
A5D
330
A4B
100
AcDbEntity
  8
LW 3350-39-00
100
AcDbLine
 10
-49.99999999999977
 20
-44.04000000000087
 30
0.0
 11
-49.99999999999977
 21
-54.04000000000087
 31
0.0
  0
LINE
  5
A5E
330
A4B
100
AcDbEntity
  8
LW 3350-39-00
100
AcDbLine
 10
-44.99999999999977
 20
-54.03999999999939
 30
0.0
 11
-49.99999999999977
 21
-54.04000000000087
 31
0.0
  0
LINE
  5
A5F
330
A4B
100
AcDbEntity
  8
LW 3350-39-00
100
AcDbLine
 10
-49.99999999999977
 20
-44.04000000000087
 30
0.0
 11
-44.99999999999977
 21
-44.03999999999939
 31
0.0
  0
LINE
  5
A60
330
A4B
100
AcDbEntity
  8
LW 3350-39-00
100
AcDbLine
 10
-44.99999999999977
 20
-54.03999999999939
 30
0.0
 11
45.00000000000023
 21
-54.03999999999939
 31
0.0
  0
LINE
  5
A61
330
A4B
100
AcDbEntity
  8
LW 3350-39-00
100
AcDbLine
 10
45.00000000000023
 20
-44.03999999999939
 30
0.0
 11
-44.99999999999977
 21
-44.03999999999939
 31
0.0
  0
LINE
  5
A62
330
A4B
100
AcDbEntity
  8
LW 3350-39-00
100
AcDbLine
 10
50.00000000000046
 20
-54.04000000000087
 30
0.0
 11
45.00000000000023
 21
-54.03999999999939
 31
0.0
  0
LINE
  5
A63
330
A4B
100
AcDbEntity
  8
LW 3350-39-00
100
AcDbLine
 10
50.00000000000023
 20
-44.04000000000087
 30
0.0
 11
50.00000000000023
 21
-54.04000000000087
 31
0.0
  0
LINE
  5
A64
330
A4B
100
AcDbEntity
  8
LW 3350-39-00
100
AcDbLine
 10
45.00000000000023
 20
-44.03999999999939
 30
0.0
 11
50.00000000000046
 21
-44.04000000000087
 31
0.0
  0
LINE
  5
A65
330
A4B
100
AcDbEntity
  8
LW 3350-39-00
  6
MITTE2
 62
     3
100
AcDbLine
 10
0.0
 20
41.24999999998578
 30
0.0
 11
0.0
 21
-83.29000000001428
 31
0.0
  0
LINE
  5
A66
330
A4B
100
AcDbEntity
  8
LW 3350-39-00
  6
VERDECKT
 62
     6
 48
0.5
100
AcDbLine
 10
-8.499999999999998
 20
12.00000000000062
 30
0.0
 11
-8.499999999999998
 21
8.000000000000511
 31
0.0
  0
LINE
  5
A67
330
A4B
100
AcDbEntity
  8
LW 3350-39-00
  6
VERDECKT
 62
     6
 48
0.5
100
AcDbLine
 10
-5.5
 20
12.00000000000062
 30
0.0
 11
-5.5
 21
8.000000000000511
 31
0.0
  0
LINE
  5
A68
330
A4B
100
AcDbEntity
  8
LW 3350-39-00
  6
VERDECKT
 62
     6
 48
0.5
100
AcDbLine
 10
8.0
 20
5.900000000000545
 30
0.0
 11
8.0
 21
-11.99999999999926
 31
0.0
  0
LINE
  5
A69
330
A4B
100
AcDbEntity
  8
LW 3350-39-00
  6
VERDECKT
 62
     6
 48
0.5
100
AcDbLine
 10
7.0
 20
-12.99999999999926
 30
0.0
 11
8.0
 21
-11.99999999999926
 31
0.0
  0
HATCH
  5
A6A
330
A4B
100
AcDbEntity
  8
LW 3350-39-00
 62
     1
100
AcDbHatch
 10
0.0
 20
0.0
 30
0.0
210
0.0
220
0.0
230
1.0
  2
SOLID
 70
     1
 71
     0
 91
        5
 92
        7
 72
     0
 73
     1
 93
       76
 10
-41.66930612111627
 20
7.963256656172234
 10
-41.63744729174346
 20
8.014837618013871
 10
-41.51928916751217
 20
8.166080017029798
 10
-41.38481109229951
 20
8.306504147292343
 10
-41.23879118583795
 20
8.43488870900569
 10
-41.07512238975596
 20
8.551794991921497
 10
-40.8997354363912
 20
8.653972873743214
 10
-40.71798250379083
 20
8.745324553326099
 10
-40.53681356832521
 20
8.814842865772106
 10
-42.79395150652521
 20
8.814842865772106
 10
-43.00684805892524
 20
8.806153210572119
 10
-43.20888254232523
 20
8.780084244972158
 10
-43.40439978432527
 20
8.738808382772049
 10
-43.58905495732506
 20
8.684498037772073
 10
-43.76502047512531
 20
8.614980796172176
 10
-43.93229633772512
 20
8.532429071771957
 10
-44.08286460027215
 20
8.437103554228087
 10
-44.22557220072508
 20
8.330394588371973
 10
-44.35101345629573
 20
8.211346312132036
 10
-44.46227840837309
 20
8.083087001380135
 10
-44.56229633972521
 20
7.945877345772032
 10
-44.6448480641252
 20
7.800325621172078
 10
-44.70784806432516
 20
7.646084241371909
 10
-44.75781358172503
 20
7.485325620172034
 10
-44.78605496112504
 20
7.320222171372051
 10
-44.79474461632503
 20
7.146429067372082
 10
-44.78388254732499
 20
6.972635963371885
 10
-44.75346875412514
 20
6.805360100772077
 10
-44.69915840912494
 20
6.644601479571974
 10
-44.62964116752504
 20
6.488187685971979
 10
-44.54057220172489
 20
6.340463547571971
 10
-44.434123925525
 20
6.199256650572124
 10
-44.311425994101
 20
6.068042857051977
 10
-44.17522694539274
 20
5.946909063564135
 10
-44.02788254492498
 20
5.836463545972037
 10
-43.86712392372487
 20
5.738704924972125
 10
-43.69149730247772
 20
5.653806993668013
 10
-43.51084806052518
 20
5.580118717572077
 10
-43.319675646125
 20
5.523635958772047
 10
-43.11981357652507
 20
5.480187682772111
 10
-42.91126185172515
 20
5.45411871717215
 10
-42.70053771312518
 20
5.445429061972163
 10
-40.58136662737251
 20
5.445429061972163
 10
-40.74191049142496
 20
5.508499865707108
 10
-40.92547463522737
 20
5.599120139229853
 10
-41.09394104139755
 20
5.703649832161318
 10
-41.25677393615819
 20
5.819268070586758
 10
-41.40068630452833
 20
5.94905766712668
 10
-41.52812219801262
 20
6.088411350355272
 10
-41.64182755275601
 20
6.238899595067778
 10
-41.69379878420477
 20
6.323084237172224
 10
-42.72226185112503
 20
6.323084237171997
 10
-42.85437067913062
 20
6.330644237196111
 10
-42.98512392092516
 20
6.350978030364103
 10
-43.11329633512491
 20
6.383911823572134
 10
-43.22843426652503
 20
6.429532513372123
 10
-43.33337923237536
 20
6.486015272172153
 10
-43.43152888785948
 20
6.553620789627984
 10
-43.52171012952498
 20
6.631566996772107
 10
-43.59339978492494
 20
6.716291134972152
 10
-41.8658784706663
 20
6.716291134972152
 10
-41.87646293793932
 20
6.748926575730365
 10
-41.91257474590361
 20
6.934300523281535
 10
-41.92461839868542
 20
7.124590237232268
 10
-41.91259672625597
 20
7.319341330587349
 10
-41.8762910045807
 20
7.505710701853786
 10
-41.85969230190585
 20
7.554842861772158
 10
-43.63033081952517
 20
7.554842861772158
 10
-43.56081357792504
 20
7.650429068972016
 10
-43.47826185352505
 20
7.732980793372007
 10
-43.38317095667162
 20
7.80284562118004
 10
-43.28057219772517
 20
7.861153207572215
 10
-43.1618801973484
 20
7.905122862884127
 10
-43.03943426592513
 20
7.937187690572045
 10
-42.90257219652517
 20
7.956739414772073
 10
-42.75919288572504
 20
7.963256656172006
 97
        0
 92
        7
 72
     0
 73
     1
 93
       72
 10
-39.94084225608844
 20
7.94865803543621
 10
-39.81797922121564
 20
7.966732518252229
 10
-39.6939170139251
 20
7.971946311372221
 10
-38.42522735472517
 20
7.971946311372221
 10
-39.27246873672516
 20
7.15729113637235
 10
-37.506296317325
 20
5.438911820572229
 10
-36.18764114072519
 20
5.438911820572229
 10
-37.90167562892498
 20
7.181187688172258
 10
-36.22022734772509
 20
8.814842865772334
 10
-39.65915839312515
 20
8.814842865772106
 10
-39.86714529033725
 20
8.804067693324213
 10
-40.07386349788998
 20
8.778607003588149
 10
-40.2782963261252
 20
8.738808382772276
 10
-40.47164115432519
 20
8.682325623972246
 10
-40.65846874112525
 20
8.610635968572069
 10
-40.82962887959957
 20
8.524608382092083
 10
-40.99519288012515
 20
8.428153209372112
 10
-41.14726184612504
 20
8.31953251937216
 10
-41.28295950172833
 20
8.200223553476234
 10
-41.40795150212511
 20
8.069704932372133
 10
-41.5165721921253
 20
7.930670449172112
 10
-41.60781357172504
 20
7.782946310772331
 10
-41.67950322712522
 20
7.628704930972162
 10
-41.7338135721252
 20
7.467946309772059
 10
-41.76639977912509
 20
7.300670447172024
 10
-41.77726184812513
 20
7.124704929372001
 10
-41.76639977912509
 20
6.953084239172085
 10
-41.73381357212497
 20
6.785808376572276
 10
-41.68167564092505
 20
6.625049755372174
 10
-41.61215839932515
 20
6.470808375572232
 10
-41.5203174335163
 20
6.322041478548271
 10
-41.41493798490592
 20
6.182572512588194
 10
-41.29693246728971
 20
6.053531132868329
 10
-41.16464115652502
 20
5.934222166972176
 10
-41.0125200525938
 20
5.82620975283612
 10
-40.85398598312508
 20
5.727842855972085
 10
-40.68236529292494
 20
5.643118717772267
 10
-40.49988253372498
 20
5.571429062372089
 10
-40.30565136069458
 20
5.517379407028101
 10
-40.10884804972511
 20
5.473670441372178
 10
-39.90029632492497
 20
5.447601475772216
 10
-39.689572186325
 20
5.438911820572229
 10
-37.78653769752509
 20
5.438911820572229
 10
-38.67288252792514
 20
6.312222168172183
 10
-39.689572186325
 20
6.312222168172183
 10
-39.75623922101954
 20
6.315969461111535
 10
-39.85718694547791
 20
6.325951823388095
 10
-39.97732142861787
 20
6.347415271732188
 10
-40.09444060140345
 20
6.38173940977208
 10
-40.19593577413934
 20
6.422667685764281
 10
-40.25207094673146
 20
6.450822168612148
 10
-40.30575563655702
 20
6.48340837561227
 10
-40.43831632663319
 20
6.582731134548112
 10
-40.51191770617697
 20
6.652769755460212
 10
-40.56698405117936
 20
6.720635962572032
 10
-40.61568956857558
 20
6.793194583492095
 10
-40.65505370663163
 20
6.870358721668026
 10
-40.68447687913862
 20
6.951780790892144
 10
-40.70517563782504
 20
7.03893803254823
 10
-40.71269218957309
 20
7.128267688004143
 10
-40.71133660336181
 20
7.190572515788062
 10
-40.7053320516186
 20
7.25270355046814
 10
-40.69317522399387
 20
7.315877343772172
 10
-40.6749617066946
 20
7.377573895692194
 10
-40.63131356862527
 20
7.476288378764138
 10
-40.58978570642421
 20
7.544154585876185
 10
-40.52670749932758
 20
7.622187689572228
 10
-40.39730555896267
 20
7.748710426625848
 10
-40.33803770562508
 20
7.78876837975622
 10
-40.26174253296903
 20
7.83308562127604
 10
-40.17772225684029
 20
7.875230448996262
 10
-40.06118529095306
 20
7.918070449132301
 97
        0
 92
        7
 72
     0
 73
     1
 93
       57
 10
-35.38280527610095
 20
7.926586311228447
 10
-35.25133079292505
 20
7.966558725148388
 10
-35.11664113732513
 20
7.99367044937253
 10
-34.97326182652523
 20
8.002360104572289
 10
-33.73281354672509
 20
8.002360104572517
 10
-33.73281354672509
 20
8.827877348572428
 10
-34.96674458512507
 20
8.827877348572428
 10
-35.17746872372504
 20
8.819187693372441
 10
-35.38384803472514
 20
8.790946313972426
 10
-35.58153769052501
 20
8.749670451772317
 10
-35.77053769112513
 20
8.695360106772341
 10
-35.95519286412514
 20
8.62367045137239
 10
-36.12159976120529
 20
8.541031830420251
 10
-36.28042058929555
 20
8.444576657700281
 10
-36.43049962425471
 20
8.335087002180216
 10
-36.56505893502663
 20
8.215864932836439
 10
-36.68512390092519
 20
8.087084242772334
 10
-36.78939976332504
 20
7.948049759572313
 10
-36.87412390152508
 20
7.802498034972359
 10
-36.94581355692526
 20
7.64825665517219
 10
-36.99577907432513
 20
7.487498033972315
 10
-37.02836528132503
 20
7.320222171372506
 10
-37.03922735032506
 20
7.146429067372309
 10
-37.02836528132503
 20
6.97263596337234
 10
-36.99577907432513
 20
6.805360100772304
 10
-36.9436411431252
 20
6.644601479572202
 10
-36.87195148772503
 20
6.488187685972434
 10
-36.78505493572493
 20
6.340463547572426
 10
-36.6762083146898
 20
6.200907685060428
 10
-36.55635190051635
 20
6.070562857060394
 10
-36.41992431387621
 20
5.949255270468256
 10
-36.27236527892501
 20
5.838635959772318
 10
-36.11160665772513
 20
5.740877338772179
 10
-35.93781355372517
 20
5.656153200572362
 10
-35.75315838072493
 20
5.582291131372357
 10
-35.56198596632498
 20
5.525808372572328
 10
-35.36212389672505
 20
5.482360096572392
 10
-35.15574458572496
 20
5.458463544772257
 10
-34.94284803332494
 20
5.44977388957227
 10
-33.73281354672509
 20
5.449773889572497
 10
-33.73281354672509
 20
6.307877340572304
 10
-34.96674458512507
 20
6.307877340572304
 10
-35.10039148210103
 20
6.318218030260368
 10
-35.23264803424491
 20
6.340202857916438
 10
-35.353260448421
 20
6.37452699595633
 10
-35.469267345341
 20
6.42249389266044
 10
-35.57893079396513
 20
6.483408375612498
 10
-35.675994242549
 20
6.551013893068329
 10
-35.76341217386107
 20
6.63078492780437
 10
-35.83788251892497
 20
6.716291134972379
 10
-33.73281354672509
 20
6.716291134972379
 10
-33.73281354672509
 20
7.543980792772345
 10
-35.8748135535252
 20
7.543980792772345
 10
-35.80529631192508
 20
7.641739413772256
 10
-35.71839975992521
 20
7.730808379572181
 10
-35.61725217339699
 20
7.807103552228454
 10
-35.50984803512506
 20
7.874187690372309
 97
        0
 92
        7
 72
     0
 73
     1
 93
        6
 10
-33.50253768392509
 20
8.814842865772561
 10
-33.50253768392509
 20
5.44542906197239
 10
-31.26495146992488
 20
5.445429061972618
 10
-31.26495146992511
 20
6.312222168172638
 10
-32.47933078412507
 20
6.312222168172638
 10
-32.47933078412507
 20
8.814842865772561
 97
        0
 92
        7
 72
     0
 73
     1
 93
        8
 10
-32.24688250752524
 20
8.814842865772561
 10
-32.24688250752524
 20
7.989325621772422
 10
-31.01295146912503
 20
7.98932562177265
 10
-31.01295146912503
 20
5.438911820572457
 10
-29.98757215552496
 20
5.438911820572457
 10
-29.98757215552519
 20
7.989325621772422
 10
-28.74495146192521
 20
7.98932562177265
 10
-28.74495146192521
 20
8.814842865772561
 97
        0
 75
     0
 76
     1
 47
0.0142553043587597
 98
        5
 10
-42.35964599504995
 20
8.372393196183111
 10
-40.09214878170723
 20
8.229840211177361
 10
-35.5999370495058
 20
8.286861383725181
 10
-32.87608796567406
 20
8.529201608417679
 10
-31.46424998344742
 20
8.429414476004239
450
        0
451
        0
460
0.0
461
0.0
452
        0
462
0.0
453
        0
470

  0
LWPOLYLINE
  5
A6B
330
A4B
100
AcDbEntity
  8
LW 3350-39-00
 62
     1
100
AcDbPolyline
 90
        8
 70
     1
 43
0.0
 10
-29.98757215552519
 20
7.989325621772422
 10
-29.98757215552496
 20
5.438911820572457
 10
-31.01295146912503
 20
5.438911820572457
 10
-31.01295146912503
 20
7.98932562177265
 10
-32.24688250752524
 20
7.989325621772422
 10
-32.24688250752524
 20
8.814842865772561
 10
-28.74495146192521
 20
8.814842865772561
 10
-28.74495146192521
 20
7.98932562177265
  0
LWPOLYLINE
  5
A6C
330
A4B
100
AcDbEntity
  8
LW 3350-39-00
 62
     1
100
AcDbPolyline
 90
       73
 70
     1
 43
0.0
 10
-39.689572186325
 20
6.312222168172183
 10
-38.67288252792514
 20
6.312222168172183
 10
-37.78653769752509
 20
5.438911820572229
 10
-39.689572186325
 20
5.438911820572229
 10
-39.90029632492497
 20
5.447601475772216
 10
-40.10884804972511
 20
5.473670441372178
 10
-40.30565136069458
 20
5.517379407028101
 10
-40.49988253372498
 20
5.571429062372089
 10
-40.68236529292494
 20
5.643118717772267
 10
-40.85398598312508
 20
5.727842855972085
 10
-41.0125200525938
 20
5.82620975283612
 10
-41.16464115652502
 20
5.934222166972176
 10
-41.29693246728993
 20
6.053531132868101
 10
-41.41493798490592
 20
6.182572512588194
 10
-41.5203174335163
 20
6.322041478548271
 10
-41.61215839932515
 20
6.470808375572232
 10
-41.68167564092505
 20
6.625049755372174
 10
-41.73381357212497
 20
6.785808376572276
 10
-41.76639977912509
 20
6.953084239172085
 10
-41.77726184812513
 20
7.124704929372228
 10
-41.76639977912509
 20
7.300670447172024
 10
-41.7338135721252
 20
7.467946309772059
 10
-41.67950322712499
 20
7.628704930972162
 10
-41.60781357172504
 20
7.782946310772103
 10
-41.51657219212506
 20
7.930670449172112
 10
-41.40795150212511
 20
8.069704932372133
 10
-41.28295950172833
 20
8.200223553476234
 10
-41.14726184612528
 20
8.31953251937216
 10
-40.99519288012515
 20
8.428153209372112
 10
-40.82962887959957
 20
8.524608382092083
 10
-40.65846874112525
 20
8.610635968572069
 10
-40.47164115432519
 20
8.682325623972246
 10
-40.2782963261252
 20
8.738808382772276
 10
-40.07386349788998
 20
8.778607003588149
 10
-39.86714529033725
 20
8.804067693324213
 10
-39.65915839312515
 20
8.814842865772106
 10
-36.22022734772509
 20
8.814842865772334
 10
-37.90167562892498
 20
7.181187688172258
 10
-36.18764114072519
 20
5.438911820572229
 10
-37.506296317325
 20
5.438911820572229
 10
-39.27246873672516
 20
7.15729113637235
 10
-38.42522735472517
 20
7.971946311372221
 10
-39.6939170139251
 20
7.971946311372221
 10
-39.81797922121564
 20
7.966732518252229
 10
-39.94084225608844
 20
7.94865803543621
 10
-40.06118529095306
 20
7.918070449132301
 10
-40.17772225684029
 20
7.875230448996035
 10
-40.26174253296926
 20
7.833085621276268
 10
-40.33803770562508
 20
7.78876837975622
 10
-40.37827949885627
 20
7.761569758980158
 10
-40.41579274035462
 20
7.730634586468113
 10
-40.52670749932758
 20
7.622187689572228
 10
-40.58978570642421
 20
7.544154585876185
 10
-40.63131356862505
 20
7.476288378764138
 10
-40.6749617066946
 20
7.377573895692194
 10
-40.69317522399387
 20
7.315877343772172
 10
-40.7053320516186
 20
7.25270355046814
 10
-40.71133660336181
 20
7.190572515788289
 10
-40.71269218957309
 20
7.128267688004143
 10
-40.70517563782504
 20
7.03893803254823
 10
-40.68447687913862
 20
6.951780790892144
 10
-40.6550537066314
 20
6.870358721668253
 10
-40.61568956857558
 20
6.793194583492095
 10
-40.56698405117958
 20
6.720635962572259
 10
-40.51191770617697
 20
6.652769755460212
 10
-40.43831632663319
 20
6.582731134548112
 10
-40.30575563655702
 20
6.48340837561227
 10
-40.25207094673146
 20
6.450822168612148
 10
-40.19593577413934
 20
6.422667685764281
 10
-40.09444060140345
 20
6.38173940977208
 10
-39.97732142861787
 20
6.347415271732188
 10
-39.85718694547791
 20
6.325951823388095
 10
-39.75623922101954
 20
6.315969461111535
  0
LWPOLYLINE
  5
A6D
330
A4B
100
AcDbEntity
  8
LW 3350-39-00
 62
     1
100
AcDbPolyline
 90
       76
 70
     1
 43
0.0
 10
-40.8997354363912
 20
8.653972873743214
 10
-41.07512238975596
 20
8.551794991921497
 10
-41.23879118583795
 20
8.43488870900569
 10
-41.38481109229951
 20
8.306504147292343
 10
-41.51928916751217
 20
8.166080017029798
 10
-41.63744729174346
 20
8.014837618013871
 10
-41.66930612111627
 20
7.963256656172234
 10
-42.75919288572504
 20
7.963256656172234
 10
-42.90257219652517
 20
7.956739414772073
 10
-43.03943426592513
 20
7.937187690572045
 10
-43.1618801973484
 20
7.905122862884127
 10
-43.28057219772517
 20
7.861153207572215
 10
-43.38317095667139
 20
7.80284562118004
 10
-43.47826185352505
 20
7.732980793372007
 10
-43.56081357792527
 20
7.650429068972016
 10
-43.63033081952517
 20
7.554842861772158
 10
-41.85969230190585
 20
7.554842861772158
 10
-41.8762910045807
 20
7.505710701853786
 10
-41.91259672625619
 20
7.319341330587121
 10
-41.92461839868542
 20
7.124590237232268
 10
-41.91257474590361
 20
6.934300523281535
 10
-41.8764629379391
 20
6.748926575730592
 10
-41.8658784706663
 20
6.716291134972152
 10
-43.59339978492494
 20
6.716291134972152
 10
-43.52171012952498
 20
6.631566996772107
 10
-43.43152888785948
 20
6.553620789627984
 10
-43.33337923237536
 20
6.486015272172153
 10
-43.22843426652503
 20
6.429532513372123
 10
-43.11329633512491
 20
6.383911823572134
 10
-42.98512392092516
 20
6.350978030364103
 10
-42.85437067913062
 20
6.330644237196111
 10
-42.72226185112503
 20
6.323084237171997
 10
-41.69379878420477
 20
6.323084237172224
 10
-41.64182755275601
 20
6.238899595067778
 10
-41.52812219801262
 20
6.088411350355272
 10
-41.40068630452833
 20
5.94905766712668
 10
-41.25677393615819
 20
5.819268070586986
 10
-41.09394104139755
 20
5.703649832161318
 10
-40.92547463522737
 20
5.599120139229853
 10
-40.74191049142496
 20
5.508499865707108
 10
-40.58136662737251
 20
5.445429061972163
 10
-42.70053771312496
 20
5.445429061971935
 10
-42.91126185172515
 20
5.45411871717215
 10
-43.11981357652507
 20
5.480187682772111
 10
-43.319675646125
 20
5.523635958772047
 10
-43.51084806052495
 20
5.580118717572077
 10
-43.69149730247795
 20
5.653806993668013
 10
-43.86712392372487
 20
5.738704924972125
 10
-44.02788254492498
 20
5.836463545972037
 10
-44.17522694539274
 20
5.946909063564135
 10
-44.311425994101
 20
6.068042857051977
 10
-44.434123925525
 20
6.199256650572124
 10
-44.54057220172512
 20
6.340463547571971
 10
-44.62964116752504
 20
6.488187685971979
 10
-44.69915840912494
 20
6.644601479571974
 10
-44.75346875412514
 20
6.805360100772077
 10
-44.78388254732499
 20
6.972635963372113
 10
-44.79474461632503
 20
7.146429067372082
 10
-44.78605496112527
 20
7.320222171372051
 10
-44.75781358172503
 20
7.485325620172034
 10
-44.70784806432516
 20
7.646084241371909
 10
-44.6448480641252
 20
7.800325621172078
 10
-44.56229633972521
 20
7.945877345772032
 10
-44.46227840837309
 20
8.083087001380135
 10
-44.35101345629573
 20
8.211346312132036
 10
-44.22557220072508
 20
8.330394588371973
 10
-44.08286460027215
 20
8.437103554228087
 10
-43.93229633772512
 20
8.532429071772185
 10
-43.76502047512508
 20
8.614980796171948
 10
-43.58905495732506
 20
8.684498037772073
 10
-43.40439978432505
 20
8.738808382772049
 10
-43.20888254232523
 20
8.780084244972158
 10
-43.00684805892524
 20
8.806153210572119
 10
-42.79395150652521
 20
8.814842865772106
 10
-40.53681356832498
 20
8.814842865772334
 10
-40.71798250379083
 20
8.745324553326099
  0
LWPOLYLINE
  5
A6E
330
A4B
100
AcDbEntity
  8
LW 3350-39-00
 62
     1
100
AcDbPolyline
 90
        6
 70
     1
 43
0.0
 10
-31.26495146992488
 20
5.445429061972618
 10
-33.50253768392509
 20
5.44542906197239
 10
-33.50253768392509
 20
8.814842865772561
 10
-32.47933078412507
 20
8.814842865772561
 10
-32.47933078412507
 20
6.312222168172638
 10
-31.26495146992511
 20
6.312222168172638
  0
LWPOLYLINE
  5
A6F
330
A4B
100
AcDbEntity
  8
LW 3350-39-00
 62
     1
100
AcDbPolyline
 90
       57
 70
     1
 43
0.0
 10
-36.55635190051635
 20
6.070562857060394
 10
-36.6762083146898
 20
6.200907685060201
 10
-36.78505493572516
 20
6.340463547572198
 10
-36.87195148772503
 20
6.488187685972434
 10
-36.9436411431252
 20
6.644601479572202
 10
-36.99577907432513
 20
6.805360100772304
 10
-37.02836528132503
 20
6.97263596337234
 10
-37.03922735032506
 20
7.146429067372309
 10
-37.02836528132503
 20
7.320222171372279
 10
-36.99577907432513
 20
7.487498033972315
 10
-36.94581355692526
 20
7.64825665517219
 10
-36.87412390152508
 20
7.802498034972359
 10
-36.78939976332527
 20
7.948049759572313
 10
-36.68512390092519
 20
8.087084242772334
 10
-36.56505893502686
 20
8.215864932836211
 10
-36.43049962425471
 20
8.335087002180216
 10
-36.28042058929555
 20
8.444576657700281
 10
-36.12159976120506
 20
8.541031830420479
 10
-35.95519286412514
 20
8.62367045137239
 10
-35.77053769112513
 20
8.695360106772341
 10
-35.58153769052501
 20
8.749670451772317
 10
-35.38384803472514
 20
8.790946313972426
 10
-35.17746872372504
 20
8.819187693372441
 10
-34.96674458512507
 20
8.827877348572428
 10
-33.73281354672509
 20
8.827877348572428
 10
-33.73281354672509
 20
8.002360104572517
 10
-34.973261826525
 20
8.002360104572289
 10
-35.11664113732513
 20
7.993670449372302
 10
-35.25133079292505
 20
7.966558725148388
 10
-35.38280527610118
 20
7.926586311228447
 10
-35.50984803512506
 20
7.874187690372309
 10
-35.61725217339699
 20
7.807103552228454
 10
-35.71839975992521
 20
7.730808379572408
 10
-35.80529631192508
 20
7.641739413772256
 10
-35.8748135535252
 20
7.543980792772345
 10
-33.73281354672509
 20
7.543980792772345
 10
-33.73281354672509
 20
6.716291134972379
 10
-35.83788251892497
 20
6.716291134972379
 10
-35.76341217386107
 20
6.63078492780437
 10
-35.675994242549
 20
6.551013893068329
 10
-35.57893079396513
 20
6.483408375612498
 10
-35.469267345341
 20
6.42249389266044
 10
-35.353260448421
 20
6.37452699595633
 10
-35.23264803424491
 20
6.340202857916438
 10
-35.10039148210103
 20
6.318218030260368
 10
-34.96674458512507
 20
6.307877340572304
 10
-33.73281354672509
 20
6.307877340572304
 10
-33.73281354672509
 20
5.449773889572497
 10
-34.94284803332494
 20
5.44977388957227
 10
-35.15574458572496
 20
5.458463544772257
 10
-35.36212389672505
 20
5.482360096572392
 10
-35.56198596632498
 20
5.525808372572328
 10
-35.75315838072493
 20
5.582291131372357
 10
-35.93781355372517
 20
5.656153200572362
 10
-36.11160665772513
 20
5.740877338772406
 10
-36.27236527892501
 20
5.838635959772318
 10
-36.41992431387621
 20
5.949255270468256
  0
INSERT
  5
A70
330
A4B
100
AcDbEntity
  8
LW 3350-39-00
100
AcDbBlockReference
 66
     1
  2
insertpoint-ECKELT
 10
0.0
 20
0.0
 30
0.0
  0
ATTRIB
  5
A71
330
A70
100
AcDbEntity
  8
insertpoint_ECKELT
100
AcDbText
 10
-8.699999999999818
 20
0.0
 30
0.0
 40
0.6
  1
LW 3350/39-00
 72
     2
 11
-1.199999999999818
 21
0.0
 31
0.0
100
AcDbAttribute
  2
LINKS
 70
     0
  0
ATTRIB
  5
A72
330
A70
100
AcDbEntity
  8
insertpoint_ECKELT
100
AcDbText
 10
1.199999999999818
 20
0.0
 30
0.0
 40
0.6
  1

100
AcDbAttribute
  2
RECHTS
 70
     0
  0
SEQEND
  5
A73
330
A70
100
AcDbEntity
  8
LW 3350-39-00
  0
INSERT
  5
A74
330
A4B
100
AcDbEntity
  8
LW 3350-39-00
100
AcDbBlockReference
 66
     1
  2
insertpoint-ECKELT
 10
0.0
 20
-42.04000000000007
 30
0.0
  0
ATTRIB
  5
A75
330
A74
100
AcDbEntity
  8
insertpoint_ECKELT
100
AcDbText
 10
-8.699999999999818
 20
-42.04000000000007
 30
0.0
 40
0.6
  1
LW 3350/39-00
 72
     2
 11
-1.199999999999818
 21
-42.04000000000007
 31
0.0
100
AcDbAttribute
  2
LINKS
 70
     0
  0
ATTRIB
  5
A76
330
A74
100
AcDbEntity
  8
insertpoint_ECKELT
100
AcDbText
 10
1.199999999999818
 20
-42.04000000000007
 30
0.0
 40
0.6
  1

100
AcDbAttribute
  2
RECHTS
 70
     0
  0
SEQEND
  5
A77
330
A74
100
AcDbEntity
  8
LW 3350-39-00
  0
LINE
  5
A78
330
A4B
100
AcDbEntity
  8
LW 3350-39-00
  6
VERDECKT
 62
     6
 48
0.5
100
AcDbLine
 10
14.1
 20
12.00000000000057
 30
0.0
 11
7.999999999999988
 21
5.900000000000545
 31
0.0
  0
LINE
  5
A79
330
A4B
100
AcDbEntity
  8
LW 3350-39-00
  6
VERDECKT
 62
     6
 48
0.5
100
AcDbLine
 10
-8.0
 20
5.900000000000545
 30
0.0
 11
-8.000000000000001
 21
-11.99999999999937
 31
0.0
  0
LINE
  5
A7A
330
A4B
100
AcDbEntity
  8
LW 3350-39-00
  6
VERDECKT
 62
     6
 48
0.5
100
AcDbLine
 10
-14.1
 20
12.00000000000057
 30
0.0
 11
-7.999999999999989
 21
5.900000000000545
 31
0.0
  0
LINE
  5
A7B
330
A4B
100
AcDbEntity
  8
LW 3350-39-00
  6
VERDECKT
 62
     6
 48
0.5
100
AcDbLine
 10
8.0
 20
5.900000000000545
 30
0.0
 11
-7.999999999999989
 21
5.900000000000545
 31
0.0
  0
LINE
  5
A7C
330
A4B
100
AcDbEntity
  8
LW 3350-39-00
  6
VERDECKT
 62
     6
100
AcDbLine
 10
-6.999999999999992
 20
7.133974596216091
 30
0.0
 11
-5.500000000000007
 21
8.000000000000511
 31
0.0
  0
LINE
  5
A7D
330
A4B
100
AcDbEntity
  8
LW 3350-39-00
  6
VERDECKT
 62
     6
100
AcDbLine
 10
-7.000000000000007
 20
7.133974596216091
 30
0.0
 11
-8.499999999999992
 21
8.000000000000511
 31
0.0
  0
LINE
  5
A7E
330
A4B
100
AcDbEntity
  8
LW 3350-39-00
  6
VERDECKT
 62
     6
 48
0.5
100
AcDbLine
 10
5.499999999999998
 20
8.000000000000511
 30
0.0
 11
8.499999999999996
 21
8.000000000000511
 31
0.0
  0
LINE
  5
A7F
330
A4B
100
AcDbEntity
  8
LW 3350-39-00
  6
VERDECKT
 62
     6
 48
0.5
100
AcDbLine
 10
8.499999999999996
 20
12.00000000000062
 30
0.0
 11
8.499999999999996
 21
8.000000000000511
 31
0.0
  0
LINE
  5
A80
330
A4B
100
AcDbEntity
  8
LW 3350-39-00
  6
VERDECKT
 62
     6
 48
0.5
100
AcDbLine
 10
5.499999999999999
 20
12.00000000000062
 30
0.0
 11
5.5
 21
8.000000000000511
 31
0.0
  0
LINE
  5
A81
330
A4B
100
AcDbEntity
  8
LW 3350-39-00
  6
VERDECKT
 62
     6
100
AcDbLine
 10
6.99999999999999
 20
7.133974596216091
 30
0.0
 11
5.500000000000006
 21
8.000000000000511
 31
0.0
  0
LINE
  5
A82
330
A4B
100
AcDbEntity
  8
LW 3350-39-00
  6
VERDECKT
 62
     6
100
AcDbLine
 10
7.000000000000006
 20
7.133974596216091
 30
0.0
 11
8.499999999999991
 21
8.000000000000511
 31
0.0
  0
LINE
  5
A83
330
A4B
100
AcDbEntity
  8
LW 3350-39-00
  6
VERDECKT
 62
     6
 48
0.5
100
AcDbLine
 10
7.0
 20
-12.99999999999926
 30
0.0
 11
-7.000000000000001
 21
-12.99999999999937
 31
0.0
  0
LINE
  5
A84
330
A4B
100
AcDbEntity
  8
LW 3350-39-00
  6
VERDECKT
 62
     6
100
AcDbLine
 10
-8.000000000000001
 20
-11.99999999999937
 30
0.0
 11
-7.000000000000001
 21
-12.99999999999937
 31
0.0
  0
LINE
  5
A85
330
A4B
100
AcDbEntity
  8
LW 3350-39-00
  6
VERDECKT
 62
     6
 48
0.5
100
AcDbLine
 10
-8.000000000000001
 20
-11.99999999999937
 30
0.0
 11
8.0
 21
-11.99999999999937
 31
0.0
  0
LINE
  5
A86
330
A4B
100
AcDbEntity
  8
LW 3350-39-00
  6
VERDECKT
 62
     6
 48
0.5
100
AcDbLine
 10
7.0
 20
-12.99999999999926
 30
0.0
 11
7.0
 21
5.900000000000545
 31
0.0
  0
LINE
  5
A87
330
A4B
100
AcDbEntity
  8
LW 3350-39-00
  6
VERDECKT
 62
     6
 48
0.5
100
AcDbLine
 10
-7.000000000000001
 20
-12.99999999999937
 30
0.0
 11
-7.0
 21
5.900000000000545
 31
0.0
  0
LINE
  5
A88
330
A4B
100
AcDbEntity
  8
LW 3350-39-00
  6
VERDECKT
 62
     6
 48
0.5
100
AcDbLine
 10
-5.499999999999999
 20
-50.04000000000235
 30
0.0
 11
-8.499999999999998
 21
-50.04000000000235
 31
0.0
  0
LINE
  5
A89
330
A4B
100
AcDbEntity
  8
LW 3350-39-00
  6
VERDECKT
 62
     6
 48
0.5
100
AcDbLine
 10
-8.499999999999998
 20
-54.04000000000252
 30
0.0
 11
-8.499999999999998
 21
-50.04000000000235
 31
0.0
  0
LINE
  5
A8A
330
A4B
100
AcDbEntity
  8
LW 3350-39-00
  6
VERDECKT
 62
     6
 48
0.5
100
AcDbLine
 10
-5.5
 20
-54.04000000000252
 30
0.0
 11
-5.5
 21
-50.04000000000235
 31
0.0
  0
LINE
  5
A8B
330
A4B
100
AcDbEntity
  8
LW 3350-39-00
  6
VERDECKT
 62
     6
 48
0.5
100
AcDbLine
 10
8.0
 20
-47.94000000000238
 30
0.0
 11
8.0
 21
-30.04000000000258
 31
0.0
  0
LINE
  5
A8C
330
A4B
100
AcDbEntity
  8
LW 3350-39-00
  6
VERDECKT
 62
     6
 48
0.5
100
AcDbLine
 10
7.0
 20
-29.04000000000258
 30
0.0
 11
8.0
 21
-30.04000000000258
 31
0.0
  0
LINE
  5
A8D
330
A4B
100
AcDbEntity
  8
LW 3350-39-00
  6
VERDECKT
 62
     6
 48
0.5
100
AcDbLine
 10
14.1
 20
-54.04000000000246
 30
0.0
 11
7.999999999999988
 21
-47.94000000000238
 31
0.0
  0
LINE
  5
A8E
330
A4B
100
AcDbEntity
  8
LW 3350-39-00
  6
VERDECKT
 62
     6
 48
0.5
100
AcDbLine
 10
-8.0
 20
-47.94000000000238
 30
0.0
 11
-8.000000000000001
 21
-30.04000000000246
 31
0.0
  0
LINE
  5
A8F
330
A4B
100
AcDbEntity
  8
LW 3350-39-00
  6
VERDECKT
 62
     6
 48
0.5
100
AcDbLine
 10
-14.1
 20
-54.04000000000246
 30
0.0
 11
-7.999999999999989
 21
-47.94000000000238
 31
0.0
  0
LINE
  5
A90
330
A4B
100
AcDbEntity
  8
LW 3350-39-00
  6
VERDECKT
 62
     6
 48
0.5
100
AcDbLine
 10
8.0
 20
-47.94000000000238
 30
0.0
 11
-7.999999999999989
 21
-47.94000000000238
 31
0.0
  0
LINE
  5
A91
330
A4B
100
AcDbEntity
  8
LW 3350-39-00
  6
VERDECKT
 62
     6
100
AcDbLine
 10
-6.999999999999992
 20
-49.17397459621793
 30
0.0
 11
-5.500000000000007
 21
-50.04000000000235
 31
0.0
  0
LINE
  5
A92
330
A4B
100
AcDbEntity
  8
LW 3350-39-00
  6
VERDECKT
 62
     6
100
AcDbLine
 10
-7.000000000000007
 20
-49.17397459621793
 30
0.0
 11
-8.499999999999992
 21
-50.04000000000235
 31
0.0
  0
LINE
  5
A93
330
A4B
100
AcDbEntity
  8
LW 3350-39-00
  6
VERDECKT
 62
     6
 48
0.5
100
AcDbLine
 10
5.499999999999998
 20
-50.04000000000235
 30
0.0
 11
8.499999999999996
 21
-50.04000000000235
 31
0.0
  0
LINE
  5
A94
330
A4B
100
AcDbEntity
  8
LW 3350-39-00
  6
VERDECKT
 62
     6
 48
0.5
100
AcDbLine
 10
8.499999999999996
 20
-54.04000000000252
 30
0.0
 11
8.499999999999996
 21
-50.04000000000235
 31
0.0
  0
LINE
  5
A95
330
A4B
100
AcDbEntity
  8
LW 3350-39-00
  6
VERDECKT
 62
     6
 48
0.5
100
AcDbLine
 10
5.499999999999999
 20
-54.04000000000252
 30
0.0
 11
5.5
 21
-50.04000000000235
 31
0.0
  0
LINE
  5
A96
330
A4B
100
AcDbEntity
  8
LW 3350-39-00
  6
VERDECKT
 62
     6
100
AcDbLine
 10
6.99999999999999
 20
-49.17397459621793
 30
0.0
 11
5.500000000000006
 21
-50.04000000000235
 31
0.0
  0
LINE
  5
A97
330
A4B
100
AcDbEntity
  8
LW 3350-39-00
  6
VERDECKT
 62
     6
100
AcDbLine
 10
7.000000000000006
 20
-49.17397459621793
 30
0.0
 11
8.499999999999991
 21
-50.04000000000235
 31
0.0
  0
LINE
  5
A98
330
A4B
100
AcDbEntity
  8
LW 3350-39-00
  6
VERDECKT
 62
     6
 48
0.5
100
AcDbLine
 10
7.0
 20
-29.04000000000258
 30
0.0
 11
-7.000000000000001
 21
-29.04000000000247
 31
0.0
  0
LINE
  5
A99
330
A4B
100
AcDbEntity
  8
LW 3350-39-00
  6
VERDECKT
 62
     6
100
AcDbLine
 10
-8.000000000000001
 20
-30.04000000000246
 30
0.0
 11
-7.000000000000001
 21
-29.04000000000247
 31
0.0
  0
LINE
  5
A9A
330
A4B
100
AcDbEntity
  8
LW 3350-39-00
  6
VERDECKT
 62
     6
 48
0.5
100
AcDbLine
 10
-8.000000000000001
 20
-30.04000000000246
 30
0.0
 11
8.0
 21
-30.04000000000246
 31
0.0
  0
LINE
  5
A9B
330
A4B
100
AcDbEntity
  8
LW 3350-39-00
  6
VERDECKT
 62
     6
 48
0.5
100
AcDbLine
 10
7.0
 20
-29.04000000000258
 30
0.0
 11
7.0
 21
-47.94000000000238
 31
0.0
  0
LINE
  5
A9C
330
A4B
100
AcDbEntity
  8
LW 3350-39-00
  6
VERDECKT
 62
     6
 48
0.5
100
AcDbLine
 10
-7.000000000000001
 20
-29.04000000000247
 30
0.0
 11
-7.0
 21
-47.94000000000238
 31
0.0
  0
ENDBLK
  5
A4D
330
A4B
100
AcDbEntity
  8
0
100
AcDbBlockEnd
  0
ENDSEC
  0
SECTION
  2
ENTITIES
  0
INSERT
  5
A4A
330
1F
100
AcDbEntity
  8
0
100
AcDbBlockReference
  2
LW 3350-39-00_a
 10
0.0
 20
0.0
 30
0.0
  0
INSERT
  5
A9D
330
1F
100
AcDbEntity
  8
0
100
AcDbBlockReference
  2
LW 3350-39-00_b
 10
0.0
 20
-329.690051578465
 30
0.0
  0
ENDSEC
  0
SECTION
  2
OBJECTS
  0
DICTIONARY
  5
C
330
0
100
AcDbDictionary
281
     1
  3
ACAD_COLOR
350
6B
  3
ACAD_GROUP
350
D
  3
ACAD_LAYOUT
350
1A
  3
ACAD_MATERIAL
350
6A
  3
ACAD_MLINESTYLE
350
17
  3
ACAD_PLOTSETTINGS
350
19
  3
ACAD_PLOTSTYLENAME
350
E
  3
ACAD_TABLESTYLE
350
7E
  3
AcDbVariableDictionary
350
5E
  0
DICTIONARY
  5
34B
330
2
100
AcDbDictionary
280
     1
281
     1
  3
ACAD_LAYERFILTERS
360
A13
  3
ACLYDICTIONARY
360
A12
  0
DICTIONARY
  5
492
330
1F
100
AcDbDictionary
280
     1
281
     1
  3
ACAD_SORTENTS
360
493
  0
DICTIONARY
  5
F0
330
EF
100
AcDbDictionary
280
     1
281
     1
  3
ACAD_SORTENTS
360
F1
  0
DICTIONARY
  5
6B
102
{ACAD_REACTORS
330
C
102
}
330
C
100
AcDbDictionary
281
     1
  0
DICTIONARY
  5
D
102
{ACAD_REACTORS
330
C
102
}
330
C
100
AcDbDictionary
281
     1
  0
DICTIONARY
  5
1A
102
{ACAD_REACTORS
330
C
102
}
330
C
100
AcDbDictionary
281
     1
  3
Layout1
350
D3
  3
Layout2
350
D7
  3
Model
350
22
  0
DICTIONARY
  5
6A
102
{ACAD_REACTORS
330
C
102
}
330
C
100
AcDbDictionary
281
     1
  0
DICTIONARY
  5
17
102
{ACAD_REACTORS
330
C
102
}
330
C
100
AcDbDictionary
281
     1
  3
Standard
350
18
  0
DICTIONARY
  5
19
102
{ACAD_REACTORS
330
C
102
}
330
C
100
AcDbDictionary
281
     1
  0
ACDBDICTIONARYWDFLT
  5
E
102
{ACAD_REACTORS
330
C
102
}
330
C
100
AcDbDictionary
281
     1
  3
Normal
350
F
100
AcDbDictionaryWithDefault
340
F
  0
DICTIONARY
  5
7E
102
{ACAD_REACTORS
330
C
102
}
330
C
100
AcDbDictionary
281
     1
  3
Standard
350
7F
  0
DICTIONARY
  5
5E
102
{ACAD_REACTORS
330
C
102
}
330
C
100
AcDbDictionary
281
     1
  3
CTABLESTYLE
350
84
  3
DIMASSOC
350
5F
  3
HIDETEXT
350
63
  3
PROJECTNAME
350
694
  0
DICTIONARY
  5
A13
102
{ACAD_REACTORS
330
34B
102
}
330
34B
100
AcDbDictionary
281
     1
  0
DICTIONARY
  5
A12
102
{ACAD_REACTORS
330
34B
102
}
330
34B
100
AcDbDictionary
281
     1
1001
ACAD
1000
<All
  0
SORTENTSTABLE
  5
493
102
{ACAD_REACTORS
330
492
102
}
330
492
100
AcDbSortentsTable
330
1F
  0
SORTENTSTABLE
  5
F1
102
{ACAD_REACTORS
330
F0
102
}
330
F0
100
AcDbSortentsTable
330
EF
  0
LAYOUT
  5
D3
102
{ACAD_REACTORS
330
1A
102
}
330
1A
100
AcDbPlotSettings
  1

  2
C:\Documents and Settings\basas\Application Data\Autodesk\AutoCAD 2005\R16.1\enu\plotters\Default Windows System Printer.pc3
  4

  6

 40
0.0
 41
0.0
 42
0.0
 43
0.0
 44
0.0
 45
0.0
 46
0.0
 47
0.0
 48
0.0
 49
0.0
140
0.0
141
0.0
142
1.0
143
1.0
 70
   688
 72
     0
 73
     0
 74
     5
  7

 75
    16
147
1.0
 76
     0
 77
     2
 78
   300
148
0.0
149
0.0
100
AcDbLayout
  1
Layout1
 70
     1
 71
     1
 10
0.0
 20
0.0
 11
12.0
 21
9.0
 12
0.0
 22
0.0
 32
0.0
 14
0.0
 24
0.0
 34
0.0
 15
0.0
 25
0.0
 35
0.0
146
0.0
 13
0.0
 23
0.0
 33
0.0
 16
1.0
 26
0.0
 36
0.0
 17
0.0
 27
1.0
 37
0.0
 76
     0
330
D2
  0
LAYOUT
  5
D7
102
{ACAD_REACTORS
330
1A
102
}
330
1A
100
AcDbPlotSettings
  1

  2
C:\Documents and Settings\basas\Application Data\Autodesk\AutoCAD 2005\R16.1\enu\plotters\Default Windows System Printer.pc3
  4

  6

 40
0.0
 41
0.0
 42
0.0
 43
0.0
 44
0.0
 45
0.0
 46
0.0
 47
0.0
 48
0.0
 49
0.0
140
0.0
141
0.0
142
1.0
143
1.0
 70
   688
 72
     0
 73
     0
 74
     5
  7

 75
    16
147
1.0
 76
     0
 77
     2
 78
   300
148
0.0
149
0.0
100
AcDbLayout
  1
Layout2
 70
     1
 71
     2
 10
0.0
 20
0.0
 11
12.0
 21
9.0
 12
0.0
 22
0.0
 32
0.0
 14
0.0
 24
0.0
 34
0.0
 15
0.0
 25
0.0
 35
0.0
146
0.0
 13
0.0
 23
0.0
 33
0.0
 16
1.0
 26
0.0
 36
0.0
 17
0.0
 27
1.0
 37
0.0
 76
     0
330
D6
  0
LAYOUT
  5
22
102
{ACAD_REACTORS
330
1A
102
}
330
1A
100
AcDbPlotSettings
  1

  2
none_device
  4
ISO_A4_(210.00_x_297.00_MM)
  6

 40
7.5
 41
20.0
 42
7.5
 43
20.0
 44
210.0
 45
297.0
 46
11.54999923706054
 47
-13.65000009536743
 48
0.0
 49
0.0
140
0.0
141
0.0
142
1.0
143
8.704084754739808
 70
 11952
 72
     1
 73
     0
 74
     0
  7

 75
     0
147
0.1148885871608098
 76
     0
 77
     2
 78
   300
148
0.0
149
0.0
100
AcDbLayout
  1
Model
 70
     1
 71
     0
 10
0.0
 20
0.0
 11
12.0
 21
9.0
 12
0.0
 22
0.0
 32
0.0
 14
0.0
 24
0.0
 34
0.0
 15
0.0
 25
0.0
 35
0.0
146
0.0
 13
0.0
 23
0.0
 33
0.0
 16
1.0
 26
0.0
 36
0.0
 17
0.0
 27
1.0
 37
0.0
 76
     0
330
1F
1001
ACAD_PSEXT
1000
None
1000
None
1000
Not applicable
1000
The layout will not be plotted unless a new plotter configuration name is selected.
1070
     0
  0
MLINESTYLE
  5
18
102
{ACAD_REACTORS
330
17
102
}
330
17
100
AcDbMlineStyle
  2
STANDARD
 70
     0
  3

 62
   256
 51
90.0
 52
90.0
 71
     2
 49
0.5
 62
   256
  6
BYLAYER
 49
-0.5
 62
   256
  6
BYLAYER
  0
ACDBPLACEHOLDER
  5
F
102
{ACAD_REACTORS
330
E
102
}
330
E
  0
TABLESTYLE
  5
7F
102
{ACAD_REACTORS
330
7E
102
}
330
7E
100
AcDbTableStyle
  3
Standard
 70
     0
 71
     0
 40
1.5
 41
1.5
280
     0
281
     0
  7
Standard
140
4.5
170
     2
 62
     0
 63
     7
283
     0
274
    -2
284
     1
 64
     0
275
    -2
285
     1
 65
     0
276
    -2
286
     1
 66
     0
277
    -2
287
     1
 67
     0
278
    -2
288
     1
 68
     0
279
    -2
289
     1
 69
     0
  7
Standard
140
6.0
170
     5
 62
     0
 63
     7
283
     0
274
    -2
284
     1
 64
     0
275
    -2
285
     1
 65
     0
276
    -2
286
     1
 66
     0
277
    -2
287
     1
 67
     0
278
    -2
288
     1
 68
     0
279
    -2
289
     1
 69
     0
  7
Standard
140
4.5
170
     5
 62
     0
 63
     7
283
     0
274
    -2
284
     1
 64
     0
275
    -2
285
     1
 65
     0
276
    -2
286
     1
 66
     0
277
    -2
287
     1
 67
     0
278
    -2
288
     1
 68
     0
279
    -2
289
     1
 69
     0
  0
DICTIONARYVAR
  5
84
102
{ACAD_REACTORS
330
5E
102
}
330
5E
100
DictionaryVariables
280
     0
  1
STANDARD
  0
DICTIONARYVAR
  5
5F
102
{ACAD_REACTORS
330
5E
102
}
330
5E
100
DictionaryVariables
280
     0
  1
2
  0
DICTIONARYVAR
  5
63
102
{ACAD_REACTORS
330
5E
102
}
330
5E
100
DictionaryVariables
280
     0
  1
1
  0
DICTIONARYVAR
  5
694
102
{ACAD_REACTORS
330
5E
102
}
330
5E
100
DictionaryVariables
280
     0
  1

  0
ENDSEC
  0
EOF
