  0
SECTION
  2
HEADER
  9
$ACADVER
  1
AC1018
  9
$ACADMAINTVER
 70
    76
  9
$DWGCODEPAGE
  3
ANSI_1252
  9
$AUTHOR
  1
Grandl
  9
$CUSTOMPROPERTYTAG
  1
Manager
  9
$CUSTOMPROPERTY
  1

  9
$CUSTOMPROPERTYTAG
  1
Firma
  9
$CUSTOMPROPERTY
  1

  9
$CUSTOMPROPERTYTAG
  1
Kategorie
  9
$CUSTOMPROPERTY
  1

  9
$CUSTOMPROPERTYTAG
  1
Bauteilnummer
  9
$CUSTOMPROPERTY
  1
3500-19-01
  9
$CUSTOMPROPERTYTAG
  1
Bezeichnung
  9
$CUSTOMPROPERTY
  1

  9
$CUSTOMPROPERTYTAG
  1
Projekt
  9
$CUSTOMPROPERTY
  1

  9
$CUSTOMPROPERTYTAG
  1
Konstrukteur
  9
$CUSTOMPROPERTY
  1
Grandl
  9
$CUSTOMPROPERTYTAG
  1
Ingenieur
  9
$CUSTOMPROPERTY
  1

  9
$CUSTOMPROPERTYTAG
  1
Bevollmächtigter
  9
$CUSTOMPROPERTY
  1

  9
$CUSTOMPROPERTYTAG
  1
Kostenstelle
  9
$CUSTOMPROPERTY
  1

  9
$CUSTOMPROPERTYTAG
  1
Händler
  9
$CUSTOMPROPERTY
  1

  9
$CUSTOMPROPERTYTAG
  1
Benutzerstatus
  9
$CUSTOMPROPERTY
  1

  9
$CUSTOMPROPERTYTAG
  1
Konstruktionsstatus
  9
$CUSTOMPROPERTY
  1
InBearbeitung
  9
$CUSTOMPROPERTYTAG
  1
Überprüft von
  9
$CUSTOMPROPERTY
  1

  9
$CUSTOMPROPERTYTAG
  1
Konstruktion genehmigt von
  9
$CUSTOMPROPERTY
  1

  9
$CUSTOMPROPERTYTAG
  1
Fertigung genehmigt von
  9
$CUSTOMPROPERTY
  1

  9
$INSBASE
 10
0.0
 20
0.0
 30
0.0
  9
$EXTMIN
 10
-162.7535614092827
 20
134.9540042318398
 30
0.0
  9
$EXTMAX
 10
703.0339006570596
 20
510.0253038409424
 30
0.0
  9
$LIMMIN
 10
0.0
 20
0.0
  9
$LIMMAX
 10
840.0
 20
594.0
  9
$ORTHOMODE
 70
     1
  9
$REGENMODE
 70
     1
  9
$FILLMODE
 70
     1
  9
$QTEXTMODE
 70
     0
  9
$MIRRTEXT
 70
     0
  9
$LTSCALE
 40
2.0
  9
$ATTMODE
 70
     1
  9
$TEXTSIZE
 40
0.2
  9
$TRACEWID
 40
0.05
  9
$TEXTSTYLE
  7
Standard
  9
$CLAYER
  8
0
  9
$CELTYPE
  6
ByLayer
  9
$CECOLOR
 62
   256
  9
$CELTSCALE
 40
1.0
  9
$DISPSILH
 70
     0
  9
$DIMSCALE
 40
1.0
  9
$DIMASZ
 40
1.799999999999999
  9
$DIMEXO
 40
0.0625
  9
$DIMDLI
 40
0.38
  9
$DIMRND
 40
0.0
  9
$DIMDLE
 40
0.0
  9
$DIMEXE
 40
0.18
  9
$DIMTP
 40
0.0
  9
$DIMTM
 40
0.0
  9
$DIMTXT
 40
0.3000000119209289
  9
$DIMCEN
 40
0.09
  9
$DIMTSZ
 40
0.0
  9
$DIMTOL
 70
     0
  9
$DIMLIM
 70
     0
  9
$DIMTIH
 70
     1
  9
$DIMTOH
 70
     1
  9
$DIMSE1
 70
     0
  9
$DIMSE2
 70
     0
  9
$DIMTAD
 70
     0
  9
$DIMZIN
 70
     0
  9
$DIMBLK
  1

  9
$DIMASO
 70
     1
  9
$DIMSHO
 70
     1
  9
$DIMPOST
  1

  9
$DIMAPOST
  1

  9
$DIMALT
 70
     0
  9
$DIMALTD
 70
     2
  9
$DIMALTF
 40
25.4
  9
$DIMLFAC
 40
1.0
  9
$DIMTOFL
 70
     0
  9
$DIMTVP
 40
0.0
  9
$DIMTIX
 70
     0
  9
$DIMSOXD
 70
     0
  9
$DIMSAH
 70
     0
  9
$DIMBLK1
  1

  9
$DIMBLK2
  1

  9
$DIMSTYLE
  2
Standard
  9
$DIMCLRD
 70
     0
  9
$DIMCLRE
 70
     0
  9
$DIMCLRT
 70
     0
  9
$DIMTFAC
 40
1.0
  9
$DIMGAP
 40
0.09
  9
$DIMJUST
 70
     0
  9
$DIMSD1
 70
     0
  9
$DIMSD2
 70
     0
  9
$DIMTOLJ
 70
     1
  9
$DIMTZIN
 70
     0
  9
$DIMALTZ
 70
     0
  9
$DIMALTTZ
 70
     0
  9
$DIMUPT
 70
     0
  9
$DIMDEC
 70
     4
  9
$DIMTDEC
 70
     4
  9
$DIMALTU
 70
     2
  9
$DIMALTTD
 70
     2
  9
$DIMTXSTY
  7
Standard
  9
$DIMAUNIT
 70
     0
  9
$DIMADEC
 70
     0
  9
$DIMALTRND
 40
0.0
  9
$DIMAZIN
 70
     0
  9
$DIMDSEP
 70
    46
  9
$DIMATFIT
 70
     3
  9
$DIMFRAC
 70
     0
  9
$DIMLDRBLK
  1

  9
$DIMLUNIT
 70
     2
  9
$DIMLWD
 70
    -2
  9
$DIMLWE
 70
    -2
  9
$DIMTMOVE
 70
     0
  9
$LUNITS
 70
     2
  9
$LUPREC
 70
     4
  9
$SKETCHINC
 40
0.1
  9
$FILLETRAD
 40
0.0
  9
$AUNITS
 70
     0
  9
$AUPREC
 70
     0
  9
$MENU
  1
.
  9
$ELEVATION
 40
0.0
  9
$PELEVATION
 40
0.0
  9
$THICKNESS
 40
0.0
  9
$LIMCHECK
 70
     0
  9
$CHAMFERA
 40
0.0
  9
$CHAMFERB
 40
0.0
  9
$CHAMFERC
 40
0.0
  9
$CHAMFERD
 40
0.0
  9
$SKPOLY
 70
     0
  9
$TDCREATE
 40
2453706.351795776
  9
$TDUCREATE
 40
2453706.310129109
  9
$TDUPDATE
 40
2453710.481457790
  9
$TDUUPDATE
 40
2453710.439791123
  9
$TDINDWG
 40
0.1564129282
  9
$TDUSRTIMER
 40
0.1564129282
  9
$USRTIMER
 70
     1
  9
$ANGBASE
 50
0.0
  9
$ANGDIR
 70
     0
  9
$PDMODE
 70
     0
  9
$PDSIZE
 40
0.0
  9
$PLINEWID
 40
0.0
  9
$SPLFRAME
 70
     0
  9
$SPLINETYPE
 70
     6
  9
$SPLINESEGS
 70
     8
  9
$HANDSEED
  5
1973
  9
$SURFTAB1
 70
     6
  9
$SURFTAB2
 70
     6
  9
$SURFTYPE
 70
     6
  9
$SURFU
 70
     6
  9
$SURFV
 70
     6
  9
$UCSBASE
  2

  9
$UCSNAME
  2

  9
$UCSORG
 10
0.0
 20
0.0
 30
0.0
  9
$UCSXDIR
 10
1.0
 20
0.0
 30
0.0
  9
$UCSYDIR
 10
0.0
 20
1.0
 30
0.0
  9
$UCSORTHOREF
  2

  9
$UCSORTHOVIEW
 70
     0
  9
$UCSORGTOP
 10
0.0
 20
0.0
 30
0.0
  9
$UCSORGBOTTOM
 10
0.0
 20
0.0
 30
0.0
  9
$UCSORGLEFT
 10
0.0
 20
0.0
 30
0.0
  9
$UCSORGRIGHT
 10
0.0
 20
0.0
 30
0.0
  9
$UCSORGFRONT
 10
0.0
 20
0.0
 30
0.0
  9
$UCSORGBACK
 10
0.0
 20
0.0
 30
0.0
  9
$PUCSBASE
  2

  9
$PUCSNAME
  2

  9
$PUCSORG
 10
0.0
 20
0.0
 30
0.0
  9
$PUCSXDIR
 10
1.0
 20
0.0
 30
0.0
  9
$PUCSYDIR
 10
0.0
 20
1.0
 30
0.0
  9
$PUCSORTHOREF
  2

  9
$PUCSORTHOVIEW
 70
     0
  9
$PUCSORGTOP
 10
0.0
 20
0.0
 30
0.0
  9
$PUCSORGBOTTOM
 10
0.0
 20
0.0
 30
0.0
  9
$PUCSORGLEFT
 10
0.0
 20
0.0
 30
0.0
  9
$PUCSORGRIGHT
 10
0.0
 20
0.0
 30
0.0
  9
$PUCSORGFRONT
 10
0.0
 20
0.0
 30
0.0
  9
$PUCSORGBACK
 10
0.0
 20
0.0
 30
0.0
  9
$USERI1
 70
     0
  9
$USERI2
 70
     0
  9
$USERI3
 70
     0
  9
$USERI4
 70
     0
  9
$USERI5
 70
     0
  9
$USERR1
 40
0.0
  9
$USERR2
 40
0.0
  9
$USERR3
 40
0.0
  9
$USERR4
 40
0.0
  9
$USERR5
 40
0.0
  9
$WORLDVIEW
 70
     1
  9
$SHADEDGE
 70
     3
  9
$SHADEDIF
 70
    70
  9
$TILEMODE
 70
     1
  9
$MAXACTVP
 70
    64
  9
$PINSBASE
 10
0.0
 20
0.0
 30
0.0
  9
$PLIMCHECK
 70
     0
  9
$PEXTMIN
 10
0.0
 20
0.0
 30
0.0
  9
$PEXTMAX
 10
840.0
 20
594.0
 30
0.0
  9
$PLIMMIN
 10
0.0
 20
0.0
  9
$PLIMMAX
 10
840.0
 20
594.0
  9
$UNITMODE
 70
     0
  9
$VISRETAIN
 70
     1
  9
$PLINEGEN
 70
     0
  9
$PSLTSCALE
 70
     1
  9
$TREEDEPTH
 70
  3020
  9
$CMLSTYLE
  2
Standard
  9
$CMLJUST
 70
     0
  9
$CMLSCALE
 40
1.0
  9
$PROXYGRAPHICS
 70
     1
  9
$MEASUREMENT
 70
     1
  9
$CELWEIGHT
370
    -1
  9
$ENDCAPS
280
     0
  9
$JOINSTYLE
280
     0
  9
$LWDISPLAY
290
     0
  9
$INSUNITS
 70
     0
  9
$HYPERLINKBASE
  1

  9
$STYLESHEET
  1

  9
$XEDIT
290
     1
  9
$CEPSNTYPE
380
     0
  9
$PSTYLEMODE
290
     1
  9
$FINGERPRINTGUID
  2
{CD339A04-B85F-4A73-AC85-5D4F30B09856}
  9
$VERSIONGUID
  2
{608731DC-DD56-4763-8FC4-1AFAAA75F057}
  9
$EXTNAMES
290
     1
  9
$PSVPSCALE
 40
0.0
  9
$OLESTARTUP
290
     0
  9
$SORTENTS
280
   127
  9
$INDEXCTL
280
     0
  9
$HIDETEXT
280
     1
  9
$XCLIPFRAME
290
     0
  9
$HALOGAP
280
     0
  9
$OBSCOLOR
 70
   257
  9
$OBSLTYPE
280
     0
  9
$INTERSECTIONDISPLAY
280
     0
  9
$INTERSECTIONCOLOR
 70
   257
  9
$DIMASSOC
280
     1
  9
$PROJECTNAME
  1

  0
ENDSEC
  0
SECTION
  2
CLASSES
  0
CLASS
  1
ACDBDICTIONARYWDFLT
  2
AcDbDictionaryWithDefault
  3
ObjectDBX Classes
 90
        0
 91
        1
280
     0
281
     0
  0
CLASS
  1
TABLESTYLE
  2
AcDbTableStyle
  3
ObjectDBX Classes
 90
     2047
 91
        1
280
     0
281
     0
  0
CLASS
  1
DICTIONARYVAR
  2
AcDbDictionaryVar
  3
ObjectDBX Classes
 90
        0
 91
        4
280
     0
281
     0
  0
CLASS
  1
SORTENTSTABLE
  2
AcDbSortentsTable
  3
ObjectDBX Classes
 90
        0
 91
        2
280
     0
281
     0
  0
ENDSEC
  0
SECTION
  2
TABLES
  0
TABLE
  2
VPORT
  5
8
330
0
100
AcDbSymbolTable
 70
     3
  0
VPORT
  5
1972
330
8
100
AcDbSymbolTableRecord
100
AcDbViewportTableRecord
  2
*Active
 70
     0
 10
0.0
 20
0.0
 11
1.0
 21
1.0
 12
270.1521188387785
 22
322.4917158902294
 13
0.0
 23
0.0
 14
1.0
 24
1.0
 15
0.0
 25
0.0
 16
0.0
 26
0.0
 36
1.0
 17
0.0
 27
0.0
 37
0.0
 40
490.9979087351604
 41
1.773333333333333
 42
50.0
 43
0.0
 44
0.0
 50
0.0
 51
0.0
 71
     0
 72
   100
 73
     1
 74
     1
 75
     0
 76
     0
 77
     0
 78
     0
281
     0
 65
     1
110
0.0
120
0.0
130
0.0
111
1.0
121
0.0
131
0.0
112
0.0
122
1.0
132
0.0
 79
     0
146
0.0
  0
ENDTAB
  0
TABLE
  2
LTYPE
  5
5
330
0
100
AcDbSymbolTable
 70
     2
  0
LTYPE
  5
14
330
5
100
AcDbSymbolTableRecord
100
AcDbLinetypeTableRecord
  2
ByBlock
 70
     0
  3

 72
    65
 73
     0
 40
0.0
  0
LTYPE
  5
15
330
5
100
AcDbSymbolTableRecord
100
AcDbLinetypeTableRecord
  2
ByLayer
 70
     0
  3

 72
    65
 73
     0
 40
0.0
  0
LTYPE
  5
16
330
5
100
AcDbSymbolTableRecord
100
AcDbLinetypeTableRecord
  2
Continuous
 70
     0
  3
Solid line
 72
    65
 73
     0
 40
0.0
  0
LTYPE
  5
7E7
330
5
100
AcDbSymbolTableRecord
100
AcDbLinetypeTableRecord
  2
MITTE2
 70
     0
  3
Mitte (.5x) ___ _ ___ _ ___ _ ___ _ ___ _ ___
 72
    65
 73
     4
 40
28.575
 49
19.05
 74
     0
 49
-3.174999999999999
 74
     0
 49
3.174999999999999
 74
     0
 49
-3.174999999999999
 74
     0
  0
ENDTAB
  0
TABLE
  2
LAYER
  5
2
102
{ACAD_XDICTIONARY
360
9C6
102
}
330
0
100
AcDbSymbolTable
 70
     3
  0
LAYER
  5
10
330
2
100
AcDbSymbolTableRecord
100
AcDbLayerTableRecord
  2
0
 70
     0
 62
     7
  6
Continuous
370
    -3
390
F
  0
LAYER
  5
7E9
330
2
100
AcDbSymbolTableRecord
100
AcDbLayerTableRecord
  2
LW 3500-39-00
 70
     0
 62
     7
  6
Continuous
370
    -3
390
F
  0
LAYER
  5
7EA
330
2
100
AcDbSymbolTableRecord
100
AcDbLayerTableRecord
  2
insertpoint_ECKELT
 70
     0
 62
   141
  6
Continuous
370
    -3
390
F
  0
ENDTAB
  0
TABLE
  2
STYLE
  5
3
330
0
100
AcDbSymbolTable
 70
     1
  0
STYLE
  5
11
330
3
100
AcDbSymbolTableRecord
100
AcDbTextStyleTableRecord
  2
Standard
 70
     0
 40
0.0
 41
1.0
 50
0.0
 71
     0
 42
0.2
  3
ARIAL.TTF
  4

1001
ACAD
1000
Arial
1071
      256
  0
ENDTAB
  0
TABLE
  2
VIEW
  5
6
330
0
100
AcDbSymbolTable
 70
     0
  0
ENDTAB
  0
TABLE
  2
UCS
  5
7
330
0
100
AcDbSymbolTable
 70
     0
  0
ENDTAB
  0
TABLE
  2
APPID
  5
9
330
0
100
AcDbSymbolTable
 70
     2
  0
APPID
  5
12
330
9
100
AcDbSymbolTableRecord
100
AcDbRegAppTableRecord
  2
ACAD
 70
     0
  0
APPID
  5
A3E
330
9
100
AcDbSymbolTableRecord
100
AcDbRegAppTableRecord
  2
ACAD_PSEXT
 70
     0
  0
ENDTAB
  0
TABLE
  2
DIMSTYLE
  5
A
330
0
100
AcDbSymbolTable
 70
     1
100
AcDbDimStyleTable
 71
     0
  0
DIMSTYLE
105
2B
330
A
100
AcDbSymbolTableRecord
100
AcDbDimStyleTableRecord
  2
Standard
 70
     0
340
11
  0
ENDTAB
  0
TABLE
  2
BLOCK_RECORD
  5
1
330
0
100
AcDbSymbolTable
 70
     6
  0
BLOCK_RECORD
  5
23
102
{ACAD_XDICTIONARY
360
9A6
102
}
330
1
100
AcDbSymbolTableRecord
100
AcDbBlockTableRecord
  2
*Model_Space
340
26
  0
BLOCK_RECORD
  5
1F
330
1
100
AcDbSymbolTableRecord
100
AcDbBlockTableRecord
  2
*Paper_Space
340
22
  0
BLOCK_RECORD
  5
27
330
1
100
AcDbSymbolTableRecord
100
AcDbBlockTableRecord
  2
*Paper_Space0
340
2A
  0
BLOCK_RECORD
  5
626
102
{ACAD_XDICTIONARY
360
627
102
}
330
1
100
AcDbSymbolTableRecord
100
AcDbBlockTableRecord
  2
insertpoint-ECKELT
340
0
102
{BLKREFS
331
1754
331
187D
331
18E9
331
1955
102
}
  0
BLOCK_RECORD
  5
14CE
330
1
100
AcDbSymbolTableRecord
100
AcDbBlockTableRecord
  2
LW 3500-39-00_a
340
0
310
2800000020000000200000000100080000000000000400000000000000000000000000000000000000000000000080000080000000808000800000008000800080800000C0C0C000C0DCC000F0CAA6000020400000206000002080000020A0000020C0000020E00000400000004020000040400000406000004080000040A0
310
000040C0000040E00000600000006020000060400000606000006080000060A0000060C0000060E00000800000008020000080400000806000008080000080A0000080C0000080E00000A0000000A0200000A0400000A0600000A0800000A0A00000A0C00000A0E00000C0000000C0200000C0400000C0600000C0800000C0
310
A00000C0C00000C0E00000E0000000E0200000E0400000E0600000E0800000E0A00000E0C00000E0E00040000000400020004000400040006000400080004000A0004000C0004000E00040200000402020004020400040206000402080004020A0004020C0004020E000404000004040200040404000404060004040800040
310
40A0004040C0004040E00040600000406020004060400040606000406080004060A0004060C0004060E00040800000408020004080400040806000408080004080A0004080C0004080E00040A0000040A0200040A0400040A0600040A0800040A0A00040A0C00040A0E00040C0000040C0200040C0400040C0600040C08000
310
40C0A00040C0C00040C0E00040E0000040E0200040E0400040E0600040E0800040E0A00040E0C00040E0E00080000000800020008000400080006000800080008000A0008000C0008000E00080200000802020008020400080206000802080008020A0008020C0008020E00080400000804020008040400080406000804080
310
008040A0008040C0008040E00080600000806020008060400080606000806080008060A0008060C0008060E00080800000808020008080400080806000808080008080A0008080C0008080E00080A0000080A0200080A0400080A0600080A0800080A0A00080A0C00080A0E00080C0000080C0200080C0400080C0600080C0
310
800080C0A00080C0C00080C0E00080E0000080E0200080E0400080E0600080E0800080E0A00080E0C00080E0E000C0000000C0002000C0004000C0006000C0008000C000A000C000C000C000E000C0200000C0202000C0204000C0206000C0208000C020A000C020C000C020E000C0400000C0402000C0404000C0406000C0
310
408000C040A000C040C000C040E000C0600000C0602000C0604000C0606000C0608000C060A000C060C000C060E000C0800000C0802000C0804000C0806000C0808000C080A000C080C000C080E000C0A00000C0A02000C0A04000C0A06000C0A08000C0A0A000C0A0C000C0A0E000C0C00000C0C02000C0C04000C0C06000
310
C0C08000C0C0A000F0FBFF00A4A0A000808080000000FF0000FF000000FFFF00FF000000FF00FF00FFFF0000FFFFFF0000000000000000000000000000000000000000000000000000000000000000000000000000000000000000000000000000000000000000000000000000000000000000000000000000000000000000
310
0000000000000000000000000000000000000000000000000000000000000000000000000000000000000000000000000000000000000000000000000000000000FA00000000000000000000000000000000000000000000000000000000000000FA000000000000000000000000000000000000000000000000000000FFFF
310
0000FA00FFFF000000000000000000000000000000000000000000000000FFFF0000FA00FFFF00000000000000000000000000000000000000000000FFFFFFFF0000FA00FFFFFFFF0000000000000000000000000000000000000000FFFFFFFAFAFAFAFAFAFFFFFF00000000000000000000000000000000000000FAFAFAFA
310
FAFAFAFAFAFAFAFAFAFA00000000000000000000000000000000000000FF00FFFAFAFAFAFAFAFF00FF0000000000000000000000000000000000000000FFFFFFFF0000FA00FFFFFFFF00000000000000000000000000000000000000000000FFFF0000FA00FFFF000000000000000000000000000000000000000000000000
310
FFFF0000FA00FFFF000000000000000000000000000000000000000000000000FFFF0000FA00FFFF00000000000000000000000000000000000000000000FFFFFFFF0000FA00FFFFFFFF0000000000000000000000000000000000000000FFFFFFFFFFFFFAFFFFFFFFFF00000000000000000000000000000000000000FAFA
310
FAFAFAFAFAFAFAFAFAFAFAFA00000000000000000000000000000000000000FF00FFFAFAFAFAFAFAFF00FF000000000000000000000000000000FA00000000FFFFFFFF0000FA00FFFFFFFF00000000FA0000000000000000FFFFFAFFFF0000FFFFFFFF0000FA00FFFFFFFF0000FFFFFAFFFF000000000000FF00FA00FF00FF
310
F9F9F9FF0000FA00FFFF0000FF00FF00FA00FF0000000000FFFFFFFAFFFFFFFFF9F9FFFF0000FA00FFFFFFFFFFFFFFFFFAFFFFFF000000FFFFFFFFFAFFFFFFFFFFFFFFFF00090900FFFFFFFFFFFFFFFFFAFFFFFFFF00000000FFFAFAFAFF00000000000000000900000000000000FFFAFAFAFF00000000000000FFFAFF0000
310
00000000000000FA0000000000000000FFFAFF0000000000000000FAFAFA000000000000000000FA0000000000000000FAFAFA00000000000000000000000000000000000000000000000000000000000000000000000000000000000000000000000000000000000000000000000000000000000000000000000000000000
310
0000000000000000000000000000000000000000000000000000000000000000000000000000000000000000000000000000000000000000
102
{BLKREFS
331
175E
102
}
  0
BLOCK_RECORD
  5
175F
330
1
100
AcDbSymbolTableRecord
100
AcDbBlockTableRecord
  2
LW 3500-39-00_b
340
0
310
2800000020000000200000000100080000000000000400000000000000000000000000000000000000000000000080000080000000808000800000008000800080800000C0C0C000C0DCC000F0CAA6000020400000206000002080000020A0000020C0000020E00000400000004020000040400000406000004080000040A0
310
000040C0000040E00000600000006020000060400000606000006080000060A0000060C0000060E00000800000008020000080400000806000008080000080A0000080C0000080E00000A0000000A0200000A0400000A0600000A0800000A0A00000A0C00000A0E00000C0000000C0200000C0400000C0600000C0800000C0
310
A00000C0C00000C0E00000E0000000E0200000E0400000E0600000E0800000E0A00000E0C00000E0E00040000000400020004000400040006000400080004000A0004000C0004000E00040200000402020004020400040206000402080004020A0004020C0004020E000404000004040200040404000404060004040800040
310
40A0004040C0004040E00040600000406020004060400040606000406080004060A0004060C0004060E00040800000408020004080400040806000408080004080A0004080C0004080E00040A0000040A0200040A0400040A0600040A0800040A0A00040A0C00040A0E00040C0000040C0200040C0400040C0600040C08000
310
40C0A00040C0C00040C0E00040E0000040E0200040E0400040E0600040E0800040E0A00040E0C00040E0E00080000000800020008000400080006000800080008000A0008000C0008000E00080200000802020008020400080206000802080008020A0008020C0008020E00080400000804020008040400080406000804080
310
008040A0008040C0008040E00080600000806020008060400080606000806080008060A0008060C0008060E00080800000808020008080400080806000808080008080A0008080C0008080E00080A0000080A0200080A0400080A0600080A0800080A0A00080A0C00080A0E00080C0000080C0200080C0400080C0600080C0
310
800080C0A00080C0C00080C0E00080E0000080E0200080E0400080E0600080E0800080E0A00080E0C00080E0E000C0000000C0002000C0004000C0006000C0008000C000A000C000C000C000E000C0200000C0202000C0204000C0206000C0208000C020A000C020C000C020E000C0400000C0402000C0404000C0406000C0
310
408000C040A000C040C000C040E000C0600000C0602000C0604000C0606000C0608000C060A000C060C000C060E000C0800000C0802000C0804000C0806000C0808000C080A000C080C000C080E000C0A00000C0A02000C0A04000C0A06000C0A08000C0A0A000C0A0C000C0A0E000C0C00000C0C02000C0C04000C0C06000
310
C0C08000C0C0A000F0FBFF00A4A0A000808080000000FF0000FF000000FFFF00FF000000FF00FF00FFFF0000FFFFFF0000000000000000000000000000000000000000000000000000000000000000000000000000000000000000000000000000000000000000000000000000000000000000000000000000000000000000
310
00000000000000000000000000000000000000000000000000000000000000000000000000000000000000000000000000000000000000000000000000000000000000000000000000000000000000000000000000000000000000000000000000000000000000000000000000000000000000000000000000000000000000
310
00000000000000000000000000000000000000000000000000000000000000000000000000000000000000000000000000000000000000000000000000000000000000000000000000000000000000000000000000000000000000000000000000000000000000000000000000000000000000000000000000000000000000
310
00000000000000000000000000000000000000000000000000000000000000000000FA000000000000000000000000000000000000000000FFFFFFFFFFFFFFFFFF00FA00FFFFFFFFFFFFFFFFFF000000000000000000FFFFFAFF0000000000FFFF00FA00FFFFFF0000000000FAFFFF000000000000FF00FFFAFFFF0000FFFF
310
FFFFFFFAFFFFFFFFFFFF0000FFFAFFFFFFFF00000000FFFFFFFA00FFFFFFFF00FFFAFA0909FAFFFFFFFFFFFFFFFA00FFFFFF000000FAFAFAFAFAFAFAFAFAFAFAFAFAFA09FAFAFAFAFAFAFAFAFAFAFAFAFAFAFA000000FF00FFFAFFFF0000FFFFFFFFFFFAFFFFFFFFFFFF0000FFFAFFFF00FF0000000000FF00FAFF00000000
310
00FFFF00FA00FFFFFF00F9F9F900FAFFFFFF00000000000000FFFFFFFFFFFFFFFFFFFF00FA00FFFFFFFFFFFFFFFFFFFF0000000000000000000000000000000000000000FA00000000000000000000000000000000000000000000000000000000000000000000000000000000000000000000000000000000000000000000
310
00000000000000000000000000000000000000000000000000000000000000000000000000000000000000000000000000000000000000000000000000000000000000000000000000000000000000000000000000000000000000000000000000000000000000000000000000000000000000000000000000000000000000
310
00000000000000000000000000000000000000000000000000000000000000000000000000000000000000000000000000000000000000000000000000000000000000000000000000000000000000000000000000000000000000000000000000000000000000000000000000000000000000000000000000000000000000
310
0000000000000000000000000000000000000000000000000000000000000000000000000000000000000000000000000000000000000000
102
{BLKREFS
331
1887
102
}
  0
BLOCK_RECORD
  5
1888
330
1
100
AcDbSymbolTableRecord
100
AcDbBlockTableRecord
  2
LW 3500-39-00_c
340
0
310
2800000020000000200000000100080000000000000400000000000000000000000000000000000000000000000080000080000000808000800000008000800080800000C0C0C000C0DCC000F0CAA6000020400000206000002080000020A0000020C0000020E00000400000004020000040400000406000004080000040A0
310
000040C0000040E00000600000006020000060400000606000006080000060A0000060C0000060E00000800000008020000080400000806000008080000080A0000080C0000080E00000A0000000A0200000A0400000A0600000A0800000A0A00000A0C00000A0E00000C0000000C0200000C0400000C0600000C0800000C0
310
A00000C0C00000C0E00000E0000000E0200000E0400000E0600000E0800000E0A00000E0C00000E0E00040000000400020004000400040006000400080004000A0004000C0004000E00040200000402020004020400040206000402080004020A0004020C0004020E000404000004040200040404000404060004040800040
310
40A0004040C0004040E00040600000406020004060400040606000406080004060A0004060C0004060E00040800000408020004080400040806000408080004080A0004080C0004080E00040A0000040A0200040A0400040A0600040A0800040A0A00040A0C00040A0E00040C0000040C0200040C0400040C0600040C08000
310
40C0A00040C0C00040C0E00040E0000040E0200040E0400040E0600040E0800040E0A00040E0C00040E0E00080000000800020008000400080006000800080008000A0008000C0008000E00080200000802020008020400080206000802080008020A0008020C0008020E00080400000804020008040400080406000804080
310
008040A0008040C0008040E00080600000806020008060400080606000806080008060A0008060C0008060E00080800000808020008080400080806000808080008080A0008080C0008080E00080A0000080A0200080A0400080A0600080A0800080A0A00080A0C00080A0E00080C0000080C0200080C0400080C0600080C0
310
800080C0A00080C0C00080C0E00080E0000080E0200080E0400080E0600080E0800080E0A00080E0C00080E0E000C0000000C0002000C0004000C0006000C0008000C000A000C000C000C000E000C0200000C0202000C0204000C0206000C0208000C020A000C020C000C020E000C0400000C0402000C0404000C0406000C0
310
408000C040A000C040C000C040E000C0600000C0602000C0604000C0606000C0608000C060A000C060C000C060E000C0800000C0802000C0804000C0806000C0808000C080A000C080C000C080E000C0A00000C0A02000C0A04000C0A06000C0A08000C0A0A000C0A0C000C0A0E000C0C00000C0C02000C0C04000C0C06000
310
C0C08000C0C0A000F0FBFF00A4A0A000808080000000FF0000FF000000FFFF00FF000000FF00FF00FFFF0000FFFFFF0000000000000000000000000000000000000000000000000000000000000000000000000000000000000000000000000000000000000000000000000000000000000000000000000000000000000000
310
00000000000000000000000000000000000000000000000000000000000000000000000000000000000000000000000000000000000000000000000000000000000000000000000000000000000000000000000000000000000000000000000000000000000000000000000000000000000000000000000000000000000000
310
00000000000000000000000000000000000000000000000000000000000000000000000000000000000000000000000000000000000000000000000000000000000000000000000000000000000000000000000000000000000000000000000000000000000000000000000000000000000000000000000000000000000000
310
000000000000000000000000000000000000000000000000FFFFFFFFFFFFFFFFFFFFFFFFFFFFFFFFFFFFFFFFFF0000000000000000000000FFFFFF0000000000FA00000000000000000000FA00FFFF000000000000000000FFFFFFFFFFFF0000FA00000000000000000000FA000000FF0000000000000000FFFFFF0000FF00
310
FFFAFFFF000000000000FFFFFAFFFF00FF0000000000FFFAFA09FFFF00FFFFFFFFFA00FFFAFAFAFAFAFAFAFAFAFAFAFAFAFAFA0000FAFFFA0909FAFAFAFAFAFAFAFAFAFAFF0000000000FF00FA00FF00FF0000000000000000FFFFFF0000FF00FFFAFFFF000000000000FFFFFAFFFF00FF0000000000000000FFFFFFFFFFFF
310
0000FAFF000000F9F9F90000FFFAFF0000FF0000000000000000FFFFFF0000000000FA00000000000000000000FA00FFFF000000000000000000FFFFFFFFFFFFFFFFFFFFFFFFFFFFFFFFFFFFFFFFFF000000000000000000000000000000000000000000000000000000000000000000000000000000000000000000000000
310
00000000000000000000000000000000000000000000000000000000000000000000000000000000000000000000000000000000000000000000000000000000000000000000000000000000000000000000000000000000000000000000000000000000000000000000000000000000000000000000000000000000000000
310
00000000000000000000000000000000000000000000000000000000000000000000000000000000000000000000000000000000000000000000000000000000000000000000000000000000000000000000000000000000000000000000000000000000000000000000000000000000000000000000000000000000000000
310
0000000000000000000000000000000000000000000000000000000000000000000000000000000000000000000000000000000000000000
102
{BLKREFS
331
18F3
102
}
  0
BLOCK_RECORD
  5
18F4
330
1
100
AcDbSymbolTableRecord
100
AcDbBlockTableRecord
  2
LW 3500-39-00_d
340
0
310
2800000020000000200000000100080000000000000400000000000000000000000000000000000000000000000080000080000000808000800000008000800080800000C0C0C000C0DCC000F0CAA6000020400000206000002080000020A0000020C0000020E00000400000004020000040400000406000004080000040A0
310
000040C0000040E00000600000006020000060400000606000006080000060A0000060C0000060E00000800000008020000080400000806000008080000080A0000080C0000080E00000A0000000A0200000A0400000A0600000A0800000A0A00000A0C00000A0E00000C0000000C0200000C0400000C0600000C0800000C0
310
A00000C0C00000C0E00000E0000000E0200000E0400000E0600000E0800000E0A00000E0C00000E0E00040000000400020004000400040006000400080004000A0004000C0004000E00040200000402020004020400040206000402080004020A0004020C0004020E000404000004040200040404000404060004040800040
310
40A0004040C0004040E00040600000406020004060400040606000406080004060A0004060C0004060E00040800000408020004080400040806000408080004080A0004080C0004080E00040A0000040A0200040A0400040A0600040A0800040A0A00040A0C00040A0E00040C0000040C0200040C0400040C0600040C08000
310
40C0A00040C0C00040C0E00040E0000040E0200040E0400040E0600040E0800040E0A00040E0C00040E0E00080000000800020008000400080006000800080008000A0008000C0008000E00080200000802020008020400080206000802080008020A0008020C0008020E00080400000804020008040400080406000804080
310
008040A0008040C0008040E00080600000806020008060400080606000806080008060A0008060C0008060E00080800000808020008080400080806000808080008080A0008080C0008080E00080A0000080A0200080A0400080A0600080A0800080A0A00080A0C00080A0E00080C0000080C0200080C0400080C0600080C0
310
800080C0A00080C0C00080C0E00080E0000080E0200080E0400080E0600080E0800080E0A00080E0C00080E0E000C0000000C0002000C0004000C0006000C0008000C000A000C000C000C000E000C0200000C0202000C0204000C0206000C0208000C020A000C020C000C020E000C0400000C0402000C0404000C0406000C0
310
408000C040A000C040C000C040E000C0600000C0602000C0604000C0606000C0608000C060A000C060C000C060E000C0800000C0802000C0804000C0806000C0808000C080A000C080C000C080E000C0A00000C0A02000C0A04000C0A06000C0A08000C0A0A000C0A0C000C0A0E000C0C00000C0C02000C0C04000C0C06000
310
C0C08000C0C0A000F0FBFF00A4A0A000808080000000FF0000FF000000FFFF00FF000000FF00FF00FFFF0000FFFFFF0000000000000000000000000000000000000000000000000000000000000000000000000000000000000000000000000000000000000000000000000000000000000000000000000000000000000000
310
00000000000000000000000000000000000000000000000000000000000000000000000000000000000000000000000000000000000000000000000000000000000000000000000000000000000000000000000000000000000000000000000000000000000000000000000000000000000000000000000000000000000000
310
00000000000000000000000000000000000000000000000000000000000000000000000000000000000000000000000000000000000000000000000000000000000000000000000000000000000000000000000000000000000000000000000000000000000000000000000000000000000000000000000000000000000000
310
00000000000000000000000000000000000000000000000000FFFFFFFFFFFFFFFFFFFFFFFFFFFFFFFFFFFFFFFFFF000000000000000000FFFF00FA00000000000000000000FA0000000000FFFFFF000000000000000000FF0000FA00000000000000000000FA0000FFFFFFFFFFFF0000000000000000FF00FFFFFAFFFF0000
310
00000000FFFFFAFF00FF0000FFFFFF000000000000FAFAFAFAFAFAFAFAFAFAFAFAFAFAFAFF00FA00FFFFFF00FFFF0909FAFF0000000000FF00FF00FA00FF0000000000FFFAFAFAFAFAFAFAFAFAFA0909FAFFFA00000000FF00FFFFFAFFFF000000000000FFFFFAFF00FF0000FFFFFF000000000000000000FF00FFFAFF0000
310
00F9F9F90000FFFA0000FFFFFFFFFFFF000000000000000000FFFF00FA00000000000000000000FA0000000000FFFFFF0000000000000000000000FFFFFFFFFFFFFFFFFFFFFFFFFFFFFFFFFFFFFFFFFF0000000000000000000000000000000000000000000000000000000000000000000000000000000000000000000000
310
00000000000000000000000000000000000000000000000000000000000000000000000000000000000000000000000000000000000000000000000000000000000000000000000000000000000000000000000000000000000000000000000000000000000000000000000000000000000000000000000000000000000000
310
00000000000000000000000000000000000000000000000000000000000000000000000000000000000000000000000000000000000000000000000000000000000000000000000000000000000000000000000000000000000000000000000000000000000000000000000000000000000000000000000000000000000000
310
0000000000000000000000000000000000000000000000000000000000000000000000000000000000000000000000000000000000000000
102
{BLKREFS
331
195F
102
}
  0
ENDTAB
  0
ENDSEC
  0
SECTION
  2
BLOCKS
  0
BLOCK
  5
24
330
23
100
AcDbEntity
  8
0
100
AcDbBlockBegin
  2
*Model_Space
 70
     0
 10
0.0
 20
0.0
 30
0.0
  3
*Model_Space
  1

  0
ENDBLK
  5
25
330
23
100
AcDbEntity
  8
0
100
AcDbBlockEnd
  0
BLOCK
  5
20
330
1F
100
AcDbEntity
 67
     1
  8
0
100
AcDbBlockBegin
  2
*Paper_Space
 70
     0
 10
0.0
 20
0.0
 30
0.0
  3
*Paper_Space
  1

  0
ENDBLK
  5
21
330
1F
100
AcDbEntity
 67
     1
  8
0
100
AcDbBlockEnd
  0
BLOCK
  5
28
330
27
100
AcDbEntity
 67
     1
  8
0
100
AcDbBlockBegin
  2
*Paper_Space0
 70
     0
 10
0.0
 20
0.0
 30
0.0
  3
*Paper_Space0
  1

  0
ENDBLK
  5
29
330
27
100
AcDbEntity
 67
     1
  8
0
100
AcDbBlockEnd
  0
BLOCK
  5
629
330
626
100
AcDbEntity
  8
0
100
AcDbBlockBegin
  2
insertpoint-ECKELT
 70
     2
 10
0.0
 20
0.0
 30
0.0
  3
insertpoint-ECKELT
  1

  0
ATTDEF
  5
62A
330
626
100
AcDbEntity
  8
insertpoint_ECKELT
100
AcDbText
 10
-2.457298772169167
 20
-0.0000000000000284
 30
0.0
 40
0.6
  1
LW
 72
     2
 11
-1.199999999999999
 21
-0.0000000000000284
 31
0.0
100
AcDbAttributeDefinition
  3
Nr. links
  2
LINKS
 70
     0
  0
ATTDEF
  5
62B
330
626
100
AcDbEntity
  8
insertpoint_ECKELT
100
AcDbText
 10
1.199999999999999
 20
-0.0000000000000284
 30
0.0
 40
0.6
  1
LW
100
AcDbAttributeDefinition
  3
Nr. rechts
  2
RECHTS
 70
     0
  0
LINE
  5
62C
102
{ACAD_REACTORS
330
62F
102
}
330
626
100
AcDbEntity
  8
insertpoint_ECKELT
100
AcDbLine
 10
0.0
 20
1.799999999999997
 30
0.0
 11
0.0
 21
-1.799999999999997
 31
0.0
  0
LINE
  5
62D
102
{ACAD_REACTORS
330
62F
102
}
330
626
100
AcDbEntity
  8
insertpoint_ECKELT
100
AcDbLine
 10
-1.8
 20
-0.0000000000000284
 30
0.0
 11
1.8
 21
-0.0000000000000284
 31
0.0
  0
CIRCLE
  5
62E
102
{ACAD_REACTORS
330
62F
102
}
330
626
100
AcDbEntity
  8
insertpoint_ECKELT
100
AcDbCircle
 10
0.0
 20
0.0
 30
0.0
 40
1.199999999999999
  0
HATCH
  5
62F
330
626
100
AcDbEntity
  8
insertpoint_ECKELT
100
AcDbHatch
 10
0.0
 20
0.0
 30
0.0
210
0.0
220
0.0
230
1.0
  2
SOLID
 70
     1
 71
     1
 91
        2
 92
        7
 72
     1
 73
     1
 93
        3
 10
0.0
 20
-0.0000000000000284
 42
0.0
 10
0.0
 20
1.200000000000002
 42
0.4142135623731013
 10
-1.199999999999999
 20
-0.0000000000000284
 42
0.0
 97
        3
330
62E
330
62D
330
62C
 92
        7
 72
     1
 73
     1
 93
        3
 10
1.199999999999999
 20
-0.0000000000000284
 42
0.0
 10
0.0
 20
-0.0000000000000284
 42
0.0
 10
0.0
 20
-1.200000000000002
 42
0.4142135623730888
 97
        3
330
62D
330
62C
330
62E
 75
     0
 76
     1
 47
0.0223086566480813
 98
        2
 10
-0.3163651093721391
 20
0.271413292077348
 10
0.7415965996738798
 20
-0.4513871917946233
450
        0
451
        0
460
0.0
461
0.0
452
        0
462
0.0
453
        0
470

  0
ENDBLK
  5
630
330
626
100
AcDbEntity
  8
0
100
AcDbBlockEnd
  0
BLOCK
  5
14CF
330
14CE
100
AcDbEntity
  8
0
100
AcDbBlockBegin
  2
LW 3500-39-00_a
 70
     0
 10
0.0
 20
0.0
 30
0.0
  3
LW 3500-39-00_a
  1

  0
LINE
  5
14D1
330
14CE
100
AcDbEntity
  8
LW 3500-39-00
100
AcDbLine
 10
-32.02000000000001
 20
-172.9999999999999
 30
0.0
 11
-32.02000000000001
 21
-139.9999999999999
 31
0.0
  0
LINE
  5
14D2
330
14CE
100
AcDbEntity
  8
LW 3500-39-00
100
AcDbLine
 10
-32.02000000000007
 20
-11.0
 30
0.0
 11
-32.02000000000001
 21
-139.9999999999999
 31
0.0
  0
LINE
  5
14D3
330
14CE
100
AcDbEntity
  8
LW 3500-39-00
100
AcDbLine
 10
-103.02
 20
-9.0
 30
0.0
 11
-34.02000000000004
 21
-9.0
 31
0.0
  0
LINE
  5
14D4
330
14CE
100
AcDbEntity
  8
LW 3500-39-00
100
AcDbLine
 10
-103.02
 20
-9.0
 30
0.0
 11
-136.02
 21
-9.0
 31
0.0
  0
ARC
  5
14D5
330
14CE
100
AcDbEntity
  8
LW 3500-39-00
100
AcDbCircle
 10
-34.02000000000004
 20
-11.0
 30
0.0
 40
1.999999999999988
100
AcDbArc
 50
0.0
 51
90.0
  0
ARC
  5
14D6
330
14CE
100
AcDbEntity
  8
LW 3500-39-00
100
AcDbCircle
 10
-30.01999999999998
 20
-172.9999999999999
 30
0.0
 40
2.0
100
AcDbArc
 50
180.0
 51
270.0
  0
ARC
  5
14D7
330
14CE
100
AcDbEntity
  8
LW 3500-39-00
100
AcDbCircle
 10
-136.02
 20
-7.0
 30
0.0
 40
2.0
100
AcDbArc
 50
180.0
 51
270.0
  0
LINE
  5
14D8
330
14CE
100
AcDbEntity
  8
LW 3500-39-00
100
AcDbLine
 10
-138.02
 20
0.0
 30
0.0
 11
-103.02
 21
0.0
 31
0.0
  0
LINE
  5
14D9
330
14CE
100
AcDbEntity
  8
LW 3500-39-00
100
AcDbLine
 10
-23.02000000000001
 20
-139.9999999999999
 30
0.0
 11
-23.02000000000001
 21
-175.0
 31
0.0
  0
LINE
  5
14DA
330
14CE
100
AcDbEntity
  8
LW 3500-39-00
100
AcDbLine
 10
-23.02000000000001
 20
-175.0
 30
0.0
 11
-30.02000000000001
 21
-175.0
 31
0.0
  0
LINE
  5
14DB
330
14CE
100
AcDbEntity
  8
LW 3500-39-00
100
AcDbLine
 10
-138.02
 20
-7.0
 30
0.0
 11
-138.02
 21
0.0
 31
0.0
  0
LINE
  5
14DC
330
14CE
100
AcDbEntity
  8
LW 3500-39-00
100
AcDbLine
 10
-103.02
 20
0.0
 30
0.0
 11
-23.02000000000001
 21
0.0
 31
0.0
  0
LINE
  5
14DD
330
14CE
100
AcDbEntity
  8
LW 3500-39-00
100
AcDbLine
 10
-23.02000000000001
 20
0.0
 30
0.0
 11
-23.02000000000001
 21
-139.9999999999999
 31
0.0
  0
ARC
  5
14DE
330
14CE
100
AcDbEntity
  8
LW 3500-39-00
100
AcDbCircle
 10
-34.02000000000004
 20
-40.0
 30
0.0
 40
1.99999999999998
100
AcDbArc
 50
0.0
 51
53.13010235415793
  0
ARC
  5
14DF
330
14CE
100
AcDbEntity
  8
LW 3500-39-00
100
AcDbCircle
 10
-72.68666666666672
 20
-11.00000000000005
 30
0.0
 40
2.000000000000055
100
AcDbArc
 50
53.13010235415793
 51
90.0
  0
LINE
  5
14E0
330
14CE
100
AcDbEntity
  8
LW 3500-39-00
100
AcDbLine
 10
-71.4866666666667
 20
-9.399999999999977
 30
0.0
 11
-32.82000000000002
 21
-38.39999999999998
 31
0.0
  0
LINE
  5
14E1
330
14CE
100
AcDbEntity
  8
LW 3500-39-00
100
AcDbLine
 10
32.01999999999998
 20
-139.9999999999999
 30
0.0
 11
32.01999999999998
 21
-11.0
 31
0.0
  0
LINE
  5
14E2
330
14CE
100
AcDbEntity
  8
LW 3500-39-00
100
AcDbLine
 10
32.01999999999998
 20
-139.9999999999999
 30
0.0
 11
32.01999999999998
 21
-172.9999999999999
 31
0.0
  0
ARC
  5
14E3
330
14CE
100
AcDbEntity
  8
LW 3500-39-00
100
AcDbCircle
 10
34.01999999999998
 20
-11.0
 30
0.0
 40
1.999999999999988
100
AcDbArc
 50
90.0
 51
180.0
  0
LINE
  5
14E4
330
14CE
100
AcDbEntity
  8
LW 3500-39-00
100
AcDbLine
 10
136.02
 20
-9.0
 30
0.0
 11
103.02
 21
-9.0
 31
0.0
  0
LINE
  5
14E5
330
14CE
100
AcDbEntity
  8
LW 3500-39-00
100
AcDbLine
 10
34.01999999999998
 20
-9.0
 30
0.0
 11
103.02
 21
-9.0
 31
0.0
  0
ARC
  5
14E6
330
14CE
100
AcDbEntity
  8
LW 3500-39-00
100
AcDbCircle
 10
30.01999999999998
 20
-172.9999999999999
 30
0.0
 40
2.0
100
AcDbArc
 50
270.0
 51
0.0
  0
ARC
  5
14E7
330
14CE
100
AcDbEntity
  8
LW 3500-39-00
100
AcDbCircle
 10
136.02
 20
-6.999999999999943
 30
0.0
 40
2.0
100
AcDbArc
 50
270.0
 51
0.0
  0
LINE
  5
14E8
330
14CE
100
AcDbEntity
  8
LW 3500-39-00
100
AcDbLine
 10
103.02
 20
0.0
 30
0.0
 11
138.02
 21
0.0
 31
0.0
  0
LINE
  5
14E9
330
14CE
100
AcDbEntity
  8
LW 3500-39-00
100
AcDbLine
 10
23.01999999999998
 20
-175.0
 30
0.0
 11
23.01999999999998
 21
-139.9999999999999
 31
0.0
  0
LINE
  5
14EA
330
14CE
100
AcDbEntity
  8
LW 3500-39-00
100
AcDbLine
 10
23.01999999999998
 20
-175.0
 30
0.0
 11
30.01999999999998
 21
-175.0
 31
0.0
  0
LINE
  5
14EB
330
14CE
100
AcDbEntity
  8
LW 3500-39-00
100
AcDbLine
 10
138.02
 20
-6.999999999999943
 30
0.0
 11
138.02
 21
0.0
 31
0.0
  0
LINE
  5
14EC
330
14CE
100
AcDbEntity
  8
LW 3500-39-00
100
AcDbLine
 10
103.02
 20
0.0
 30
0.0
 11
23.01999999999998
 21
0.0
 31
0.0
  0
LINE
  5
14ED
330
14CE
100
AcDbEntity
  8
LW 3500-39-00
100
AcDbLine
 10
23.01999999999998
 20
0.0
 30
0.0
 11
23.01999999999998
 21
-139.9999999999999
 31
0.0
  0
ARC
  5
14EE
330
14CE
100
AcDbEntity
  8
LW 3500-39-00
100
AcDbCircle
 10
34.01999999999993
 20
-40.0
 30
0.0
 40
1.999999999999928
100
AcDbArc
 50
126.869897645842
 51
180.0
  0
ARC
  5
14EF
330
14CE
100
AcDbEntity
  8
LW 3500-39-00
100
AcDbCircle
 10
72.68665613093265
 20
-10.99997498133973
 30
0.0
 40
1.999972927955441
100
AcDbArc
 50
89.99969816967691
 51
126.8700862261824
  0
LINE
  5
14F0
330
14CE
100
AcDbEntity
  8
LW 3500-39-00
100
AcDbLine
 10
71.48666666666668
 20
-9.399999999999977
 30
0.0
 11
32.82
 21
-38.39999999999998
 31
0.0
  0
LINE
  5
14F1
330
14CE
100
AcDbEntity
  8
LW 3500-39-00
100
AcDbLine
 10
-80.52000000000004
 20
-14.0
 30
0.0
 11
-125.52
 21
-14.0
 31
0.0
  0
LINE
  5
14F2
330
14CE
100
AcDbEntity
  8
LW 3500-39-00
100
AcDbLine
 10
-80.52000000000004
 20
-9.0
 30
0.0
 11
-80.52000000000004
 21
-14.0
 31
0.0
  0
LINE
  5
14F3
330
14CE
100
AcDbEntity
  8
LW 3500-39-00
100
AcDbLine
 10
-125.52
 20
-9.0
 30
0.0
 11
-125.52
 21
-14.0
 31
0.0
  0
LINE
  5
14F4
330
14CE
100
AcDbEntity
  8
LW 3500-39-00
100
AcDbLine
 10
-125.52
 20
5.0
 30
0.0
 11
-80.52000000000004
 21
5.0
 31
0.0
  0
LINE
  5
14F5
330
14CE
100
AcDbEntity
  8
LW 3500-39-00
100
AcDbLine
 10
-125.52
 20
0.0
 30
0.0
 11
-125.52
 21
5.0
 31
0.0
  0
LINE
  5
14F6
330
14CE
100
AcDbEntity
  8
LW 3500-39-00
100
AcDbLine
 10
-80.52000000000004
 20
0.0
 30
0.0
 11
-80.52000000000004
 21
5.0
 31
0.0
  0
LINE
  5
14F7
330
14CE
100
AcDbEntity
  8
LW 3500-39-00
100
AcDbLine
 10
125.52
 20
-14.0
 30
0.0
 11
80.51999999999997
 21
-14.0
 31
0.0
  0
LINE
  5
14F8
330
14CE
100
AcDbEntity
  8
LW 3500-39-00
100
AcDbLine
 10
125.52
 20
-9.0
 30
0.0
 11
125.52
 21
-14.0
 31
0.0
  0
LINE
  5
14F9
330
14CE
100
AcDbEntity
  8
LW 3500-39-00
100
AcDbLine
 10
80.51999999999997
 20
-9.0
 30
0.0
 11
80.51999999999997
 21
-14.0
 31
0.0
  0
LINE
  5
14FA
330
14CE
100
AcDbEntity
  8
LW 3500-39-00
100
AcDbLine
 10
80.51999999999997
 20
5.0
 30
0.0
 11
125.52
 21
5.0
 31
0.0
  0
LINE
  5
14FB
330
14CE
100
AcDbEntity
  8
LW 3500-39-00
100
AcDbLine
 10
80.51999999999997
 20
0.0
 30
0.0
 11
80.51999999999997
 21
5.0
 31
0.0
  0
LINE
  5
14FC
330
14CE
100
AcDbEntity
  8
LW 3500-39-00
100
AcDbLine
 10
125.52
 20
0.0
 30
0.0
 11
125.52
 21
5.0
 31
0.0
  0
LINE
  5
14FD
330
14CE
100
AcDbEntity
  8
LW 3500-39-00
100
AcDbLine
 10
110.0199999999999
 20
21.0
 30
0.0
 11
96.01999999999987
 21
21.0
 31
0.0
  0
LINE
  5
14FE
330
14CE
100
AcDbEntity
  8
LW 3500-39-00
100
AcDbLine
 10
109.0199999999999
 20
22.0
 30
0.0
 11
97.01999999999987
 21
22.0
 31
0.0
  0
LINE
  5
14FF
330
14CE
100
AcDbEntity
  8
LW 3500-39-00
100
AcDbLine
 10
96.01999999999993
 20
5.000000000000056
 30
0.0
 11
96.01999999999987
 21
21.0
 31
0.0
  0
LINE
  5
1500
330
14CE
100
AcDbEntity
  8
LW 3500-39-00
100
AcDbLine
 10
110.0199999999999
 20
5.000000000000056
 30
0.0
 11
110.0199999999999
 21
21.0
 31
0.0
  0
LINE
  5
1501
330
14CE
100
AcDbEntity
  8
LW 3500-39-00
100
AcDbLine
 10
109.0199999999999
 20
22.0
 30
0.0
 11
110.0199999999999
 21
21.00000000000006
 31
0.0
  0
LINE
  5
1502
330
14CE
100
AcDbEntity
  8
LW 3500-39-00
100
AcDbLine
 10
97.01999999999987
 20
22.0
 30
0.0
 11
96.01999999999993
 21
21.0
 31
0.0
  0
LINE
  5
1503
330
14CE
100
AcDbEntity
  8
LW 3500-39-00
 62
     3
100
AcDbLine
 10
97.22549999999991
 20
21.99999999999994
 30
0.0
 11
97.22549999999991
 21
5.000000000000056
 31
0.0
  0
LINE
  5
1504
330
14CE
100
AcDbEntity
  8
LW 3500-39-00
 62
     3
100
AcDbLine
 10
108.8144999999999
 20
5.000000000000056
 30
0.0
 11
108.8144999999999
 21
21.99999999999994
 31
0.0
  0
LINE
  5
1505
330
14CE
100
AcDbEntity
  8
LW 3500-39-00
100
AcDbLine
 10
110.0199999999999
 20
21.0
 30
0.0
 11
96.01999999999987
 21
21.0
 31
0.0
  0
LINE
  5
1506
330
14CE
100
AcDbEntity
  8
LW 3500-39-00
100
AcDbLine
 10
-96.02000000000002
 20
21.0
 30
0.0
 11
-110.02
 21
21.0
 31
0.0
  0
LINE
  5
1507
330
14CE
100
AcDbEntity
  8
LW 3500-39-00
100
AcDbLine
 10
-97.01999999999998
 20
22.0
 30
0.0
 11
-109.02
 21
22.0
 31
0.0
  0
LINE
  5
1508
330
14CE
100
AcDbEntity
  8
LW 3500-39-00
100
AcDbLine
 10
-110.02
 20
5.0
 30
0.0
 11
-110.02
 21
21.0
 31
0.0
  0
LINE
  5
1509
330
14CE
100
AcDbEntity
  8
LW 3500-39-00
100
AcDbLine
 10
-96.02000000000002
 20
5.0
 30
0.0
 11
-96.02000000000002
 21
21.0
 31
0.0
  0
LINE
  5
150A
330
14CE
100
AcDbEntity
  8
LW 3500-39-00
100
AcDbLine
 10
-97.02000000000001
 20
22.0
 30
0.0
 11
-96.02000000000002
 21
21.0
 31
0.0
  0
LINE
  5
150B
330
14CE
100
AcDbEntity
  8
LW 3500-39-00
100
AcDbLine
 10
-109.02
 20
22.0
 30
0.0
 11
-110.02
 21
21.0
 31
0.0
  0
LINE
  5
150C
330
14CE
100
AcDbEntity
  8
LW 3500-39-00
 62
     3
100
AcDbLine
 10
-108.8145
 20
22.0
 30
0.0
 11
-108.8145
 21
5.0
 31
0.0
  0
LINE
  5
150D
330
14CE
100
AcDbEntity
  8
LW 3500-39-00
 62
     3
100
AcDbLine
 10
-97.22550000000001
 20
5.0
 30
0.0
 11
-97.22550000000001
 21
22.0
 31
0.0
  0
LINE
  5
150E
330
14CE
100
AcDbEntity
  8
LW 3500-39-00
100
AcDbLine
 10
-96.02000000000003
 20
21.0
 30
0.0
 11
-110.02
 21
21.0
 31
0.0
  0
ELLIPSE
  5
150F
330
14CE
100
AcDbEntity
  8
LW 3500-39-00
100
AcDbEllipse
 10
109.27
 20
-30.0
 30
0.0
 11
0.000000000000115
 21
1.999999999999962
 31
0.0
210
0.0
220
0.0
230
1.0
 40
0.8660254037844643
 41
3.935761501374585
 42
5.489016459394972
  0
POLYLINE
  5
1510
330
14CE
100
AcDbEntity
  8
LW 3500-39-00
100
AcDb2dPolyline
 66
     1
 10
0.0
 20
0.0
 30
0.0
 70
   128
  0
VERTEX
  5
1511
330
1510
100
AcDbEntity
  8
LW 3500-39-00
100
AcDbVertex
100
AcDb2dVertex
 10
111.77
 20
-31.99999952316284
 30
0.0
  0
VERTEX
  5
1512
330
1510
100
AcDbEntity
  8
LW 3500-39-00
100
AcDbVertex
100
AcDb2dVertex
 10
111.5477742147446
 20
-31.98318386077881
 30
0.0
  0
VERTEX
  5
1513
330
1510
100
AcDbEntity
  8
LW 3500-39-00
100
AcDbVertex
100
AcDb2dVertex
 10
111.3214559745789
 20
-31.93250799179077
 30
0.0
  0
VERTEX
  5
1514
330
1510
100
AcDbEntity
  8
LW 3500-39-00
100
AcDbVertex
100
AcDb2dVertex
 10
111.098528046608
 20
-31.84763216972351
 30
0.0
  0
VERTEX
  5
1515
330
1510
100
AcDbEntity
  8
LW 3500-39-00
100
AcDbVertex
100
AcDb2dVertex
 10
110.8861978244782
 20
-31.72932291030884
 30
0.0
  0
VERTEX
  5
1516
330
1510
100
AcDbEntity
  8
LW 3500-39-00
100
AcDbVertex
100
AcDb2dVertex
 10
110.6903834533692
 20
-31.58275866508484
 30
0.0
  0
VERTEX
  5
1517
330
1510
100
AcDbEntity
  8
LW 3500-39-00
100
AcDbVertex
100
AcDb2dVertex
 10
110.5166341257096
 20
-31.41421103477478
 30
0.0
  0
VERTEX
  5
1518
330
1510
100
AcDbEntity
  8
LW 3500-39-00
100
AcDbVertex
100
AcDb2dVertex
 10
110.3634162139893
 20
-31.22194790840149
 30
0.0
  0
VERTEX
  5
1519
330
1510
100
AcDbEntity
  8
LW 3500-39-00
100
AcDbVertex
100
AcDb2dVertex
 10
110.2295239162445
 20
-31.0038640499115
 30
0.0
  0
VERTEX
  5
151A
330
1510
100
AcDbEntity
  8
LW 3500-39-00
100
AcDbVertex
100
AcDb2dVertex
 10
110.1209975671768
 20
-30.76566958427429
 30
0.0
  0
VERTEX
  5
151B
330
1510
100
AcDbEntity
  8
LW 3500-39-00
100
AcDbVertex
100
AcDb2dVertex
 10
110.0429011774063
 20
-30.51353359222412
 30
0.0
  0
VERTEX
  5
151C
330
1510
100
AcDbEntity
  8
LW 3500-39-00
100
AcDbVertex
100
AcDb2dVertex
 10
109.9961621952057
 20
-30.25547885894776
 30
0.0
  0
VERTEX
  5
151D
330
1510
100
AcDbEntity
  8
LW 3500-39-00
100
AcDbVertex
100
AcDb2dVertex
 10
109.9806184959412
 20
-30.00000023841858
 30
0.0
  0
VERTEX
  5
151E
330
1510
100
AcDbEntity
  8
LW 3500-39-00
100
AcDbVertex
100
AcDb2dVertex
 10
109.9961621952057
 20
-29.74452042579651
 30
0.0
  0
VERTEX
  5
151F
330
1510
100
AcDbEntity
  8
LW 3500-39-00
100
AcDbVertex
100
AcDb2dVertex
 10
110.0429011774063
 20
-29.48646688461304
 30
0.0
  0
VERTEX
  5
1520
330
1510
100
AcDbEntity
  8
LW 3500-39-00
100
AcDbVertex
100
AcDb2dVertex
 10
110.1209975671768
 20
-29.23433089256287
 30
0.0
  0
VERTEX
  5
1521
330
1510
100
AcDbEntity
  8
LW 3500-39-00
100
AcDbVertex
100
AcDb2dVertex
 10
110.2295239162445
 20
-28.99613642692566
 30
0.0
  0
VERTEX
  5
1522
330
1510
100
AcDbEntity
  8
LW 3500-39-00
100
AcDbVertex
100
AcDb2dVertex
 10
110.3634162139893
 20
-28.77805137634278
 30
0.0
  0
VERTEX
  5
1523
330
1510
100
AcDbEntity
  8
LW 3500-39-00
100
AcDbVertex
100
AcDb2dVertex
 10
110.5166341257096
 20
-28.58578944206238
 30
0.0
  0
VERTEX
  5
1524
330
1510
100
AcDbEntity
  8
LW 3500-39-00
100
AcDbVertex
100
AcDb2dVertex
 10
110.6903834533692
 20
-28.41724181175232
 30
0.0
  0
VERTEX
  5
1525
330
1510
100
AcDbEntity
  8
LW 3500-39-00
100
AcDbVertex
100
AcDb2dVertex
 10
110.8861978244782
 20
-28.27067637443543
 30
0.0
  0
VERTEX
  5
1526
330
1510
100
AcDbEntity
  8
LW 3500-39-00
100
AcDbVertex
100
AcDb2dVertex
 10
111.098528046608
 20
-28.15236830711365
 30
0.0
  0
VERTEX
  5
1527
330
1510
100
AcDbEntity
  8
LW 3500-39-00
100
AcDbVertex
100
AcDb2dVertex
 10
111.3214559745789
 20
-28.06749248504639
 30
0.0
  0
VERTEX
  5
1528
330
1510
100
AcDbEntity
  8
LW 3500-39-00
100
AcDbVertex
100
AcDb2dVertex
 10
111.5477742147446
 20
-28.01681661605835
 30
0.0
  0
VERTEX
  5
1529
330
1510
100
AcDbEntity
  8
LW 3500-39-00
100
AcDbVertex
100
AcDb2dVertex
 10
111.77
 20
-27.99999976158142
 30
0.0
  0
SEQEND
  5
152A
330
1510
100
AcDbEntity
  8
LW 3500-39-00
  0
POLYLINE
  5
152B
330
14CE
100
AcDbEntity
  8
LW 3500-39-00
100
AcDb2dPolyline
 66
     1
 10
0.0
 20
0.0
 30
0.0
 70
   128
  0
VERTEX
  5
152C
330
152B
100
AcDbEntity
  8
LW 3500-39-00
100
AcDbVertex
100
AcDb2dVertex
 10
111.77
 20
-27.99999976158142
 30
0.0
  0
VERTEX
  5
152D
330
152B
100
AcDbEntity
  8
LW 3500-39-00
100
AcDbVertex
100
AcDb2dVertex
 10
111.9902785015106
 20
-28.01681661605835
 30
0.0
  0
VERTEX
  5
152E
330
152B
100
AcDbEntity
  8
LW 3500-39-00
100
AcDbVertex
100
AcDb2dVertex
 10
112.2109259557724
 20
-28.06749248504639
 30
0.0
  0
VERTEX
  5
152F
330
152B
100
AcDbEntity
  8
LW 3500-39-00
100
AcDbVertex
100
AcDb2dVertex
 10
112.424713511467
 20
-28.15236830711365
 30
0.0
  0
VERTEX
  5
1530
330
152B
100
AcDbEntity
  8
LW 3500-39-00
100
AcDbVertex
100
AcDb2dVertex
 10
112.6249517393112
 20
-28.27067637443543
 30
0.0
  0
VERTEX
  5
1531
330
152B
100
AcDbEntity
  8
LW 3500-39-00
100
AcDbVertex
100
AcDb2dVertex
 10
112.8068710756302
 20
-28.41724181175232
 30
0.0
  0
VERTEX
  5
1532
330
152B
100
AcDbEntity
  8
LW 3500-39-00
100
AcDbVertex
100
AcDb2dVertex
 10
112.966129322052
 20
-28.58578944206238
 30
0.0
  0
VERTEX
  5
1533
330
152B
100
AcDbEntity
  8
LW 3500-39-00
100
AcDbVertex
100
AcDb2dVertex
 10
113.1048424434662
 20
-28.77805137634278
 30
0.0
  0
VERTEX
  5
1534
330
152B
100
AcDbEntity
  8
LW 3500-39-00
100
AcDbVertex
100
AcDb2dVertex
 10
113.2248063278198
 20
-28.99613642692566
 30
0.0
  0
VERTEX
  5
1535
330
152B
100
AcDbEntity
  8
LW 3500-39-00
100
AcDbVertex
100
AcDb2dVertex
 10
113.3211929988861
 20
-29.23433089256287
 30
0.0
  0
VERTEX
  5
1536
330
152B
100
AcDbEntity
  8
LW 3500-39-00
100
AcDbVertex
100
AcDb2dVertex
 10
113.3901031208038
 20
-29.48646688461304
 30
0.0
  0
VERTEX
  5
1537
330
152B
100
AcDbEntity
  8
LW 3500-39-00
100
AcDbVertex
100
AcDb2dVertex
 10
113.431137342453
 20
-29.74452042579651
 30
0.0
  0
VERTEX
  5
1538
330
152B
100
AcDbEntity
  8
LW 3500-39-00
100
AcDbVertex
100
AcDb2dVertex
 10
113.4447200489044
 20
-30.00000023841858
 30
0.0
  0
VERTEX
  5
1539
330
152B
100
AcDbEntity
  8
LW 3500-39-00
100
AcDbVertex
100
AcDb2dVertex
 10
113.431137342453
 20
-30.25547885894776
 30
0.0
  0
VERTEX
  5
153A
330
152B
100
AcDbEntity
  8
LW 3500-39-00
100
AcDbVertex
100
AcDb2dVertex
 10
113.3901031208038
 20
-30.51353359222412
 30
0.0
  0
VERTEX
  5
153B
330
152B
100
AcDbEntity
  8
LW 3500-39-00
100
AcDbVertex
100
AcDb2dVertex
 10
113.3211929988861
 20
-30.76566958427429
 30
0.0
  0
VERTEX
  5
153C
330
152B
100
AcDbEntity
  8
LW 3500-39-00
100
AcDbVertex
100
AcDb2dVertex
 10
113.2248063278198
 20
-31.0038640499115
 30
0.0
  0
VERTEX
  5
153D
330
152B
100
AcDbEntity
  8
LW 3500-39-00
100
AcDbVertex
100
AcDb2dVertex
 10
113.1048424434662
 20
-31.22194790840149
 30
0.0
  0
VERTEX
  5
153E
330
152B
100
AcDbEntity
  8
LW 3500-39-00
100
AcDbVertex
100
AcDb2dVertex
 10
112.966129322052
 20
-31.41421103477478
 30
0.0
  0
VERTEX
  5
153F
330
152B
100
AcDbEntity
  8
LW 3500-39-00
100
AcDbVertex
100
AcDb2dVertex
 10
112.8068710756302
 20
-31.58275866508484
 30
0.0
  0
VERTEX
  5
1540
330
152B
100
AcDbEntity
  8
LW 3500-39-00
100
AcDbVertex
100
AcDb2dVertex
 10
112.6249517393112
 20
-31.72932291030884
 30
0.0
  0
VERTEX
  5
1541
330
152B
100
AcDbEntity
  8
LW 3500-39-00
100
AcDbVertex
100
AcDb2dVertex
 10
112.424713511467
 20
-31.84763216972351
 30
0.0
  0
VERTEX
  5
1542
330
152B
100
AcDbEntity
  8
LW 3500-39-00
100
AcDbVertex
100
AcDb2dVertex
 10
112.2109259557724
 20
-31.93250799179077
 30
0.0
  0
VERTEX
  5
1543
330
152B
100
AcDbEntity
  8
LW 3500-39-00
100
AcDbVertex
100
AcDb2dVertex
 10
111.9902785015106
 20
-31.98318386077881
 30
0.0
  0
VERTEX
  5
1544
330
152B
100
AcDbEntity
  8
LW 3500-39-00
100
AcDbVertex
100
AcDb2dVertex
 10
111.77
 20
-31.99999952316284
 30
0.0
  0
SEQEND
  5
1545
330
152B
100
AcDbEntity
  8
LW 3500-39-00
  0
POLYLINE
  5
1546
330
14CE
100
AcDbEntity
  8
LW 3500-39-00
100
AcDb2dPolyline
 66
     1
 10
0.0
 20
0.0
 30
0.0
 70
   128
  0
VERTEX
  5
1547
330
1546
100
AcDbEntity
  8
LW 3500-39-00
100
AcDbVertex
100
AcDb2dVertex
 10
85.52000000000004
 20
-27.99999976158142
 30
0.0
  0
VERTEX
  5
1548
330
1546
100
AcDbEntity
  8
LW 3500-39-00
100
AcDbVertex
100
AcDb2dVertex
 10
85.52194668769841
 20
-28.01681661605835
 30
0.0
  0
VERTEX
  5
1549
330
1546
100
AcDbEntity
  8
LW 3500-39-00
100
AcDbVertex
100
AcDb2dVertex
 10
85.52761866569523
 20
-28.06749248504639
 30
0.0
  0
VERTEX
  5
154A
330
1546
100
AcDbEntity
  8
LW 3500-39-00
100
AcDbVertex
100
AcDb2dVertex
 10
85.53675844192509
 20
-28.15236830711365
 30
0.0
  0
VERTEX
  5
154B
330
1546
100
AcDbEntity
  8
LW 3500-39-00
100
AcDbVertex
100
AcDb2dVertex
 10
85.54885103225712
 20
-28.27067637443543
 30
0.0
  0
VERTEX
  5
154C
330
1546
100
AcDbEntity
  8
LW 3500-39-00
100
AcDbVertex
100
AcDb2dVertex
 10
85.56274606704716
 20
-28.41724181175232
 30
0.0
  0
VERTEX
  5
154D
330
1546
100
AcDbEntity
  8
LW 3500-39-00
100
AcDbVertex
100
AcDb2dVertex
 10
85.57723714828496
 20
-28.58578944206238
 30
0.0
  0
VERTEX
  5
154E
330
1546
100
AcDbEntity
  8
LW 3500-39-00
100
AcDbVertex
100
AcDb2dVertex
 10
85.5917413425446
 20
-28.77805137634278
 30
0.0
  0
VERTEX
  5
154F
330
1546
100
AcDbEntity
  8
LW 3500-39-00
100
AcDbVertex
100
AcDb2dVertex
 10
85.60566975593571
 20
-28.99613642692566
 30
0.0
  0
VERTEX
  5
1550
330
1546
100
AcDbEntity
  8
LW 3500-39-00
100
AcDbVertex
100
AcDb2dVertex
 10
85.61780883789067
 20
-29.23433089256287
 30
0.0
  0
VERTEX
  5
1551
330
1546
100
AcDbEntity
  8
LW 3500-39-00
100
AcDbVertex
100
AcDb2dVertex
 10
85.62699510574345
 20
-29.48646688461304
 30
0.0
  0
VERTEX
  5
1552
330
1546
100
AcDbEntity
  8
LW 3500-39-00
100
AcDbVertex
100
AcDb2dVertex
 10
85.63270046234135
 20
-29.74452042579651
 30
0.0
  0
VERTEX
  5
1553
330
1546
100
AcDbEntity
  8
LW 3500-39-00
100
AcDbVertex
100
AcDb2dVertex
 10
85.63466145515446
 20
-30.00000023841858
 30
0.0
  0
VERTEX
  5
1554
330
1546
100
AcDbEntity
  8
LW 3500-39-00
100
AcDbVertex
100
AcDb2dVertex
 10
85.63270046234135
 20
-30.25547885894776
 30
0.0
  0
VERTEX
  5
1555
330
1546
100
AcDbEntity
  8
LW 3500-39-00
100
AcDbVertex
100
AcDb2dVertex
 10
85.62699510574345
 20
-30.51353359222412
 30
0.0
  0
VERTEX
  5
1556
330
1546
100
AcDbEntity
  8
LW 3500-39-00
100
AcDbVertex
100
AcDb2dVertex
 10
85.61780883789067
 20
-30.76566958427429
 30
0.0
  0
VERTEX
  5
1557
330
1546
100
AcDbEntity
  8
LW 3500-39-00
100
AcDbVertex
100
AcDb2dVertex
 10
85.60566975593571
 20
-31.0038640499115
 30
0.0
  0
VERTEX
  5
1558
330
1546
100
AcDbEntity
  8
LW 3500-39-00
100
AcDbVertex
100
AcDb2dVertex
 10
85.5917413425446
 20
-31.22194790840149
 30
0.0
  0
VERTEX
  5
1559
330
1546
100
AcDbEntity
  8
LW 3500-39-00
100
AcDbVertex
100
AcDb2dVertex
 10
85.57723714828496
 20
-31.41421103477478
 30
0.0
  0
VERTEX
  5
155A
330
1546
100
AcDbEntity
  8
LW 3500-39-00
100
AcDbVertex
100
AcDb2dVertex
 10
85.56274606704716
 20
-31.58275866508484
 30
0.0
  0
VERTEX
  5
155B
330
1546
100
AcDbEntity
  8
LW 3500-39-00
100
AcDbVertex
100
AcDb2dVertex
 10
85.54885103225712
 20
-31.72932291030884
 30
0.0
  0
VERTEX
  5
155C
330
1546
100
AcDbEntity
  8
LW 3500-39-00
100
AcDbVertex
100
AcDb2dVertex
 10
85.53675844192509
 20
-31.84763216972351
 30
0.0
  0
VERTEX
  5
155D
330
1546
100
AcDbEntity
  8
LW 3500-39-00
100
AcDbVertex
100
AcDb2dVertex
 10
85.52761866569523
 20
-31.93250799179077
 30
0.0
  0
VERTEX
  5
155E
330
1546
100
AcDbEntity
  8
LW 3500-39-00
100
AcDbVertex
100
AcDb2dVertex
 10
85.52194668769841
 20
-31.98318386077881
 30
0.0
  0
VERTEX
  5
155F
330
1546
100
AcDbEntity
  8
LW 3500-39-00
100
AcDbVertex
100
AcDb2dVertex
 10
85.52000000000004
 20
-31.99999952316284
 30
0.0
  0
SEQEND
  5
1560
330
1546
100
AcDbEntity
  8
LW 3500-39-00
  0
LINE
  5
1561
330
14CE
100
AcDbEntity
  8
LW 3500-39-00
100
AcDbLine
 10
85.52000000000004
 20
-34.0
 30
0.0
 11
120.52
 21
-34.0
 31
0.0
  0
LINE
  5
1562
330
14CE
100
AcDbEntity
  8
LW 3500-39-00
100
AcDbLine
 10
88.51999999999998
 20
-37.0
 30
0.0
 11
117.5200000000001
 21
-37.0
 31
0.0
  0
LINE
  5
1563
330
14CE
100
AcDbEntity
  8
LW 3500-39-00
100
AcDbLine
 10
120.52
 20
-14.0
 30
0.0
 11
120.52
 21
-34.0
 31
0.0
  0
LINE
  5
1564
330
14CE
100
AcDbEntity
  8
LW 3500-39-00
100
AcDbLine
 10
85.52000000000004
 20
-14.0
 30
0.0
 11
85.52000000000004
 21
-28.0
 31
0.0
  0
LINE
  5
1565
330
14CE
100
AcDbEntity
  8
LW 3500-39-00
100
AcDbLine
 10
85.52000000000004
 20
-32.0
 30
0.0
 11
85.52000000000004
 21
-34.0
 31
0.0
  0
LINE
  5
1566
330
14CE
100
AcDbEntity
  8
LW 3500-39-00
100
AcDbLine
 10
88.51999999999998
 20
-37.0
 30
0.0
 11
85.52000000000004
 21
-34.0
 31
0.0
  0
LINE
  5
1567
330
14CE
100
AcDbEntity
  8
LW 3500-39-00
100
AcDbLine
 10
117.52
 20
-37.0
 30
0.0
 11
120.52
 21
-34.0
 31
0.0
  0
ELLIPSE
  5
1568
330
14CE
100
AcDbEntity
  8
LW 3500-39-00
100
AcDbEllipse
 10
48.01999999999998
 20
-66.25
 30
0.0
 11
-1.999999999999962
 21
0.0000000000001156
 31
0.0
210
0.0
220
0.0
230
1.0
 40
0.8660254037844643
 41
0.7941688477847935
 42
2.347423805805178
  0
POLYLINE
  5
1569
330
14CE
100
AcDbEntity
  8
LW 3500-39-00
100
AcDb2dPolyline
 66
     1
 10
0.0
 20
0.0
 30
0.0
 70
   128
  0
VERTEX
  5
156A
330
1569
100
AcDbEntity
  8
LW 3500-39-00
100
AcDbVertex
100
AcDb2dVertex
 10
50.01999952316282
 20
-68.75
 30
0.0
  0
VERTEX
  5
156B
330
1569
100
AcDbEntity
  8
LW 3500-39-00
100
AcDbVertex
100
AcDb2dVertex
 10
50.00318386077879
 20
-68.97027850151062
 30
0.0
  0
VERTEX
  5
156C
330
1569
100
AcDbEntity
  8
LW 3500-39-00
100
AcDbVertex
100
AcDb2dVertex
 10
49.95250799179075
 20
-69.19092595577239
 30
0.0
  0
VERTEX
  5
156D
330
1569
100
AcDbEntity
  8
LW 3500-39-00
100
AcDbVertex
100
AcDb2dVertex
 10
49.86763216972349
 20
-69.40471351146697
 30
0.0
  0
VERTEX
  5
156E
330
1569
100
AcDbEntity
  8
LW 3500-39-00
100
AcDbVertex
100
AcDb2dVertex
 10
49.74932291030881
 20
-69.60495173931121
 30
0.0
  0
VERTEX
  5
156F
330
1569
100
AcDbEntity
  8
LW 3500-39-00
100
AcDbVertex
100
AcDb2dVertex
 10
49.60275866508482
 20
-69.78687107563018
 30
0.0
  0
VERTEX
  5
1570
330
1569
100
AcDbEntity
  8
LW 3500-39-00
100
AcDbVertex
100
AcDb2dVertex
 10
49.43421103477476
 20
-69.946129322052
 30
0.0
  0
VERTEX
  5
1571
330
1569
100
AcDbEntity
  8
LW 3500-39-00
100
AcDbVertex
100
AcDb2dVertex
 10
49.24194790840147
 20
-70.08484244346618
 30
0.0
  0
VERTEX
  5
1572
330
1569
100
AcDbEntity
  8
LW 3500-39-00
100
AcDbVertex
100
AcDb2dVertex
 10
49.02386404991148
 20
-70.20480632781982
 30
0.0
  0
VERTEX
  5
1573
330
1569
100
AcDbEntity
  8
LW 3500-39-00
100
AcDbVertex
100
AcDb2dVertex
 10
48.78566958427427
 20
-70.3011929988861
 30
0.0
  0
VERTEX
  5
1574
330
1569
100
AcDbEntity
  8
LW 3500-39-00
100
AcDbVertex
100
AcDb2dVertex
 10
48.5335335922241
 20
-70.37010312080383
 30
0.0
  0
VERTEX
  5
1575
330
1569
100
AcDbEntity
  8
LW 3500-39-00
100
AcDbVertex
100
AcDb2dVertex
 10
48.27547885894773
 20
-70.411137342453
 30
0.0
  0
VERTEX
  5
1576
330
1569
100
AcDbEntity
  8
LW 3500-39-00
100
AcDbVertex
100
AcDb2dVertex
 10
48.02000023841856
 20
-70.42472004890441
 30
0.0
  0
VERTEX
  5
1577
330
1569
100
AcDbEntity
  8
LW 3500-39-00
100
AcDbVertex
100
AcDb2dVertex
 10
47.76452042579649
 20
-70.411137342453
 30
0.0
  0
VERTEX
  5
1578
330
1569
100
AcDbEntity
  8
LW 3500-39-00
100
AcDbVertex
100
AcDb2dVertex
 10
47.50646688461301
 20
-70.37010312080383
 30
0.0
  0
VERTEX
  5
1579
330
1569
100
AcDbEntity
  8
LW 3500-39-00
100
AcDbVertex
100
AcDb2dVertex
 10
47.25433089256284
 20
-70.3011929988861
 30
0.0
  0
VERTEX
  5
157A
330
1569
100
AcDbEntity
  8
LW 3500-39-00
100
AcDbVertex
100
AcDb2dVertex
 10
47.01613642692564
 20
-70.20480632781982
 30
0.0
  0
VERTEX
  5
157B
330
1569
100
AcDbEntity
  8
LW 3500-39-00
100
AcDbVertex
100
AcDb2dVertex
 10
46.79805137634275
 20
-70.08484244346618
 30
0.0
  0
VERTEX
  5
157C
330
1569
100
AcDbEntity
  8
LW 3500-39-00
100
AcDbVertex
100
AcDb2dVertex
 10
46.60578944206235
 20
-69.946129322052
 30
0.0
  0
VERTEX
  5
157D
330
1569
100
AcDbEntity
  8
LW 3500-39-00
100
AcDbVertex
100
AcDb2dVertex
 10
46.4372418117523
 20
-69.78687107563018
 30
0.0
  0
VERTEX
  5
157E
330
1569
100
AcDbEntity
  8
LW 3500-39-00
100
AcDbVertex
100
AcDb2dVertex
 10
46.2906763744354
 20
-69.60495173931121
 30
0.0
  0
VERTEX
  5
157F
330
1569
100
AcDbEntity
  8
LW 3500-39-00
100
AcDbVertex
100
AcDb2dVertex
 10
46.17236830711362
 20
-69.40471351146697
 30
0.0
  0
VERTEX
  5
1580
330
1569
100
AcDbEntity
  8
LW 3500-39-00
100
AcDbVertex
100
AcDb2dVertex
 10
46.08749248504636
 20
-69.19092595577239
 30
0.0
  0
VERTEX
  5
1581
330
1569
100
AcDbEntity
  8
LW 3500-39-00
100
AcDbVertex
100
AcDb2dVertex
 10
46.03681661605833
 20
-68.97027850151062
 30
0.0
  0
VERTEX
  5
1582
330
1569
100
AcDbEntity
  8
LW 3500-39-00
100
AcDbVertex
100
AcDb2dVertex
 10
46.0199997615814
 20
-68.75
 30
0.0
  0
SEQEND
  5
1583
330
1569
100
AcDbEntity
  8
LW 3500-39-00
  0
POLYLINE
  5
1584
330
14CE
100
AcDbEntity
  8
LW 3500-39-00
100
AcDb2dPolyline
 66
     1
 10
0.0
 20
0.0
 30
0.0
 70
   128
  0
VERTEX
  5
1585
330
1584
100
AcDbEntity
  8
LW 3500-39-00
100
AcDbVertex
100
AcDb2dVertex
 10
46.0199997615814
 20
-68.75
 30
0.0
  0
VERTEX
  5
1586
330
1584
100
AcDbEntity
  8
LW 3500-39-00
100
AcDbVertex
100
AcDb2dVertex
 10
46.03681661605833
 20
-68.52777421474456
 30
0.0
  0
VERTEX
  5
1587
330
1584
100
AcDbEntity
  8
LW 3500-39-00
100
AcDbVertex
100
AcDb2dVertex
 10
46.08749248504636
 20
-68.30145597457885
 30
0.0
  0
VERTEX
  5
1588
330
1584
100
AcDbEntity
  8
LW 3500-39-00
100
AcDbVertex
100
AcDb2dVertex
 10
46.17236830711362
 20
-68.07852804660797
 30
0.0
  0
VERTEX
  5
1589
330
1584
100
AcDbEntity
  8
LW 3500-39-00
100
AcDbVertex
100
AcDb2dVertex
 10
46.2906763744354
 20
-67.86619782447814
 30
0.0
  0
VERTEX
  5
158A
330
1584
100
AcDbEntity
  8
LW 3500-39-00
100
AcDbVertex
100
AcDb2dVertex
 10
46.4372418117523
 20
-67.67038345336914
 30
0.0
  0
VERTEX
  5
158B
330
1584
100
AcDbEntity
  8
LW 3500-39-00
100
AcDbVertex
100
AcDb2dVertex
 10
46.60578944206235
 20
-67.49663412570953
 30
0.0
  0
VERTEX
  5
158C
330
1584
100
AcDbEntity
  8
LW 3500-39-00
100
AcDbVertex
100
AcDb2dVertex
 10
46.79805137634275
 20
-67.34341621398925
 30
0.0
  0
VERTEX
  5
158D
330
1584
100
AcDbEntity
  8
LW 3500-39-00
100
AcDbVertex
100
AcDb2dVertex
 10
47.01613642692564
 20
-67.2095239162445
 30
0.0
  0
VERTEX
  5
158E
330
1584
100
AcDbEntity
  8
LW 3500-39-00
100
AcDbVertex
100
AcDb2dVertex
 10
47.25433089256284
 20
-67.10099756717681
 30
0.0
  0
VERTEX
  5
158F
330
1584
100
AcDbEntity
  8
LW 3500-39-00
100
AcDbVertex
100
AcDb2dVertex
 10
47.50646688461301
 20
-67.02290117740631
 30
0.0
  0
VERTEX
  5
1590
330
1584
100
AcDbEntity
  8
LW 3500-39-00
100
AcDbVertex
100
AcDb2dVertex
 10
47.76452042579649
 20
-66.97616219520568
 30
0.0
  0
VERTEX
  5
1591
330
1584
100
AcDbEntity
  8
LW 3500-39-00
100
AcDbVertex
100
AcDb2dVertex
 10
48.02000023841856
 20
-66.96061849594116
 30
0.0
  0
VERTEX
  5
1592
330
1584
100
AcDbEntity
  8
LW 3500-39-00
100
AcDbVertex
100
AcDb2dVertex
 10
48.27547885894773
 20
-66.97616219520568
 30
0.0
  0
VERTEX
  5
1593
330
1584
100
AcDbEntity
  8
LW 3500-39-00
100
AcDbVertex
100
AcDb2dVertex
 10
48.5335335922241
 20
-67.02290117740631
 30
0.0
  0
VERTEX
  5
1594
330
1584
100
AcDbEntity
  8
LW 3500-39-00
100
AcDbVertex
100
AcDb2dVertex
 10
48.78566958427427
 20
-67.10099756717681
 30
0.0
  0
VERTEX
  5
1595
330
1584
100
AcDbEntity
  8
LW 3500-39-00
100
AcDbVertex
100
AcDb2dVertex
 10
49.02386404991148
 20
-67.2095239162445
 30
0.0
  0
VERTEX
  5
1596
330
1584
100
AcDbEntity
  8
LW 3500-39-00
100
AcDbVertex
100
AcDb2dVertex
 10
49.24194790840147
 20
-67.34341621398925
 30
0.0
  0
VERTEX
  5
1597
330
1584
100
AcDbEntity
  8
LW 3500-39-00
100
AcDbVertex
100
AcDb2dVertex
 10
49.43421103477476
 20
-67.49663412570953
 30
0.0
  0
VERTEX
  5
1598
330
1584
100
AcDbEntity
  8
LW 3500-39-00
100
AcDbVertex
100
AcDb2dVertex
 10
49.60275866508482
 20
-67.67038345336914
 30
0.0
  0
VERTEX
  5
1599
330
1584
100
AcDbEntity
  8
LW 3500-39-00
100
AcDbVertex
100
AcDb2dVertex
 10
49.74932291030881
 20
-67.86619782447814
 30
0.0
  0
VERTEX
  5
159A
330
1584
100
AcDbEntity
  8
LW 3500-39-00
100
AcDbVertex
100
AcDb2dVertex
 10
49.86763216972349
 20
-68.07852804660797
 30
0.0
  0
VERTEX
  5
159B
330
1584
100
AcDbEntity
  8
LW 3500-39-00
100
AcDbVertex
100
AcDb2dVertex
 10
49.95250799179075
 20
-68.30145597457885
 30
0.0
  0
VERTEX
  5
159C
330
1584
100
AcDbEntity
  8
LW 3500-39-00
100
AcDbVertex
100
AcDb2dVertex
 10
50.00318386077879
 20
-68.52777421474456
 30
0.0
  0
VERTEX
  5
159D
330
1584
100
AcDbEntity
  8
LW 3500-39-00
100
AcDbVertex
100
AcDb2dVertex
 10
50.01999952316282
 20
-68.75
 30
0.0
  0
SEQEND
  5
159E
330
1584
100
AcDbEntity
  8
LW 3500-39-00
  0
POLYLINE
  5
159F
330
14CE
100
AcDbEntity
  8
LW 3500-39-00
100
AcDb2dPolyline
 66
     1
 10
0.0
 20
0.0
 30
0.0
 70
   128
  0
VERTEX
  5
15A0
330
159F
100
AcDbEntity
  8
LW 3500-39-00
100
AcDbVertex
100
AcDb2dVertex
 10
50.01999952316282
 20
-42.5
 30
0.0
  0
VERTEX
  5
15A1
330
159F
100
AcDbEntity
  8
LW 3500-39-00
100
AcDbVertex
100
AcDb2dVertex
 10
50.00318386077879
 20
-42.50194668769836
 30
0.0
  0
VERTEX
  5
15A2
330
159F
100
AcDbEntity
  8
LW 3500-39-00
100
AcDbVertex
100
AcDb2dVertex
 10
49.95250799179075
 20
-42.50761866569519
 30
0.0
  0
VERTEX
  5
15A3
330
159F
100
AcDbEntity
  8
LW 3500-39-00
100
AcDbVertex
100
AcDb2dVertex
 10
49.86763216972349
 20
-42.51675844192504
 30
0.0
  0
VERTEX
  5
15A4
330
159F
100
AcDbEntity
  8
LW 3500-39-00
100
AcDbVertex
100
AcDb2dVertex
 10
49.74932291030881
 20
-42.52885103225708
 30
0.0
  0
VERTEX
  5
15A5
330
159F
100
AcDbEntity
  8
LW 3500-39-00
100
AcDbVertex
100
AcDb2dVertex
 10
49.60275866508482
 20
-42.54274606704711
 30
0.0
  0
VERTEX
  5
15A6
330
159F
100
AcDbEntity
  8
LW 3500-39-00
100
AcDbVertex
100
AcDb2dVertex
 10
49.43421103477476
 20
-42.55723714828491
 30
0.0
  0
VERTEX
  5
15A7
330
159F
100
AcDbEntity
  8
LW 3500-39-00
100
AcDbVertex
100
AcDb2dVertex
 10
49.24194790840147
 20
-42.57174134254455
 30
0.0
  0
VERTEX
  5
15A8
330
159F
100
AcDbEntity
  8
LW 3500-39-00
100
AcDbVertex
100
AcDb2dVertex
 10
49.02386404991148
 20
-42.58566975593566
 30
0.0
  0
VERTEX
  5
15A9
330
159F
100
AcDbEntity
  8
LW 3500-39-00
100
AcDbVertex
100
AcDb2dVertex
 10
48.78566958427427
 20
-42.59780883789062
 30
0.0
  0
VERTEX
  5
15AA
330
159F
100
AcDbEntity
  8
LW 3500-39-00
100
AcDbVertex
100
AcDb2dVertex
 10
48.5335335922241
 20
-42.6069951057434
 30
0.0
  0
VERTEX
  5
15AB
330
159F
100
AcDbEntity
  8
LW 3500-39-00
100
AcDbVertex
100
AcDb2dVertex
 10
48.27547885894773
 20
-42.6127004623413
 30
0.0
  0
VERTEX
  5
15AC
330
159F
100
AcDbEntity
  8
LW 3500-39-00
100
AcDbVertex
100
AcDb2dVertex
 10
48.02000023841856
 20
-42.61466145515441
 30
0.0
  0
VERTEX
  5
15AD
330
159F
100
AcDbEntity
  8
LW 3500-39-00
100
AcDbVertex
100
AcDb2dVertex
 10
47.76452042579649
 20
-42.6127004623413
 30
0.0
  0
VERTEX
  5
15AE
330
159F
100
AcDbEntity
  8
LW 3500-39-00
100
AcDbVertex
100
AcDb2dVertex
 10
47.50646688461301
 20
-42.6069951057434
 30
0.0
  0
VERTEX
  5
15AF
330
159F
100
AcDbEntity
  8
LW 3500-39-00
100
AcDbVertex
100
AcDb2dVertex
 10
47.25433089256284
 20
-42.59780883789062
 30
0.0
  0
VERTEX
  5
15B0
330
159F
100
AcDbEntity
  8
LW 3500-39-00
100
AcDbVertex
100
AcDb2dVertex
 10
47.01613642692564
 20
-42.58566975593566
 30
0.0
  0
VERTEX
  5
15B1
330
159F
100
AcDbEntity
  8
LW 3500-39-00
100
AcDbVertex
100
AcDb2dVertex
 10
46.79805137634275
 20
-42.57174134254455
 30
0.0
  0
VERTEX
  5
15B2
330
159F
100
AcDbEntity
  8
LW 3500-39-00
100
AcDbVertex
100
AcDb2dVertex
 10
46.60578944206235
 20
-42.55723714828491
 30
0.0
  0
VERTEX
  5
15B3
330
159F
100
AcDbEntity
  8
LW 3500-39-00
100
AcDbVertex
100
AcDb2dVertex
 10
46.4372418117523
 20
-42.54274606704711
 30
0.0
  0
VERTEX
  5
15B4
330
159F
100
AcDbEntity
  8
LW 3500-39-00
100
AcDbVertex
100
AcDb2dVertex
 10
46.2906763744354
 20
-42.52885103225708
 30
0.0
  0
VERTEX
  5
15B5
330
159F
100
AcDbEntity
  8
LW 3500-39-00
100
AcDbVertex
100
AcDb2dVertex
 10
46.17236830711362
 20
-42.51675844192504
 30
0.0
  0
VERTEX
  5
15B6
330
159F
100
AcDbEntity
  8
LW 3500-39-00
100
AcDbVertex
100
AcDb2dVertex
 10
46.08749248504636
 20
-42.50761866569519
 30
0.0
  0
VERTEX
  5
15B7
330
159F
100
AcDbEntity
  8
LW 3500-39-00
100
AcDbVertex
100
AcDb2dVertex
 10
46.03681661605833
 20
-42.50194668769836
 30
0.0
  0
VERTEX
  5
15B8
330
159F
100
AcDbEntity
  8
LW 3500-39-00
100
AcDbVertex
100
AcDb2dVertex
 10
46.0199997615814
 20
-42.5
 30
0.0
  0
SEQEND
  5
15B9
330
159F
100
AcDbEntity
  8
LW 3500-39-00
  0
LINE
  5
15BA
330
14CE
100
AcDbEntity
  8
LW 3500-39-00
100
AcDbLine
 10
52.01999999999998
 20
-77.5
 30
0.0
 11
52.01999999999998
 21
-42.5
 31
0.0
  0
LINE
  5
15BB
330
14CE
100
AcDbEntity
  8
LW 3500-39-00
100
AcDbLine
 10
55.01999999999998
 20
-74.49999999999994
 30
0.0
 11
55.01999999999998
 21
-45.49999999999999
 31
0.0
  0
LINE
  5
15BC
330
14CE
100
AcDbEntity
  8
LW 3500-39-00
100
AcDbLine
 10
32.01999999999998
 20
-42.5
 30
0.0
 11
46.01999999999998
 21
-42.5
 31
0.0
  0
LINE
  5
15BD
330
14CE
100
AcDbEntity
  8
LW 3500-39-00
100
AcDbLine
 10
50.01999999999998
 20
-42.5
 30
0.0
 11
52.01999999999998
 21
-42.5
 31
0.0
  0
LINE
  5
15BE
330
14CE
100
AcDbEntity
  8
LW 3500-39-00
100
AcDbLine
 10
32.01999999999998
 20
-77.5
 30
0.0
 11
52.01999999999998
 21
-77.5
 31
0.0
  0
LINE
  5
15BF
330
14CE
100
AcDbEntity
  8
LW 3500-39-00
100
AcDbLine
 10
55.01999999999998
 20
-74.49999999999994
 30
0.0
 11
52.01999999999998
 21
-77.5
 31
0.0
  0
LINE
  5
15C0
330
14CE
100
AcDbEntity
  8
LW 3500-39-00
100
AcDbLine
 10
55.01999999999998
 20
-45.49999999999999
 30
0.0
 11
52.01999999999998
 21
-42.5
 31
0.0
  0
ELLIPSE
  5
15C1
330
14CE
100
AcDbEntity
  8
LW 3500-39-00
100
AcDbEllipse
 10
48.01999999999998
 20
-146.25
 30
0.0
 11
-1.999999999999996
 21
0.0000000000001138
 31
0.0
210
0.0
220
0.0
230
1.0
 40
0.8660254037844353
 41
0.7941688477848095
 42
2.347423805805161
  0
POLYLINE
  5
15C2
330
14CE
100
AcDbEntity
  8
LW 3500-39-00
100
AcDb2dPolyline
 66
     1
 10
0.0
 20
0.0
 30
0.0
 70
   128
  0
VERTEX
  5
15C3
330
15C2
100
AcDbEntity
  8
LW 3500-39-00
100
AcDbVertex
100
AcDb2dVertex
 10
50.01999952316282
 20
-148.75
 30
0.0
  0
VERTEX
  5
15C4
330
15C2
100
AcDbEntity
  8
LW 3500-39-00
100
AcDbVertex
100
AcDb2dVertex
 10
50.00318386077879
 20
-148.9702785015106
 30
0.0
  0
VERTEX
  5
15C5
330
15C2
100
AcDbEntity
  8
LW 3500-39-00
100
AcDbVertex
100
AcDb2dVertex
 10
49.95250799179075
 20
-149.1909259557724
 30
0.0
  0
VERTEX
  5
15C6
330
15C2
100
AcDbEntity
  8
LW 3500-39-00
100
AcDbVertex
100
AcDb2dVertex
 10
49.86763216972349
 20
-149.4047135114669
 30
0.0
  0
VERTEX
  5
15C7
330
15C2
100
AcDbEntity
  8
LW 3500-39-00
100
AcDbVertex
100
AcDb2dVertex
 10
49.74932291030881
 20
-149.6049517393112
 30
0.0
  0
VERTEX
  5
15C8
330
15C2
100
AcDbEntity
  8
LW 3500-39-00
100
AcDbVertex
100
AcDb2dVertex
 10
49.60275866508482
 20
-149.7868710756302
 30
0.0
  0
VERTEX
  5
15C9
330
15C2
100
AcDbEntity
  8
LW 3500-39-00
100
AcDbVertex
100
AcDb2dVertex
 10
49.43421103477476
 20
-149.946129322052
 30
0.0
  0
VERTEX
  5
15CA
330
15C2
100
AcDbEntity
  8
LW 3500-39-00
100
AcDbVertex
100
AcDb2dVertex
 10
49.24194790840147
 20
-150.0848424434662
 30
0.0
  0
VERTEX
  5
15CB
330
15C2
100
AcDbEntity
  8
LW 3500-39-00
100
AcDbVertex
100
AcDb2dVertex
 10
49.02386404991148
 20
-150.2048063278198
 30
0.0
  0
VERTEX
  5
15CC
330
15C2
100
AcDbEntity
  8
LW 3500-39-00
100
AcDbVertex
100
AcDb2dVertex
 10
48.78566958427427
 20
-150.3011929988861
 30
0.0
  0
VERTEX
  5
15CD
330
15C2
100
AcDbEntity
  8
LW 3500-39-00
100
AcDbVertex
100
AcDb2dVertex
 10
48.5335335922241
 20
-150.3701031208038
 30
0.0
  0
VERTEX
  5
15CE
330
15C2
100
AcDbEntity
  8
LW 3500-39-00
100
AcDbVertex
100
AcDb2dVertex
 10
48.27547885894773
 20
-150.411137342453
 30
0.0
  0
VERTEX
  5
15CF
330
15C2
100
AcDbEntity
  8
LW 3500-39-00
100
AcDbVertex
100
AcDb2dVertex
 10
48.02000023841856
 20
-150.4247200489044
 30
0.0
  0
VERTEX
  5
15D0
330
15C2
100
AcDbEntity
  8
LW 3500-39-00
100
AcDbVertex
100
AcDb2dVertex
 10
47.76452042579649
 20
-150.411137342453
 30
0.0
  0
VERTEX
  5
15D1
330
15C2
100
AcDbEntity
  8
LW 3500-39-00
100
AcDbVertex
100
AcDb2dVertex
 10
47.50646688461301
 20
-150.3701031208038
 30
0.0
  0
VERTEX
  5
15D2
330
15C2
100
AcDbEntity
  8
LW 3500-39-00
100
AcDbVertex
100
AcDb2dVertex
 10
47.25433089256284
 20
-150.3011929988861
 30
0.0
  0
VERTEX
  5
15D3
330
15C2
100
AcDbEntity
  8
LW 3500-39-00
100
AcDbVertex
100
AcDb2dVertex
 10
47.01613642692564
 20
-150.2048063278198
 30
0.0
  0
VERTEX
  5
15D4
330
15C2
100
AcDbEntity
  8
LW 3500-39-00
100
AcDbVertex
100
AcDb2dVertex
 10
46.79805137634275
 20
-150.0848424434662
 30
0.0
  0
VERTEX
  5
15D5
330
15C2
100
AcDbEntity
  8
LW 3500-39-00
100
AcDbVertex
100
AcDb2dVertex
 10
46.60578944206235
 20
-149.946129322052
 30
0.0
  0
VERTEX
  5
15D6
330
15C2
100
AcDbEntity
  8
LW 3500-39-00
100
AcDbVertex
100
AcDb2dVertex
 10
46.4372418117523
 20
-149.7868710756302
 30
0.0
  0
VERTEX
  5
15D7
330
15C2
100
AcDbEntity
  8
LW 3500-39-00
100
AcDbVertex
100
AcDb2dVertex
 10
46.2906763744354
 20
-149.6049517393112
 30
0.0
  0
VERTEX
  5
15D8
330
15C2
100
AcDbEntity
  8
LW 3500-39-00
100
AcDbVertex
100
AcDb2dVertex
 10
46.17236830711362
 20
-149.4047135114669
 30
0.0
  0
VERTEX
  5
15D9
330
15C2
100
AcDbEntity
  8
LW 3500-39-00
100
AcDbVertex
100
AcDb2dVertex
 10
46.08749248504636
 20
-149.1909259557724
 30
0.0
  0
VERTEX
  5
15DA
330
15C2
100
AcDbEntity
  8
LW 3500-39-00
100
AcDbVertex
100
AcDb2dVertex
 10
46.03681661605833
 20
-148.9702785015106
 30
0.0
  0
VERTEX
  5
15DB
330
15C2
100
AcDbEntity
  8
LW 3500-39-00
100
AcDbVertex
100
AcDb2dVertex
 10
46.0199997615814
 20
-148.75
 30
0.0
  0
SEQEND
  5
15DC
330
15C2
100
AcDbEntity
  8
LW 3500-39-00
  0
POLYLINE
  5
15DD
330
14CE
100
AcDbEntity
  8
LW 3500-39-00
100
AcDb2dPolyline
 66
     1
 10
0.0
 20
0.0
 30
0.0
 70
   128
  0
VERTEX
  5
15DE
330
15DD
100
AcDbEntity
  8
LW 3500-39-00
100
AcDbVertex
100
AcDb2dVertex
 10
46.0199997615814
 20
-148.75
 30
0.0
  0
VERTEX
  5
15DF
330
15DD
100
AcDbEntity
  8
LW 3500-39-00
100
AcDbVertex
100
AcDb2dVertex
 10
46.03681661605833
 20
-148.5277742147445
 30
0.0
  0
VERTEX
  5
15E0
330
15DD
100
AcDbEntity
  8
LW 3500-39-00
100
AcDbVertex
100
AcDb2dVertex
 10
46.08749248504636
 20
-148.3014559745788
 30
0.0
  0
VERTEX
  5
15E1
330
15DD
100
AcDbEntity
  8
LW 3500-39-00
100
AcDbVertex
100
AcDb2dVertex
 10
46.17236830711362
 20
-148.0785280466079
 30
0.0
  0
VERTEX
  5
15E2
330
15DD
100
AcDbEntity
  8
LW 3500-39-00
100
AcDbVertex
100
AcDb2dVertex
 10
46.2906763744354
 20
-147.8661978244781
 30
0.0
  0
VERTEX
  5
15E3
330
15DD
100
AcDbEntity
  8
LW 3500-39-00
100
AcDbVertex
100
AcDb2dVertex
 10
46.4372418117523
 20
-147.6703834533691
 30
0.0
  0
VERTEX
  5
15E4
330
15DD
100
AcDbEntity
  8
LW 3500-39-00
100
AcDbVertex
100
AcDb2dVertex
 10
46.60578944206235
 20
-147.4966341257095
 30
0.0
  0
VERTEX
  5
15E5
330
15DD
100
AcDbEntity
  8
LW 3500-39-00
100
AcDbVertex
100
AcDb2dVertex
 10
46.79805137634275
 20
-147.3434162139892
 30
0.0
  0
VERTEX
  5
15E6
330
15DD
100
AcDbEntity
  8
LW 3500-39-00
100
AcDbVertex
100
AcDb2dVertex
 10
47.01613642692564
 20
-147.2095239162445
 30
0.0
  0
VERTEX
  5
15E7
330
15DD
100
AcDbEntity
  8
LW 3500-39-00
100
AcDbVertex
100
AcDb2dVertex
 10
47.25433089256284
 20
-147.1009975671768
 30
0.0
  0
VERTEX
  5
15E8
330
15DD
100
AcDbEntity
  8
LW 3500-39-00
100
AcDbVertex
100
AcDb2dVertex
 10
47.50646688461301
 20
-147.0229011774063
 30
0.0
  0
VERTEX
  5
15E9
330
15DD
100
AcDbEntity
  8
LW 3500-39-00
100
AcDbVertex
100
AcDb2dVertex
 10
47.76452042579649
 20
-146.9761621952057
 30
0.0
  0
VERTEX
  5
15EA
330
15DD
100
AcDbEntity
  8
LW 3500-39-00
100
AcDbVertex
100
AcDb2dVertex
 10
48.02000023841856
 20
-146.9606184959411
 30
0.0
  0
VERTEX
  5
15EB
330
15DD
100
AcDbEntity
  8
LW 3500-39-00
100
AcDbVertex
100
AcDb2dVertex
 10
48.27547885894773
 20
-146.9761621952057
 30
0.0
  0
VERTEX
  5
15EC
330
15DD
100
AcDbEntity
  8
LW 3500-39-00
100
AcDbVertex
100
AcDb2dVertex
 10
48.5335335922241
 20
-147.0229011774063
 30
0.0
  0
VERTEX
  5
15ED
330
15DD
100
AcDbEntity
  8
LW 3500-39-00
100
AcDbVertex
100
AcDb2dVertex
 10
48.78566958427427
 20
-147.1009975671768
 30
0.0
  0
VERTEX
  5
15EE
330
15DD
100
AcDbEntity
  8
LW 3500-39-00
100
AcDbVertex
100
AcDb2dVertex
 10
49.02386404991148
 20
-147.2095239162445
 30
0.0
  0
VERTEX
  5
15EF
330
15DD
100
AcDbEntity
  8
LW 3500-39-00
100
AcDbVertex
100
AcDb2dVertex
 10
49.24194790840147
 20
-147.3434162139892
 30
0.0
  0
VERTEX
  5
15F0
330
15DD
100
AcDbEntity
  8
LW 3500-39-00
100
AcDbVertex
100
AcDb2dVertex
 10
49.43421103477476
 20
-147.4966341257095
 30
0.0
  0
VERTEX
  5
15F1
330
15DD
100
AcDbEntity
  8
LW 3500-39-00
100
AcDbVertex
100
AcDb2dVertex
 10
49.60275866508482
 20
-147.6703834533691
 30
0.0
  0
VERTEX
  5
15F2
330
15DD
100
AcDbEntity
  8
LW 3500-39-00
100
AcDbVertex
100
AcDb2dVertex
 10
49.74932291030881
 20
-147.8661978244781
 30
0.0
  0
VERTEX
  5
15F3
330
15DD
100
AcDbEntity
  8
LW 3500-39-00
100
AcDbVertex
100
AcDb2dVertex
 10
49.86763216972349
 20
-148.0785280466079
 30
0.0
  0
VERTEX
  5
15F4
330
15DD
100
AcDbEntity
  8
LW 3500-39-00
100
AcDbVertex
100
AcDb2dVertex
 10
49.95250799179075
 20
-148.3014559745788
 30
0.0
  0
VERTEX
  5
15F5
330
15DD
100
AcDbEntity
  8
LW 3500-39-00
100
AcDbVertex
100
AcDb2dVertex
 10
50.00318386077879
 20
-148.5277742147445
 30
0.0
  0
VERTEX
  5
15F6
330
15DD
100
AcDbEntity
  8
LW 3500-39-00
100
AcDbVertex
100
AcDb2dVertex
 10
50.01999952316282
 20
-148.75
 30
0.0
  0
SEQEND
  5
15F7
330
15DD
100
AcDbEntity
  8
LW 3500-39-00
  0
POLYLINE
  5
15F8
330
14CE
100
AcDbEntity
  8
LW 3500-39-00
100
AcDb2dPolyline
 66
     1
 10
0.0
 20
0.0
 30
0.0
 70
   128
  0
VERTEX
  5
15F9
330
15F8
100
AcDbEntity
  8
LW 3500-39-00
100
AcDbVertex
100
AcDb2dVertex
 10
50.01999952316282
 20
-122.4999999999999
 30
0.0
  0
VERTEX
  5
15FA
330
15F8
100
AcDbEntity
  8
LW 3500-39-00
100
AcDbVertex
100
AcDb2dVertex
 10
50.00318386077879
 20
-122.5019466876983
 30
0.0
  0
VERTEX
  5
15FB
330
15F8
100
AcDbEntity
  8
LW 3500-39-00
100
AcDbVertex
100
AcDb2dVertex
 10
49.95250799179075
 20
-122.5076186656951
 30
0.0
  0
VERTEX
  5
15FC
330
15F8
100
AcDbEntity
  8
LW 3500-39-00
100
AcDbVertex
100
AcDb2dVertex
 10
49.86763216972349
 20
-122.516758441925
 30
0.0
  0
VERTEX
  5
15FD
330
15F8
100
AcDbEntity
  8
LW 3500-39-00
100
AcDbVertex
100
AcDb2dVertex
 10
49.74932291030881
 20
-122.528851032257
 30
0.0
  0
VERTEX
  5
15FE
330
15F8
100
AcDbEntity
  8
LW 3500-39-00
100
AcDbVertex
100
AcDb2dVertex
 10
49.60275866508482
 20
-122.5427460670471
 30
0.0
  0
VERTEX
  5
15FF
330
15F8
100
AcDbEntity
  8
LW 3500-39-00
100
AcDbVertex
100
AcDb2dVertex
 10
49.43421103477476
 20
-122.5572371482849
 30
0.0
  0
VERTEX
  5
1600
330
15F8
100
AcDbEntity
  8
LW 3500-39-00
100
AcDbVertex
100
AcDb2dVertex
 10
49.24194790840147
 20
-122.5717413425445
 30
0.0
  0
VERTEX
  5
1601
330
15F8
100
AcDbEntity
  8
LW 3500-39-00
100
AcDbVertex
100
AcDb2dVertex
 10
49.02386404991148
 20
-122.5856697559356
 30
0.0
  0
VERTEX
  5
1602
330
15F8
100
AcDbEntity
  8
LW 3500-39-00
100
AcDbVertex
100
AcDb2dVertex
 10
48.78566958427427
 20
-122.5978088378906
 30
0.0
  0
VERTEX
  5
1603
330
15F8
100
AcDbEntity
  8
LW 3500-39-00
100
AcDbVertex
100
AcDb2dVertex
 10
48.5335335922241
 20
-122.6069951057433
 30
0.0
  0
VERTEX
  5
1604
330
15F8
100
AcDbEntity
  8
LW 3500-39-00
100
AcDbVertex
100
AcDb2dVertex
 10
48.27547885894773
 20
-122.6127004623412
 30
0.0
  0
VERTEX
  5
1605
330
15F8
100
AcDbEntity
  8
LW 3500-39-00
100
AcDbVertex
100
AcDb2dVertex
 10
48.02000023841856
 20
-122.6146614551544
 30
0.0
  0
VERTEX
  5
1606
330
15F8
100
AcDbEntity
  8
LW 3500-39-00
100
AcDbVertex
100
AcDb2dVertex
 10
47.76452042579649
 20
-122.6127004623412
 30
0.0
  0
VERTEX
  5
1607
330
15F8
100
AcDbEntity
  8
LW 3500-39-00
100
AcDbVertex
100
AcDb2dVertex
 10
47.50646688461301
 20
-122.6069951057433
 30
0.0
  0
VERTEX
  5
1608
330
15F8
100
AcDbEntity
  8
LW 3500-39-00
100
AcDbVertex
100
AcDb2dVertex
 10
47.25433089256284
 20
-122.5978088378906
 30
0.0
  0
VERTEX
  5
1609
330
15F8
100
AcDbEntity
  8
LW 3500-39-00
100
AcDbVertex
100
AcDb2dVertex
 10
47.01613642692564
 20
-122.5856697559356
 30
0.0
  0
VERTEX
  5
160A
330
15F8
100
AcDbEntity
  8
LW 3500-39-00
100
AcDbVertex
100
AcDb2dVertex
 10
46.79805137634275
 20
-122.5717413425445
 30
0.0
  0
VERTEX
  5
160B
330
15F8
100
AcDbEntity
  8
LW 3500-39-00
100
AcDbVertex
100
AcDb2dVertex
 10
46.60578944206235
 20
-122.5572371482849
 30
0.0
  0
VERTEX
  5
160C
330
15F8
100
AcDbEntity
  8
LW 3500-39-00
100
AcDbVertex
100
AcDb2dVertex
 10
46.4372418117523
 20
-122.5427460670471
 30
0.0
  0
VERTEX
  5
160D
330
15F8
100
AcDbEntity
  8
LW 3500-39-00
100
AcDbVertex
100
AcDb2dVertex
 10
46.2906763744354
 20
-122.528851032257
 30
0.0
  0
VERTEX
  5
160E
330
15F8
100
AcDbEntity
  8
LW 3500-39-00
100
AcDbVertex
100
AcDb2dVertex
 10
46.17236830711362
 20
-122.516758441925
 30
0.0
  0
VERTEX
  5
160F
330
15F8
100
AcDbEntity
  8
LW 3500-39-00
100
AcDbVertex
100
AcDb2dVertex
 10
46.08749248504636
 20
-122.5076186656951
 30
0.0
  0
VERTEX
  5
1610
330
15F8
100
AcDbEntity
  8
LW 3500-39-00
100
AcDbVertex
100
AcDb2dVertex
 10
46.03681661605833
 20
-122.5019466876983
 30
0.0
  0
VERTEX
  5
1611
330
15F8
100
AcDbEntity
  8
LW 3500-39-00
100
AcDbVertex
100
AcDb2dVertex
 10
46.0199997615814
 20
-122.4999999999999
 30
0.0
  0
SEQEND
  5
1612
330
15F8
100
AcDbEntity
  8
LW 3500-39-00
  0
LINE
  5
1613
330
14CE
100
AcDbEntity
  8
LW 3500-39-00
100
AcDbLine
 10
52.01999999999998
 20
-157.5
 30
0.0
 11
52.01999999999998
 21
-122.4999999999999
 31
0.0
  0
LINE
  5
1614
330
14CE
100
AcDbEntity
  8
LW 3500-39-00
100
AcDbLine
 10
55.01999999999998
 20
-154.4999999999999
 30
0.0
 11
55.01999999999998
 21
-125.5
 31
0.0
  0
LINE
  5
1615
330
14CE
100
AcDbEntity
  8
LW 3500-39-00
100
AcDbLine
 10
32.01999999999998
 20
-122.4999999999999
 30
0.0
 11
46.01999999999998
 21
-122.4999999999999
 31
0.0
  0
LINE
  5
1616
330
14CE
100
AcDbEntity
  8
LW 3500-39-00
100
AcDbLine
 10
50.01999999999998
 20
-122.4999999999999
 30
0.0
 11
52.01999999999998
 21
-122.4999999999999
 31
0.0
  0
LINE
  5
1617
330
14CE
100
AcDbEntity
  8
LW 3500-39-00
100
AcDbLine
 10
32.01999999999998
 20
-157.5
 30
0.0
 11
52.01999999999998
 21
-157.5
 31
0.0
  0
LINE
  5
1618
330
14CE
100
AcDbEntity
  8
LW 3500-39-00
100
AcDbLine
 10
55.01999999999998
 20
-154.4999999999999
 30
0.0
 11
52.01999999999998
 21
-157.5
 31
0.0
  0
LINE
  5
1619
330
14CE
100
AcDbEntity
  8
LW 3500-39-00
100
AcDbLine
 10
55.01999999999998
 20
-125.5
 30
0.0
 11
52.01999999999998
 21
-122.4999999999999
 31
0.0
  0
ELLIPSE
  5
161A
330
14CE
100
AcDbEntity
  8
LW 3500-39-00
100
AcDbEllipse
 10
-48.02000000000001
 20
-146.25
 30
0.0
 11
-1.999999999999997
 21
0.0000000000001147
 31
0.0
210
0.0
220
0.0
230
1.0
 40
0.8660254037844351
 41
0.7941688477848099
 42
2.347423805805161
  0
POLYLINE
  5
161B
330
14CE
100
AcDbEntity
  8
LW 3500-39-00
100
AcDb2dPolyline
 66
     1
 10
0.0
 20
0.0
 30
0.0
 70
   128
  0
VERTEX
  5
161C
330
161B
100
AcDbEntity
  8
LW 3500-39-00
100
AcDbVertex
100
AcDb2dVertex
 10
-50.01999952316282
 20
-148.75
 30
0.0
  0
VERTEX
  5
161D
330
161B
100
AcDbEntity
  8
LW 3500-39-00
100
AcDbVertex
100
AcDb2dVertex
 10
-50.00318386077879
 20
-148.5277742147445
 30
0.0
  0
VERTEX
  5
161E
330
161B
100
AcDbEntity
  8
LW 3500-39-00
100
AcDbVertex
100
AcDb2dVertex
 10
-49.95250799179075
 20
-148.3014559745788
 30
0.0
  0
VERTEX
  5
161F
330
161B
100
AcDbEntity
  8
LW 3500-39-00
100
AcDbVertex
100
AcDb2dVertex
 10
-49.86763216972349
 20
-148.0785280466079
 30
0.0
  0
VERTEX
  5
1620
330
161B
100
AcDbEntity
  8
LW 3500-39-00
100
AcDbVertex
100
AcDb2dVertex
 10
-49.74932291030881
 20
-147.8661978244781
 30
0.0
  0
VERTEX
  5
1621
330
161B
100
AcDbEntity
  8
LW 3500-39-00
100
AcDbVertex
100
AcDb2dVertex
 10
-49.60275866508482
 20
-147.6703834533691
 30
0.0
  0
VERTEX
  5
1622
330
161B
100
AcDbEntity
  8
LW 3500-39-00
100
AcDbVertex
100
AcDb2dVertex
 10
-49.43421103477476
 20
-147.4966341257095
 30
0.0
  0
VERTEX
  5
1623
330
161B
100
AcDbEntity
  8
LW 3500-39-00
100
AcDbVertex
100
AcDb2dVertex
 10
-49.24194790840147
 20
-147.3434162139892
 30
0.0
  0
VERTEX
  5
1624
330
161B
100
AcDbEntity
  8
LW 3500-39-00
100
AcDbVertex
100
AcDb2dVertex
 10
-49.02386404991148
 20
-147.2095239162445
 30
0.0
  0
VERTEX
  5
1625
330
161B
100
AcDbEntity
  8
LW 3500-39-00
100
AcDbVertex
100
AcDb2dVertex
 10
-48.78566958427427
 20
-147.1009975671768
 30
0.0
  0
VERTEX
  5
1626
330
161B
100
AcDbEntity
  8
LW 3500-39-00
100
AcDbVertex
100
AcDb2dVertex
 10
-48.5335335922241
 20
-147.0229011774063
 30
0.0
  0
VERTEX
  5
1627
330
161B
100
AcDbEntity
  8
LW 3500-39-00
100
AcDbVertex
100
AcDb2dVertex
 10
-48.27547885894773
 20
-146.9761621952057
 30
0.0
  0
VERTEX
  5
1628
330
161B
100
AcDbEntity
  8
LW 3500-39-00
100
AcDbVertex
100
AcDb2dVertex
 10
-48.02000023841856
 20
-146.9606184959411
 30
0.0
  0
VERTEX
  5
1629
330
161B
100
AcDbEntity
  8
LW 3500-39-00
100
AcDbVertex
100
AcDb2dVertex
 10
-47.76452042579649
 20
-146.9761621952057
 30
0.0
  0
VERTEX
  5
162A
330
161B
100
AcDbEntity
  8
LW 3500-39-00
100
AcDbVertex
100
AcDb2dVertex
 10
-47.50646688461301
 20
-147.0229011774063
 30
0.0
  0
VERTEX
  5
162B
330
161B
100
AcDbEntity
  8
LW 3500-39-00
100
AcDbVertex
100
AcDb2dVertex
 10
-47.25433089256284
 20
-147.1009975671768
 30
0.0
  0
VERTEX
  5
162C
330
161B
100
AcDbEntity
  8
LW 3500-39-00
100
AcDbVertex
100
AcDb2dVertex
 10
-47.01613642692564
 20
-147.2095239162445
 30
0.0
  0
VERTEX
  5
162D
330
161B
100
AcDbEntity
  8
LW 3500-39-00
100
AcDbVertex
100
AcDb2dVertex
 10
-46.79805137634275
 20
-147.3434162139892
 30
0.0
  0
VERTEX
  5
162E
330
161B
100
AcDbEntity
  8
LW 3500-39-00
100
AcDbVertex
100
AcDb2dVertex
 10
-46.60578944206235
 20
-147.4966341257095
 30
0.0
  0
VERTEX
  5
162F
330
161B
100
AcDbEntity
  8
LW 3500-39-00
100
AcDbVertex
100
AcDb2dVertex
 10
-46.4372418117523
 20
-147.6703834533691
 30
0.0
  0
VERTEX
  5
1630
330
161B
100
AcDbEntity
  8
LW 3500-39-00
100
AcDbVertex
100
AcDb2dVertex
 10
-46.2906763744354
 20
-147.8661978244781
 30
0.0
  0
VERTEX
  5
1631
330
161B
100
AcDbEntity
  8
LW 3500-39-00
100
AcDbVertex
100
AcDb2dVertex
 10
-46.17236830711362
 20
-148.0785280466079
 30
0.0
  0
VERTEX
  5
1632
330
161B
100
AcDbEntity
  8
LW 3500-39-00
100
AcDbVertex
100
AcDb2dVertex
 10
-46.08749248504636
 20
-148.3014559745788
 30
0.0
  0
VERTEX
  5
1633
330
161B
100
AcDbEntity
  8
LW 3500-39-00
100
AcDbVertex
100
AcDb2dVertex
 10
-46.03681661605833
 20
-148.5277742147445
 30
0.0
  0
VERTEX
  5
1634
330
161B
100
AcDbEntity
  8
LW 3500-39-00
100
AcDbVertex
100
AcDb2dVertex
 10
-46.0199997615814
 20
-148.75
 30
0.0
  0
SEQEND
  5
1635
330
161B
100
AcDbEntity
  8
LW 3500-39-00
  0
POLYLINE
  5
1636
330
14CE
100
AcDbEntity
  8
LW 3500-39-00
100
AcDb2dPolyline
 66
     1
 10
0.0
 20
0.0
 30
0.0
 70
   128
  0
VERTEX
  5
1637
330
1636
100
AcDbEntity
  8
LW 3500-39-00
100
AcDbVertex
100
AcDb2dVertex
 10
-46.0199997615814
 20
-148.75
 30
0.0
  0
VERTEX
  5
1638
330
1636
100
AcDbEntity
  8
LW 3500-39-00
100
AcDbVertex
100
AcDb2dVertex
 10
-46.03681661605833
 20
-148.9702785015106
 30
0.0
  0
VERTEX
  5
1639
330
1636
100
AcDbEntity
  8
LW 3500-39-00
100
AcDbVertex
100
AcDb2dVertex
 10
-46.08749248504636
 20
-149.1909259557724
 30
0.0
  0
VERTEX
  5
163A
330
1636
100
AcDbEntity
  8
LW 3500-39-00
100
AcDbVertex
100
AcDb2dVertex
 10
-46.17236830711362
 20
-149.4047135114669
 30
0.0
  0
VERTEX
  5
163B
330
1636
100
AcDbEntity
  8
LW 3500-39-00
100
AcDbVertex
100
AcDb2dVertex
 10
-46.2906763744354
 20
-149.6049517393112
 30
0.0
  0
VERTEX
  5
163C
330
1636
100
AcDbEntity
  8
LW 3500-39-00
100
AcDbVertex
100
AcDb2dVertex
 10
-46.4372418117523
 20
-149.7868710756302
 30
0.0
  0
VERTEX
  5
163D
330
1636
100
AcDbEntity
  8
LW 3500-39-00
100
AcDbVertex
100
AcDb2dVertex
 10
-46.60578944206235
 20
-149.946129322052
 30
0.0
  0
VERTEX
  5
163E
330
1636
100
AcDbEntity
  8
LW 3500-39-00
100
AcDbVertex
100
AcDb2dVertex
 10
-46.79805137634275
 20
-150.0848424434662
 30
0.0
  0
VERTEX
  5
163F
330
1636
100
AcDbEntity
  8
LW 3500-39-00
100
AcDbVertex
100
AcDb2dVertex
 10
-47.01613642692564
 20
-150.2048063278198
 30
0.0
  0
VERTEX
  5
1640
330
1636
100
AcDbEntity
  8
LW 3500-39-00
100
AcDbVertex
100
AcDb2dVertex
 10
-47.25433089256284
 20
-150.3011929988861
 30
0.0
  0
VERTEX
  5
1641
330
1636
100
AcDbEntity
  8
LW 3500-39-00
100
AcDbVertex
100
AcDb2dVertex
 10
-47.50646688461301
 20
-150.3701031208038
 30
0.0
  0
VERTEX
  5
1642
330
1636
100
AcDbEntity
  8
LW 3500-39-00
100
AcDbVertex
100
AcDb2dVertex
 10
-47.76452042579649
 20
-150.411137342453
 30
0.0
  0
VERTEX
  5
1643
330
1636
100
AcDbEntity
  8
LW 3500-39-00
100
AcDbVertex
100
AcDb2dVertex
 10
-48.02000023841856
 20
-150.4247200489044
 30
0.0
  0
VERTEX
  5
1644
330
1636
100
AcDbEntity
  8
LW 3500-39-00
100
AcDbVertex
100
AcDb2dVertex
 10
-48.27547885894773
 20
-150.411137342453
 30
0.0
  0
VERTEX
  5
1645
330
1636
100
AcDbEntity
  8
LW 3500-39-00
100
AcDbVertex
100
AcDb2dVertex
 10
-48.5335335922241
 20
-150.3701031208038
 30
0.0
  0
VERTEX
  5
1646
330
1636
100
AcDbEntity
  8
LW 3500-39-00
100
AcDbVertex
100
AcDb2dVertex
 10
-48.78566958427427
 20
-150.3011929988861
 30
0.0
  0
VERTEX
  5
1647
330
1636
100
AcDbEntity
  8
LW 3500-39-00
100
AcDbVertex
100
AcDb2dVertex
 10
-49.02386404991148
 20
-150.2048063278198
 30
0.0
  0
VERTEX
  5
1648
330
1636
100
AcDbEntity
  8
LW 3500-39-00
100
AcDbVertex
100
AcDb2dVertex
 10
-49.24194790840147
 20
-150.0848424434662
 30
0.0
  0
VERTEX
  5
1649
330
1636
100
AcDbEntity
  8
LW 3500-39-00
100
AcDbVertex
100
AcDb2dVertex
 10
-49.43421103477476
 20
-149.946129322052
 30
0.0
  0
VERTEX
  5
164A
330
1636
100
AcDbEntity
  8
LW 3500-39-00
100
AcDbVertex
100
AcDb2dVertex
 10
-49.60275866508482
 20
-149.7868710756302
 30
0.0
  0
VERTEX
  5
164B
330
1636
100
AcDbEntity
  8
LW 3500-39-00
100
AcDbVertex
100
AcDb2dVertex
 10
-49.74932291030881
 20
-149.6049517393112
 30
0.0
  0
VERTEX
  5
164C
330
1636
100
AcDbEntity
  8
LW 3500-39-00
100
AcDbVertex
100
AcDb2dVertex
 10
-49.86763216972349
 20
-149.4047135114669
 30
0.0
  0
VERTEX
  5
164D
330
1636
100
AcDbEntity
  8
LW 3500-39-00
100
AcDbVertex
100
AcDb2dVertex
 10
-49.95250799179075
 20
-149.1909259557724
 30
0.0
  0
VERTEX
  5
164E
330
1636
100
AcDbEntity
  8
LW 3500-39-00
100
AcDbVertex
100
AcDb2dVertex
 10
-50.00318386077879
 20
-148.9702785015106
 30
0.0
  0
VERTEX
  5
164F
330
1636
100
AcDbEntity
  8
LW 3500-39-00
100
AcDbVertex
100
AcDb2dVertex
 10
-50.01999952316282
 20
-148.75
 30
0.0
  0
SEQEND
  5
1650
330
1636
100
AcDbEntity
  8
LW 3500-39-00
  0
POLYLINE
  5
1651
330
14CE
100
AcDbEntity
  8
LW 3500-39-00
100
AcDb2dPolyline
 66
     1
 10
0.0
 20
0.0
 30
0.0
 70
   128
  0
VERTEX
  5
1652
330
1651
100
AcDbEntity
  8
LW 3500-39-00
100
AcDbVertex
100
AcDb2dVertex
 10
-46.0199997615814
 20
-122.4999999999999
 30
0.0
  0
VERTEX
  5
1653
330
1651
100
AcDbEntity
  8
LW 3500-39-00
100
AcDbVertex
100
AcDb2dVertex
 10
-46.03681661605833
 20
-122.5019466876983
 30
0.0
  0
VERTEX
  5
1654
330
1651
100
AcDbEntity
  8
LW 3500-39-00
100
AcDbVertex
100
AcDb2dVertex
 10
-46.08749248504636
 20
-122.5076186656951
 30
0.0
  0
VERTEX
  5
1655
330
1651
100
AcDbEntity
  8
LW 3500-39-00
100
AcDbVertex
100
AcDb2dVertex
 10
-46.17236830711362
 20
-122.516758441925
 30
0.0
  0
VERTEX
  5
1656
330
1651
100
AcDbEntity
  8
LW 3500-39-00
100
AcDbVertex
100
AcDb2dVertex
 10
-46.2906763744354
 20
-122.528851032257
 30
0.0
  0
VERTEX
  5
1657
330
1651
100
AcDbEntity
  8
LW 3500-39-00
100
AcDbVertex
100
AcDb2dVertex
 10
-46.4372418117523
 20
-122.5427460670471
 30
0.0
  0
VERTEX
  5
1658
330
1651
100
AcDbEntity
  8
LW 3500-39-00
100
AcDbVertex
100
AcDb2dVertex
 10
-46.60578944206235
 20
-122.5572371482849
 30
0.0
  0
VERTEX
  5
1659
330
1651
100
AcDbEntity
  8
LW 3500-39-00
100
AcDbVertex
100
AcDb2dVertex
 10
-46.79805137634275
 20
-122.5717413425445
 30
0.0
  0
VERTEX
  5
165A
330
1651
100
AcDbEntity
  8
LW 3500-39-00
100
AcDbVertex
100
AcDb2dVertex
 10
-47.01613642692564
 20
-122.5856697559356
 30
0.0
  0
VERTEX
  5
165B
330
1651
100
AcDbEntity
  8
LW 3500-39-00
100
AcDbVertex
100
AcDb2dVertex
 10
-47.25433089256284
 20
-122.5978088378906
 30
0.0
  0
VERTEX
  5
165C
330
1651
100
AcDbEntity
  8
LW 3500-39-00
100
AcDbVertex
100
AcDb2dVertex
 10
-47.50646688461301
 20
-122.6069951057433
 30
0.0
  0
VERTEX
  5
165D
330
1651
100
AcDbEntity
  8
LW 3500-39-00
100
AcDbVertex
100
AcDb2dVertex
 10
-47.76452042579649
 20
-122.6127004623412
 30
0.0
  0
VERTEX
  5
165E
330
1651
100
AcDbEntity
  8
LW 3500-39-00
100
AcDbVertex
100
AcDb2dVertex
 10
-48.02000023841856
 20
-122.6146614551544
 30
0.0
  0
VERTEX
  5
165F
330
1651
100
AcDbEntity
  8
LW 3500-39-00
100
AcDbVertex
100
AcDb2dVertex
 10
-48.27547885894773
 20
-122.6127004623412
 30
0.0
  0
VERTEX
  5
1660
330
1651
100
AcDbEntity
  8
LW 3500-39-00
100
AcDbVertex
100
AcDb2dVertex
 10
-48.5335335922241
 20
-122.6069951057433
 30
0.0
  0
VERTEX
  5
1661
330
1651
100
AcDbEntity
  8
LW 3500-39-00
100
AcDbVertex
100
AcDb2dVertex
 10
-48.78566958427427
 20
-122.5978088378906
 30
0.0
  0
VERTEX
  5
1662
330
1651
100
AcDbEntity
  8
LW 3500-39-00
100
AcDbVertex
100
AcDb2dVertex
 10
-49.02386404991148
 20
-122.5856697559356
 30
0.0
  0
VERTEX
  5
1663
330
1651
100
AcDbEntity
  8
LW 3500-39-00
100
AcDbVertex
100
AcDb2dVertex
 10
-49.24194790840147
 20
-122.5717413425445
 30
0.0
  0
VERTEX
  5
1664
330
1651
100
AcDbEntity
  8
LW 3500-39-00
100
AcDbVertex
100
AcDb2dVertex
 10
-49.43421103477476
 20
-122.5572371482849
 30
0.0
  0
VERTEX
  5
1665
330
1651
100
AcDbEntity
  8
LW 3500-39-00
100
AcDbVertex
100
AcDb2dVertex
 10
-49.60275866508482
 20
-122.5427460670471
 30
0.0
  0
VERTEX
  5
1666
330
1651
100
AcDbEntity
  8
LW 3500-39-00
100
AcDbVertex
100
AcDb2dVertex
 10
-49.74932291030881
 20
-122.528851032257
 30
0.0
  0
VERTEX
  5
1667
330
1651
100
AcDbEntity
  8
LW 3500-39-00
100
AcDbVertex
100
AcDb2dVertex
 10
-49.86763216972349
 20
-122.516758441925
 30
0.0
  0
VERTEX
  5
1668
330
1651
100
AcDbEntity
  8
LW 3500-39-00
100
AcDbVertex
100
AcDb2dVertex
 10
-49.95250799179075
 20
-122.5076186656951
 30
0.0
  0
VERTEX
  5
1669
330
1651
100
AcDbEntity
  8
LW 3500-39-00
100
AcDbVertex
100
AcDb2dVertex
 10
-50.00318386077879
 20
-122.5019466876983
 30
0.0
  0
VERTEX
  5
166A
330
1651
100
AcDbEntity
  8
LW 3500-39-00
100
AcDbVertex
100
AcDb2dVertex
 10
-50.01999952316282
 20
-122.4999999999999
 30
0.0
  0
SEQEND
  5
166B
330
1651
100
AcDbEntity
  8
LW 3500-39-00
  0
LINE
  5
166C
330
14CE
100
AcDbEntity
  8
LW 3500-39-00
100
AcDbLine
 10
-52.01999999999998
 20
-122.4999999999999
 30
0.0
 11
-52.01999999999998
 21
-157.5
 31
0.0
  0
LINE
  5
166D
330
14CE
100
AcDbEntity
  8
LW 3500-39-00
100
AcDbLine
 10
-55.01999999999998
 20
-125.5
 30
0.0
 11
-55.01999999999998
 21
-154.4999999999999
 31
0.0
  0
LINE
  5
166E
330
14CE
100
AcDbEntity
  8
LW 3500-39-00
100
AcDbLine
 10
-32.01999999999998
 20
-157.5
 30
0.0
 11
-52.01999999999998
 21
-157.5
 31
0.0
  0
LINE
  5
166F
330
14CE
100
AcDbEntity
  8
LW 3500-39-00
100
AcDbLine
 10
-32.01999999999998
 20
-122.4999999999999
 30
0.0
 11
-46.02000000000001
 21
-122.4999999999999
 31
0.0
  0
LINE
  5
1670
330
14CE
100
AcDbEntity
  8
LW 3500-39-00
100
AcDbLine
 10
-50.01999999999998
 20
-122.4999999999999
 30
0.0
 11
-52.01999999999998
 21
-122.4999999999999
 31
0.0
  0
LINE
  5
1671
330
14CE
100
AcDbEntity
  8
LW 3500-39-00
100
AcDbLine
 10
-55.01999999999998
 20
-125.5
 30
0.0
 11
-52.01999999999998
 21
-122.4999999999999
 31
0.0
  0
LINE
  5
1672
330
14CE
100
AcDbEntity
  8
LW 3500-39-00
100
AcDbLine
 10
-55.01999999999998
 20
-154.4999999999999
 30
0.0
 11
-52.01999999999998
 21
-157.5
 31
0.0
  0
ELLIPSE
  5
1673
330
14CE
100
AcDbEntity
  8
LW 3500-39-00
100
AcDbEllipse
 10
-48.02000000000001
 20
-66.25
 30
0.0
 11
-1.999999999999942
 21
0.0000000000001831
 31
0.0
210
0.0
220
0.0
230
1.0
 40
0.866025403784473
 41
0.794168847784833
 42
2.347423805805217
  0
POLYLINE
  5
1674
330
14CE
100
AcDbEntity
  8
LW 3500-39-00
100
AcDb2dPolyline
 66
     1
 10
0.0
 20
0.0
 30
0.0
 70
   128
  0
VERTEX
  5
1675
330
1674
100
AcDbEntity
  8
LW 3500-39-00
100
AcDbVertex
100
AcDb2dVertex
 10
-50.01999952316282
 20
-68.75
 30
0.0
  0
VERTEX
  5
1676
330
1674
100
AcDbEntity
  8
LW 3500-39-00
100
AcDbVertex
100
AcDb2dVertex
 10
-50.00318386077879
 20
-68.52777421474456
 30
0.0
  0
VERTEX
  5
1677
330
1674
100
AcDbEntity
  8
LW 3500-39-00
100
AcDbVertex
100
AcDb2dVertex
 10
-49.95250799179075
 20
-68.30145597457885
 30
0.0
  0
VERTEX
  5
1678
330
1674
100
AcDbEntity
  8
LW 3500-39-00
100
AcDbVertex
100
AcDb2dVertex
 10
-49.86763216972349
 20
-68.07852804660797
 30
0.0
  0
VERTEX
  5
1679
330
1674
100
AcDbEntity
  8
LW 3500-39-00
100
AcDbVertex
100
AcDb2dVertex
 10
-49.74932291030881
 20
-67.86619782447814
 30
0.0
  0
VERTEX
  5
167A
330
1674
100
AcDbEntity
  8
LW 3500-39-00
100
AcDbVertex
100
AcDb2dVertex
 10
-49.60275866508482
 20
-67.67038345336914
 30
0.0
  0
VERTEX
  5
167B
330
1674
100
AcDbEntity
  8
LW 3500-39-00
100
AcDbVertex
100
AcDb2dVertex
 10
-49.43421103477476
 20
-67.49663412570953
 30
0.0
  0
VERTEX
  5
167C
330
1674
100
AcDbEntity
  8
LW 3500-39-00
100
AcDbVertex
100
AcDb2dVertex
 10
-49.24194790840147
 20
-67.34341621398925
 30
0.0
  0
VERTEX
  5
167D
330
1674
100
AcDbEntity
  8
LW 3500-39-00
100
AcDbVertex
100
AcDb2dVertex
 10
-49.02386404991148
 20
-67.2095239162445
 30
0.0
  0
VERTEX
  5
167E
330
1674
100
AcDbEntity
  8
LW 3500-39-00
100
AcDbVertex
100
AcDb2dVertex
 10
-48.78566958427427
 20
-67.10099756717681
 30
0.0
  0
VERTEX
  5
167F
330
1674
100
AcDbEntity
  8
LW 3500-39-00
100
AcDbVertex
100
AcDb2dVertex
 10
-48.5335335922241
 20
-67.02290117740631
 30
0.0
  0
VERTEX
  5
1680
330
1674
100
AcDbEntity
  8
LW 3500-39-00
100
AcDbVertex
100
AcDb2dVertex
 10
-48.27547885894773
 20
-66.97616219520568
 30
0.0
  0
VERTEX
  5
1681
330
1674
100
AcDbEntity
  8
LW 3500-39-00
100
AcDbVertex
100
AcDb2dVertex
 10
-48.02000023841856
 20
-66.96061849594116
 30
0.0
  0
VERTEX
  5
1682
330
1674
100
AcDbEntity
  8
LW 3500-39-00
100
AcDbVertex
100
AcDb2dVertex
 10
-47.76452042579649
 20
-66.97616219520568
 30
0.0
  0
VERTEX
  5
1683
330
1674
100
AcDbEntity
  8
LW 3500-39-00
100
AcDbVertex
100
AcDb2dVertex
 10
-47.50646688461301
 20
-67.02290117740631
 30
0.0
  0
VERTEX
  5
1684
330
1674
100
AcDbEntity
  8
LW 3500-39-00
100
AcDbVertex
100
AcDb2dVertex
 10
-47.25433089256284
 20
-67.10099756717681
 30
0.0
  0
VERTEX
  5
1685
330
1674
100
AcDbEntity
  8
LW 3500-39-00
100
AcDbVertex
100
AcDb2dVertex
 10
-47.01613642692564
 20
-67.2095239162445
 30
0.0
  0
VERTEX
  5
1686
330
1674
100
AcDbEntity
  8
LW 3500-39-00
100
AcDbVertex
100
AcDb2dVertex
 10
-46.79805137634275
 20
-67.34341621398925
 30
0.0
  0
VERTEX
  5
1687
330
1674
100
AcDbEntity
  8
LW 3500-39-00
100
AcDbVertex
100
AcDb2dVertex
 10
-46.60578944206235
 20
-67.49663412570953
 30
0.0
  0
VERTEX
  5
1688
330
1674
100
AcDbEntity
  8
LW 3500-39-00
100
AcDbVertex
100
AcDb2dVertex
 10
-46.4372418117523
 20
-67.67038345336914
 30
0.0
  0
VERTEX
  5
1689
330
1674
100
AcDbEntity
  8
LW 3500-39-00
100
AcDbVertex
100
AcDb2dVertex
 10
-46.2906763744354
 20
-67.86619782447814
 30
0.0
  0
VERTEX
  5
168A
330
1674
100
AcDbEntity
  8
LW 3500-39-00
100
AcDbVertex
100
AcDb2dVertex
 10
-46.17236830711362
 20
-68.07852804660797
 30
0.0
  0
VERTEX
  5
168B
330
1674
100
AcDbEntity
  8
LW 3500-39-00
100
AcDbVertex
100
AcDb2dVertex
 10
-46.08749248504636
 20
-68.30145597457885
 30
0.0
  0
VERTEX
  5
168C
330
1674
100
AcDbEntity
  8
LW 3500-39-00
100
AcDbVertex
100
AcDb2dVertex
 10
-46.03681661605833
 20
-68.52777421474456
 30
0.0
  0
VERTEX
  5
168D
330
1674
100
AcDbEntity
  8
LW 3500-39-00
100
AcDbVertex
100
AcDb2dVertex
 10
-46.0199997615814
 20
-68.75
 30
0.0
  0
SEQEND
  5
168E
330
1674
100
AcDbEntity
  8
LW 3500-39-00
  0
POLYLINE
  5
168F
330
14CE
100
AcDbEntity
  8
LW 3500-39-00
100
AcDb2dPolyline
 66
     1
 10
0.0
 20
0.0
 30
0.0
 70
   128
  0
VERTEX
  5
1690
330
168F
100
AcDbEntity
  8
LW 3500-39-00
100
AcDbVertex
100
AcDb2dVertex
 10
-46.0199997615814
 20
-68.75
 30
0.0
  0
VERTEX
  5
1691
330
168F
100
AcDbEntity
  8
LW 3500-39-00
100
AcDbVertex
100
AcDb2dVertex
 10
-46.03681661605833
 20
-68.97027850151062
 30
0.0
  0
VERTEX
  5
1692
330
168F
100
AcDbEntity
  8
LW 3500-39-00
100
AcDbVertex
100
AcDb2dVertex
 10
-46.08749248504636
 20
-69.19092595577239
 30
0.0
  0
VERTEX
  5
1693
330
168F
100
AcDbEntity
  8
LW 3500-39-00
100
AcDbVertex
100
AcDb2dVertex
 10
-46.17236830711362
 20
-69.40471351146697
 30
0.0
  0
VERTEX
  5
1694
330
168F
100
AcDbEntity
  8
LW 3500-39-00
100
AcDbVertex
100
AcDb2dVertex
 10
-46.2906763744354
 20
-69.60495173931121
 30
0.0
  0
VERTEX
  5
1695
330
168F
100
AcDbEntity
  8
LW 3500-39-00
100
AcDbVertex
100
AcDb2dVertex
 10
-46.4372418117523
 20
-69.78687107563018
 30
0.0
  0
VERTEX
  5
1696
330
168F
100
AcDbEntity
  8
LW 3500-39-00
100
AcDbVertex
100
AcDb2dVertex
 10
-46.60578944206235
 20
-69.946129322052
 30
0.0
  0
VERTEX
  5
1697
330
168F
100
AcDbEntity
  8
LW 3500-39-00
100
AcDbVertex
100
AcDb2dVertex
 10
-46.79805137634275
 20
-70.08484244346618
 30
0.0
  0
VERTEX
  5
1698
330
168F
100
AcDbEntity
  8
LW 3500-39-00
100
AcDbVertex
100
AcDb2dVertex
 10
-47.01613642692564
 20
-70.20480632781982
 30
0.0
  0
VERTEX
  5
1699
330
168F
100
AcDbEntity
  8
LW 3500-39-00
100
AcDbVertex
100
AcDb2dVertex
 10
-47.25433089256284
 20
-70.3011929988861
 30
0.0
  0
VERTEX
  5
169A
330
168F
100
AcDbEntity
  8
LW 3500-39-00
100
AcDbVertex
100
AcDb2dVertex
 10
-47.50646688461301
 20
-70.37010312080383
 30
0.0
  0
VERTEX
  5
169B
330
168F
100
AcDbEntity
  8
LW 3500-39-00
100
AcDbVertex
100
AcDb2dVertex
 10
-47.76452042579649
 20
-70.411137342453
 30
0.0
  0
VERTEX
  5
169C
330
168F
100
AcDbEntity
  8
LW 3500-39-00
100
AcDbVertex
100
AcDb2dVertex
 10
-48.02000023841856
 20
-70.42472004890441
 30
0.0
  0
VERTEX
  5
169D
330
168F
100
AcDbEntity
  8
LW 3500-39-00
100
AcDbVertex
100
AcDb2dVertex
 10
-48.27547885894773
 20
-70.411137342453
 30
0.0
  0
VERTEX
  5
169E
330
168F
100
AcDbEntity
  8
LW 3500-39-00
100
AcDbVertex
100
AcDb2dVertex
 10
-48.5335335922241
 20
-70.37010312080383
 30
0.0
  0
VERTEX
  5
169F
330
168F
100
AcDbEntity
  8
LW 3500-39-00
100
AcDbVertex
100
AcDb2dVertex
 10
-48.78566958427427
 20
-70.3011929988861
 30
0.0
  0
VERTEX
  5
16A0
330
168F
100
AcDbEntity
  8
LW 3500-39-00
100
AcDbVertex
100
AcDb2dVertex
 10
-49.02386404991148
 20
-70.20480632781982
 30
0.0
  0
VERTEX
  5
16A1
330
168F
100
AcDbEntity
  8
LW 3500-39-00
100
AcDbVertex
100
AcDb2dVertex
 10
-49.24194790840147
 20
-70.08484244346618
 30
0.0
  0
VERTEX
  5
16A2
330
168F
100
AcDbEntity
  8
LW 3500-39-00
100
AcDbVertex
100
AcDb2dVertex
 10
-49.43421103477476
 20
-69.946129322052
 30
0.0
  0
VERTEX
  5
16A3
330
168F
100
AcDbEntity
  8
LW 3500-39-00
100
AcDbVertex
100
AcDb2dVertex
 10
-49.60275866508482
 20
-69.78687107563018
 30
0.0
  0
VERTEX
  5
16A4
330
168F
100
AcDbEntity
  8
LW 3500-39-00
100
AcDbVertex
100
AcDb2dVertex
 10
-49.74932291030881
 20
-69.60495173931121
 30
0.0
  0
VERTEX
  5
16A5
330
168F
100
AcDbEntity
  8
LW 3500-39-00
100
AcDbVertex
100
AcDb2dVertex
 10
-49.86763216972349
 20
-69.40471351146697
 30
0.0
  0
VERTEX
  5
16A6
330
168F
100
AcDbEntity
  8
LW 3500-39-00
100
AcDbVertex
100
AcDb2dVertex
 10
-49.95250799179075
 20
-69.19092595577239
 30
0.0
  0
VERTEX
  5
16A7
330
168F
100
AcDbEntity
  8
LW 3500-39-00
100
AcDbVertex
100
AcDb2dVertex
 10
-50.00318386077879
 20
-68.97027850151062
 30
0.0
  0
VERTEX
  5
16A8
330
168F
100
AcDbEntity
  8
LW 3500-39-00
100
AcDbVertex
100
AcDb2dVertex
 10
-50.01999952316282
 20
-68.75
 30
0.0
  0
SEQEND
  5
16A9
330
168F
100
AcDbEntity
  8
LW 3500-39-00
  0
POLYLINE
  5
16AA
330
14CE
100
AcDbEntity
  8
LW 3500-39-00
100
AcDb2dPolyline
 66
     1
 10
0.0
 20
0.0
 30
0.0
 70
   128
  0
VERTEX
  5
16AB
330
16AA
100
AcDbEntity
  8
LW 3500-39-00
100
AcDbVertex
100
AcDb2dVertex
 10
-46.0199997615814
 20
-42.5
 30
0.0
  0
VERTEX
  5
16AC
330
16AA
100
AcDbEntity
  8
LW 3500-39-00
100
AcDbVertex
100
AcDb2dVertex
 10
-46.03681661605833
 20
-42.50194668769836
 30
0.0
  0
VERTEX
  5
16AD
330
16AA
100
AcDbEntity
  8
LW 3500-39-00
100
AcDbVertex
100
AcDb2dVertex
 10
-46.08749248504636
 20
-42.50761866569519
 30
0.0
  0
VERTEX
  5
16AE
330
16AA
100
AcDbEntity
  8
LW 3500-39-00
100
AcDbVertex
100
AcDb2dVertex
 10
-46.17236830711362
 20
-42.51675844192504
 30
0.0
  0
VERTEX
  5
16AF
330
16AA
100
AcDbEntity
  8
LW 3500-39-00
100
AcDbVertex
100
AcDb2dVertex
 10
-46.2906763744354
 20
-42.52885103225708
 30
0.0
  0
VERTEX
  5
16B0
330
16AA
100
AcDbEntity
  8
LW 3500-39-00
100
AcDbVertex
100
AcDb2dVertex
 10
-46.4372418117523
 20
-42.54274606704711
 30
0.0
  0
VERTEX
  5
16B1
330
16AA
100
AcDbEntity
  8
LW 3500-39-00
100
AcDbVertex
100
AcDb2dVertex
 10
-46.60578944206235
 20
-42.55723714828491
 30
0.0
  0
VERTEX
  5
16B2
330
16AA
100
AcDbEntity
  8
LW 3500-39-00
100
AcDbVertex
100
AcDb2dVertex
 10
-46.79805137634275
 20
-42.57174134254455
 30
0.0
  0
VERTEX
  5
16B3
330
16AA
100
AcDbEntity
  8
LW 3500-39-00
100
AcDbVertex
100
AcDb2dVertex
 10
-47.01613642692564
 20
-42.58566975593566
 30
0.0
  0
VERTEX
  5
16B4
330
16AA
100
AcDbEntity
  8
LW 3500-39-00
100
AcDbVertex
100
AcDb2dVertex
 10
-47.25433089256284
 20
-42.59780883789062
 30
0.0
  0
VERTEX
  5
16B5
330
16AA
100
AcDbEntity
  8
LW 3500-39-00
100
AcDbVertex
100
AcDb2dVertex
 10
-47.50646688461301
 20
-42.6069951057434
 30
0.0
  0
VERTEX
  5
16B6
330
16AA
100
AcDbEntity
  8
LW 3500-39-00
100
AcDbVertex
100
AcDb2dVertex
 10
-47.76452042579649
 20
-42.6127004623413
 30
0.0
  0
VERTEX
  5
16B7
330
16AA
100
AcDbEntity
  8
LW 3500-39-00
100
AcDbVertex
100
AcDb2dVertex
 10
-48.02000023841856
 20
-42.61466145515441
 30
0.0
  0
VERTEX
  5
16B8
330
16AA
100
AcDbEntity
  8
LW 3500-39-00
100
AcDbVertex
100
AcDb2dVertex
 10
-48.27547885894773
 20
-42.6127004623413
 30
0.0
  0
VERTEX
  5
16B9
330
16AA
100
AcDbEntity
  8
LW 3500-39-00
100
AcDbVertex
100
AcDb2dVertex
 10
-48.5335335922241
 20
-42.6069951057434
 30
0.0
  0
VERTEX
  5
16BA
330
16AA
100
AcDbEntity
  8
LW 3500-39-00
100
AcDbVertex
100
AcDb2dVertex
 10
-48.78566958427427
 20
-42.59780883789062
 30
0.0
  0
VERTEX
  5
16BB
330
16AA
100
AcDbEntity
  8
LW 3500-39-00
100
AcDbVertex
100
AcDb2dVertex
 10
-49.02386404991148
 20
-42.58566975593566
 30
0.0
  0
VERTEX
  5
16BC
330
16AA
100
AcDbEntity
  8
LW 3500-39-00
100
AcDbVertex
100
AcDb2dVertex
 10
-49.24194790840147
 20
-42.57174134254455
 30
0.0
  0
VERTEX
  5
16BD
330
16AA
100
AcDbEntity
  8
LW 3500-39-00
100
AcDbVertex
100
AcDb2dVertex
 10
-49.43421103477476
 20
-42.55723714828491
 30
0.0
  0
VERTEX
  5
16BE
330
16AA
100
AcDbEntity
  8
LW 3500-39-00
100
AcDbVertex
100
AcDb2dVertex
 10
-49.60275866508482
 20
-42.54274606704711
 30
0.0
  0
VERTEX
  5
16BF
330
16AA
100
AcDbEntity
  8
LW 3500-39-00
100
AcDbVertex
100
AcDb2dVertex
 10
-49.74932291030881
 20
-42.52885103225708
 30
0.0
  0
VERTEX
  5
16C0
330
16AA
100
AcDbEntity
  8
LW 3500-39-00
100
AcDbVertex
100
AcDb2dVertex
 10
-49.86763216972349
 20
-42.51675844192504
 30
0.0
  0
VERTEX
  5
16C1
330
16AA
100
AcDbEntity
  8
LW 3500-39-00
100
AcDbVertex
100
AcDb2dVertex
 10
-49.95250799179075
 20
-42.50761866569519
 30
0.0
  0
VERTEX
  5
16C2
330
16AA
100
AcDbEntity
  8
LW 3500-39-00
100
AcDbVertex
100
AcDb2dVertex
 10
-50.00318386077879
 20
-42.50194668769836
 30
0.0
  0
VERTEX
  5
16C3
330
16AA
100
AcDbEntity
  8
LW 3500-39-00
100
AcDbVertex
100
AcDb2dVertex
 10
-50.01999952316282
 20
-42.5
 30
0.0
  0
SEQEND
  5
16C4
330
16AA
100
AcDbEntity
  8
LW 3500-39-00
  0
LINE
  5
16C5
330
14CE
100
AcDbEntity
  8
LW 3500-39-00
100
AcDbLine
 10
-52.01999999999998
 20
-42.5
 30
0.0
 11
-52.01999999999998
 21
-77.5
 31
0.0
  0
LINE
  5
16C6
330
14CE
100
AcDbEntity
  8
LW 3500-39-00
100
AcDbLine
 10
-55.01999999999998
 20
-45.49999999999999
 30
0.0
 11
-55.01999999999998
 21
-74.49999999999994
 31
0.0
  0
LINE
  5
16C7
330
14CE
100
AcDbEntity
  8
LW 3500-39-00
100
AcDbLine
 10
-32.01999999999998
 20
-77.5
 30
0.0
 11
-52.01999999999998
 21
-77.5
 31
0.0
  0
LINE
  5
16C8
330
14CE
100
AcDbEntity
  8
LW 3500-39-00
100
AcDbLine
 10
-32.01999999999998
 20
-42.5
 30
0.0
 11
-46.02000000000001
 21
-42.5
 31
0.0
  0
LINE
  5
16C9
330
14CE
100
AcDbEntity
  8
LW 3500-39-00
100
AcDbLine
 10
-50.01999999999998
 20
-42.5
 30
0.0
 11
-52.01999999999998
 21
-42.5
 31
0.0
  0
LINE
  5
16CA
330
14CE
100
AcDbEntity
  8
LW 3500-39-00
100
AcDbLine
 10
-55.01999999999998
 20
-45.49999999999999
 30
0.0
 11
-52.01999999999998
 21
-42.5
 31
0.0
  0
LINE
  5
16CB
330
14CE
100
AcDbEntity
  8
LW 3500-39-00
100
AcDbLine
 10
-55.01999999999998
 20
-74.49999999999994
 30
0.0
 11
-52.01999999999998
 21
-77.5
 31
0.0
  0
ELLIPSE
  5
16CC
330
14CE
100
AcDbEntity
  8
LW 3500-39-00
100
AcDbEllipse
 10
-96.77000000000004
 20
-30.0
 30
0.0
 11
0.0000000000001952
 21
2.00000000000002
 31
0.0
210
0.0
220
0.0
230
1.0
 40
0.866025403784425
 41
3.935761501374648
 42
5.489016459394978
  0
POLYLINE
  5
16CD
330
14CE
100
AcDbEntity
  8
LW 3500-39-00
100
AcDb2dPolyline
 66
     1
 10
0.0
 20
0.0
 30
0.0
 70
   128
  0
VERTEX
  5
16CE
330
16CD
100
AcDbEntity
  8
LW 3500-39-00
100
AcDbVertex
100
AcDb2dVertex
 10
-94.27000000000004
 20
-31.99999952316284
 30
0.0
  0
VERTEX
  5
16CF
330
16CD
100
AcDbEntity
  8
LW 3500-39-00
100
AcDbVertex
100
AcDb2dVertex
 10
-94.49222578525548
 20
-31.98318386077881
 30
0.0
  0
VERTEX
  5
16D0
330
16CD
100
AcDbEntity
  8
LW 3500-39-00
100
AcDbVertex
100
AcDb2dVertex
 10
-94.71854402542119
 20
-31.93250799179077
 30
0.0
  0
VERTEX
  5
16D1
330
16CD
100
AcDbEntity
  8
LW 3500-39-00
100
AcDbVertex
100
AcDb2dVertex
 10
-94.94147195339207
 20
-31.84763216972351
 30
0.0
  0
VERTEX
  5
16D2
330
16CD
100
AcDbEntity
  8
LW 3500-39-00
100
AcDbVertex
100
AcDb2dVertex
 10
-95.15380217552189
 20
-31.72932291030884
 30
0.0
  0
VERTEX
  5
16D3
330
16CD
100
AcDbEntity
  8
LW 3500-39-00
100
AcDbVertex
100
AcDb2dVertex
 10
-95.3496165466309
 20
-31.58275866508484
 30
0.0
  0
VERTEX
  5
16D4
330
16CD
100
AcDbEntity
  8
LW 3500-39-00
100
AcDbVertex
100
AcDb2dVertex
 10
-95.52336587429051
 20
-31.41421103477478
 30
0.0
  0
VERTEX
  5
16D5
330
16CD
100
AcDbEntity
  8
LW 3500-39-00
100
AcDbVertex
100
AcDb2dVertex
 10
-95.67658378601079
 20
-31.22194790840149
 30
0.0
  0
VERTEX
  5
16D6
330
16CD
100
AcDbEntity
  8
LW 3500-39-00
100
AcDbVertex
100
AcDb2dVertex
 10
-95.81047608375554
 20
-31.0038640499115
 30
0.0
  0
VERTEX
  5
16D7
330
16CD
100
AcDbEntity
  8
LW 3500-39-00
100
AcDbVertex
100
AcDb2dVertex
 10
-95.91900243282323
 20
-30.76566958427429
 30
0.0
  0
VERTEX
  5
16D8
330
16CD
100
AcDbEntity
  8
LW 3500-39-00
100
AcDbVertex
100
AcDb2dVertex
 10
-95.99709882259373
 20
-30.51353359222412
 30
0.0
  0
VERTEX
  5
16D9
330
16CD
100
AcDbEntity
  8
LW 3500-39-00
100
AcDbVertex
100
AcDb2dVertex
 10
-96.04383780479436
 20
-30.25547885894776
 30
0.0
  0
VERTEX
  5
16DA
330
16CD
100
AcDbEntity
  8
LW 3500-39-00
100
AcDbVertex
100
AcDb2dVertex
 10
-96.05938150405888
 20
-30.00000023841858
 30
0.0
  0
VERTEX
  5
16DB
330
16CD
100
AcDbEntity
  8
LW 3500-39-00
100
AcDbVertex
100
AcDb2dVertex
 10
-96.04383780479436
 20
-29.74452042579651
 30
0.0
  0
VERTEX
  5
16DC
330
16CD
100
AcDbEntity
  8
LW 3500-39-00
100
AcDbVertex
100
AcDb2dVertex
 10
-95.99709882259373
 20
-29.48646688461304
 30
0.0
  0
VERTEX
  5
16DD
330
16CD
100
AcDbEntity
  8
LW 3500-39-00
100
AcDbVertex
100
AcDb2dVertex
 10
-95.91900243282323
 20
-29.23433089256287
 30
0.0
  0
VERTEX
  5
16DE
330
16CD
100
AcDbEntity
  8
LW 3500-39-00
100
AcDbVertex
100
AcDb2dVertex
 10
-95.81047608375554
 20
-28.99613642692566
 30
0.0
  0
VERTEX
  5
16DF
330
16CD
100
AcDbEntity
  8
LW 3500-39-00
100
AcDbVertex
100
AcDb2dVertex
 10
-95.67658378601079
 20
-28.77805137634278
 30
0.0
  0
VERTEX
  5
16E0
330
16CD
100
AcDbEntity
  8
LW 3500-39-00
100
AcDbVertex
100
AcDb2dVertex
 10
-95.52336587429051
 20
-28.58578944206238
 30
0.0
  0
VERTEX
  5
16E1
330
16CD
100
AcDbEntity
  8
LW 3500-39-00
100
AcDbVertex
100
AcDb2dVertex
 10
-95.3496165466309
 20
-28.41724181175232
 30
0.0
  0
VERTEX
  5
16E2
330
16CD
100
AcDbEntity
  8
LW 3500-39-00
100
AcDbVertex
100
AcDb2dVertex
 10
-95.15380217552189
 20
-28.27067637443543
 30
0.0
  0
VERTEX
  5
16E3
330
16CD
100
AcDbEntity
  8
LW 3500-39-00
100
AcDbVertex
100
AcDb2dVertex
 10
-94.94147195339207
 20
-28.15236830711365
 30
0.0
  0
VERTEX
  5
16E4
330
16CD
100
AcDbEntity
  8
LW 3500-39-00
100
AcDbVertex
100
AcDb2dVertex
 10
-94.71854402542119
 20
-28.06749248504639
 30
0.0
  0
VERTEX
  5
16E5
330
16CD
100
AcDbEntity
  8
LW 3500-39-00
100
AcDbVertex
100
AcDb2dVertex
 10
-94.49222578525548
 20
-28.01681661605835
 30
0.0
  0
VERTEX
  5
16E6
330
16CD
100
AcDbEntity
  8
LW 3500-39-00
100
AcDbVertex
100
AcDb2dVertex
 10
-94.27000000000004
 20
-27.99999976158142
 30
0.0
  0
SEQEND
  5
16E7
330
16CD
100
AcDbEntity
  8
LW 3500-39-00
  0
POLYLINE
  5
16E8
330
14CE
100
AcDbEntity
  8
LW 3500-39-00
100
AcDb2dPolyline
 66
     1
 10
0.0
 20
0.0
 30
0.0
 70
   128
  0
VERTEX
  5
16E9
330
16E8
100
AcDbEntity
  8
LW 3500-39-00
100
AcDbVertex
100
AcDb2dVertex
 10
-94.27000000000004
 20
-27.99999976158142
 30
0.0
  0
VERTEX
  5
16EA
330
16E8
100
AcDbEntity
  8
LW 3500-39-00
100
AcDbVertex
100
AcDb2dVertex
 10
-94.04972149848942
 20
-28.01681661605835
 30
0.0
  0
VERTEX
  5
16EB
330
16E8
100
AcDbEntity
  8
LW 3500-39-00
100
AcDbVertex
100
AcDb2dVertex
 10
-93.82907404422764
 20
-28.06749248504639
 30
0.0
  0
VERTEX
  5
16EC
330
16E8
100
AcDbEntity
  8
LW 3500-39-00
100
AcDbVertex
100
AcDb2dVertex
 10
-93.61528648853306
 20
-28.15236830711365
 30
0.0
  0
VERTEX
  5
16ED
330
16E8
100
AcDbEntity
  8
LW 3500-39-00
100
AcDbVertex
100
AcDb2dVertex
 10
-93.41504826068883
 20
-28.27067637443543
 30
0.0
  0
VERTEX
  5
16EE
330
16E8
100
AcDbEntity
  8
LW 3500-39-00
100
AcDbVertex
100
AcDb2dVertex
 10
-93.23312892436986
 20
-28.41724181175232
 30
0.0
  0
VERTEX
  5
16EF
330
16E8
100
AcDbEntity
  8
LW 3500-39-00
100
AcDbVertex
100
AcDb2dVertex
 10
-93.07387067794804
 20
-28.58578944206238
 30
0.0
  0
VERTEX
  5
16F0
330
16E8
100
AcDbEntity
  8
LW 3500-39-00
100
AcDbVertex
100
AcDb2dVertex
 10
-92.93515755653386
 20
-28.77805137634278
 30
0.0
  0
VERTEX
  5
16F1
330
16E8
100
AcDbEntity
  8
LW 3500-39-00
100
AcDbVertex
100
AcDb2dVertex
 10
-92.81519367218022
 20
-28.99613642692566
 30
0.0
  0
VERTEX
  5
16F2
330
16E8
100
AcDbEntity
  8
LW 3500-39-00
100
AcDbVertex
100
AcDb2dVertex
 10
-92.71880700111394
 20
-29.23433089256287
 30
0.0
  0
VERTEX
  5
16F3
330
16E8
100
AcDbEntity
  8
LW 3500-39-00
100
AcDbVertex
100
AcDb2dVertex
 10
-92.64989687919621
 20
-29.48646688461304
 30
0.0
  0
VERTEX
  5
16F4
330
16E8
100
AcDbEntity
  8
LW 3500-39-00
100
AcDbVertex
100
AcDb2dVertex
 10
-92.60886265754704
 20
-29.74452042579651
 30
0.0
  0
VERTEX
  5
16F5
330
16E8
100
AcDbEntity
  8
LW 3500-39-00
100
AcDbVertex
100
AcDb2dVertex
 10
-92.59527995109563
 20
-30.00000023841858
 30
0.0
  0
VERTEX
  5
16F6
330
16E8
100
AcDbEntity
  8
LW 3500-39-00
100
AcDbVertex
100
AcDb2dVertex
 10
-92.60886265754704
 20
-30.25547885894776
 30
0.0
  0
VERTEX
  5
16F7
330
16E8
100
AcDbEntity
  8
LW 3500-39-00
100
AcDbVertex
100
AcDb2dVertex
 10
-92.64989687919621
 20
-30.51353359222412
 30
0.0
  0
VERTEX
  5
16F8
330
16E8
100
AcDbEntity
  8
LW 3500-39-00
100
AcDbVertex
100
AcDb2dVertex
 10
-92.71880700111394
 20
-30.76566958427429
 30
0.0
  0
VERTEX
  5
16F9
330
16E8
100
AcDbEntity
  8
LW 3500-39-00
100
AcDbVertex
100
AcDb2dVertex
 10
-92.81519367218022
 20
-31.0038640499115
 30
0.0
  0
VERTEX
  5
16FA
330
16E8
100
AcDbEntity
  8
LW 3500-39-00
100
AcDbVertex
100
AcDb2dVertex
 10
-92.93515755653386
 20
-31.22194790840149
 30
0.0
  0
VERTEX
  5
16FB
330
16E8
100
AcDbEntity
  8
LW 3500-39-00
100
AcDbVertex
100
AcDb2dVertex
 10
-93.07387067794804
 20
-31.41421103477478
 30
0.0
  0
VERTEX
  5
16FC
330
16E8
100
AcDbEntity
  8
LW 3500-39-00
100
AcDbVertex
100
AcDb2dVertex
 10
-93.23312892436986
 20
-31.58275866508484
 30
0.0
  0
VERTEX
  5
16FD
330
16E8
100
AcDbEntity
  8
LW 3500-39-00
100
AcDbVertex
100
AcDb2dVertex
 10
-93.41504826068883
 20
-31.72932291030884
 30
0.0
  0
VERTEX
  5
16FE
330
16E8
100
AcDbEntity
  8
LW 3500-39-00
100
AcDbVertex
100
AcDb2dVertex
 10
-93.61528648853306
 20
-31.84763216972351
 30
0.0
  0
VERTEX
  5
16FF
330
16E8
100
AcDbEntity
  8
LW 3500-39-00
100
AcDbVertex
100
AcDb2dVertex
 10
-93.82907404422764
 20
-31.93250799179077
 30
0.0
  0
VERTEX
  5
1700
330
16E8
100
AcDbEntity
  8
LW 3500-39-00
100
AcDbVertex
100
AcDb2dVertex
 10
-94.04972149848942
 20
-31.98318386077881
 30
0.0
  0
VERTEX
  5
1701
330
16E8
100
AcDbEntity
  8
LW 3500-39-00
100
AcDbVertex
100
AcDb2dVertex
 10
-94.27000000000004
 20
-31.99999952316284
 30
0.0
  0
SEQEND
  5
1702
330
16E8
100
AcDbEntity
  8
LW 3500-39-00
  0
POLYLINE
  5
1703
330
14CE
100
AcDbEntity
  8
LW 3500-39-00
100
AcDb2dPolyline
 66
     1
 10
0.0
 20
0.0
 30
0.0
 70
   128
  0
VERTEX
  5
1704
330
1703
100
AcDbEntity
  8
LW 3500-39-00
100
AcDbVertex
100
AcDb2dVertex
 10
-120.52
 20
-27.99999976158142
 30
0.0
  0
VERTEX
  5
1705
330
1703
100
AcDbEntity
  8
LW 3500-39-00
100
AcDbVertex
100
AcDb2dVertex
 10
-120.5180533123016
 20
-28.01681661605835
 30
0.0
  0
VERTEX
  5
1706
330
1703
100
AcDbEntity
  8
LW 3500-39-00
100
AcDbVertex
100
AcDb2dVertex
 10
-120.5123813343048
 20
-28.06749248504639
 30
0.0
  0
VERTEX
  5
1707
330
1703
100
AcDbEntity
  8
LW 3500-39-00
100
AcDbVertex
100
AcDb2dVertex
 10
-120.503241558075
 20
-28.15236830711365
 30
0.0
  0
VERTEX
  5
1708
330
1703
100
AcDbEntity
  8
LW 3500-39-00
100
AcDbVertex
100
AcDb2dVertex
 10
-120.4911489677429
 20
-28.27067637443543
 30
0.0
  0
VERTEX
  5
1709
330
1703
100
AcDbEntity
  8
LW 3500-39-00
100
AcDbVertex
100
AcDb2dVertex
 10
-120.4772539329529
 20
-28.41724181175232
 30
0.0
  0
VERTEX
  5
170A
330
1703
100
AcDbEntity
  8
LW 3500-39-00
100
AcDbVertex
100
AcDb2dVertex
 10
-120.4627628517151
 20
-28.58578944206238
 30
0.0
  0
VERTEX
  5
170B
330
1703
100
AcDbEntity
  8
LW 3500-39-00
100
AcDbVertex
100
AcDb2dVertex
 10
-120.4482586574554
 20
-28.77805137634278
 30
0.0
  0
VERTEX
  5
170C
330
1703
100
AcDbEntity
  8
LW 3500-39-00
100
AcDbVertex
100
AcDb2dVertex
 10
-120.4343302440644
 20
-28.99613642692566
 30
0.0
  0
VERTEX
  5
170D
330
1703
100
AcDbEntity
  8
LW 3500-39-00
100
AcDbVertex
100
AcDb2dVertex
 10
-120.4221911621094
 20
-29.23433089256287
 30
0.0
  0
VERTEX
  5
170E
330
1703
100
AcDbEntity
  8
LW 3500-39-00
100
AcDbVertex
100
AcDb2dVertex
 10
-120.4130048942566
 20
-29.48646688461304
 30
0.0
  0
VERTEX
  5
170F
330
1703
100
AcDbEntity
  8
LW 3500-39-00
100
AcDbVertex
100
AcDb2dVertex
 10
-120.4072995376587
 20
-29.74452042579651
 30
0.0
  0
VERTEX
  5
1710
330
1703
100
AcDbEntity
  8
LW 3500-39-00
100
AcDbVertex
100
AcDb2dVertex
 10
-120.4053385448456
 20
-30.00000023841858
 30
0.0
  0
VERTEX
  5
1711
330
1703
100
AcDbEntity
  8
LW 3500-39-00
100
AcDbVertex
100
AcDb2dVertex
 10
-120.4072995376587
 20
-30.25547885894776
 30
0.0
  0
VERTEX
  5
1712
330
1703
100
AcDbEntity
  8
LW 3500-39-00
100
AcDbVertex
100
AcDb2dVertex
 10
-120.4130048942566
 20
-30.51353359222412
 30
0.0
  0
VERTEX
  5
1713
330
1703
100
AcDbEntity
  8
LW 3500-39-00
100
AcDbVertex
100
AcDb2dVertex
 10
-120.4221911621094
 20
-30.76566958427429
 30
0.0
  0
VERTEX
  5
1714
330
1703
100
AcDbEntity
  8
LW 3500-39-00
100
AcDbVertex
100
AcDb2dVertex
 10
-120.4343302440644
 20
-31.0038640499115
 30
0.0
  0
VERTEX
  5
1715
330
1703
100
AcDbEntity
  8
LW 3500-39-00
100
AcDbVertex
100
AcDb2dVertex
 10
-120.4482586574554
 20
-31.22194790840149
 30
0.0
  0
VERTEX
  5
1716
330
1703
100
AcDbEntity
  8
LW 3500-39-00
100
AcDbVertex
100
AcDb2dVertex
 10
-120.4627628517151
 20
-31.41421103477478
 30
0.0
  0
VERTEX
  5
1717
330
1703
100
AcDbEntity
  8
LW 3500-39-00
100
AcDbVertex
100
AcDb2dVertex
 10
-120.4772539329529
 20
-31.58275866508484
 30
0.0
  0
VERTEX
  5
1718
330
1703
100
AcDbEntity
  8
LW 3500-39-00
100
AcDbVertex
100
AcDb2dVertex
 10
-120.4911489677429
 20
-31.72932291030884
 30
0.0
  0
VERTEX
  5
1719
330
1703
100
AcDbEntity
  8
LW 3500-39-00
100
AcDbVertex
100
AcDb2dVertex
 10
-120.503241558075
 20
-31.84763216972351
 30
0.0
  0
VERTEX
  5
171A
330
1703
100
AcDbEntity
  8
LW 3500-39-00
100
AcDbVertex
100
AcDb2dVertex
 10
-120.5123813343048
 20
-31.93250799179077
 30
0.0
  0
VERTEX
  5
171B
330
1703
100
AcDbEntity
  8
LW 3500-39-00
100
AcDbVertex
100
AcDb2dVertex
 10
-120.5180533123016
 20
-31.98318386077881
 30
0.0
  0
VERTEX
  5
171C
330
1703
100
AcDbEntity
  8
LW 3500-39-00
100
AcDbVertex
100
AcDb2dVertex
 10
-120.52
 20
-31.99999952316284
 30
0.0
  0
SEQEND
  5
171D
330
1703
100
AcDbEntity
  8
LW 3500-39-00
  0
LINE
  5
171E
330
14CE
100
AcDbEntity
  8
LW 3500-39-00
100
AcDbLine
 10
-120.52
 20
-34.0
 30
0.0
 11
-85.52000000000004
 21
-34.0
 31
0.0
  0
LINE
  5
171F
330
14CE
100
AcDbEntity
  8
LW 3500-39-00
100
AcDbLine
 10
-117.52
 20
-37.0
 30
0.0
 11
-88.52000000000003
 21
-37.0
 31
0.0
  0
LINE
  5
1720
330
14CE
100
AcDbEntity
  8
LW 3500-39-00
100
AcDbLine
 10
-85.52000000000004
 20
-14.0
 30
0.0
 11
-85.52000000000004
 21
-34.0
 31
0.0
  0
LINE
  5
1721
330
14CE
100
AcDbEntity
  8
LW 3500-39-00
100
AcDbLine
 10
-120.52
 20
-14.0
 30
0.0
 11
-120.52
 21
-28.0
 31
0.0
  0
LINE
  5
1722
330
14CE
100
AcDbEntity
  8
LW 3500-39-00
100
AcDbLine
 10
-120.52
 20
-32.0
 30
0.0
 11
-120.52
 21
-34.0
 31
0.0
  0
LINE
  5
1723
330
14CE
100
AcDbEntity
  8
LW 3500-39-00
100
AcDbLine
 10
-117.52
 20
-37.0
 30
0.0
 11
-120.52
 21
-34.0
 31
0.0
  0
LINE
  5
1724
330
14CE
100
AcDbEntity
  8
LW 3500-39-00
100
AcDbLine
 10
-88.52000000000003
 20
-37.0
 30
0.0
 11
-85.52000000000004
 21
-34.0
 31
0.0
  0
LINE
  5
1725
330
14CE
100
AcDbEntity
  8
LW 3500-39-00
100
AcDbLine
 10
-21.02000000000001
 20
-139.9999999999999
 30
0.0
 11
-21.02000000000001
 21
-172.9999999999999
 31
0.0
  0
LINE
  5
1726
330
14CE
100
AcDbEntity
  8
LW 3500-39-00
100
AcDbLine
 10
-21.02000000000001
 20
-139.9999999999999
 30
0.0
 11
-21.02000000000001
 21
-1.999999999999943
 31
0.0
  0
LINE
  5
1727
330
14CE
100
AcDbEntity
  8
LW 3500-39-00
100
AcDbLine
 10
-23.02000000000001
 20
-1.999999999999943
 30
0.0
 11
-21.02000000000001
 21
-1.999999999999943
 31
0.0
  0
LINE
  5
1728
330
14CE
100
AcDbEntity
  8
LW 3500-39-00
100
AcDbLine
 10
-23.02000000000001
 20
-172.9999999999999
 30
0.0
 11
-21.02000000000001
 21
-172.9999999999999
 31
0.0
  0
LINE
  5
1729
330
14CE
100
AcDbEntity
  8
LW 3500-39-00
100
AcDbLine
 10
21.01999999999998
 20
-172.9999999999999
 30
0.0
 11
21.01999999999998
 21
-139.9999999999999
 31
0.0
  0
LINE
  5
172A
330
14CE
100
AcDbEntity
  8
LW 3500-39-00
100
AcDbLine
 10
21.01999999999998
 20
-1.999999999999943
 30
0.0
 11
23.01999999999998
 21
-1.999999999999943
 31
0.0
  0
LINE
  5
172B
330
14CE
100
AcDbEntity
  8
LW 3500-39-00
100
AcDbLine
 10
21.01999999999998
 20
-1.999999999999943
 30
0.0
 11
21.01999999999998
 21
-139.9999999999999
 31
0.0
  0
LINE
  5
172C
330
14CE
100
AcDbEntity
  8
LW 3500-39-00
100
AcDbLine
 10
21.01999999999998
 20
-172.9999999999999
 30
0.0
 11
23.01999999999998
 21
-172.9999999999999
 31
0.0
  0
HATCH
  5
172D
330
14CE
100
AcDbEntity
  8
LW 3500-39-00
 62
     8
100
AcDbHatch
 10
0.0
 20
0.0
 30
0.0
210
0.0
220
0.0
230
1.0
  2
ANSI37
 70
     0
 71
     0
 91
        4
 92
        7
 72
     0
 73
     1
 93
        4
 10
0.0
 20
-47.99999999999994
 10
-16.00000000000003
 20
-48.0
 10
-16.0
 20
-52.74999999999995
 10
0.0
 20
-52.75
 97
        0
 92
        7
 72
     0
 73
     1
 93
        4
 10
15.99999999999994
 20
-47.99999999999994
 10
0.0
 20
-47.99999999999994
 10
0.0
 20
-52.75
 10
16.0
 20
-52.75
 97
        0
 92
        7
 72
     0
 73
     1
 93
        4
 10
16.0
 20
-67.24999999999994
 10
0.0
 20
-67.25
 10
0.0
 20
-71.99999999999994
 10
16.0
 20
-72.0
 97
        0
 92
        7
 72
     0
 73
     1
 93
        4
 10
0.0
 20
-67.24999999999994
 10
-16.00000000000003
 20
-67.25
 10
-16.00000000000003
 20
-71.99999999999994
 10
0.0
 20
-71.99999999999994
 97
        0
 75
     0
 76
     1
 52
0.0
 41
0.5
 77
     0
 78
     2
 53
45.0
 43
-270.1401696236951
 44
-335.1866254961618
 45
-1.122532015133643
 46
1.122532015133644
 79
     0
 53
135.0
 43
-270.1401696236951
 44
-335.1866254961618
 45
-1.122532015133644
 46
-1.122532015133643
 79
     0
 47
0.1919075143079147
 98
        4
 10
-7.251174951791881
 20
-50.97813488954272
 10
5.614929154943865
 20
-51.17004201342354
 10
5.998990421829375
 20
-69.78507187651428
 10
-8.211331158186339
 20
-70.7446086384665
1001
ACAD
1010
0.0
1020
0.0
1030
0.0
  0
LINE
  5
172E
330
14CE
100
AcDbEntity
  8
LW 3500-39-00
100
AcDbLine
 10
16.0
 20
-71.99999999999994
 30
0.0
 11
-16.0
 21
-71.99999999999994
 31
0.0
  0
LINE
  5
172F
330
14CE
100
AcDbEntity
  8
LW 3500-39-00
100
AcDbLine
 10
16.0
 20
-67.24999999999994
 30
0.0
 11
16.0
 21
-71.99999999999994
 31
0.0
  0
LINE
  5
1730
330
14CE
100
AcDbEntity
  8
LW 3500-39-00
100
AcDbLine
 10
-16.0
 20
-67.24999999999994
 30
0.0
 11
16.0
 21
-67.24999999999994
 31
0.0
  0
LINE
  5
1731
330
14CE
100
AcDbEntity
  8
LW 3500-39-00
100
AcDbLine
 10
-16.0
 20
-71.99999999999994
 30
0.0
 11
-16.0
 21
-67.24999999999994
 31
0.0
  0
LINE
  5
1732
330
14CE
100
AcDbEntity
  8
LW 3500-39-00
100
AcDbLine
 10
-16.0
 20
-47.99999999999994
 30
0.0
 11
16.0
 21
-47.99999999999994
 31
0.0
  0
LINE
  5
1733
330
14CE
100
AcDbEntity
  8
LW 3500-39-00
100
AcDbLine
 10
-16.0
 20
-52.74999999999995
 30
0.0
 11
-16.0
 21
-47.99999999999994
 31
0.0
  0
LINE
  5
1734
330
14CE
100
AcDbEntity
  8
LW 3500-39-00
100
AcDbLine
 10
16.0
 20
-52.74999999999995
 30
0.0
 11
-16.0
 21
-52.74999999999995
 31
0.0
  0
LINE
  5
1735
330
14CE
100
AcDbEntity
  8
LW 3500-39-00
100
AcDbLine
 10
16.0
 20
-47.99999999999994
 30
0.0
 11
16.0
 21
-52.74999999999995
 31
0.0
  0
LINE
  5
1736
330
14CE
100
AcDbEntity
  8
LW 3500-39-00
100
AcDbLine
 10
-16.0
 20
-67.24999999999994
 30
0.0
 11
-16.0
 21
-66.99999999999994
 31
0.0
  0
LINE
  5
1737
330
14CE
100
AcDbEntity
  8
LW 3500-39-00
100
AcDbLine
 10
-16.0
 20
-53.0
 30
0.0
 11
-16.0
 21
-52.74999999999995
 31
0.0
  0
LINE
  5
1738
330
14CE
100
AcDbEntity
  8
LW 3500-39-00
100
AcDbLine
 10
16.0
 20
-52.74999999999988
 30
0.0
 11
16.0
 21
-52.99999999999994
 31
0.0
  0
LINE
  5
1739
330
14CE
100
AcDbEntity
  8
LW 3500-39-00
100
AcDbLine
 10
16.0
 20
-67.0
 30
0.0
 11
16.0
 21
-67.24999999999994
 31
0.0
  0
HATCH
  5
173A
330
14CE
100
AcDbEntity
  8
LW 3500-39-00
 62
     8
100
AcDbHatch
 10
0.0
 20
0.0
 30
0.0
210
0.0
220
0.0
230
1.0
  2
ANSI37
 70
     0
 71
     0
 91
        4
 92
        7
 72
     0
 73
     1
 93
        4
 10
16.00000000000006
 20
-127.9999999999998
 10
0.0
 20
-127.9999999999998
 10
0.0
 20
-132.7499999999997
 10
16.00000000000006
 20
-132.7499999999998
 97
        0
 92
        7
 72
     0
 73
     1
 93
        4
 10
0.0
 20
-127.9999999999998
 10
-15.99999999999997
 20
-127.9999999999998
 10
-15.99999999999991
 20
-132.7499999999998
 10
0.0
 20
-132.7499999999998
 97
        0
 92
        7
 72
     0
 73
     1
 93
        4
 10
0.0
 20
-147.2499999999998
 10
-15.99999999999994
 20
-147.2499999999997
 10
-15.99999999999986
 20
-151.9999999999997
 10
0.0
 20
-151.9999999999997
 97
        0
 92
        7
 72
     0
 73
     1
 93
        4
 10
16.00000000000006
 20
-147.2499999999998
 10
0.0
 20
-147.2499999999998
 10
0.0
 20
-151.9999999999997
 10
16.0
 20
-151.9999999999997
 97
        0
 75
     0
 76
     1
 52
0.0
 41
0.5
 77
     0
 78
     2
 53
45.0
 43
-270.1401696236951
 44
-335.1866254961618
 45
-1.122532015133643
 46
1.122532015133644
 79
     0
 53
135.0
 43
-270.1401696236951
 44
-335.1866254961618
 45
-1.122532015133644
 46
-1.122532015133643
 79
     0
 47
0.1919075143079147
 98
        4
 10
5.998990421829375
 20
-130.0440321703359
 10
-7.251174951791881
 20
-131.5792914464792
 10
-7.635238244797847
 20
-148.6590608908779
 10
8.11133650724173
 20
-149.6185987953792
1001
ACAD
1010
0.0
1020
0.0
1030
0.0
  0
LINE
  5
173B
330
14CE
100
AcDbEntity
  8
LW 3500-39-00
100
AcDbLine
 10
16.00000000000006
 20
-151.9999999999997
 30
0.0
 11
-15.99999999999988
 21
-151.9999999999997
 31
0.0
  0
LINE
  5
173C
330
14CE
100
AcDbEntity
  8
LW 3500-39-00
100
AcDbLine
 10
16.00000000000006
 20
-147.2499999999997
 30
0.0
 11
16.00000000000006
 21
-151.9999999999997
 31
0.0
  0
LINE
  5
173D
330
14CE
100
AcDbEntity
  8
LW 3500-39-00
100
AcDbLine
 10
-15.99999999999994
 20
-147.2499999999997
 30
0.0
 11
16.00000000000006
 21
-147.2499999999998
 31
0.0
  0
LINE
  5
173E
330
14CE
100
AcDbEntity
  8
LW 3500-39-00
100
AcDbLine
 10
-15.99999999999988
 20
-151.9999999999997
 30
0.0
 11
-15.99999999999994
 21
-147.2499999999997
 31
0.0
  0
LINE
  5
173F
330
14CE
100
AcDbEntity
  8
LW 3500-39-00
100
AcDbLine
 10
-15.99999999999994
 20
-127.9999999999998
 30
0.0
 11
16.00000000000006
 21
-127.9999999999998
 31
0.0
  0
LINE
  5
1740
330
14CE
100
AcDbEntity
  8
LW 3500-39-00
100
AcDbLine
 10
-15.99999999999994
 20
-132.7499999999998
 30
0.0
 11
-15.99999999999994
 21
-127.9999999999998
 31
0.0
  0
LINE
  5
1741
330
14CE
100
AcDbEntity
  8
LW 3500-39-00
100
AcDbLine
 10
16.00000000000006
 20
-132.7499999999998
 30
0.0
 11
-15.99999999999994
 21
-132.7499999999998
 31
0.0
  0
LINE
  5
1742
330
14CE
100
AcDbEntity
  8
LW 3500-39-00
100
AcDbLine
 10
16.00000000000006
 20
-127.9999999999998
 30
0.0
 11
16.00000000000006
 21
-132.7499999999998
 31
0.0
  0
LINE
  5
1743
330
14CE
100
AcDbEntity
  8
LW 3500-39-00
100
AcDbLine
 10
-15.99999999999994
 20
-147.2499999999997
 30
0.0
 11
-15.99999999999994
 21
-146.9999999999999
 31
0.0
  0
LINE
  5
1744
330
14CE
100
AcDbEntity
  8
LW 3500-39-00
100
AcDbLine
 10
-15.99999999999994
 20
-133.0
 30
0.0
 11
-15.99999999999994
 21
-132.7499999999997
 31
0.0
  0
LINE
  5
1745
330
14CE
100
AcDbEntity
  8
LW 3500-39-00
100
AcDbLine
 10
16.00000000000006
 20
-132.7499999999997
 30
0.0
 11
16.00000000000006
 21
-133.0
 31
0.0
  0
LINE
  5
1746
330
14CE
100
AcDbEntity
  8
LW 3500-39-00
100
AcDbLine
 10
16.00000000000006
 20
-146.9999999999999
 30
0.0
 11
16.00000000000006
 21
-147.2499999999997
 31
0.0
  0
LINE
  5
1747
330
14CE
100
AcDbEntity
  8
LW 3500-39-00
100
AcDbLine
 10
21.01999999999998
 20
-146.9999999999999
 30
0.0
 11
-21.02000000000001
 21
-146.9999999999999
 31
0.0
  0
LINE
  5
1748
330
14CE
100
AcDbEntity
  8
LW 3500-39-00
100
AcDbLine
 10
21.01999999999998
 20
-133.0
 30
0.0
 11
-21.02000000000001
 21
-133.0
 31
0.0
  0
LINE
  5
1749
330
14CE
100
AcDbEntity
  8
LW 3500-39-00
 62
     3
100
AcDbLine
 10
-21.02000000000001
 20
-145.7945
 30
0.0
 11
21.01999999999998
 21
-145.7945
 31
0.0
  0
LINE
  5
174A
330
14CE
100
AcDbEntity
  8
LW 3500-39-00
 62
     3
100
AcDbLine
 10
21.01999999999998
 20
-134.2054999999999
 30
0.0
 11
-21.02000000000001
 21
-134.2054999999999
 31
0.0
  0
LINE
  5
174B
330
14CE
100
AcDbEntity
  8
LW 3500-39-00
100
AcDbLine
 10
21.01999999999998
 20
-66.99999999999994
 30
0.0
 11
-21.02000000000001
 21
-66.99999999999994
 31
0.0
  0
LINE
  5
174C
330
14CE
100
AcDbEntity
  8
LW 3500-39-00
100
AcDbLine
 10
21.01999999999998
 20
-53.0
 30
0.0
 11
-21.02000000000001
 21
-53.0
 31
0.0
  0
LINE
  5
174D
330
14CE
100
AcDbEntity
  8
LW 3500-39-00
 62
     3
100
AcDbLine
 10
-21.02000000000001
 20
-65.79449999999997
 30
0.0
 11
21.01999999999998
 21
-65.79449999999997
 31
0.0
  0
LINE
  5
174E
330
14CE
100
AcDbEntity
  8
LW 3500-39-00
 62
     3
100
AcDbLine
 10
21.01999999999998
 20
-54.20549999999991
 30
0.0
 11
-21.02000000000001
 21
-54.20549999999991
 31
0.0
  0
LINE
  5
174F
330
14CE
100
AcDbEntity
  8
LW 3500-39-00
  6
MITTE2
 62
     3
100
AcDbLine
 10
103.02
 20
27.30489739875702
 30
0.0
 11
103.02
 21
-41.6303604871004
 31
0.0
  0
LINE
  5
1750
330
14CE
100
AcDbEntity
  8
LW 3500-39-00
  6
MITTE2
 62
     3
100
AcDbLine
 10
0.0
 20
-200.232621264322
 30
0.0
 11
0.0
 21
21.38032543962169
 31
0.0
  0
LINE
  5
1751
330
14CE
100
AcDbEntity
  8
LW 3500-39-00
  6
MITTE2
 62
     3
100
AcDbLine
 10
59.11802267868478
 20
-140.0
 30
0.0
 11
-59.1180226786848
 21
-140.0
 31
0.0
  0
LINE
  5
1752
330
14CE
100
AcDbEntity
  8
LW 3500-39-00
  6
MITTE2
 62
     3
100
AcDbLine
 10
59.35902532515905
 20
-60.0
 30
0.0
 11
-59.3590253251591
 21
-60.0
 31
0.0
  0
LINE
  5
1753
330
14CE
100
AcDbEntity
  8
LW 3500-39-00
  6
MITTE2
 62
     3
100
AcDbLine
 10
-103.0199999999999
 20
27.30489739875702
 30
0.0
 11
-103.0199999999999
 21
-41.6303604871004
 31
0.0
  0
INSERT
  5
1754
330
14CE
100
AcDbEntity
  8
LW 3500-39-00
100
AcDbBlockReference
 66
     1
  2
insertpoint-ECKELT
 10
0.0
 20
0.0
 30
0.0
  0
ATTRIB
  5
1755
330
1754
100
AcDbEntity
  8
insertpoint_ECKELT
100
AcDbText
 10
-6.931514324693087
 20
0.0
 30
0.0
 40
0.6
  1
LW 3500/39-00
 72
     2
 11
-1.200000000000045
 21
0.0
 31
0.0
100
AcDbAttribute
  2
LINKS
 70
     0
  0
ATTRIB
  5
1756
330
1754
100
AcDbEntity
  8
insertpoint_ECKELT
100
AcDbText
 10
1.200000000000045
 20
0.0
 30
0.0
 40
0.6
  1

100
AcDbAttribute
  2
RECHTS
 70
     0
  0
SEQEND
  5
1757
330
1754
100
AcDbEntity
  8
LW 3500-39-00
  0
HATCH
  5
1758
330
14CE
100
AcDbEntity
  8
LW 3500-39-00
 62
     1
100
AcDbHatch
 10
0.0
 20
0.0
 30
0.0
210
0.0
220
0.0
230
1.0
  2
SOLID
 70
     1
 71
     0
 91
        5
 92
        7
 72
     0
 73
     1
 93
       76
 10
-49.84432087502359
 20
-17.73042025943835
 10
-49.78788523442029
 20
-17.70827078758862
 10
-49.60261329562576
 20
-17.65817174291453
 10
-49.41077635729801
 20
-17.62651928383218
 10
-49.21692969510075
 20
-17.61142357833842
 10
-49.01585088848571
 20
-17.61609982965501
 10
-48.814234596701
 20
-17.63958969621649
 10
-48.61402124287099
 20
-17.67556011211041
 10
-48.42737510703068
 20
-17.72864682343288
 10
-50.23308545759073
 20
-16.3743640605129
 10
-50.40861649263075
 20
-16.25357785323297
 10
-50.58588545871072
 20
-16.15321233567295
 10
-50.76706476963079
 20
-16.06892268023296
 10
-50.94737511503069
 20
-16.001577852433
 10
-51.12985787423082
 20
-15.9516123350329
 10
-51.31320959895083
 20
-15.91728819699301
 10
-51.49085951951462
 20
-15.90320765349997
 10
-51.6690509793907
 20
-15.90295026591309
 10
-51.84083294959134
 20
-15.92292413356273
 10
-52.00680049770437
 20
-15.95877261091778
 10
-52.16914063615075
 20
-16.00852957659299
 10
-52.32251305043082
 20
-16.07543992163312
 10
-52.46545787847082
 20
-16.16103302535316
 10
-52.60188546511063
 20
-16.25966061187307
 10
-52.72354063791073
 20
-16.37479854327307
 10
-52.83476822447074
 20
-16.50861923335304
 10
-52.9303544316707
 20
-16.65417095795317
 10
-53.00638891467077
 20
-16.80623992395306
 10
-53.05939581139068
 20
-16.9674330279131
 10
-53.09763029427074
 20
-17.13427440775308
 10
-53.11500960467071
 20
-17.30589509795322
 10
-53.11457512191066
 20
-17.48272958127302
 10
-53.09514505288354
 20
-17.6613193749435
 10
-53.0588660900097
 20
-17.83994583895878
 10
-53.00725788019071
 20
-18.01670889331308
 10
-52.93730615583053
 20
-18.19137096283305
 10
-52.84774361761527
 20
-18.36466528062465
 10
-52.7474371897107
 20
-18.532005446673
 10
-52.62838891347064
 20
-18.6918951023531
 10
-52.49456822339062
 20
-18.8465709649131
 10
-52.34336822291073
 20
-18.99255717227305
 10
-52.18000270515074
 20
-19.12594337959302
 10
-50.48466583654851
 20
-20.39744603104452
 10
-50.57525844554959
 20
-20.25066306962515
 10
-50.66773759647787
 20
-20.0680283645255
 10
-50.73979290565501
 20
-19.88332476647815
 10
-50.80068827840841
 20
-19.69313043888132
 10
-50.83794441518057
 20
-19.50295134062736
 10
-50.85628092003088
 20
-19.3150068579539
 10
-50.85695225699805
 20
-19.12639304933788
 10
-50.84801845689435
 20
-19.02786259678521
 10
-51.6707889104307
 20
-18.41078475663301
 10
-51.77193997282063
 20
-18.3254714598105
 10
-51.86434229035552
 20
-18.23075248019938
 10
-51.94711994579063
 20
-18.12750199711308
 10
-52.01185787703059
 20
-18.02192268643307
 10
-52.06192419443095
 20
-17.91376949988285
 10
-52.09988060834461
 20
-17.80079529262764
 10
-52.12525787739071
 20
-17.68432958191312
 10
-52.13177511879064
 20
-17.57353647811311
 10
-50.74975806738359
 20
-18.61004926666828
 10
-50.73864437674706
 20
-18.57759023369783
 10
-50.65630945458787
 20
-18.40762399087828
 10
-50.55177054844278
 20
-18.24816602804867
 10
-50.42530255448628
 20
-18.0995781568223
 10
-50.28443635438623
 20
-17.97226609281426
 10
-50.24167809629529
 20
-17.94291958648466
 10
-51.65818891039072
 20
-16.880536475913
 10
-51.54522339279077
 20
-16.84577785511305
 10
-51.42965097863072
 20
-16.82926751023302
 10
-51.31165936446314
 20
-16.83043018609879
 10
-51.19459580547072
 20
-16.845343372353
 10
-51.07326041198212
 20
-16.88138284832951
 10
-50.95606477023068
 20
-16.92919854503304
 10
-50.83484408019074
 20
-16.99567440731306
 10
-50.71623028671069
 20
-17.076488200673
 97
        0
 92
        7
 72
     0
 73
     1
 93
       72
 10
-48.47030895544293
 20
-18.77917747504386
 10
-48.36117383785506
 20
-18.8384357097147
 10
-48.25879579615071
 20
-18.90870199959289
 10
-47.24384406879062
 20
-19.66991579511284
 10
-48.41043027939054
 20
-19.81329510591286
 10
-48.02851993335048
 20
-22.24770201019294
 10
-46.97359579207057
 20
-23.03889511615285
 10
-47.29945786207053
 20
-20.61665372915286
 10
-44.97410613055058
 20
-20.31859855579279
 10
-47.72525096687064
 20
-18.25523992855295
 10
-47.8981055881091
 20
-18.13906792818409
 10
-48.07875656799303
 20
-18.03540555544123
 10
-48.26618200307064
 20
-17.9445847551529
 10
-48.4547475209107
 20
-17.87376406527289
 10
-48.64722338359076
 20
-17.81901923751286
 10
-48.83576804625829
 20
-17.78514522361223
 10
-49.02609235031071
 20
-17.762970961473
 10
-49.21291993711065
 20
-17.75862613387295
 10
-49.39306344113084
 20
-17.77265471322789
 10
-49.57136821411063
 20
-17.80207440987306
 10
-49.74168545603084
 20
-17.84812958243299
 10
-49.90331304275059
 20
-17.91156406539289
 10
-50.05320959495072
 20
-17.99194337599294
 10
-50.19311304367068
 20
-18.08796406595297
 10
-50.31954752683066
 20
-18.20223303183303
 10
-50.43381649271072
 20
-18.33648820467306
 10
-50.52809925163058
 20
-18.48030199823302
 10
-50.60239580359064
 20
-18.63367441251296
 10
-50.65714063135056
 20
-18.79356406819301
 10
-50.69407166595067
 20
-18.95866751699299
 10
-50.7098590315179
 20
-19.13278561409743
 10
-50.70923685220572
 20
-19.30758845603179
 10
-50.69225726594476
 20
-19.48162487037734
 10
-50.65800959687061
 20
-19.65644682955292
 10
-50.60112016220728
 20
-19.83412942322059
 10
-50.53331304475062
 20
-20.00794338239302
 10
-50.44685097551059
 20
-20.17869510707305
 10
-50.34387856139051
 20
-20.34553648691304
 10
-50.2209234161727
 20
-20.50531491500647
 10
-50.08970614679066
 20
-20.65836407411302
 10
-49.9385061463106
 20
-20.80435028147304
 10
-49.77514062855061
 20
-20.93773648879301
 10
-48.25271303751049
 20
-22.07955718207291
 10
-48.43780269327055
 20
-20.84910200575291
 10
-49.2511544199906
 20
-20.23908821071296
 10
-49.30223967198265
 20
-20.19609015554477
 10
-49.37700843418326
 20
-20.12753563104855
 10
-49.46023795168878
 20
-20.03828418248929
 10
-49.53333880709334
 20
-19.94055336838608
 10
-49.58997797968686
 20
-19.84691364395075
 10
-49.61799342805176
 20
-19.79070895411706
 10
-49.64138945571216
 20
-19.73242917462164
 10
-49.6878443524115
 20
-19.57343455342737
 10
-49.70470228349938
 20
-19.47324282897136
 10
-49.70803563523418
 20
-19.38591005628046
 10
-49.70346487659901
 20
-19.29863984910673
 10
-49.68865770413827
 20
-19.21329005573227
 10
-49.66334300060953
 20
-19.13049849684887
 10
-49.62760766256508
 20
-19.04835344831212
 10
-49.58002311068992
 20
-18.97237979289861
 10
-49.54155574505051
 20
-18.92334928239813
 10
-49.49947348284798
 20
-18.87724718570012
 10
-49.4518437447656
 20
-18.8340022476317
 10
-49.40025499977434
 20
-18.79557311647522
 10
-49.30610779947563
 20
-18.74279041285939
 10
-49.23216578544759
 20
-18.7134141644903
 10
-49.13488335755261
 20
-18.6888346057915
 10
-48.95544816302856
 20
-18.66525758036743
 10
-48.88399910848017
 20
-18.66877192986578
 10
-48.79637262544349
 20
-18.67909524024344
 10
-48.70386950790845
 20
-18.69579154374457
 10
-48.58493593511707
 20
-18.73144172316813
 97
        0
 92
        7
 72
     0
 73
     1
 93
       57
 10
-44.83712240597765
 20
-21.5316570424024
 10
-44.70795937108493
 20
-21.57856380117198
 10
-44.58394061207059
 20
-21.63768821515271
 10
-44.46402337031059
 20
-21.71676407747276
 10
-43.47166474647053
 20
-22.46103304535274
 10
-42.97635440007053
 20
-21.80061925015275
 10
-43.9634992307906
 20
-21.06026062711283
 10
-44.13729233479057
 20
-20.94077786811283
 10
-44.31934061123058
 20
-20.83954338503281
 10
-44.50225785319048
 20
-20.75395028131277
 10
-44.6860440606705
 20
-20.68399855695282
 10
-44.8767819923105
 20
-20.63055717747284
 10
-45.05949068254596
 20
-20.59682393598632
 10
-45.2444204486502
 20
-20.57869557730817
 10
-45.43017746992944
 20
-20.57623988074874
 10
-45.6093581601533
 20
-20.59088194976073
 10
-45.78267854691057
 20
-20.62186752227285
 10
-45.94951992675055
 20
-20.67052959139283
 10
-46.1046302720706
 20
-20.73613648815285
 10
-46.25452682427073
 20
-20.8165157987529
 10
-46.39095441091046
 20
-20.91514338527281
 10
-46.51738889407051
 20
-21.02941235115281
 10
-46.63035441167051
 20
-21.1619295929529
 10
-46.7259406188706
 20
-21.30748131755286
 10
-46.80023717083054
 20
-21.46085373183286
 10
-46.85498199859068
 20
-21.6207433875129
 10
-46.89147855043046
 20
-21.78888821563294
 10
-46.91059579187049
 20
-21.95920545755291
 10
-46.90725201254951
 20
-22.13615812018361
 10
-46.88957377801068
 20
-22.31234783108766
 10
-46.85321626065388
 20
-22.4912504523453
 10
-46.8015406191106
 20
-22.66828132187288
 10
-46.73158889475058
 20
-22.84294339139291
 10
-46.6433888944706
 20
-23.01499856435282
 10
-46.53998199759041
 20
-23.18488132351285
 10
-46.42093372135048
 20
-23.34477097919284
 10
-46.28711303127045
 20
-23.49944684175284
 10
-46.1363475135505
 20
-23.64239166979292
 10
-45.97124406475046
 20
-23.77708132539289
 10
-45.00321647547048
 20
-24.50310201735283
 10
-44.48835440487044
 20
-23.81661925655283
 10
-45.47549923559063
 20
-23.07626063351279
 10
-45.57621233935856
 20
-22.98779994357687
 10
-45.66882668447999
 20
-22.89085815016563
 10
-45.74472213299691
 20
-22.79103139122799
 10
-45.80874751251042
 20
-22.68305373571286
 10
-45.85992958163854
 20
-22.56852408017676
 10
-45.89701703003214
 20
-22.45620159706164
 10
-45.91908875424008
 20
-22.33993401048565
 10
-45.92736130599047
 20
-22.22684683771285
 10
-44.24330612823041
 20
-23.4898882210328
 10
-43.74669233355041
 20
-22.82773649479282
 10
-45.46029233899059
 20
-21.54253649071279
 10
-45.34602337311059
 20
-21.50603993887285
 10
-45.22306475203061
 20
-21.48692269743287
 10
-45.09636957921452
 20
-21.48657511122485
 10
-44.97019578571053
 20
-21.49735028367286
 97
        0
 92
        7
 72
     0
 73
     1
 93
        6
 10
-42.79995439951039
 20
-21.94921235407276
 10
-44.82160268179046
 20
-24.64474339711279
 10
-43.03153371059034
 20
-25.98729512551279
 10
-42.51145784687037
 20
-25.29386064055268
 10
-43.4829612982304
 20
-24.56523305203268
 10
-41.98138887967047
 20
-22.5631364939527
 97
        0
 92
        7
 72
     0
 73
     1
 93
        8
 10
-41.79543025839052
 20
-22.70260545991266
 10
-42.29074060479058
 20
-23.3630192551127
 10
-41.3035957740704
 20
-24.10337787815263
 10
-42.83384405479035
 20
-26.14370891911278
 10
-42.01354060391037
 20
-26.75893650727272
 10
-40.48329232319048
 20
-24.71860546631262
 10
-39.48919576831048
 20
-25.46417788247266
 10
-38.99388542191048
 20
-24.80376408727261
 97
        0
 75
     0
 76
     1
 47
0.0142553043587597
 98
        5
 10
-50.151110850164
 20
-16.98890710306943
 10
-48.42264487049328
 20
-18.46344781907953
 10
-44.79466278120338
 20
-21.1131579203622
 10
-42.47017937932264
 20
-22.55359519090723
 10
-41.40058127298925
 20
-23.48052768617401
450
        0
451
        0
460
0.0
461
0.0
452
        0
462
0.0
453
        0
470

  0
LWPOLYLINE
  5
1759
330
14CE
100
AcDbEntity
  8
LW 3500-39-00
 62
     1
100
AcDbPolyline
 90
        8
 70
     1
 43
0.0
 10
-40.48329232319048
 20
-24.71860546631262
 10
-42.01354060391037
 20
-26.75893650727272
 10
-42.83384405479035
 20
-26.14370891911278
 10
-41.3035957740704
 20
-24.10337787815263
 10
-42.29074060479058
 20
-23.3630192551127
 10
-41.79543025839052
 20
-22.70260545991266
 10
-38.99388542191048
 20
-24.80376408727261
 10
-39.48919576831048
 20
-25.46417788247266
  0
LWPOLYLINE
  5
175A
330
14CE
100
AcDbEntity
  8
LW 3500-39-00
 62
     1
100
AcDbPolyline
 90
       73
 70
     1
 43
0.0
 10
-49.2511544199906
 20
-20.23908821071296
 10
-48.43780269327055
 20
-20.84910200575291
 10
-48.25271303751049
 20
-22.07955718207291
 10
-49.77514062855061
 20
-20.93773648879301
 10
-49.9385061463106
 20
-20.80435028147304
 10
-50.08970614679061
 20
-20.65836407411297
 10
-50.2209234161727
 20
-20.50531491500647
 10
-50.34387856139051
 20
-20.34553648691304
 10
-50.44685097551059
 20
-20.17869510707305
 10
-50.53331304475057
 20
-20.00794338239302
 10
-50.60112016220717
 20
-19.83412942322053
 10
-50.65800959687061
 20
-19.65644682955292
 10
-50.69225726594493
 20
-19.48162487037734
 10
-50.70923685220572
 20
-19.30758845603179
 10
-50.70985903151802
 20
-19.13278561409743
 10
-50.69407166595067
 20
-18.95866751699299
 10
-50.65714063135056
 20
-18.79356406819301
 10
-50.60239580359064
 20
-18.63367441251296
 10
-50.52809925163058
 20
-18.48030199823302
 10
-50.43381649271066
 20
-18.336488204673
 10
-50.31954752683066
 20
-18.20223303183303
 10
-50.19311304367068
 20
-18.08796406595297
 10
-50.05320959495065
 20
-17.991943375993
 10
-49.90331304275065
 20
-17.91156406539295
 10
-49.74168545603072
 20
-17.84812958243299
 10
-49.57136821411063
 20
-17.80207440987306
 10
-49.39306344113077
 20
-17.77265471322784
 10
-49.21291993711077
 20
-17.75862613387289
 10
-49.02609235031071
 20
-17.762970961473
 10
-48.83576804625824
 20
-17.7851452236124
 10
-48.64722338359081
 20
-17.81901923751297
 10
-48.4547475209107
 20
-17.87376406527289
 10
-48.26618200307064
 20
-17.94458475515284
 10
-48.07875656799291
 20
-18.03540555544123
 10
-47.8981055881091
 20
-18.13906792818409
 10
-47.7252509668707
 20
-18.25523992855289
 10
-44.97410613055058
 20
-20.31859855579279
 10
-47.29945786207053
 20
-20.61665372915286
 10
-46.97359579207057
 20
-23.03889511615285
 10
-48.02851993335048
 20
-22.24770201019294
 10
-48.41043027939054
 20
-19.81329510591286
 10
-47.24384406879062
 20
-19.66991579511284
 10
-48.25879579615071
 20
-18.90870199959289
 10
-48.36117383785506
 20
-18.8384357097147
 10
-48.47030895544293
 20
-18.77917747504386
 10
-48.58493593511707
 20
-18.73144172316813
 10
-48.70386950790851
 20
-18.69579154374469
 10
-48.79637262544349
 20
-18.67909524024327
 10
-48.88399910848028
 20
-18.66877192986573
 10
-48.93251171553083
 20
-18.66638575054782
 10
-48.98108341223667
 20
-18.66862594365841
 10
-49.13488335755261
 20
-18.6888346057915
 10
-49.23216578544759
 20
-18.7134141644903
 10
-49.30610779947551
 20
-18.74279041285933
 10
-49.40025499977434
 20
-18.79557311647522
 10
-49.4518437447656
 20
-18.8340022476317
 10
-49.49947348284791
 20
-18.87724718570007
 10
-49.54155574505046
 20
-18.92334928239808
 10
-49.5800231106898
 20
-18.97237979289855
 10
-49.62760766256508
 20
-19.04835344831212
 10
-49.66334300060942
 20
-19.13049849684887
 10
-49.68865770413817
 20
-19.21329005573239
 10
-49.70346487659901
 20
-19.29863984910673
 10
-49.70803563523418
 20
-19.38591005628029
 10
-49.70470228349938
 20
-19.47324282897136
 10
-49.6878443524115
 20
-19.57343455342737
 10
-49.6413894557121
 20
-19.73242917462176
 10
-49.6179934280517
 20
-19.79070895411712
 10
-49.58997797968686
 20
-19.84691364395075
 10
-49.53333880709334
 20
-19.94055336838608
 10
-49.46023795168878
 20
-20.03828418248929
 10
-49.37700843418326
 20
-20.12753563104855
 10
-49.30223967198253
 20
-20.19609015554483
  0
LWPOLYLINE
  5
175B
330
14CE
100
AcDbEntity
  8
LW 3500-39-00
 62
     1
100
AcDbPolyline
 90
       76
 70
     1
 43
0.0
 10
-48.814234596701
 20
-17.63958969621649
 10
-49.01585088848583
 20
-17.61609982965501
 10
-49.21692969510082
 20
-17.6114235783383
 10
-49.41077635729801
 20
-17.62651928383218
 10
-49.60261329562576
 20
-17.65817174291453
 10
-49.78788523442023
 20
-17.70827078758856
 10
-49.84432087502359
 20
-17.73042025943835
 10
-50.71623028671069
 20
-17.076488200673
 10
-50.83484408019074
 20
-16.99567440731306
 10
-50.95606477023079
 20
-16.92919854503299
 10
-51.07326041198212
 20
-16.88138284832951
 10
-51.19459580547072
 20
-16.845343372353
 10
-51.31165936446302
 20
-16.83043018609885
 10
-51.42965097863077
 20
-16.82926751023308
 10
-51.54522339279083
 20
-16.845777855113
 10
-51.65818891039072
 20
-16.880536475913
 10
-50.24167809629529
 20
-17.94291958648466
 10
-50.28443635438623
 20
-17.97226609281426
 10
-50.4253025544865
 20
-18.0995781568223
 10
-50.55177054844278
 20
-18.24816602804867
 10
-50.65630945458787
 20
-18.40762399087828
 10
-50.73864437674695
 20
-18.57759023369783
 10
-50.74975806738359
 20
-18.61004926666828
 10
-52.13177511879064
 20
-17.57353647811311
 10
-52.12525787739071
 20
-17.68432958191312
 10
-52.09988060834461
 20
-17.80079529262764
 10
-52.06192419443095
 20
-17.91376949988285
 10
-52.01185787703059
 20
-18.02192268643307
 10
-51.94711994579063
 20
-18.12750199711308
 10
-51.86434229035552
 20
-18.23075248019938
 10
-51.77193997282063
 20
-18.3254714598105
 10
-51.6707889104307
 20
-18.41078475663301
 10
-50.84801845689435
 20
-19.02786259678521
 10
-50.856952256998
 20
-19.12639304933782
 10
-50.85628092003088
 20
-19.3150068579539
 10
-50.83794441518057
 20
-19.50295134062736
 10
-50.80068827840818
 20
-19.69313043888132
 10
-50.73979290565501
 20
-19.88332476647815
 10
-50.66773759647787
 20
-20.0680283645255
 10
-50.57525844554959
 20
-20.25066306962515
 10
-50.48466583654851
 20
-20.39744603104452
 10
-52.18000270515068
 20
-19.12594337959308
 10
-52.34336822291073
 20
-18.99255717227305
 10
-52.49456822339062
 20
-18.8465709649131
 10
-52.6283889134707
 20
-18.6918951023531
 10
-52.7474371897107
 20
-18.53200544667316
 10
-52.84774361761538
 20
-18.36466528062453
 10
-52.93730615583053
 20
-18.19137096283305
 10
-53.00725788019071
 20
-18.01670889331308
 10
-53.05886609000959
 20
-17.83994583895889
 10
-53.09514505288354
 20
-17.6613193749435
 10
-53.11457512191066
 20
-17.48272958127308
 10
-53.11500960467071
 20
-17.30589509795311
 10
-53.09763029427063
 20
-17.13427440775308
 10
-53.05939581139068
 20
-16.9674330279131
 10
-53.00638891467077
 20
-16.80623992395306
 10
-52.9303544316707
 20
-16.65417095795305
 10
-52.83476822447074
 20
-16.5086192333531
 10
-52.7235406379109
 20
-16.37479854327307
 10
-52.60188546511074
 20
-16.25966061187307
 10
-52.46545787847077
 20
-16.16103302535305
 10
-52.32251305043082
 20
-16.07543992163312
 10
-52.16914063615075
 20
-16.00852957659299
 10
-52.00680049770426
 20
-15.95877261091789
 10
-51.84083294959129
 20
-15.92292413356267
 10
-51.66905097939082
 20
-15.90295026591309
 10
-51.49085951951474
 20
-15.90320765350003
 10
-51.31320959895072
 20
-15.91728819699301
 10
-51.12985787423077
 20
-15.95161233503302
 10
-50.94737511503069
 20
-16.001577852433
 10
-50.76706476963079
 20
-16.06892268023307
 10
-50.58588545871072
 20
-16.15321233567295
 10
-50.40861649263075
 20
-16.25357785323297
 10
-50.23308545759073
 20
-16.37436406051302
 10
-48.42737510703057
 20
-17.72864682343288
 10
-48.61402124287099
 20
-17.67556011211041
  0
LWPOLYLINE
  5
175C
330
14CE
100
AcDbEntity
  8
LW 3500-39-00
 62
     1
100
AcDbPolyline
 90
        6
 70
     1
 43
0.0
 10
-43.03153371059034
 20
-25.98729512551279
 10
-44.82160268179046
 20
-24.64474339711279
 10
-42.79995439951039
 20
-21.94921235407276
 10
-41.98138887967047
 20
-22.5631364939527
 10
-43.4829612982304
 20
-24.56523305203268
 10
-42.51145784687037
 20
-25.29386064055268
  0
LWPOLYLINE
  5
175D
330
14CE
100
AcDbEntity
  8
LW 3500-39-00
 62
     1
100
AcDbPolyline
 90
       57
 70
     1
 43
0.0
 10
-46.88957377801068
 20
-22.31234783108766
 10
-46.90725201254963
 20
-22.13615812018361
 10
-46.91059579187061
 20
-21.95920545755291
 10
-46.89147855043046
 20
-21.78888821563294
 10
-46.85498199859068
 20
-21.6207433875129
 10
-46.80023717083054
 20
-21.46085373183286
 10
-46.7259406188706
 20
-21.30748131755286
 10
-46.63035441167051
 20
-21.1619295929529
 10
-46.51738889407056
 20
-21.02941235115281
 10
-46.39095441091058
 20
-20.91514338527293
 10
-46.25452682427073
 20
-20.8165157987529
 10
-46.1046302720706
 20
-20.7361364881528
 10
-45.94951992675066
 20
-20.67052959139289
 10
-45.78267854691057
 20
-20.62186752227274
 10
-45.60935816015353
 20
-20.59088194976061
 10
-45.43017746992944
 20
-20.57623988074874
 10
-45.24442044865009
 20
-20.57869557730817
 10
-45.05949068254563
 20
-20.59682393598643
 10
-44.8767819923105
 20
-20.63055717747284
 10
-44.6860440606706
 20
-20.68399855695282
 10
-44.50225785319048
 20
-20.75395028131277
 10
-44.31934061123058
 20
-20.83954338503281
 10
-44.13729233479057
 20
-20.94077786811283
 10
-43.9634992307906
 20
-21.06026062711283
 10
-42.97635440007053
 20
-21.80061925015275
 10
-43.47166474647053
 20
-22.46103304535274
 10
-44.46402337031054
 20
-21.71676407747282
 10
-44.58394061207053
 20
-21.63768821515282
 10
-44.70795937108493
 20
-21.57856380117198
 10
-44.83712240597776
 20
-21.5316570424024
 10
-44.97019578571053
 20
-21.49735028367286
 10
-45.09636957921452
 20
-21.48657511122485
 10
-45.22306475203061
 20
-21.48692269743276
 10
-45.34602337311059
 20
-21.50603993887285
 10
-45.46029233899059
 20
-21.54253649071279
 10
-43.74669233355041
 20
-22.82773649479282
 10
-44.24330612823041
 20
-23.4898882210328
 10
-45.92736130599047
 20
-22.22684683771285
 10
-45.91908875424008
 20
-22.33993401048565
 10
-45.89701703003214
 20
-22.45620159706164
 10
-45.85992958163854
 20
-22.56852408017676
 10
-45.80874751251042
 20
-22.68305373571286
 10
-45.74472213299691
 20
-22.79103139122799
 10
-45.66882668447999
 20
-22.89085815016563
 10
-45.57621233935856
 20
-22.98779994357687
 10
-45.47549923559063
 20
-23.07626063351279
 10
-44.48835440487044
 20
-23.81661925655283
 10
-45.00321647547048
 20
-24.50310201735283
 10
-45.97124406475046
 20
-23.77708132539289
 10
-46.1363475135505
 20
-23.64239166979292
 10
-46.28711303127045
 20
-23.49944684175284
 10
-46.42093372135048
 20
-23.34477097919284
 10
-46.53998199759041
 20
-23.18488132351285
 10
-46.6433888944706
 20
-23.01499856435282
 10
-46.73158889475053
 20
-22.84294339139285
 10
-46.8015406191106
 20
-22.66828132187288
 10
-46.85321626065388
 20
-22.4912504523453
  0
ENDBLK
  5
14D0
330
14CE
100
AcDbEntity
  8
0
100
AcDbBlockEnd
  0
BLOCK
  5
1760
330
175F
100
AcDbEntity
  8
0
100
AcDbBlockBegin
  2
LW 3500-39-00_b
 70
     0
 10
0.0
 20
0.0
 30
0.0
  3
LW 3500-39-00_b
  1

  0
LINE
  5
1762
330
175F
100
AcDbEntity
  8
LW 3500-39-00
100
AcDbLine
 10
-66.02000000000007
 20
-1.999999999961744
 30
0.0
 11
-55.02000000000004
 21
-1.999999999964245
 31
0.0
  0
LINE
  5
1763
330
175F
100
AcDbEntity
  8
LW 3500-39-00
100
AcDbLine
 10
-55.02000000000004
 20
2.000000000035868
 30
0.0
 11
-66.0200000000001
 21
2.000000000038255
 31
0.0
  0
LINE
  5
1764
330
175F
100
AcDbEntity
  8
LW 3500-39-00
100
AcDbLine
 10
-32.02000000000004
 20
-32.99999999999994
 30
0.0
 11
-32.02000000000004
 21
32.99999999999994
 31
0.0
  0
ARC
  5
1765
330
175F
100
AcDbEntity
  8
LW 3500-39-00
100
AcDbCircle
 10
-30.02000000000001
 20
32.99999999999994
 30
0.0
 40
2.00000000000001
100
AcDbArc
 50
90.0
 51
180.0
  0
ARC
  5
1766
330
175F
100
AcDbEntity
  8
LW 3500-39-00
100
AcDbCircle
 10
-30.02000000000004
 20
-33.00000000000006
 30
0.0
 40
2.000000000000003
100
AcDbArc
 50
180.0
 51
270.0
  0
LINE
  5
1767
330
175F
100
AcDbEntity
  8
LW 3500-39-00
100
AcDbLine
 10
-30.02000000000007
 20
35.00000000003826
 30
0.0
 11
-34.02000000000007
 21
35.00000000003945
 31
0.0
  0
LINE
  5
1768
330
175F
100
AcDbEntity
  8
LW 3500-39-00
100
AcDbLine
 10
-34.02000000000007
 20
-34.99999999996055
 30
0.0
 11
-30.02000000000007
 21
-34.99999999996175
 31
0.0
  0
LINE
  5
1769
330
175F
100
AcDbEntity
  8
LW 3500-39-00
100
AcDbLine
 10
-34.02000000000007
 20
35.00000000003945
 30
0.0
 11
-103.02
 21
35.00000000003945
 31
0.0
  0
LINE
  5
176A
330
175F
100
AcDbEntity
  8
LW 3500-39-00
100
AcDbLine
 10
-103.02
 20
-34.99999999996055
 30
0.0
 11
-34.02000000000007
 21
-34.99999999996055
 31
0.0
  0
ARC
  5
176B
330
175F
100
AcDbEntity
  8
LW 3500-39-00
100
AcDbCircle
 10
-103.02
 20
0.0000000000394493
 30
0.0
 40
35.0
100
AcDbArc
 50
90.0
 51
270.0
  0
LINE
  5
176C
330
175F
100
AcDbEntity
  8
LW 3500-39-00
100
AcDbLine
 10
-23.02000000000007
 20
35.0
 30
0.0
 11
-30.02000000000004
 21
35.0
 31
0.0
  0
LINE
  5
176D
330
175F
100
AcDbEntity
  8
LW 3500-39-00
100
AcDbLine
 10
-30.02000000000004
 20
-35.0
 30
0.0
 11
-23.02000000000007
 21
-35.0
 31
0.0
  0
LINE
  5
176E
330
175F
100
AcDbEntity
  8
LW 3500-39-00
100
AcDbLine
 10
-23.02000000000007
 20
35.0
 30
0.0
 11
-23.02000000000007
 21
-35.0
 31
0.0
  0
LINE
  5
176F
330
175F
100
AcDbEntity
  8
LW 3500-39-00
100
AcDbLine
 10
66.01999999999993
 20
2.000000000038255
 30
0.0
 11
55.01999999999992
 21
2.000000000035868
 31
0.0
  0
LINE
  5
1770
330
175F
100
AcDbEntity
  8
LW 3500-39-00
100
AcDbLine
 10
55.01999999999992
 20
-1.999999999964245
 30
0.0
 11
66.01999999999993
 21
-1.999999999961744
 31
0.0
  0
LINE
  5
1771
330
175F
100
AcDbEntity
  8
LW 3500-39-00
100
AcDbLine
 10
32.01999999999998
 20
32.99999999999994
 30
0.0
 11
32.01999999999998
 21
-32.99999999999994
 31
0.0
  0
ARC
  5
1772
330
175F
100
AcDbEntity
  8
LW 3500-39-00
100
AcDbCircle
 10
30.01999999999998
 20
-33.00000000000006
 30
0.0
 40
1.999999999999992
100
AcDbArc
 50
270.0
 51
0.0
  0
ARC
  5
1773
330
175F
100
AcDbEntity
  8
LW 3500-39-00
100
AcDbCircle
 10
30.01999999999998
 20
32.99999999999994
 30
0.0
 40
2.000000000000005
100
AcDbArc
 50
0.0
 51
90.0
  0
LINE
  5
1774
330
175F
100
AcDbEntity
  8
LW 3500-39-00
100
AcDbLine
 10
30.01999999999998
 20
-34.99999999996175
 30
0.0
 11
34.01999999999998
 21
-34.99999999996055
 31
0.0
  0
LINE
  5
1775
330
175F
100
AcDbEntity
  8
LW 3500-39-00
100
AcDbLine
 10
34.01999999999998
 20
35.00000000003945
 30
0.0
 11
30.01999999999998
 21
35.00000000003826
 31
0.0
  0
LINE
  5
1776
330
175F
100
AcDbEntity
  8
LW 3500-39-00
100
AcDbLine
 10
34.01999999999998
 20
-34.99999999996055
 30
0.0
 11
103.02
 21
-34.99999999996055
 31
0.0
  0
LINE
  5
1777
330
175F
100
AcDbEntity
  8
LW 3500-39-00
100
AcDbLine
 10
103.02
 20
35.00000000003945
 30
0.0
 11
34.01999999999998
 21
35.00000000003945
 31
0.0
  0
ARC
  5
1778
330
175F
100
AcDbEntity
  8
LW 3500-39-00
100
AcDbCircle
 10
103.02
 20
0.0000000000394493
 30
0.0
 40
35.0
100
AcDbArc
 50
270.0
 51
90.0
  0
LINE
  5
1779
330
175F
100
AcDbEntity
  8
LW 3500-39-00
100
AcDbLine
 10
23.01999999999992
 20
-35.0
 30
0.0
 11
30.01999999999998
 21
-35.0
 31
0.0
  0
LINE
  5
177A
330
175F
100
AcDbEntity
  8
LW 3500-39-00
100
AcDbLine
 10
30.01999999999998
 20
35.0
 30
0.0
 11
23.01999999999992
 21
35.0
 31
0.0
  0
LINE
  5
177B
330
175F
100
AcDbEntity
  8
LW 3500-39-00
100
AcDbLine
 10
23.01999999999992
 20
-35.0
 30
0.0
 11
23.01999999999992
 21
35.0
 31
0.0
  0
CIRCLE
  5
177C
330
175F
100
AcDbEntity
  8
LW 3500-39-00
100
AcDbCircle
 10
-103.02
 20
0.0000000000373461
 30
0.0
 40
22.5
  0
CIRCLE
  5
177D
330
175F
100
AcDbEntity
  8
LW 3500-39-00
100
AcDbCircle
 10
103.02
 20
0.0000000000373461
 30
0.0
 40
22.5
  0
CIRCLE
  5
177E
330
175F
100
AcDbEntity
  8
LW 3500-39-00
100
AcDbCircle
 10
103.02
 20
0.0000000000314344
 30
0.0
 40
17.5
  0
CIRCLE
  5
177F
330
175F
100
AcDbEntity
  8
LW 3500-39-00
100
AcDbCircle
 10
103.02
 20
0.0000000000305249
 30
0.0
 40
14.5
  0
POLYLINE
  5
1780
330
175F
100
AcDbEntity
  8
LW 3500-39-00
100
AcDb2dPolyline
 66
     1
 10
0.0
 20
0.0
 30
0.0
 70
   128
  0
VERTEX
  5
1781
330
1780
100
AcDbEntity
  8
LW 3500-39-00
100
AcDbVertex
100
AcDb2dVertex
 10
50.01999952316282
 20
-15.15544414520525
 30
0.0
  0
VERTEX
  5
1782
330
1780
100
AcDbEntity
  8
LW 3500-39-00
100
AcDbVertex
100
AcDb2dVertex
 10
50.00318386077879
 20
-15.28149843216198
 30
0.0
  0
VERTEX
  5
1783
330
1780
100
AcDbEntity
  8
LW 3500-39-00
100
AcDbVertex
100
AcDb2dVertex
 10
49.95250799179075
 20
-15.40561437607061
 30
0.0
  0
VERTEX
  5
1784
330
1780
100
AcDbEntity
  8
LW 3500-39-00
100
AcDbVertex
100
AcDb2dVertex
 10
49.86763216972349
 20
-15.52376866340881
 30
0.0
  0
VERTEX
  5
1785
330
1780
100
AcDbEntity
  8
LW 3500-39-00
100
AcDbVertex
100
AcDb2dVertex
 10
49.74932291030881
 20
-15.63239455223316
 30
0.0
  0
VERTEX
  5
1786
330
1780
100
AcDbEntity
  8
LW 3500-39-00
100
AcDbVertex
100
AcDb2dVertex
 10
49.60275866508482
 20
-15.72940349579084
 30
0.0
  0
VERTEX
  5
1787
330
1780
100
AcDbEntity
  8
LW 3500-39-00
100
AcDbVertex
100
AcDb2dVertex
 10
49.43421103477476
 20
-15.81298470497353
 30
0.0
  0
VERTEX
  5
1788
330
1780
100
AcDbEntity
  8
LW 3500-39-00
100
AcDbVertex
100
AcDb2dVertex
 10
49.24194790840147
 20
-15.8846962451957
 30
0.0
  0
VERTEX
  5
1789
330
1780
100
AcDbEntity
  8
LW 3500-39-00
100
AcDbVertex
100
AcDb2dVertex
 10
49.02386404991148
 20
-15.94591498375149
 30
0.0
  0
VERTEX
  5
178A
330
1780
100
AcDbEntity
  8
LW 3500-39-00
100
AcDbVertex
100
AcDb2dVertex
 10
48.78566958427427
 20
-15.9945559501669
 30
0.0
  0
VERTEX
  5
178B
330
1780
100
AcDbEntity
  8
LW 3500-39-00
100
AcDbVertex
100
AcDb2dVertex
 10
48.5335335922241
 20
-16.0290384292623
 30
0.0
  0
VERTEX
  5
178C
330
1780
100
AcDbEntity
  8
LW 3500-39-00
100
AcDbVertex
100
AcDb2dVertex
 10
48.27547885894773
 20
-16.04943513870444
 30
0.0
  0
VERTEX
  5
178D
330
1780
100
AcDbEntity
  8
LW 3500-39-00
100
AcDbVertex
100
AcDb2dVertex
 10
48.02000023841856
 20
-16.05614542961325
 30
0.0
  0
VERTEX
  5
178E
330
1780
100
AcDbEntity
  8
LW 3500-39-00
100
AcDbVertex
100
AcDb2dVertex
 10
47.76452042579649
 20
-16.04943513870444
 30
0.0
  0
VERTEX
  5
178F
330
1780
100
AcDbEntity
  8
LW 3500-39-00
100
AcDbVertex
100
AcDb2dVertex
 10
47.50646688461301
 20
-16.0290384292623
 30
0.0
  0
VERTEX
  5
1790
330
1780
100
AcDbEntity
  8
LW 3500-39-00
100
AcDbVertex
100
AcDb2dVertex
 10
47.25433089256284
 20
-15.9945559501669
 30
0.0
  0
VERTEX
  5
1791
330
1780
100
AcDbEntity
  8
LW 3500-39-00
100
AcDbVertex
100
AcDb2dVertex
 10
47.01613642692564
 20
-15.94591498375149
 30
0.0
  0
VERTEX
  5
1792
330
1780
100
AcDbEntity
  8
LW 3500-39-00
100
AcDbVertex
100
AcDb2dVertex
 10
46.79805137634275
 20
-15.8846962451957
 30
0.0
  0
VERTEX
  5
1793
330
1780
100
AcDbEntity
  8
LW 3500-39-00
100
AcDbVertex
100
AcDb2dVertex
 10
46.60578944206235
 20
-15.81298470497353
 30
0.0
  0
VERTEX
  5
1794
330
1780
100
AcDbEntity
  8
LW 3500-39-00
100
AcDbVertex
100
AcDb2dVertex
 10
46.4372418117523
 20
-15.72940349579084
 30
0.0
  0
VERTEX
  5
1795
330
1780
100
AcDbEntity
  8
LW 3500-39-00
100
AcDbVertex
100
AcDb2dVertex
 10
46.2906763744354
 20
-15.63239455223316
 30
0.0
  0
VERTEX
  5
1796
330
1780
100
AcDbEntity
  8
LW 3500-39-00
100
AcDbVertex
100
AcDb2dVertex
 10
46.17236830711362
 20
-15.52376866340881
 30
0.0
  0
VERTEX
  5
1797
330
1780
100
AcDbEntity
  8
LW 3500-39-00
100
AcDbVertex
100
AcDb2dVertex
 10
46.08749248504636
 20
-15.40561437607061
 30
0.0
  0
VERTEX
  5
1798
330
1780
100
AcDbEntity
  8
LW 3500-39-00
100
AcDbVertex
100
AcDb2dVertex
 10
46.03681661605833
 20
-15.28149843216198
 30
0.0
  0
VERTEX
  5
1799
330
1780
100
AcDbEntity
  8
LW 3500-39-00
100
AcDbVertex
100
AcDb2dVertex
 10
46.0199997615814
 20
-15.15544414520525
 30
0.0
  0
SEQEND
  5
179A
330
1780
100
AcDbEntity
  8
LW 3500-39-00
  0
POLYLINE
  5
179B
330
175F
100
AcDbEntity
  8
LW 3500-39-00
100
AcDb2dPolyline
 66
     1
 10
0.0
 20
0.0
 30
0.0
 70
   128
  0
VERTEX
  5
179C
330
179B
100
AcDbEntity
  8
LW 3500-39-00
100
AcDbVertex
100
AcDb2dVertex
 10
46.0199997615814
 20
-15.15544414520525
 30
0.0
  0
VERTEX
  5
179D
330
179B
100
AcDbEntity
  8
LW 3500-39-00
100
AcDbVertex
100
AcDb2dVertex
 10
46.03681661605833
 20
-15.02601861953997
 30
0.0
  0
VERTEX
  5
179E
330
179B
100
AcDbEntity
  8
LW 3500-39-00
100
AcDbVertex
100
AcDb2dVertex
 10
46.08749248504636
 20
-14.89207863807945
 30
0.0
  0
VERTEX
  5
179F
330
179B
100
AcDbEntity
  8
LW 3500-39-00
100
AcDbVertex
100
AcDb2dVertex
 10
46.17236830711362
 20
-14.75809454918186
 30
0.0
  0
VERTEX
  5
17A0
330
179B
100
AcDbEntity
  8
LW 3500-39-00
100
AcDbVertex
100
AcDb2dVertex
 10
46.2906763744354
 20
-14.62852478027628
 30
0.0
  0
VERTEX
  5
17A1
330
179B
100
AcDbEntity
  8
LW 3500-39-00
100
AcDbVertex
100
AcDb2dVertex
 10
46.4372418117523
 20
-14.50744867325119
 30
0.0
  0
VERTEX
  5
17A2
330
179B
100
AcDbEntity
  8
LW 3500-39-00
100
AcDbVertex
100
AcDb2dVertex
 10
46.60578944206235
 20
-14.39876794815365
 30
0.0
  0
VERTEX
  5
17A3
330
179B
100
AcDbEntity
  8
LW 3500-39-00
100
AcDbVertex
100
AcDb2dVertex
 10
46.79805137634275
 20
-14.30193305015865
 30
0.0
  0
VERTEX
  5
17A4
330
179B
100
AcDbEntity
  8
LW 3500-39-00
100
AcDbVertex
100
AcDb2dVertex
 10
47.01613642692564
 20
-14.21658873558351
 30
0.0
  0
VERTEX
  5
17A5
330
179B
100
AcDbEntity
  8
LW 3500-39-00
100
AcDbVertex
100
AcDb2dVertex
 10
47.25433089256284
 20
-14.14692282677004
 30
0.0
  0
VERTEX
  5
17A6
330
179B
100
AcDbEntity
  8
LW 3500-39-00
100
AcDbVertex
100
AcDb2dVertex
 10
47.50646688461301
 20
-14.09652948379823
 30
0.0
  0
VERTEX
  5
17A7
330
179B
100
AcDbEntity
  8
LW 3500-39-00
100
AcDbVertex
100
AcDb2dVertex
 10
47.76452042579649
 20
-14.06625151634523
 30
0.0
  0
VERTEX
  5
17A8
330
179B
100
AcDbEntity
  8
LW 3500-39-00
100
AcDbVertex
100
AcDb2dVertex
 10
48.02000023841856
 20
-14.05614495277717
 30
0.0
  0
VERTEX
  5
17A9
330
179B
100
AcDbEntity
  8
LW 3500-39-00
100
AcDbVertex
100
AcDb2dVertex
 10
48.27547885894773
 20
-14.06625151634523
 30
0.0
  0
VERTEX
  5
17AA
330
179B
100
AcDbEntity
  8
LW 3500-39-00
100
AcDbVertex
100
AcDb2dVertex
 10
48.5335335922241
 20
-14.09652948379823
 30
0.0
  0
VERTEX
  5
17AB
330
179B
100
AcDbEntity
  8
LW 3500-39-00
100
AcDbVertex
100
AcDb2dVertex
 10
48.78566958427427
 20
-14.14692282677004
 30
0.0
  0
VERTEX
  5
17AC
330
179B
100
AcDbEntity
  8
LW 3500-39-00
100
AcDbVertex
100
AcDb2dVertex
 10
49.02386404991148
 20
-14.21658873558351
 30
0.0
  0
VERTEX
  5
17AD
330
179B
100
AcDbEntity
  8
LW 3500-39-00
100
AcDbVertex
100
AcDb2dVertex
 10
49.24194790840147
 20
-14.30193305015865
 30
0.0
  0
VERTEX
  5
17AE
330
179B
100
AcDbEntity
  8
LW 3500-39-00
100
AcDbVertex
100
AcDb2dVertex
 10
49.43421103477476
 20
-14.39876794815365
 30
0.0
  0
VERTEX
  5
17AF
330
179B
100
AcDbEntity
  8
LW 3500-39-00
100
AcDbVertex
100
AcDb2dVertex
 10
49.60275866508482
 20
-14.50744867325119
 30
0.0
  0
VERTEX
  5
17B0
330
179B
100
AcDbEntity
  8
LW 3500-39-00
100
AcDbVertex
100
AcDb2dVertex
 10
49.74932291030881
 20
-14.62852478027628
 30
0.0
  0
VERTEX
  5
17B1
330
179B
100
AcDbEntity
  8
LW 3500-39-00
100
AcDbVertex
100
AcDb2dVertex
 10
49.86763216972349
 20
-14.75809454918186
 30
0.0
  0
VERTEX
  5
17B2
330
179B
100
AcDbEntity
  8
LW 3500-39-00
100
AcDbVertex
100
AcDb2dVertex
 10
49.95250799179075
 20
-14.89207863807945
 30
0.0
  0
VERTEX
  5
17B3
330
179B
100
AcDbEntity
  8
LW 3500-39-00
100
AcDbVertex
100
AcDb2dVertex
 10
50.00318386077879
 20
-15.02601861953997
 30
0.0
  0
VERTEX
  5
17B4
330
179B
100
AcDbEntity
  8
LW 3500-39-00
100
AcDbVertex
100
AcDb2dVertex
 10
50.01999952316282
 20
-15.15544414520525
 30
0.0
  0
SEQEND
  5
17B5
330
179B
100
AcDbEntity
  8
LW 3500-39-00
  0
POLYLINE
  5
17B6
330
175F
100
AcDbEntity
  8
LW 3500-39-00
100
AcDb2dPolyline
 66
     1
 10
0.0
 20
0.0
 30
0.0
 70
   128
  0
VERTEX
  5
17B7
330
17B6
100
AcDbEntity
  8
LW 3500-39-00
100
AcDbVertex
100
AcDb2dVertex
 10
50.01999952316282
 20
15.15544414520002
 30
0.0
  0
VERTEX
  5
17B8
330
17B6
100
AcDbEntity
  8
LW 3500-39-00
100
AcDbVertex
100
AcDb2dVertex
 10
50.00318386077879
 20
15.02601861953474
 30
0.0
  0
VERTEX
  5
17B9
330
17B6
100
AcDbEntity
  8
LW 3500-39-00
100
AcDbVertex
100
AcDb2dVertex
 10
49.95250799179075
 20
14.89207863807411
 30
0.0
  0
VERTEX
  5
17BA
330
17B6
100
AcDbEntity
  8
LW 3500-39-00
100
AcDbVertex
100
AcDb2dVertex
 10
49.86763216972349
 20
14.75809454917629
 30
0.0
  0
VERTEX
  5
17BB
330
17B6
100
AcDbEntity
  8
LW 3500-39-00
100
AcDbVertex
100
AcDb2dVertex
 10
49.74932291030881
 20
14.62852478027059
 30
0.0
  0
VERTEX
  5
17BC
330
17B6
100
AcDbEntity
  8
LW 3500-39-00
100
AcDbVertex
100
AcDb2dVertex
 10
49.60275866508482
 20
14.50744867324539
 30
0.0
  0
VERTEX
  5
17BD
330
17B6
100
AcDbEntity
  8
LW 3500-39-00
100
AcDbVertex
100
AcDb2dVertex
 10
49.43421103477476
 20
14.39876794814762
 30
0.0
  0
VERTEX
  5
17BE
330
17B6
100
AcDbEntity
  8
LW 3500-39-00
100
AcDbVertex
100
AcDb2dVertex
 10
49.24194790840147
 20
14.30193305015263
 30
0.0
  0
VERTEX
  5
17BF
330
17B6
100
AcDbEntity
  8
LW 3500-39-00
100
AcDbVertex
100
AcDb2dVertex
 10
49.02386404991148
 20
14.21658873557737
 30
0.0
  0
VERTEX
  5
17C0
330
17B6
100
AcDbEntity
  8
LW 3500-39-00
100
AcDbVertex
100
AcDb2dVertex
 10
48.78566958427427
 20
14.1469228267639
 30
0.0
  0
VERTEX
  5
17C1
330
17B6
100
AcDbEntity
  8
LW 3500-39-00
100
AcDbVertex
100
AcDb2dVertex
 10
48.5335335922241
 20
14.0965294837921
 30
0.0
  0
VERTEX
  5
17C2
330
17B6
100
AcDbEntity
  8
LW 3500-39-00
100
AcDbVertex
100
AcDb2dVertex
 10
48.27547885894773
 20
14.06625151633909
 30
0.0
  0
VERTEX
  5
17C3
330
17B6
100
AcDbEntity
  8
LW 3500-39-00
100
AcDbVertex
100
AcDb2dVertex
 10
48.02000023841856
 20
14.05614495277092
 30
0.0
  0
VERTEX
  5
17C4
330
17B6
100
AcDbEntity
  8
LW 3500-39-00
100
AcDbVertex
100
AcDb2dVertex
 10
47.76452042579649
 20
14.06625151633909
 30
0.0
  0
VERTEX
  5
17C5
330
17B6
100
AcDbEntity
  8
LW 3500-39-00
100
AcDbVertex
100
AcDb2dVertex
 10
47.50646688461301
 20
14.0965294837921
 30
0.0
  0
VERTEX
  5
17C6
330
17B6
100
AcDbEntity
  8
LW 3500-39-00
100
AcDbVertex
100
AcDb2dVertex
 10
47.25433089256284
 20
14.1469228267639
 30
0.0
  0
VERTEX
  5
17C7
330
17B6
100
AcDbEntity
  8
LW 3500-39-00
100
AcDbVertex
100
AcDb2dVertex
 10
47.01613642692564
 20
14.21658873557737
 30
0.0
  0
VERTEX
  5
17C8
330
17B6
100
AcDbEntity
  8
LW 3500-39-00
100
AcDbVertex
100
AcDb2dVertex
 10
46.79805137634275
 20
14.30193305015263
 30
0.0
  0
VERTEX
  5
17C9
330
17B6
100
AcDbEntity
  8
LW 3500-39-00
100
AcDbVertex
100
AcDb2dVertex
 10
46.60578944206235
 20
14.39876794814762
 30
0.0
  0
VERTEX
  5
17CA
330
17B6
100
AcDbEntity
  8
LW 3500-39-00
100
AcDbVertex
100
AcDb2dVertex
 10
46.4372418117523
 20
14.50744867324539
 30
0.0
  0
VERTEX
  5
17CB
330
17B6
100
AcDbEntity
  8
LW 3500-39-00
100
AcDbVertex
100
AcDb2dVertex
 10
46.2906763744354
 20
14.62852478027059
 30
0.0
  0
VERTEX
  5
17CC
330
17B6
100
AcDbEntity
  8
LW 3500-39-00
100
AcDbVertex
100
AcDb2dVertex
 10
46.17236830711362
 20
14.75809454917629
 30
0.0
  0
VERTEX
  5
17CD
330
17B6
100
AcDbEntity
  8
LW 3500-39-00
100
AcDbVertex
100
AcDb2dVertex
 10
46.08749248504636
 20
14.89207863807411
 30
0.0
  0
VERTEX
  5
17CE
330
17B6
100
AcDbEntity
  8
LW 3500-39-00
100
AcDbVertex
100
AcDb2dVertex
 10
46.03681661605833
 20
15.02601861953474
 30
0.0
  0
VERTEX
  5
17CF
330
17B6
100
AcDbEntity
  8
LW 3500-39-00
100
AcDbVertex
100
AcDb2dVertex
 10
46.0199997615814
 20
15.15544414520002
 30
0.0
  0
SEQEND
  5
17D0
330
17B6
100
AcDbEntity
  8
LW 3500-39-00
  0
POLYLINE
  5
17D1
330
175F
100
AcDbEntity
  8
LW 3500-39-00
100
AcDb2dPolyline
 66
     1
 10
0.0
 20
0.0
 30
0.0
 70
   128
  0
VERTEX
  5
17D2
330
17D1
100
AcDbEntity
  8
LW 3500-39-00
100
AcDbVertex
100
AcDb2dVertex
 10
46.0199997615814
 20
15.15544414520002
 30
0.0
  0
VERTEX
  5
17D3
330
17D1
100
AcDbEntity
  8
LW 3500-39-00
100
AcDbVertex
100
AcDb2dVertex
 10
46.03681661605833
 20
15.28149843215686
 30
0.0
  0
VERTEX
  5
17D4
330
17D1
100
AcDbEntity
  8
LW 3500-39-00
100
AcDbVertex
100
AcDb2dVertex
 10
46.08749248504636
 20
15.40561437606561
 30
0.0
  0
VERTEX
  5
17D5
330
17D1
100
AcDbEntity
  8
LW 3500-39-00
100
AcDbVertex
100
AcDb2dVertex
 10
46.17236830711362
 20
15.52376866340393
 30
0.0
  0
VERTEX
  5
17D6
330
17D1
100
AcDbEntity
  8
LW 3500-39-00
100
AcDbVertex
100
AcDb2dVertex
 10
46.2906763744354
 20
15.6323945522285
 30
0.0
  0
VERTEX
  5
17D7
330
17D1
100
AcDbEntity
  8
LW 3500-39-00
100
AcDbVertex
100
AcDb2dVertex
 10
46.4372418117523
 20
15.7294034957863
 30
0.0
  0
VERTEX
  5
17D8
330
17D1
100
AcDbEntity
  8
LW 3500-39-00
100
AcDbVertex
100
AcDb2dVertex
 10
46.60578944206235
 20
15.8129847049691
 30
0.0
  0
VERTEX
  5
17D9
330
17D1
100
AcDbEntity
  8
LW 3500-39-00
100
AcDbVertex
100
AcDb2dVertex
 10
46.79805137634275
 20
15.88469624519126
 30
0.0
  0
VERTEX
  5
17DA
330
17D1
100
AcDbEntity
  8
LW 3500-39-00
100
AcDbVertex
100
AcDb2dVertex
 10
47.01613642692564
 20
15.94591498374728
 30
0.0
  0
VERTEX
  5
17DB
330
17D1
100
AcDbEntity
  8
LW 3500-39-00
100
AcDbVertex
100
AcDb2dVertex
 10
47.25433089256284
 20
15.99455595016269
 30
0.0
  0
VERTEX
  5
17DC
330
17D1
100
AcDbEntity
  8
LW 3500-39-00
100
AcDbVertex
100
AcDb2dVertex
 10
47.50646688461301
 20
16.02903842925821
 30
0.0
  0
VERTEX
  5
17DD
330
17D1
100
AcDbEntity
  8
LW 3500-39-00
100
AcDbVertex
100
AcDb2dVertex
 10
47.76452042579649
 20
16.04943513870034
 30
0.0
  0
VERTEX
  5
17DE
330
17D1
100
AcDbEntity
  8
LW 3500-39-00
100
AcDbVertex
100
AcDb2dVertex
 10
48.02000023841856
 20
16.05614542960916
 30
0.0
  0
VERTEX
  5
17DF
330
17D1
100
AcDbEntity
  8
LW 3500-39-00
100
AcDbVertex
100
AcDb2dVertex
 10
48.27547885894773
 20
16.04943513870034
 30
0.0
  0
VERTEX
  5
17E0
330
17D1
100
AcDbEntity
  8
LW 3500-39-00
100
AcDbVertex
100
AcDb2dVertex
 10
48.5335335922241
 20
16.02903842925821
 30
0.0
  0
VERTEX
  5
17E1
330
17D1
100
AcDbEntity
  8
LW 3500-39-00
100
AcDbVertex
100
AcDb2dVertex
 10
48.78566958427427
 20
15.99455595016269
 30
0.0
  0
VERTEX
  5
17E2
330
17D1
100
AcDbEntity
  8
LW 3500-39-00
100
AcDbVertex
100
AcDb2dVertex
 10
49.02386404991148
 20
15.94591498374728
 30
0.0
  0
VERTEX
  5
17E3
330
17D1
100
AcDbEntity
  8
LW 3500-39-00
100
AcDbVertex
100
AcDb2dVertex
 10
49.24194790840147
 20
15.88469624519126
 30
0.0
  0
VERTEX
  5
17E4
330
17D1
100
AcDbEntity
  8
LW 3500-39-00
100
AcDbVertex
100
AcDb2dVertex
 10
49.43421103477476
 20
15.8129847049691
 30
0.0
  0
VERTEX
  5
17E5
330
17D1
100
AcDbEntity
  8
LW 3500-39-00
100
AcDbVertex
100
AcDb2dVertex
 10
49.60275866508482
 20
15.7294034957863
 30
0.0
  0
VERTEX
  5
17E6
330
17D1
100
AcDbEntity
  8
LW 3500-39-00
100
AcDbVertex
100
AcDb2dVertex
 10
49.74932291030881
 20
15.6323945522285
 30
0.0
  0
VERTEX
  5
17E7
330
17D1
100
AcDbEntity
  8
LW 3500-39-00
100
AcDbVertex
100
AcDb2dVertex
 10
49.86763216972349
 20
15.52376866340393
 30
0.0
  0
VERTEX
  5
17E8
330
17D1
100
AcDbEntity
  8
LW 3500-39-00
100
AcDbVertex
100
AcDb2dVertex
 10
49.95250799179075
 20
15.40561437606561
 30
0.0
  0
VERTEX
  5
17E9
330
17D1
100
AcDbEntity
  8
LW 3500-39-00
100
AcDbVertex
100
AcDb2dVertex
 10
50.00318386077879
 20
15.28149843215686
 30
0.0
  0
VERTEX
  5
17EA
330
17D1
100
AcDbEntity
  8
LW 3500-39-00
100
AcDbVertex
100
AcDb2dVertex
 10
50.01999952316282
 20
15.15544414520002
 30
0.0
  0
SEQEND
  5
17EB
330
17D1
100
AcDbEntity
  8
LW 3500-39-00
  0
LINE
  5
17EC
330
175F
100
AcDbEntity
  8
LW 3500-39-00
100
AcDbLine
 10
52.01999999999998
 20
-17.5
 30
0.0
 11
52.01999999999998
 21
17.5
 31
0.0
  0
LINE
  5
17ED
330
175F
100
AcDbEntity
  8
LW 3500-39-00
100
AcDbLine
 10
55.01999999999998
 20
-14.50000000000005
 30
0.0
 11
55.01999999999998
 21
14.50000000000005
 31
0.0
  0
LINE
  5
17EE
330
175F
100
AcDbEntity
  8
LW 3500-39-00
100
AcDbLine
 10
32.01999999999998
 20
17.5
 30
0.0
 11
52.01999999999998
 21
17.5
 31
0.0
  0
LINE
  5
17EF
330
175F
100
AcDbEntity
  8
LW 3500-39-00
100
AcDbLine
 10
32.01999999999998
 20
-17.5
 30
0.0
 11
52.01999999999998
 21
-17.5
 31
0.0
  0
LINE
  5
17F0
330
175F
100
AcDbEntity
  8
LW 3500-39-00
100
AcDbLine
 10
55.01999999999998
 20
-14.50000000000005
 30
0.0
 11
52.01999999999998
 21
-17.5
 31
0.0
  0
LINE
  5
17F1
330
175F
100
AcDbEntity
  8
LW 3500-39-00
100
AcDbLine
 10
55.01999999999998
 20
14.50000000000005
 30
0.0
 11
52.01999999999998
 21
17.5
 31
0.0
  0
POLYLINE
  5
17F2
330
175F
100
AcDbEntity
  8
LW 3500-39-00
100
AcDb2dPolyline
 66
     1
 10
0.0
 20
0.0
 30
0.0
 70
   128
  0
VERTEX
  5
17F3
330
17F2
100
AcDbEntity
  8
LW 3500-39-00
100
AcDbVertex
100
AcDb2dVertex
 10
-50.01999952316285
 20
15.15544414520002
 30
0.0
  0
VERTEX
  5
17F4
330
17F2
100
AcDbEntity
  8
LW 3500-39-00
100
AcDbVertex
100
AcDb2dVertex
 10
-50.00318386077882
 20
15.28149843215686
 30
0.0
  0
VERTEX
  5
17F5
330
17F2
100
AcDbEntity
  8
LW 3500-39-00
100
AcDbVertex
100
AcDb2dVertex
 10
-49.95250799179078
 20
15.40561437606561
 30
0.0
  0
VERTEX
  5
17F6
330
17F2
100
AcDbEntity
  8
LW 3500-39-00
100
AcDbVertex
100
AcDb2dVertex
 10
-49.86763216972352
 20
15.52376866340393
 30
0.0
  0
VERTEX
  5
17F7
330
17F2
100
AcDbEntity
  8
LW 3500-39-00
100
AcDbVertex
100
AcDb2dVertex
 10
-49.74932291030885
 20
15.6323945522285
 30
0.0
  0
VERTEX
  5
17F8
330
17F2
100
AcDbEntity
  8
LW 3500-39-00
100
AcDbVertex
100
AcDb2dVertex
 10
-49.60275866508485
 20
15.7294034957863
 30
0.0
  0
VERTEX
  5
17F9
330
17F2
100
AcDbEntity
  8
LW 3500-39-00
100
AcDbVertex
100
AcDb2dVertex
 10
-49.43421103477479
 20
15.8129847049691
 30
0.0
  0
VERTEX
  5
17FA
330
17F2
100
AcDbEntity
  8
LW 3500-39-00
100
AcDbVertex
100
AcDb2dVertex
 10
-49.2419479084015
 20
15.88469624519126
 30
0.0
  0
VERTEX
  5
17FB
330
17F2
100
AcDbEntity
  8
LW 3500-39-00
100
AcDbVertex
100
AcDb2dVertex
 10
-49.02386404991151
 20
15.94591498374728
 30
0.0
  0
VERTEX
  5
17FC
330
17F2
100
AcDbEntity
  8
LW 3500-39-00
100
AcDbVertex
100
AcDb2dVertex
 10
-48.7856695842743
 20
15.99455595016269
 30
0.0
  0
VERTEX
  5
17FD
330
17F2
100
AcDbEntity
  8
LW 3500-39-00
100
AcDbVertex
100
AcDb2dVertex
 10
-48.53353359222413
 20
16.02903842925821
 30
0.0
  0
VERTEX
  5
17FE
330
17F2
100
AcDbEntity
  8
LW 3500-39-00
100
AcDbVertex
100
AcDb2dVertex
 10
-48.27547885894777
 20
16.04943513870034
 30
0.0
  0
VERTEX
  5
17FF
330
17F2
100
AcDbEntity
  8
LW 3500-39-00
100
AcDbVertex
100
AcDb2dVertex
 10
-48.02000023841859
 20
16.05614542960916
 30
0.0
  0
VERTEX
  5
1800
330
17F2
100
AcDbEntity
  8
LW 3500-39-00
100
AcDbVertex
100
AcDb2dVertex
 10
-47.76452042579651
 20
16.04943513870034
 30
0.0
  0
VERTEX
  5
1801
330
17F2
100
AcDbEntity
  8
LW 3500-39-00
100
AcDbVertex
100
AcDb2dVertex
 10
-47.50646688461304
 20
16.02903842925821
 30
0.0
  0
VERTEX
  5
1802
330
17F2
100
AcDbEntity
  8
LW 3500-39-00
100
AcDbVertex
100
AcDb2dVertex
 10
-47.25433089256287
 20
15.99455595016269
 30
0.0
  0
VERTEX
  5
1803
330
17F2
100
AcDbEntity
  8
LW 3500-39-00
100
AcDbVertex
100
AcDb2dVertex
 10
-47.01613642692566
 20
15.94591498374728
 30
0.0
  0
VERTEX
  5
1804
330
17F2
100
AcDbEntity
  8
LW 3500-39-00
100
AcDbVertex
100
AcDb2dVertex
 10
-46.79805137634278
 20
15.88469624519126
 30
0.0
  0
VERTEX
  5
1805
330
17F2
100
AcDbEntity
  8
LW 3500-39-00
100
AcDbVertex
100
AcDb2dVertex
 10
-46.60578944206238
 20
15.8129847049691
 30
0.0
  0
VERTEX
  5
1806
330
17F2
100
AcDbEntity
  8
LW 3500-39-00
100
AcDbVertex
100
AcDb2dVertex
 10
-46.43724181175232
 20
15.7294034957863
 30
0.0
  0
VERTEX
  5
1807
330
17F2
100
AcDbEntity
  8
LW 3500-39-00
100
AcDbVertex
100
AcDb2dVertex
 10
-46.29067637443543
 20
15.6323945522285
 30
0.0
  0
VERTEX
  5
1808
330
17F2
100
AcDbEntity
  8
LW 3500-39-00
100
AcDbVertex
100
AcDb2dVertex
 10
-46.17236830711365
 20
15.52376866340393
 30
0.0
  0
VERTEX
  5
1809
330
17F2
100
AcDbEntity
  8
LW 3500-39-00
100
AcDbVertex
100
AcDb2dVertex
 10
-46.08749248504639
 20
15.40561437606561
 30
0.0
  0
VERTEX
  5
180A
330
17F2
100
AcDbEntity
  8
LW 3500-39-00
100
AcDbVertex
100
AcDb2dVertex
 10
-46.03681661605835
 20
15.28149843215686
 30
0.0
  0
VERTEX
  5
180B
330
17F2
100
AcDbEntity
  8
LW 3500-39-00
100
AcDbVertex
100
AcDb2dVertex
 10
-46.01999976158142
 20
15.15544414520002
 30
0.0
  0
SEQEND
  5
180C
330
17F2
100
AcDbEntity
  8
LW 3500-39-00
  0
POLYLINE
  5
180D
330
175F
100
AcDbEntity
  8
LW 3500-39-00
100
AcDb2dPolyline
 66
     1
 10
0.0
 20
0.0
 30
0.0
 70
   128
  0
VERTEX
  5
180E
330
180D
100
AcDbEntity
  8
LW 3500-39-00
100
AcDbVertex
100
AcDb2dVertex
 10
-46.01999976158142
 20
15.15544414520002
 30
0.0
  0
VERTEX
  5
180F
330
180D
100
AcDbEntity
  8
LW 3500-39-00
100
AcDbVertex
100
AcDb2dVertex
 10
-46.03681661605835
 20
15.02601861953474
 30
0.0
  0
VERTEX
  5
1810
330
180D
100
AcDbEntity
  8
LW 3500-39-00
100
AcDbVertex
100
AcDb2dVertex
 10
-46.08749248504639
 20
14.89207863807411
 30
0.0
  0
VERTEX
  5
1811
330
180D
100
AcDbEntity
  8
LW 3500-39-00
100
AcDbVertex
100
AcDb2dVertex
 10
-46.17236830711365
 20
14.75809454917629
 30
0.0
  0
VERTEX
  5
1812
330
180D
100
AcDbEntity
  8
LW 3500-39-00
100
AcDbVertex
100
AcDb2dVertex
 10
-46.29067637443543
 20
14.62852478027059
 30
0.0
  0
VERTEX
  5
1813
330
180D
100
AcDbEntity
  8
LW 3500-39-00
100
AcDbVertex
100
AcDb2dVertex
 10
-46.43724181175232
 20
14.50744867324539
 30
0.0
  0
VERTEX
  5
1814
330
180D
100
AcDbEntity
  8
LW 3500-39-00
100
AcDbVertex
100
AcDb2dVertex
 10
-46.60578944206238
 20
14.39876794814762
 30
0.0
  0
VERTEX
  5
1815
330
180D
100
AcDbEntity
  8
LW 3500-39-00
100
AcDbVertex
100
AcDb2dVertex
 10
-46.79805137634278
 20
14.30193305015263
 30
0.0
  0
VERTEX
  5
1816
330
180D
100
AcDbEntity
  8
LW 3500-39-00
100
AcDbVertex
100
AcDb2dVertex
 10
-47.01613642692566
 20
14.21658873557737
 30
0.0
  0
VERTEX
  5
1817
330
180D
100
AcDbEntity
  8
LW 3500-39-00
100
AcDbVertex
100
AcDb2dVertex
 10
-47.25433089256287
 20
14.1469228267639
 30
0.0
  0
VERTEX
  5
1818
330
180D
100
AcDbEntity
  8
LW 3500-39-00
100
AcDbVertex
100
AcDb2dVertex
 10
-47.50646688461304
 20
14.0965294837921
 30
0.0
  0
VERTEX
  5
1819
330
180D
100
AcDbEntity
  8
LW 3500-39-00
100
AcDbVertex
100
AcDb2dVertex
 10
-47.76452042579651
 20
14.06625151633909
 30
0.0
  0
VERTEX
  5
181A
330
180D
100
AcDbEntity
  8
LW 3500-39-00
100
AcDbVertex
100
AcDb2dVertex
 10
-48.02000023841859
 20
14.05614495277092
 30
0.0
  0
VERTEX
  5
181B
330
180D
100
AcDbEntity
  8
LW 3500-39-00
100
AcDbVertex
100
AcDb2dVertex
 10
-48.27547885894777
 20
14.06625151633909
 30
0.0
  0
VERTEX
  5
181C
330
180D
100
AcDbEntity
  8
LW 3500-39-00
100
AcDbVertex
100
AcDb2dVertex
 10
-48.53353359222413
 20
14.0965294837921
 30
0.0
  0
VERTEX
  5
181D
330
180D
100
AcDbEntity
  8
LW 3500-39-00
100
AcDbVertex
100
AcDb2dVertex
 10
-48.7856695842743
 20
14.1469228267639
 30
0.0
  0
VERTEX
  5
181E
330
180D
100
AcDbEntity
  8
LW 3500-39-00
100
AcDbVertex
100
AcDb2dVertex
 10
-49.02386404991151
 20
14.21658873557737
 30
0.0
  0
VERTEX
  5
181F
330
180D
100
AcDbEntity
  8
LW 3500-39-00
100
AcDbVertex
100
AcDb2dVertex
 10
-49.2419479084015
 20
14.30193305015263
 30
0.0
  0
VERTEX
  5
1820
330
180D
100
AcDbEntity
  8
LW 3500-39-00
100
AcDbVertex
100
AcDb2dVertex
 10
-49.43421103477479
 20
14.39876794814762
 30
0.0
  0
VERTEX
  5
1821
330
180D
100
AcDbEntity
  8
LW 3500-39-00
100
AcDbVertex
100
AcDb2dVertex
 10
-49.60275866508485
 20
14.50744867324539
 30
0.0
  0
VERTEX
  5
1822
330
180D
100
AcDbEntity
  8
LW 3500-39-00
100
AcDbVertex
100
AcDb2dVertex
 10
-49.74932291030885
 20
14.62852478027059
 30
0.0
  0
VERTEX
  5
1823
330
180D
100
AcDbEntity
  8
LW 3500-39-00
100
AcDbVertex
100
AcDb2dVertex
 10
-49.86763216972352
 20
14.75809454917629
 30
0.0
  0
VERTEX
  5
1824
330
180D
100
AcDbEntity
  8
LW 3500-39-00
100
AcDbVertex
100
AcDb2dVertex
 10
-49.95250799179078
 20
14.89207863807411
 30
0.0
  0
VERTEX
  5
1825
330
180D
100
AcDbEntity
  8
LW 3500-39-00
100
AcDbVertex
100
AcDb2dVertex
 10
-50.00318386077882
 20
15.02601861953474
 30
0.0
  0
VERTEX
  5
1826
330
180D
100
AcDbEntity
  8
LW 3500-39-00
100
AcDbVertex
100
AcDb2dVertex
 10
-50.01999952316285
 20
15.15544414520002
 30
0.0
  0
SEQEND
  5
1827
330
180D
100
AcDbEntity
  8
LW 3500-39-00
  0
POLYLINE
  5
1828
330
175F
100
AcDbEntity
  8
LW 3500-39-00
100
AcDb2dPolyline
 66
     1
 10
0.0
 20
0.0
 30
0.0
 70
   128
  0
VERTEX
  5
1829
330
1828
100
AcDbEntity
  8
LW 3500-39-00
100
AcDbVertex
100
AcDb2dVertex
 10
-50.01999952316285
 20
-15.15544414520525
 30
0.0
  0
VERTEX
  5
182A
330
1828
100
AcDbEntity
  8
LW 3500-39-00
100
AcDbVertex
100
AcDb2dVertex
 10
-50.00318386077882
 20
-15.02601861953997
 30
0.0
  0
VERTEX
  5
182B
330
1828
100
AcDbEntity
  8
LW 3500-39-00
100
AcDbVertex
100
AcDb2dVertex
 10
-49.95250799179078
 20
-14.89207863807945
 30
0.0
  0
VERTEX
  5
182C
330
1828
100
AcDbEntity
  8
LW 3500-39-00
100
AcDbVertex
100
AcDb2dVertex
 10
-49.86763216972352
 20
-14.75809454918186
 30
0.0
  0
VERTEX
  5
182D
330
1828
100
AcDbEntity
  8
LW 3500-39-00
100
AcDbVertex
100
AcDb2dVertex
 10
-49.74932291030885
 20
-14.62852478027628
 30
0.0
  0
VERTEX
  5
182E
330
1828
100
AcDbEntity
  8
LW 3500-39-00
100
AcDbVertex
100
AcDb2dVertex
 10
-49.60275866508485
 20
-14.50744867325119
 30
0.0
  0
VERTEX
  5
182F
330
1828
100
AcDbEntity
  8
LW 3500-39-00
100
AcDbVertex
100
AcDb2dVertex
 10
-49.43421103477479
 20
-14.39876794815365
 30
0.0
  0
VERTEX
  5
1830
330
1828
100
AcDbEntity
  8
LW 3500-39-00
100
AcDbVertex
100
AcDb2dVertex
 10
-49.2419479084015
 20
-14.30193305015865
 30
0.0
  0
VERTEX
  5
1831
330
1828
100
AcDbEntity
  8
LW 3500-39-00
100
AcDbVertex
100
AcDb2dVertex
 10
-49.02386404991151
 20
-14.21658873558351
 30
0.0
  0
VERTEX
  5
1832
330
1828
100
AcDbEntity
  8
LW 3500-39-00
100
AcDbVertex
100
AcDb2dVertex
 10
-48.7856695842743
 20
-14.14692282677004
 30
0.0
  0
VERTEX
  5
1833
330
1828
100
AcDbEntity
  8
LW 3500-39-00
100
AcDbVertex
100
AcDb2dVertex
 10
-48.53353359222413
 20
-14.09652948379823
 30
0.0
  0
VERTEX
  5
1834
330
1828
100
AcDbEntity
  8
LW 3500-39-00
100
AcDbVertex
100
AcDb2dVertex
 10
-48.27547885894777
 20
-14.06625151634523
 30
0.0
  0
VERTEX
  5
1835
330
1828
100
AcDbEntity
  8
LW 3500-39-00
100
AcDbVertex
100
AcDb2dVertex
 10
-48.02000023841859
 20
-14.05614495277717
 30
0.0
  0
VERTEX
  5
1836
330
1828
100
AcDbEntity
  8
LW 3500-39-00
100
AcDbVertex
100
AcDb2dVertex
 10
-47.76452042579651
 20
-14.06625151634523
 30
0.0
  0
VERTEX
  5
1837
330
1828
100
AcDbEntity
  8
LW 3500-39-00
100
AcDbVertex
100
AcDb2dVertex
 10
-47.50646688461304
 20
-14.09652948379823
 30
0.0
  0
VERTEX
  5
1838
330
1828
100
AcDbEntity
  8
LW 3500-39-00
100
AcDbVertex
100
AcDb2dVertex
 10
-47.25433089256287
 20
-14.14692282677004
 30
0.0
  0
VERTEX
  5
1839
330
1828
100
AcDbEntity
  8
LW 3500-39-00
100
AcDbVertex
100
AcDb2dVertex
 10
-47.01613642692566
 20
-14.21658873558351
 30
0.0
  0
VERTEX
  5
183A
330
1828
100
AcDbEntity
  8
LW 3500-39-00
100
AcDbVertex
100
AcDb2dVertex
 10
-46.79805137634278
 20
-14.30193305015865
 30
0.0
  0
VERTEX
  5
183B
330
1828
100
AcDbEntity
  8
LW 3500-39-00
100
AcDbVertex
100
AcDb2dVertex
 10
-46.60578944206238
 20
-14.39876794815365
 30
0.0
  0
VERTEX
  5
183C
330
1828
100
AcDbEntity
  8
LW 3500-39-00
100
AcDbVertex
100
AcDb2dVertex
 10
-46.43724181175232
 20
-14.50744867325119
 30
0.0
  0
VERTEX
  5
183D
330
1828
100
AcDbEntity
  8
LW 3500-39-00
100
AcDbVertex
100
AcDb2dVertex
 10
-46.29067637443543
 20
-14.62852478027628
 30
0.0
  0
VERTEX
  5
183E
330
1828
100
AcDbEntity
  8
LW 3500-39-00
100
AcDbVertex
100
AcDb2dVertex
 10
-46.17236830711365
 20
-14.75809454918186
 30
0.0
  0
VERTEX
  5
183F
330
1828
100
AcDbEntity
  8
LW 3500-39-00
100
AcDbVertex
100
AcDb2dVertex
 10
-46.08749248504639
 20
-14.89207863807945
 30
0.0
  0
VERTEX
  5
1840
330
1828
100
AcDbEntity
  8
LW 3500-39-00
100
AcDbVertex
100
AcDb2dVertex
 10
-46.03681661605835
 20
-15.02601861953997
 30
0.0
  0
VERTEX
  5
1841
330
1828
100
AcDbEntity
  8
LW 3500-39-00
100
AcDbVertex
100
AcDb2dVertex
 10
-46.01999976158142
 20
-15.15544414520525
 30
0.0
  0
SEQEND
  5
1842
330
1828
100
AcDbEntity
  8
LW 3500-39-00
  0
POLYLINE
  5
1843
330
175F
100
AcDbEntity
  8
LW 3500-39-00
100
AcDb2dPolyline
 66
     1
 10
0.0
 20
0.0
 30
0.0
 70
   128
  0
VERTEX
  5
1844
330
1843
100
AcDbEntity
  8
LW 3500-39-00
100
AcDbVertex
100
AcDb2dVertex
 10
-46.01999976158142
 20
-15.15544414520525
 30
0.0
  0
VERTEX
  5
1845
330
1843
100
AcDbEntity
  8
LW 3500-39-00
100
AcDbVertex
100
AcDb2dVertex
 10
-46.03681661605835
 20
-15.28149843216198
 30
0.0
  0
VERTEX
  5
1846
330
1843
100
AcDbEntity
  8
LW 3500-39-00
100
AcDbVertex
100
AcDb2dVertex
 10
-46.08749248504639
 20
-15.40561437607061
 30
0.0
  0
VERTEX
  5
1847
330
1843
100
AcDbEntity
  8
LW 3500-39-00
100
AcDbVertex
100
AcDb2dVertex
 10
-46.17236830711365
 20
-15.52376866340881
 30
0.0
  0
VERTEX
  5
1848
330
1843
100
AcDbEntity
  8
LW 3500-39-00
100
AcDbVertex
100
AcDb2dVertex
 10
-46.29067637443543
 20
-15.63239455223316
 30
0.0
  0
VERTEX
  5
1849
330
1843
100
AcDbEntity
  8
LW 3500-39-00
100
AcDbVertex
100
AcDb2dVertex
 10
-46.43724181175232
 20
-15.72940349579084
 30
0.0
  0
VERTEX
  5
184A
330
1843
100
AcDbEntity
  8
LW 3500-39-00
100
AcDbVertex
100
AcDb2dVertex
 10
-46.60578944206238
 20
-15.81298470497353
 30
0.0
  0
VERTEX
  5
184B
330
1843
100
AcDbEntity
  8
LW 3500-39-00
100
AcDbVertex
100
AcDb2dVertex
 10
-46.79805137634278
 20
-15.8846962451957
 30
0.0
  0
VERTEX
  5
184C
330
1843
100
AcDbEntity
  8
LW 3500-39-00
100
AcDbVertex
100
AcDb2dVertex
 10
-47.01613642692566
 20
-15.94591498375149
 30
0.0
  0
VERTEX
  5
184D
330
1843
100
AcDbEntity
  8
LW 3500-39-00
100
AcDbVertex
100
AcDb2dVertex
 10
-47.25433089256287
 20
-15.9945559501669
 30
0.0
  0
VERTEX
  5
184E
330
1843
100
AcDbEntity
  8
LW 3500-39-00
100
AcDbVertex
100
AcDb2dVertex
 10
-47.50646688461304
 20
-16.0290384292623
 30
0.0
  0
VERTEX
  5
184F
330
1843
100
AcDbEntity
  8
LW 3500-39-00
100
AcDbVertex
100
AcDb2dVertex
 10
-47.76452042579651
 20
-16.04943513870444
 30
0.0
  0
VERTEX
  5
1850
330
1843
100
AcDbEntity
  8
LW 3500-39-00
100
AcDbVertex
100
AcDb2dVertex
 10
-48.02000023841859
 20
-16.05614542961325
 30
0.0
  0
VERTEX
  5
1851
330
1843
100
AcDbEntity
  8
LW 3500-39-00
100
AcDbVertex
100
AcDb2dVertex
 10
-48.27547885894777
 20
-16.04943513870444
 30
0.0
  0
VERTEX
  5
1852
330
1843
100
AcDbEntity
  8
LW 3500-39-00
100
AcDbVertex
100
AcDb2dVertex
 10
-48.53353359222413
 20
-16.0290384292623
 30
0.0
  0
VERTEX
  5
1853
330
1843
100
AcDbEntity
  8
LW 3500-39-00
100
AcDbVertex
100
AcDb2dVertex
 10
-48.7856695842743
 20
-15.9945559501669
 30
0.0
  0
VERTEX
  5
1854
330
1843
100
AcDbEntity
  8
LW 3500-39-00
100
AcDbVertex
100
AcDb2dVertex
 10
-49.02386404991151
 20
-15.94591498375149
 30
0.0
  0
VERTEX
  5
1855
330
1843
100
AcDbEntity
  8
LW 3500-39-00
100
AcDbVertex
100
AcDb2dVertex
 10
-49.2419479084015
 20
-15.8846962451957
 30
0.0
  0
VERTEX
  5
1856
330
1843
100
AcDbEntity
  8
LW 3500-39-00
100
AcDbVertex
100
AcDb2dVertex
 10
-49.43421103477479
 20
-15.81298470497353
 30
0.0
  0
VERTEX
  5
1857
330
1843
100
AcDbEntity
  8
LW 3500-39-00
100
AcDbVertex
100
AcDb2dVertex
 10
-49.60275866508485
 20
-15.72940349579084
 30
0.0
  0
VERTEX
  5
1858
330
1843
100
AcDbEntity
  8
LW 3500-39-00
100
AcDbVertex
100
AcDb2dVertex
 10
-49.74932291030885
 20
-15.63239455223316
 30
0.0
  0
VERTEX
  5
1859
330
1843
100
AcDbEntity
  8
LW 3500-39-00
100
AcDbVertex
100
AcDb2dVertex
 10
-49.86763216972352
 20
-15.52376866340881
 30
0.0
  0
VERTEX
  5
185A
330
1843
100
AcDbEntity
  8
LW 3500-39-00
100
AcDbVertex
100
AcDb2dVertex
 10
-49.95250799179078
 20
-15.40561437607061
 30
0.0
  0
VERTEX
  5
185B
330
1843
100
AcDbEntity
  8
LW 3500-39-00
100
AcDbVertex
100
AcDb2dVertex
 10
-50.00318386077882
 20
-15.28149843216198
 30
0.0
  0
VERTEX
  5
185C
330
1843
100
AcDbEntity
  8
LW 3500-39-00
100
AcDbVertex
100
AcDb2dVertex
 10
-50.01999952316285
 20
-15.15544414520525
 30
0.0
  0
SEQEND
  5
185D
330
1843
100
AcDbEntity
  8
LW 3500-39-00
  0
LINE
  5
185E
330
175F
100
AcDbEntity
  8
LW 3500-39-00
100
AcDbLine
 10
-52.02000000000001
 20
17.5
 30
0.0
 11
-52.02000000000001
 21
-17.5
 31
0.0
  0
LINE
  5
185F
330
175F
100
AcDbEntity
  8
LW 3500-39-00
100
AcDbLine
 10
-55.02000000000001
 20
14.50000000000005
 30
0.0
 11
-55.02000000000001
 21
-14.50000000000005
 31
0.0
  0
LINE
  5
1860
330
175F
100
AcDbEntity
  8
LW 3500-39-00
100
AcDbLine
 10
-32.02000000000001
 20
-17.5
 30
0.0
 11
-52.02000000000001
 21
-17.5
 31
0.0
  0
LINE
  5
1861
330
175F
100
AcDbEntity
  8
LW 3500-39-00
100
AcDbLine
 10
-32.02000000000001
 20
17.5
 30
0.0
 11
-52.02000000000001
 21
17.5
 31
0.0
  0
LINE
  5
1862
330
175F
100
AcDbEntity
  8
LW 3500-39-00
100
AcDbLine
 10
-55.02000000000001
 20
14.50000000000005
 30
0.0
 11
-52.02000000000001
 21
17.5
 31
0.0
  0
LINE
  5
1863
330
175F
100
AcDbEntity
  8
LW 3500-39-00
100
AcDbLine
 10
-55.02000000000001
 20
-14.50000000000005
 30
0.0
 11
-52.02000000000001
 21
-17.5
 31
0.0
  0
CIRCLE
  5
1864
330
175F
100
AcDbEntity
  8
LW 3500-39-00
100
AcDbCircle
 10
-103.02
 20
0.0000000000314344
 30
0.0
 40
17.5
  0
CIRCLE
  5
1865
330
175F
100
AcDbEntity
  8
LW 3500-39-00
100
AcDbCircle
 10
-103.02
 20
0.0000000000305249
 30
0.0
 40
14.5
  0
LINE
  5
1866
330
175F
100
AcDbEntity
  8
LW 3500-39-00
100
AcDbLine
 10
-23.02000000000007
 20
-32.99999999999994
 30
0.0
 11
-21.02000000000007
 21
-32.99999999999994
 31
0.0
  0
LINE
  5
1867
330
175F
100
AcDbEntity
  8
LW 3500-39-00
100
AcDbLine
 10
-21.02000000000007
 20
32.99999999999994
 30
0.0
 11
-21.02000000000007
 21
-32.99999999999994
 31
0.0
  0
LINE
  5
1868
330
175F
100
AcDbEntity
  8
LW 3500-39-00
100
AcDbLine
 10
-23.02000000000007
 20
32.99999999999994
 30
0.0
 11
-21.02000000000007
 21
32.99999999999994
 31
0.0
  0
LINE
  5
1869
330
175F
100
AcDbEntity
  8
LW 3500-39-00
100
AcDbLine
 10
21.01999999999993
 20
-32.99999999999994
 30
0.0
 11
23.01999999999998
 21
-32.99999999999994
 31
0.0
  0
LINE
  5
186A
330
175F
100
AcDbEntity
  8
LW 3500-39-00
100
AcDbLine
 10
21.01999999999993
 20
32.99999999999994
 30
0.0
 11
23.01999999999998
 21
32.99999999999994
 31
0.0
  0
LINE
  5
186B
330
175F
100
AcDbEntity
  8
LW 3500-39-00
100
AcDbLine
 10
21.01999999999993
 20
-32.99999999999994
 30
0.0
 11
21.01999999999993
 21
32.99999999999994
 31
0.0
  0
LINE
  5
186C
330
175F
100
AcDbEntity
  8
LW 3500-39-00
100
AcDbLine
 10
16.0
 20
12.00000000000005
 30
0.0
 11
16.0
 21
7.000000000000056
 31
0.0
  0
HATCH
  5
186D
330
175F
100
AcDbEntity
  8
LW 3500-39-00
 62
     8
100
AcDbHatch
 10
0.0
 20
0.0
 30
0.0
210
0.0
220
0.0
230
1.0
  2
ANSI37
 70
     0
 71
     0
 91
        4
 92
        7
 72
     0
 73
     1
 93
        4
 10
16.0
 20
12.00000000000005
 10
0.0
 20
12.0
 10
0.0
 20
7.250000000000113
 10
16.0
 20
7.25000000000017
 97
        0
 92
        7
 72
     0
 73
     1
 93
        4
 10
0.0
 20
12.00000000000005
 10
-16.0
 20
12.00000000000005
 10
-16.00000000000003
 20
7.250000000000056
 10
0.0
 20
7.250000000000056
 97
        0
 92
        7
 72
     0
 73
     1
 93
        4
 10
0.0
 20
-7.249999999999943
 10
-16.00000000000003
 20
-7.249999999999886
 10
-16.00000000000006
 20
-12.00000000000011
 10
0.0
 20
-12.00000000000005
 97
        0
 92
        7
 72
     0
 73
     1
 93
        4
 10
15.99999999999994
 20
-7.25
 10
-0.0000000000000568
 20
-7.250000000000056
 10
-0.0000000000000568
 20
-12.00000000000005
 10
16.0
 20
-12.00000000000005
 97
        0
 75
     0
 76
     1
 52
0.0
 41
0.5
 77
     0
 78
     2
 53
45.0
 43
-270.1401696238897
 44
-465.3278722640312
 45
-1.122532015133643
 46
1.122532015133644
 79
     0
 53
135.0
 43
-270.1401696238897
 44
-465.3278722640312
 45
-1.122532015133644
 46
-1.122532015133643
 79
     0
 47
0.1361020491611641
 98
        4
 10
7.678954292922071
 20
10.36255170086218
 10
-6.484796907945337
 20
10.36255170086218
 10
-4.441948780990742
 20
-9.23614327693582
 10
8.496092733255636
 20
-10.18885787796858
1001
ACAD
1010
0.0
1020
0.0
1030
0.0
  0
LINE
  5
186E
330
175F
100
AcDbEntity
  8
LW 3500-39-00
100
AcDbLine
 10
16.0
 20
-6.999999999999943
 30
0.0
 11
16.0
 21
-12.00000000000005
 31
0.0
  0
LINE
  5
186F
330
175F
100
AcDbEntity
  8
LW 3500-39-00
100
AcDbLine
 10
-16.0
 20
12.00000000000005
 30
0.0
 11
-16.00000000000006
 21
7.000000000000056
 31
0.0
  0
LINE
  5
1870
330
175F
100
AcDbEntity
  8
LW 3500-39-00
100
AcDbLine
 10
-16.00000000000006
 20
-6.999999999999943
 30
0.0
 11
-16.0
 21
-12.00000000000005
 31
0.0
  0
LINE
  5
1871
330
175F
100
AcDbEntity
  8
LW 3500-39-00
100
AcDbLine
 10
-16.0
 20
12.00000000000005
 30
0.0
 11
16.0
 21
12.00000000000005
 31
0.0
  0
LINE
  5
1872
330
175F
100
AcDbEntity
  8
LW 3500-39-00
100
AcDbLine
 10
-16.0
 20
-12.00000000000005
 30
0.0
 11
16.0
 21
-12.00000000000005
 31
0.0
  0
LINE
  5
1873
330
175F
100
AcDbEntity
  8
LW 3500-39-00
  6
MITTE2
 62
     3
100
AcDbLine
 10
103.02
 20
27.50000000003735
 30
0.0
 11
103.02
 21
-27.49999999996266
 31
0.0
  0
LINE
  5
1874
330
175F
100
AcDbEntity
  8
LW 3500-39-00
  6
MITTE2
 62
     3
100
AcDbLine
 10
-103.02
 20
27.50000000003735
 30
0.0
 11
-103.02
 21
-27.49999999996266
 31
0.0
  0
LINE
  5
1875
330
175F
100
AcDbEntity
  8
LW 3500-39-00
  6
MITTE2
 62
     3
100
AcDbLine
 10
145.5280524954373
 20
0.0
 30
0.0
 11
-142.9468040422329
 21
0.0
 31
0.0
  0
LINE
  5
1876
330
175F
100
AcDbEntity
  8
LW 3500-39-00
  6
MITTE2
 62
     3
100
AcDbLine
 10
0.0
 20
-44.69743157691124
 30
0.0
 11
0.0
 21
44.69743157691124
 31
0.0
  0
LINE
  5
1877
330
175F
100
AcDbEntity
  8
LW 3500-39-00
100
AcDbLine
 10
-16.0
 20
-7.249999999999943
 30
0.0
 11
16.0
 21
-7.249999999999943
 31
0.0
  0
LINE
  5
1878
330
175F
100
AcDbEntity
  8
LW 3500-39-00
100
AcDbLine
 10
16.0
 20
7.250000000000056
 30
0.0
 11
-16.0
 21
7.250000000000056
 31
0.0
  0
LINE
  5
1879
330
175F
100
AcDbEntity
  8
LW 3500-39-00
100
AcDbLine
 10
21.01999999999998
 20
-6.999999999999943
 30
0.0
 11
-21.02000000000001
 21
-6.999999999999943
 31
0.0
  0
LINE
  5
187A
330
175F
100
AcDbEntity
  8
LW 3500-39-00
100
AcDbLine
 10
21.01999999999998
 20
7.000000000000056
 30
0.0
 11
-21.02000000000001
 21
7.000000000000056
 31
0.0
  0
LINE
  5
187B
330
175F
100
AcDbEntity
  8
LW 3500-39-00
 62
     3
100
AcDbLine
 10
-21.02000000000001
 20
-5.79449999999997
 30
0.0
 11
21.01999999999998
 21
-5.79449999999997
 31
0.0
  0
LINE
  5
187C
330
175F
100
AcDbEntity
  8
LW 3500-39-00
 62
     3
100
AcDbLine
 10
21.01999999999998
 20
5.794500000000027
 30
0.0
 11
-21.02000000000001
 21
5.794500000000027
 31
0.0
  0
INSERT
  5
187D
330
175F
100
AcDbEntity
  8
LW 3500-39-00
100
AcDbBlockReference
 66
     1
  2
insertpoint-ECKELT
 10
0.0
 20
0.0
 30
0.0
  0
ATTRIB
  5
187E
330
187D
100
AcDbEntity
  8
insertpoint_ECKELT
100
AcDbText
 10
-6.931514324693087
 20
0.0
 30
0.0
 40
0.6
  1
LW 3500/39-00
 72
     2
 11
-1.200000000000045
 21
0.0
 31
0.0
100
AcDbAttribute
  2
LINKS
 70
     0
  0
ATTRIB
  5
187F
330
187D
100
AcDbEntity
  8
insertpoint_ECKELT
100
AcDbText
 10
1.200000000000045
 20
0.0
 30
0.0
 40
0.6
  1

100
AcDbAttribute
  2
RECHTS
 70
     0
  0
SEQEND
  5
1880
330
187D
100
AcDbEntity
  8
LW 3500-39-00
  0
HATCH
  5
1881
330
175F
100
AcDbEntity
  8
LW 3500-39-00
 62
     1
100
AcDbHatch
 10
0.0
 20
0.0
 30
0.0
210
0.0
220
0.0
230
1.0
  2
SOLID
 70
     1
 71
     0
 91
        5
 92
        7
 72
     0
 73
     1
 93
       76
 10
64.88239256914955
 20
26.92799040657082
 10
64.91425139852236
 20
26.97957136841251
 10
65.03240952275354
 20
27.13081376742849
 10
65.16688759796631
 20
27.27123789769104
 10
65.31290750442787
 20
27.39962245940438
 10
65.47657630050986
 20
27.51652874232013
 10
65.6519632538745
 20
27.61870662414179
 10
65.83371618647487
 20
27.71005830372468
 10
66.01488512194061
 20
27.77957661617086
 10
63.7577471837406
 20
27.7795766161708
 10
63.54485063134058
 20
27.77088696097076
 10
63.34281614794059
 20
27.7448179953708
 10
63.14729890594055
 20
27.70354213317074
 10
62.96264373294064
 20
27.64923178817077
 10
62.78667821514051
 20
27.57971454657076
 10
62.61940235254058
 20
27.49716282217065
 10
62.46883408999366
 20
27.40183730462684
 10
62.32612648954074
 20
27.29512833877072
 10
62.20068523396998
 20
27.17608006253062
 10
62.08942028189261
 20
27.04782075177872
 10
61.98940235054061
 20
26.91061109617073
 10
61.90685062614062
 20
26.76505937157066
 10
61.84385062594066
 20
26.61081799177055
 10
61.79388510854079
 20
26.45005937057078
 10
61.76564372914066
 20
26.28495592177069
 10
61.75695407394067
 20
26.11116281777072
 10
61.76781614294071
 20
25.93736971377064
 10
61.79822993614067
 20
25.77009385117066
 10
61.85254028114076
 20
25.60933522997073
 10
61.92205752274066
 20
25.45292143637067
 10
62.01112648854081
 20
25.30519729797061
 10
62.11757476474071
 20
25.16399040097076
 10
62.2402726961647
 20
25.03277660745067
 10
62.37647174487296
 20
24.91164281396277
 10
62.52381614534073
 20
24.80119729637067
 10
62.68457476654083
 20
24.70343867537082
 10
62.86020138778798
 20
24.61854074406677
 10
63.04085062974064
 20
24.54485246797077
 10
63.23202304414081
 20
24.48836970917074
 10
63.43188511374075
 20
24.44492143317075
 10
63.64043683854067
 20
24.41885246757073
 10
63.85116097714064
 20
24.41016281237074
 10
65.97033206289331
 20
24.41016281237086
 10
65.80978819884086
 20
24.47323361610575
 10
65.62622405503844
 20
24.56385388962849
 10
65.45775764886826
 20
24.66838358256007
 10
65.29492475410751
 20
24.78400182098551
 10
65.15101238573738
 20
24.91379141752537
 10
65.02357649225309
 20
25.05314510075391
 10
64.9098711375097
 20
25.20363334546647
 10
64.85789990606105
 20
25.2878179875708
 10
63.82943683914067
 20
25.28781798757075
 10
63.6973280111352
 20
25.29537798759481
 10
63.56657476934066
 20
25.31571178076274
 10
63.43840235514079
 20
25.34864557397071
 10
63.32326442374079
 20
25.39426626377082
 10
63.21831945789035
 20
25.45074902257074
 10
63.12016980240634
 20
25.51835454002674
 10
63.02998856074072
 20
25.59630074717069
 10
62.95829890534077
 20
25.68102488537074
 10
64.68582021959952
 20
25.68102488537079
 10
64.6752357523265
 20
25.71366032612912
 10
64.6391239443621
 20
25.89903427368023
 10
64.6270802915804
 20
26.08932398763097
 10
64.63910196400973
 20
26.28407508098599
 10
64.675407685685
 20
26.47044445225248
 10
64.69200638835997
 20
26.51957661217074
 10
62.92136787074065
 20
26.51957661217074
 10
62.99088511234066
 20
26.61516281937065
 10
63.07343683674066
 20
26.69771454377076
 10
63.1685277335942
 20
26.76757937157868
 10
63.27112649254065
 20
26.82588695797079
 10
63.38981849291741
 20
26.86985661328271
 10
63.51226442434068
 20
26.90192144097074
 10
63.64912649374065
 20
26.92147316517071
 10
63.79250580454066
 20
26.92799040657076
 97
        0
 92
        7
 72
     0
 73
     1
 93
       72
 10
66.61085643417738
 20
26.91339178583479
 10
66.73371946905018
 20
26.93146626865081
 10
66.85778167634061
 20
26.93668006177086
 10
68.12647133554065
 20
26.93668006177091
 10
67.27922995354067
 20
26.12202488677099
 10
69.04540237294082
 20
24.40364557097098
 10
70.36405754954063
 20
24.40364557097098
 10
68.65002306134073
 20
26.14592143857095
 10
70.33147134254062
 20
27.77957661617103
 10
66.89254029714067
 20
27.77957661617086
 10
66.68455339992857
 20
27.76880144372291
 10
66.47783519237572
 20
27.74334075398679
 10
66.27340236414062
 20
27.70354213317086
 10
66.08005753594063
 20
27.64705937437083
 10
65.89322994914056
 20
27.57536971897082
 10
65.72206981066614
 20
27.48934213249083
 10
65.55650581014067
 20
27.39288695977081
 10
65.40443684414066
 20
27.28426626977086
 10
65.26873918853749
 20
27.16495730387482
 10
65.14374718814071
 20
27.03443868277077
 10
65.03512649814052
 20
26.89540419957075
 10
64.94388511854066
 20
26.74768006117091
 10
64.8721954631406
 20
26.5934386813708
 10
64.81788511814063
 20
26.43268006017081
 10
64.78529891114073
 20
26.26540419757077
 10
64.77443684214069
 20
26.0894386797707
 10
64.78529891114073
 20
25.91781798957084
 10
64.81788511814073
 20
25.75054212697086
 10
64.87002304934077
 20
25.58978350577087
 10
64.93954029094067
 20
25.43554212597082
 10
65.03138125674951
 20
25.28677522894691
 10
65.1367607053599
 20
25.14730626298677
 10
65.254766222976
 20
25.01826488326691
 10
65.38705753374069
 20
24.89895591737087
 10
65.53917863767191
 20
24.79094350323476
 10
65.69771270714074
 20
24.69257660637078
 10
65.86933339734077
 20
24.60785246817085
 10
66.05181615654084
 20
24.53616281277084
 10
66.24604732957113
 20
24.48211315742685
 10
66.44285064054071
 20
24.43840419177082
 10
66.65140236534075
 20
24.41233522617086
 10
66.86212650394072
 20
24.40364557097087
 10
68.76516099274073
 20
24.40364557097098
 10
67.87881616234068
 20
25.27695591857094
 10
66.86212650394072
 20
25.27695591857088
 10
66.79545946924617
 20
25.28070321151017
 10
66.69451174478791
 20
25.29068557378685
 10
66.57437726164795
 20
25.31214902213088
 10
66.45725808886237
 20
25.34647316017077
 10
66.35576291612636
 20
25.38740143616286
 10
66.29962774353424
 20
25.4155559190109
 10
66.24594305370869
 20
25.44814212601096
 10
66.11338236363264
 20
25.54746488494681
 10
66.03978098408873
 20
25.61750350585885
 10
65.98471463908635
 20
25.68536971297073
 10
65.93600912169023
 20
25.75792833389079
 10
65.89664498363418
 20
25.83509247206678
 10
65.86722181112708
 20
25.91651454129078
 10
65.84652305244066
 20
26.00367178294687
 10
65.83900650069262
 20
26.09300143840272
 10
65.84036208690389
 20
26.15530626618681
 10
65.84636663864711
 20
26.21743730086672
 10
65.85852346627195
 20
26.28061109417087
 10
65.87673698357111
 20
26.34230764609083
 10
65.92038512164055
 20
26.44102212916272
 10
65.9619129838415
 20
26.50888833627476
 10
66.02499119093824
 20
26.58692143997081
 10
66.15439313130304
 20
26.71344417702449
 10
66.21366098464074
 20
26.75350213015486
 10
66.28995615729667
 20
26.79781937167479
 10
66.37397643342541
 20
26.83996419939485
 10
66.49051339931265
 20
26.88280419953088
 97
        0
 92
        7
 72
     0
 73
     1
 93
       57
 10
71.16889341416476
 20
26.89132006162708
 10
71.30036789734067
 20
26.93129247554708
 10
71.43505755294057
 20
26.95840419977111
 10
71.57843686374059
 20
26.96709385497104
 10
72.81888514354062
 20
26.9670938549711
 10
72.81888514354062
 20
27.79261109897112
 10
71.58495410514063
 20
27.79261109897101
 10
71.37422996654066
 20
27.78392144377102
 10
71.16785065554068
 20
27.75568006437101
 10
70.97016099974069
 20
27.71440420217107
 10
70.78116099914069
 20
27.66009385717103
 10
70.59650582614068
 20
27.58840420177103
 10
70.43009892906042
 20
27.50576558081895
 10
70.27127810097017
 20
27.40931040809892
 10
70.12119906601111
 20
27.29982075257897
 10
69.98663975523919
 20
27.18059868323502
 10
69.86657478934063
 20
27.05181799317097
 10
69.76229892694068
 20
26.91278350997101
 10
69.67757478874062
 20
26.76723178537094
 10
69.60588513334056
 20
26.61299040557088
 10
69.5559196159407
 20
26.45223178437106
 10
69.52333340894068
 20
26.28495592177109
 10
69.51247133994076
 20
26.111162817771
 10
69.52333340894068
 20
25.93736971377098
 10
69.5559196159407
 20
25.770093851171
 10
69.60805754714062
 20
25.60933522997089
 10
69.6797472025408
 20
25.45292143637102
 10
69.76664375454078
 20
25.30519729797101
 10
69.87549037557591
 20
25.16564143545901
 10
69.99534678974947
 20
25.03529660745903
 10
70.1317743763895
 20
24.91398902086701
 10
70.2793334113407
 20
24.80336971017095
 10
70.44009203254069
 20
24.70561108917093
 10
70.61388513654065
 20
24.620886950971
 10
70.79854030954078
 20
24.54702488177111
 10
70.98971272394073
 20
24.49054212297102
 10
71.18957479354077
 20
24.44709384697109
 10
71.39595410454075
 20
24.42319729517095
 10
71.60885065694078
 20
24.41450763997102
 10
72.81888514354074
 20
24.41450763997108
 10
72.81888514354074
 20
25.27261109097106
 10
71.58495410514063
 20
25.272611090971
 10
71.45130720816467
 20
25.28295178065895
 10
71.3190506560208
 20
25.30493660831508
 10
71.19843824184471
 20
25.33926074635502
 10
71.08243134492482
 20
25.38722764305908
 10
70.97276789630069
 20
25.44814212601108
 10
70.87570444771671
 20
25.51574764346697
 10
70.78828651640475
 20
25.59551867820301
 10
70.71381617134074
 20
25.68102488537102
 10
72.81888514354074
 20
25.68102488537107
 10
72.81888514354074
 20
26.5087145431711
 10
70.67688513674062
 20
26.50871454317098
 10
70.74640237834064
 20
26.60647316417101
 10
70.83329893034061
 20
26.69554212997093
 10
70.93444651686872
 20
26.77183730262703
 10
71.04185065514065
 20
26.83892144077101
 97
        0
 92
        7
 72
     0
 73
     1
 93
        6
 10
73.04916100634073
 20
27.77957661617114
 10
73.04916100634073
 20
24.41016281237109
 10
75.28674722034082
 20
24.4101628123712
 10
75.28674722034072
 20
25.27695591857122
 10
74.07236790614075
 20
25.27695591857122
 10
74.07236790614064
 20
27.77957661617114
 97
        0
 92
        7
 72
     0
 73
     1
 93
        8
 10
74.30481618274058
 20
27.77957661617114
 10
74.30481618274058
 20
26.95405937217112
 10
75.53874722114068
 20
26.95405937217123
 10
75.5387472211408
 20
24.40364557097121
 10
76.56412653474075
 20
24.40364557097121
 10
76.56412653474063
 20
26.95405937217117
 10
77.80674722834061
 20
26.95405937217123
 10
77.80674722834061
 20
27.77957661617126
 97
        0
 75
     0
 76
     1
 47
0.0142553043587597
 98
        5
 10
64.19205269521587
 20
27.33712694658169
 10
66.45954990855847
 20
27.194573961576
 10
70.95176164076002
 20
27.25159513412382
 10
73.67561072459165
 20
27.49393535881626
 10
75.08744870681841
 20
27.39414822640288
450
        0
451
        0
460
0.0
461
0.0
452
        0
462
0.0
453
        0
470

  0
LWPOLYLINE
  5
1882
330
175F
100
AcDbEntity
  8
LW 3500-39-00
 62
     1
100
AcDbPolyline
 90
        8
 70
     1
 43
0.0
 10
76.56412653474063
 20
26.95405937217117
 10
76.56412653474075
 20
24.40364557097121
 10
75.5387472211408
 20
24.40364557097121
 10
75.53874722114068
 20
26.95405937217123
 10
74.30481618274058
 20
26.95405937217112
 10
74.30481618274058
 20
27.77957661617114
 10
77.80674722834061
 20
27.77957661617126
 10
77.80674722834061
 20
26.95405937217123
  0
LWPOLYLINE
  5
1883
330
175F
100
AcDbEntity
  8
LW 3500-39-00
 62
     1
100
AcDbPolyline
 90
       73
 70
     1
 43
0.0
 10
66.86212650394072
 20
25.27695591857088
 10
67.87881616234068
 20
25.27695591857094
 10
68.76516099274073
 20
24.40364557097098
 10
66.86212650394072
 20
24.40364557097081
 10
66.65140236534075
 20
24.41233522617086
 10
66.44285064054071
 20
24.43840419177087
 10
66.24604732957113
 20
24.48211315742685
 10
66.05181615654084
 20
24.53616281277084
 10
65.86933339734077
 20
24.60785246817085
 10
65.69771270714074
 20
24.69257660637083
 10
65.53917863767202
 20
24.79094350323487
 10
65.38705753374069
 20
24.89895591737087
 10
65.25476622297588
 20
25.0182648832668
 10
65.1367607053599
 20
25.14730626298677
 10
65.03138125674951
 20
25.28677522894685
 10
64.93954029094067
 20
25.43554212597082
 10
64.87002304934077
 20
25.58978350577087
 10
64.81788511814073
 20
25.75054212697086
 10
64.78529891114073
 20
25.91781798957084
 10
64.77443684214069
 20
26.08943867977081
 10
64.78529891114073
 20
26.26540419757077
 10
64.81788511814063
 20
26.43268006017081
 10
64.87219546314071
 20
26.5934386813708
 10
64.94388511854066
 20
26.74768006117086
 10
65.03512649814064
 20
26.89540419957081
 10
65.14374718814071
 20
27.03443868277077
 10
65.26873918853749
 20
27.16495730387487
 10
65.40443684414054
 20
27.2842662697708
 10
65.55650581014067
 20
27.39288695977081
 10
65.72206981066625
 20
27.48934213249078
 10
65.89322994914056
 20
27.57536971897077
 10
66.08005753594063
 20
27.64705937437083
 10
66.27340236414062
 20
27.70354213317091
 10
66.47783519237584
 20
27.74334075398684
 10
66.68455339992857
 20
27.76880144372291
 10
66.89254029714056
 20
27.77957661617086
 10
70.33147134254062
 20
27.77957661617103
 10
68.65002306134073
 20
26.14592143857095
 10
70.36405754954063
 20
24.40364557097098
 10
69.04540237294082
 20
24.40364557097098
 10
67.27922995354067
 20
26.12202488677099
 10
68.12647133554065
 20
26.93668006177091
 10
66.85778167634061
 20
26.93668006177086
 10
66.73371946905018
 20
26.93146626865081
 10
66.61085643417738
 20
26.91339178583479
 10
66.49051339931265
 20
26.88280419953088
 10
66.37397643342541
 20
26.83996419939479
 10
66.28995615729656
 20
26.79781937167485
 10
66.21366098464062
 20
26.75350213015486
 10
66.17341919140944
 20
26.72630350937885
 10
66.13590594991109
 20
26.69536833686687
 10
66.02499119093824
 20
26.58692143997081
 10
65.9619129838415
 20
26.50888833627476
 10
65.92038512164066
 20
26.44102212916283
 10
65.87673698357111
 20
26.34230764609083
 10
65.85852346627195
 20
26.28061109417087
 10
65.84636663864711
 20
26.21743730086683
 10
65.84036208690389
 20
26.15530626618687
 10
65.83900650069273
 20
26.09300143840284
 10
65.84652305244066
 20
26.00367178294687
 10
65.86722181112719
 20
25.91651454129084
 10
65.8966449836343
 20
25.83509247206683
 10
65.93600912169023
 20
25.75792833389079
 10
65.98471463908623
 20
25.68536971297084
 10
66.03978098408873
 20
25.61750350585885
 10
66.11338236363264
 20
25.54746488494681
 10
66.2459430537088
 20
25.44814212601091
 10
66.29962774353436
 20
25.41555591901084
 10
66.35576291612636
 20
25.38740143616286
 10
66.45725808886237
 20
25.34647316017077
 10
66.57437726164795
 20
25.31214902213088
 10
66.69451174478791
 20
25.29068557378685
 10
66.79545946924628
 20
25.28070321151023
  0
LWPOLYLINE
  5
1884
330
175F
100
AcDbEntity
  8
LW 3500-39-00
 62
     1
100
AcDbPolyline
 90
       76
 70
     1
 43
0.0
 10
65.6519632538745
 20
27.61870662414179
 10
65.47657630050975
 20
27.51652874232008
 10
65.31290750442775
 20
27.39962245940444
 10
65.16688759796631
 20
27.27123789769104
 10
65.03240952275354
 20
27.13081376742849
 10
64.91425139852236
 20
26.97957136841262
 10
64.88239256914955
 20
26.92799040657082
 10
63.79250580454066
 20
26.92799040657082
 10
63.64912649374065
 20
26.92147316517071
 10
63.51226442434057
 20
26.90192144097074
 10
63.38981849291741
 20
26.86985661328271
 10
63.27112649254065
 20
26.82588695797079
 10
63.16852773359432
 20
26.76757937157873
 10
63.07343683674066
 20
26.6977145437707
 10
62.99088511234055
 20
26.61516281937071
 10
62.92136787074065
 20
26.51957661217074
 10
64.69200638835997
 20
26.51957661217074
 10
64.675407685685
 20
26.47044445225248
 10
64.63910196400963
 20
26.28407508098587
 10
64.6270802915804
 20
26.08932398763097
 10
64.6391239443621
 20
25.89903427368023
 10
64.67523575232661
 20
25.71366032612917
 10
64.68582021959952
 20
25.68102488537079
 10
62.95829890534077
 20
25.68102488537074
 10
63.02998856074072
 20
25.59630074717069
 10
63.12016980240634
 20
25.51835454002674
 10
63.21831945789035
 20
25.45074902257074
 10
63.32326442374079
 20
25.39426626377082
 10
63.43840235514079
 20
25.34864557397077
 10
63.56657476934066
 20
25.31571178076274
 10
63.6973280111352
 20
25.29537798759481
 10
63.82943683914067
 20
25.28781798757075
 10
64.85789990606105
 20
25.2878179875708
 10
64.9098711375097
 20
25.20363334546653
 10
65.02357649225309
 20
25.05314510075391
 10
65.15101238573738
 20
24.91379141752537
 10
65.29492475410762
 20
24.78400182098563
 10
65.45775764886826
 20
24.66838358256007
 10
65.62622405503844
 20
24.56385388962849
 10
65.80978819884086
 20
24.47323361610575
 10
65.97033206289331
 20
24.41016281237086
 10
63.85116097714075
 20
24.41016281237069
 10
63.64043683854067
 20
24.41885246757073
 10
63.43188511374075
 20
24.44492143317075
 10
63.23202304414071
 20
24.48836970917074
 10
63.04085062974076
 20
24.54485246797066
 10
62.86020138778787
 20
24.61854074406671
 10
62.68457476654083
 20
24.70343867537082
 10
62.52381614534073
 20
24.80119729637067
 10
62.37647174487307
 20
24.91164281396271
 10
62.2402726961647
 20
25.03277660745067
 10
62.11757476474071
 20
25.1639904009707
 10
62.0111264885407
 20
25.30519729797067
 10
61.92205752274077
 20
25.45292143637073
 10
61.85254028114076
 20
25.60933522997073
 10
61.79822993614067
 20
25.77009385117066
 10
61.76781614294071
 20
25.93736971377075
 10
61.75695407394067
 20
26.11116281777067
 10
61.76564372914055
 20
26.28495592177063
 10
61.79388510854067
 20
26.45005937057073
 10
61.84385062594066
 20
26.61081799177066
 10
61.90685062614062
 20
26.76505937157066
 10
61.98940235054061
 20
26.91061109617073
 10
62.08942028189273
 20
27.04782075177872
 10
62.20068523396998
 20
27.17608006253068
 10
62.32612648954063
 20
27.29512833877067
 10
62.46883408999366
 20
27.40183730462673
 10
62.6194023525407
 20
27.49716282217077
 10
62.78667821514062
 20
27.5797145465707
 10
62.96264373294064
 20
27.64923178817077
 10
63.14729890594065
 20
27.70354213317069
 10
63.34281614794059
 20
27.7448179953708
 10
63.54485063134058
 20
27.77088696097076
 10
63.7577471837406
 20
27.77957661617075
 10
66.01488512194072
 20
27.77957661617092
 10
65.83371618647487
 20
27.71005830372468
  0
LWPOLYLINE
  5
1885
330
175F
100
AcDbEntity
  8
LW 3500-39-00
 62
     1
100
AcDbPolyline
 90
        6
 70
     1
 43
0.0
 10
75.28674722034082
 20
24.4101628123712
 10
73.04916100634073
 20
24.41016281237109
 10
73.04916100634073
 20
27.77957661617114
 10
74.07236790614064
 20
27.77957661617114
 10
74.07236790614075
 20
25.27695591857122
 10
75.28674722034072
 20
25.27695591857122
  0
LWPOLYLINE
  5
1886
330
175F
100
AcDbEntity
  8
LW 3500-39-00
 62
     1
100
AcDbPolyline
 90
       57
 70
     1
 43
0.0
 10
69.99534678974947
 20
25.03529660745903
 10
69.87549037557591
 20
25.16564143545895
 10
69.76664375454067
 20
25.30519729797095
 10
69.6797472025408
 20
25.45292143637102
 10
69.60805754714062
 20
25.60933522997089
 10
69.5559196159407
 20
25.770093851171
 10
69.52333340894068
 20
25.93736971377098
 10
69.51247133994076
 20
26.111162817771
 10
69.52333340894068
 20
26.28495592177103
 10
69.5559196159407
 20
26.45223178437095
 10
69.60588513334056
 20
26.61299040557088
 10
69.67757478874062
 20
26.767231785371
 10
69.76229892694056
 20
26.9127835099709
 10
69.86657478934063
 20
27.05181799317103
 10
69.98663975523896
 20
27.18059868323496
 10
70.12119906601111
 20
27.29982075257897
 10
70.27127810097027
 20
27.40931040809897
 10
70.43009892906076
 20
27.50576558081906
 10
70.59650582614068
 20
27.58840420177103
 10
70.78116099914058
 20
27.66009385717098
 10
70.97016099974069
 20
27.71440420217107
 10
71.16785065554068
 20
27.75568006437101
 10
71.37422996654066
 20
27.78392144377102
 10
71.58495410514063
 20
27.79261109897101
 10
72.81888514354062
 20
27.79261109897112
 10
72.81888514354062
 20
26.9670938549711
 10
71.57843686374071
 20
26.96709385497104
 10
71.43505755294069
 20
26.95840419977105
 10
71.30036789734067
 20
26.93129247554708
 10
71.16889341416464
 20
26.89132006162703
 10
71.04185065514065
 20
26.83892144077101
 10
70.93444651686872
 20
26.77183730262703
 10
70.83329893034061
 20
26.69554212997105
 10
70.74640237834064
 20
26.60647316417101
 10
70.67688513674062
 20
26.50871454317098
 10
72.81888514354074
 20
26.5087145431711
 10
72.81888514354074
 20
25.68102488537107
 10
70.71381617134074
 20
25.68102488537102
 10
70.78828651640475
 20
25.59551867820301
 10
70.87570444771671
 20
25.51574764346697
 10
70.97276789630069
 20
25.44814212601108
 10
71.08243134492482
 20
25.38722764305908
 10
71.19843824184471
 20
25.33926074635502
 10
71.3190506560208
 20
25.30493660831508
 10
71.45130720816467
 20
25.28295178065895
 10
71.58495410514063
 20
25.272611090971
 10
72.81888514354074
 20
25.27261109097106
 10
72.81888514354074
 20
24.41450763997108
 10
71.60885065694078
 20
24.41450763997102
 10
71.39595410454075
 20
24.42319729517095
 10
71.18957479354077
 20
24.44709384697103
 10
70.98971272394073
 20
24.49054212297102
 10
70.79854030954078
 20
24.54702488177111
 10
70.61388513654065
 20
24.620886950971
 10
70.44009203254069
 20
24.70561108917105
 10
70.2793334113407
 20
24.80336971017095
 10
70.1317743763895
 20
24.91398902086701
  0
ENDBLK
  5
1761
330
175F
100
AcDbEntity
  8
0
100
AcDbBlockEnd
  0
BLOCK
  5
1889
330
1888
100
AcDbEntity
  8
0
100
AcDbBlockBegin
  2
LW 3500-39-00_c
 70
     0
 10
0.0
 20
0.0
 30
0.0
  3
LW 3500-39-00_c
  1

  0
LINE
  5
188B
330
1888
100
AcDbEntity
  8
LW 3500-39-00
100
AcDbLine
 10
14.00000000000978
 20
32.99999999999585
 30
0.0
 11
13.99999999999022
 21
-33.00000000000409
 31
0.0
  0
ARC
  5
188C
330
1888
100
AcDbEntity
  8
LW 3500-39-00
100
AcDbCircle
 10
145.0000000000216
 20
-0.0000000000429736
 30
0.0
 40
35.0
100
AcDbArc
 50
269.9999999999804
 51
89.99999999998046
  0
LINE
  5
188D
330
1888
100
AcDbEntity
  8
LW 3500-39-00
100
AcDbLine
 10
145.000000000032
 20
34.99999999995703
 30
0.0
 11
16.00000000003206
 21
34.99999999999523
 31
0.0
  0
LINE
  5
188E
330
1888
100
AcDbEntity
  8
LW 3500-39-00
100
AcDbLine
 10
16.00000000001125
 20
-35.00000000000478
 30
0.0
 11
145.0000000000112
 21
-35.00000000004297
 31
0.0
  0
LINE
  5
188F
330
1888
100
AcDbEntity
  8
LW 3500-39-00
100
AcDbLine
 10
16.00000000003206
 20
34.99999999999523
 30
0.0
 11
12.00000000003081
 21
34.99999999999648
 31
0.0
  0
LINE
  5
1890
330
1888
100
AcDbEntity
  8
LW 3500-39-00
100
AcDbLine
 10
12.00000000001012
 20
-35.00000000000353
 30
0.0
 11
16.00000000001125
 21
-35.00000000000478
 31
0.0
  0
ARC
  5
1891
330
1888
100
AcDbEntity
  8
LW 3500-39-00
100
AcDbCircle
 10
12.00000000000978
 20
32.99999999999642
 30
0.0
 40
2.00000000000001
100
AcDbArc
 50
0.0
 51
89.99999999998046
  0
ARC
  5
1892
330
1888
100
AcDbEntity
  8
LW 3500-39-00
100
AcDbCircle
 10
11.99999999999022
 20
-33.00000000000352
 30
0.0
 40
1.999999999999997
100
AcDbArc
 50
269.9999999999804
 51
0.0
  0
LINE
  5
1893
330
1888
100
AcDbEntity
  8
LW 3500-39-00
100
AcDbLine
 10
4.999999999989654
 20
-35.00000000000148
 30
0.0
 11
5.000000000010345
 21
34.99999999999853
 31
0.0
  0
LINE
  5
1894
330
1888
100
AcDbEntity
  8
LW 3500-39-00
100
AcDbLine
 10
12.00000000001034
 20
34.99999999999648
 30
0.0
 11
5.000000000010345
 21
34.99999999999853
 31
0.0
  0
LINE
  5
1895
330
1888
100
AcDbEntity
  8
LW 3500-39-00
100
AcDbLine
 10
4.999999999989654
 20
-35.00000000000148
 30
0.0
 11
11.99999999998954
 21
-35.00000000000353
 31
0.0
  0
LINE
  5
1896
330
1888
100
AcDbEntity
  8
LW 3500-39-00
100
AcDbLine
 10
19.00000000000659
 20
22.49999999999443
 30
0.0
 11
18.99999999999329
 21
-22.50000000000557
 31
0.0
  0
LINE
  5
1897
330
1888
100
AcDbEntity
  8
LW 3500-39-00
100
AcDbLine
 10
14.00000000000659
 20
22.49999999999591
 30
0.0
 11
19.00000000000659
 21
22.49999999999443
 31
0.0
  0
LINE
  5
1898
330
1888
100
AcDbEntity
  8
LW 3500-39-00
100
AcDbLine
 10
13.99999999999329
 20
-22.50000000000409
 30
0.0
 11
18.99999999999329
 21
-22.50000000000557
 31
0.0
  0
LINE
  5
1899
330
1888
100
AcDbEntity
  8
LW 3500-39-00
100
AcDbLine
 10
-0.0000000000067075
 20
-22.5
 30
0.0
 11
0.0000000000067075
 21
22.5
 31
0.0
  0
LINE
  5
189A
330
1888
100
AcDbEntity
  8
LW 3500-39-00
100
AcDbLine
 10
4.999999999993292
 20
-22.50000000000148
 30
0.0
 11
-0.0000000000067075
 21
-22.5
 31
0.0
  0
LINE
  5
189B
330
1888
100
AcDbEntity
  8
LW 3500-39-00
100
AcDbLine
 10
5.000000000006707
 20
22.49999999999852
 30
0.0
 11
0.0000000000067075
 21
22.5
 31
0.0
  0
CIRCLE
  5
189C
330
1888
100
AcDbEntity
  8
LW 3500-39-00
100
AcDbCircle
 10
145.0000000000151
 20
-0.0000000000429736
 30
0.0
 40
17.5
  0
CIRCLE
  5
189D
330
1888
100
AcDbEntity
  8
LW 3500-39-00
100
AcDbCircle
 10
145.0000000000143
 20
-0.0000000000429736
 30
0.0
 40
14.5
  0
CIRCLE
  5
189E
330
1888
100
AcDbEntity
  8
LW 3500-39-00
100
AcDbCircle
 10
65.00000000001512
 20
-0.0000000000192131
 30
0.0
 40
17.5
  0
CIRCLE
  5
189F
330
1888
100
AcDbEntity
  8
LW 3500-39-00
100
AcDbCircle
 10
65.00000000001432
 20
-0.0000000000192131
 30
0.0
 40
14.5
  0
POLYLINE
  5
18A0
330
1888
100
AcDbEntity
  8
LW 3500-39-00
100
AcDb2dPolyline
 66
     1
 10
0.0
 20
0.0
 30
0.0
 70
   128
  0
VERTEX
  5
18A1
330
18A0
100
AcDbEntity
  8
LW 3500-39-00
100
AcDbVertex
100
AcDb2dVertex
 10
36.99999952315761
 20
-0.0000000000109139
 30
0.0
  0
VERTEX
  5
18A2
330
18A0
100
AcDbEntity
  8
LW 3500-39-00
100
AcDbVertex
100
AcDb2dVertex
 10
36.98318386077358
 20
-0.2554797381271783
 30
0.0
  0
VERTEX
  5
18A3
330
18A0
100
AcDbEntity
  8
LW 3500-39-00
100
AcDbVertex
100
AcDb2dVertex
 10
36.93250799178543
 20
-0.513535626243538
 30
0.0
  0
VERTEX
  5
18A4
330
18A0
100
AcDbEntity
  8
LW 3500-39-00
100
AcDbVertex
100
AcDb2dVertex
 10
36.84763216971806
 20
-0.7656736672033731
 30
0.0
  0
VERTEX
  5
18A5
330
18A0
100
AcDbEntity
  8
LW 3500-39-00
100
AcDbVertex
100
AcDb2dVertex
 10
36.72932291030338
 20
-1.003869771968254
 30
0.0
  0
VERTEX
  5
18A6
330
18A0
100
AcDbEntity
  8
LW 3500-39-00
100
AcDbVertex
100
AcDb2dVertex
 10
36.58275866507927
 20
-1.221954673539471
 30
0.0
  0
VERTEX
  5
18A7
330
18A0
100
AcDbEntity
  8
LW 3500-39-00
100
AcDbVertex
100
AcDb2dVertex
 10
36.4142110347691
 20
-1.414216607819867
 30
0.0
  0
VERTEX
  5
18A8
330
18A0
100
AcDbEntity
  8
LW 3500-39-00
100
AcDbVertex
100
AcDb2dVertex
 10
36.22194790839581
 20
-1.58276334406014
 30
0.0
  0
VERTEX
  5
18A9
330
18A0
100
AcDbEntity
  8
LW 3500-39-00
100
AcDbVertex
100
AcDb2dVertex
 10
36.00386404990582
 20
-1.729326844226022
 30
0.0
  0
VERTEX
  5
18AA
330
18A0
100
AcDbEntity
  8
LW 3500-39-00
100
AcDbVertex
100
AcDb2dVertex
 10
35.76566958426861
 20
-1.847633719454847
 30
0.0
  0
VERTEX
  5
18AB
330
18A0
100
AcDbEntity
  8
LW 3500-39-00
100
AcDbVertex
100
AcDb2dVertex
 10
35.51353359221832
 20
-1.932508051405932
 30
0.0
  0
VERTEX
  5
18AC
330
18A0
100
AcDbEntity
  8
LW 3500-39-00
100
AcDbVertex
100
AcDb2dVertex
 10
35.25547885894196
 20
-1.983183622370688
 30
0.0
  0
VERTEX
  5
18AD
330
18A0
100
AcDbEntity
  8
LW 3500-39-00
100
AcDbVertex
100
AcDb2dVertex
 10
35.00000023841278
 20
-2.000000029812667
 30
0.0
  0
VERTEX
  5
18AE
330
18A0
100
AcDbEntity
  8
LW 3500-39-00
100
AcDbVertex
100
AcDb2dVertex
 10
34.74452042579071
 20
-1.983183622370518
 30
0.0
  0
VERTEX
  5
18AF
330
18A0
100
AcDbEntity
  8
LW 3500-39-00
100
AcDbVertex
100
AcDb2dVertex
 10
34.48646688460724
 20
-1.932508051405648
 30
0.0
  0
VERTEX
  5
18B0
330
18A0
100
AcDbEntity
  8
LW 3500-39-00
100
AcDbVertex
100
AcDb2dVertex
 10
34.23433089255718
 20
-1.847633719454393
 30
0.0
  0
VERTEX
  5
18B1
330
18A0
100
AcDbEntity
  8
LW 3500-39-00
100
AcDbVertex
100
AcDb2dVertex
 10
33.99613642691998
 20
-1.729326844225454
 30
0.0
  0
VERTEX
  5
18B2
330
18A0
100
AcDbEntity
  8
LW 3500-39-00
100
AcDbVertex
100
AcDb2dVertex
 10
33.77805137633709
 20
-1.582763344059458
 30
0.0
  0
VERTEX
  5
18B3
330
18A0
100
AcDbEntity
  8
LW 3500-39-00
100
AcDbVertex
100
AcDb2dVertex
 10
33.5857894420567
 20
-1.414216607819014
 30
0.0
  0
VERTEX
  5
18B4
330
18A0
100
AcDbEntity
  8
LW 3500-39-00
100
AcDbVertex
100
AcDb2dVertex
 10
33.41724181174675
 20
-1.221954673538562
 30
0.0
  0
VERTEX
  5
18B5
330
18A0
100
AcDbEntity
  8
LW 3500-39-00
100
AcDbVertex
100
AcDb2dVertex
 10
33.27067637442997
 20
-1.003869771967288
 30
0.0
  0
VERTEX
  5
18B6
330
18A0
100
AcDbEntity
  8
LW 3500-39-00
100
AcDbVertex
100
AcDb2dVertex
 10
33.15236830710819
 20
-0.7656736672022362
 30
0.0
  0
VERTEX
  5
18B7
330
18A0
100
AcDbEntity
  8
LW 3500-39-00
100
AcDbVertex
100
AcDb2dVertex
 10
33.06749248504104
 20
-0.5135356262424012
 30
0.0
  0
VERTEX
  5
18B8
330
18A0
100
AcDbEntity
  8
LW 3500-39-00
100
AcDbVertex
100
AcDb2dVertex
 10
33.01681661605312
 20
-0.2554797381260414
 30
0.0
  0
VERTEX
  5
18B9
330
18A0
100
AcDbEntity
  8
LW 3500-39-00
100
AcDbVertex
100
AcDb2dVertex
 10
32.99999976157619
 20
-0.0000000000097202
 30
0.0
  0
SEQEND
  5
18BA
330
18A0
100
AcDbEntity
  8
LW 3500-39-00
  0
POLYLINE
  5
18BB
330
1888
100
AcDbEntity
  8
LW 3500-39-00
100
AcDb2dPolyline
 66
     1
 10
0.0
 20
0.0
 30
0.0
 70
   128
  0
VERTEX
  5
18BC
330
18BB
100
AcDbEntity
  8
LW 3500-39-00
100
AcDbVertex
100
AcDb2dVertex
 10
32.99999976157619
 20
-0.0000000000097202
 30
0.0
  0
VERTEX
  5
18BD
330
18BB
100
AcDbEntity
  8
LW 3500-39-00
100
AcDbVertex
100
AcDb2dVertex
 10
33.01681661605324
 20
0.2554797381064873
 30
0.0
  0
VERTEX
  5
18BE
330
18BB
100
AcDbEntity
  8
LW 3500-39-00
100
AcDbVertex
100
AcDb2dVertex
 10
33.06749248504127
 20
0.513535626222847
 30
0.0
  0
VERTEX
  5
18BF
330
18BB
100
AcDbEntity
  8
LW 3500-39-00
100
AcDbVertex
100
AcDb2dVertex
 10
33.15236830710865
 20
0.7656736671826821
 30
0.0
  0
VERTEX
  5
18C0
330
18BB
100
AcDbEntity
  8
LW 3500-39-00
100
AcDbVertex
100
AcDb2dVertex
 10
33.27067637443054
 20
1.003869771947506
 30
0.0
  0
VERTEX
  5
18C1
330
18BB
100
AcDbEntity
  8
LW 3500-39-00
100
AcDbVertex
100
AcDb2dVertex
 10
33.41724181174743
 20
1.22195467351878
 30
0.0
  0
VERTEX
  5
18C2
330
18BB
100
AcDbEntity
  8
LW 3500-39-00
100
AcDbVertex
100
AcDb2dVertex
 10
33.5857894420576
 20
1.414216607799119
 30
0.0
  0
VERTEX
  5
18C3
330
18BB
100
AcDbEntity
  8
LW 3500-39-00
100
AcDbVertex
100
AcDb2dVertex
 10
33.778051376338
 20
1.582763344039449
 30
0.0
  0
VERTEX
  5
18C4
330
18BB
100
AcDbEntity
  8
LW 3500-39-00
100
AcDbVertex
100
AcDb2dVertex
 10
33.996136426921
 20
1.729326844205331
 30
0.0
  0
VERTEX
  5
18C5
330
18BB
100
AcDbEntity
  8
LW 3500-39-00
100
AcDbVertex
100
AcDb2dVertex
 10
34.23433089255821
 20
1.847633719434156
 30
0.0
  0
VERTEX
  5
18C6
330
18BB
100
AcDbEntity
  8
LW 3500-39-00
100
AcDbVertex
100
AcDb2dVertex
 10
34.48646688460849
 20
1.932508051385184
 30
0.0
  0
VERTEX
  5
18C7
330
18BB
100
AcDbEntity
  8
LW 3500-39-00
100
AcDbVertex
100
AcDb2dVertex
 10
34.74452042579196
 20
1.98318362234994
 30
0.0
  0
VERTEX
  5
18C8
330
18BB
100
AcDbEntity
  8
LW 3500-39-00
100
AcDbVertex
100
AcDb2dVertex
 10
35.00000023841403
 20
2.000000029791976
 30
0.0
  0
VERTEX
  5
18C9
330
18BB
100
AcDbEntity
  8
LW 3500-39-00
100
AcDbVertex
100
AcDb2dVertex
 10
35.25547885894321
 20
1.98318362234977
 30
0.0
  0
VERTEX
  5
18CA
330
18BB
100
AcDbEntity
  8
LW 3500-39-00
100
AcDbVertex
100
AcDb2dVertex
 10
35.51353359221958
 20
1.9325080513849
 30
0.0
  0
VERTEX
  5
18CB
330
18BB
100
AcDbEntity
  8
LW 3500-39-00
100
AcDbVertex
100
AcDb2dVertex
 10
35.76566958426963
 20
1.847633719433702
 30
0.0
  0
VERTEX
  5
18CC
330
18BB
100
AcDbEntity
  8
LW 3500-39-00
100
AcDbVertex
100
AcDb2dVertex
 10
36.00386404990684
 20
1.729326844204763
 30
0.0
  0
VERTEX
  5
18CD
330
18BB
100
AcDbEntity
  8
LW 3500-39-00
100
AcDbVertex
100
AcDb2dVertex
 10
36.22194790839671
 20
1.582763344038767
 30
0.0
  0
VERTEX
  5
18CE
330
18BB
100
AcDbEntity
  8
LW 3500-39-00
100
AcDbVertex
100
AcDb2dVertex
 10
36.41421103477
 20
1.414216607798266
 30
0.0
  0
VERTEX
  5
18CF
330
18BB
100
AcDbEntity
  8
LW 3500-39-00
100
AcDbVertex
100
AcDb2dVertex
 10
36.58275866507995
 20
1.221954673517871
 30
0.0
  0
VERTEX
  5
18D0
330
18BB
100
AcDbEntity
  8
LW 3500-39-00
100
AcDbVertex
100
AcDb2dVertex
 10
36.72932291030395
 20
1.00386977194654
 30
0.0
  0
VERTEX
  5
18D1
330
18BB
100
AcDbEntity
  8
LW 3500-39-00
100
AcDbVertex
100
AcDb2dVertex
 10
36.84763216971851
 20
0.7656736671815452
 30
0.0
  0
VERTEX
  5
18D2
330
18BB
100
AcDbEntity
  8
LW 3500-39-00
100
AcDbVertex
100
AcDb2dVertex
 10
36.93250799178566
 20
0.5135356262217102
 30
0.0
  0
VERTEX
  5
18D3
330
18BB
100
AcDbEntity
  8
LW 3500-39-00
100
AcDbVertex
100
AcDb2dVertex
 10
36.9831838607737
 20
0.2554797381053504
 30
0.0
  0
VERTEX
  5
18D4
330
18BB
100
AcDbEntity
  8
LW 3500-39-00
100
AcDbVertex
100
AcDb2dVertex
 10
36.99999952315761
 20
-0.0000000000109139
 30
0.0
  0
SEQEND
  5
18D5
330
18BB
100
AcDbEntity
  8
LW 3500-39-00
  0
LINE
  5
18D6
330
1888
100
AcDbEntity
  8
LW 3500-39-00
100
AcDbLine
 10
38.99999999999477
 20
-17.50000000001148
 30
0.0
 11
39.00000000000512
 21
17.49999999998852
 31
0.0
  0
LINE
  5
18D7
330
1888
100
AcDbEntity
  8
LW 3500-39-00
100
AcDbLine
 10
41.99999999999556
 20
-14.50000000001245
 30
0.0
 11
42.00000000000431
 21
14.49999999998761
 31
0.0
  0
LINE
  5
18D8
330
1888
100
AcDbEntity
  8
LW 3500-39-00
100
AcDbLine
 10
19.00000000000511
 20
17.49999999999443
 30
0.0
 11
39.00000000000512
 21
17.4999999999884
 31
0.0
  0
LINE
  5
18D9
330
1888
100
AcDbEntity
  8
LW 3500-39-00
100
AcDbLine
 10
18.99999999999477
 20
-17.50000000000557
 30
0.0
 11
38.99999999999477
 21
-17.50000000001159
 31
0.0
  0
LINE
  5
18DA
330
1888
100
AcDbEntity
  8
LW 3500-39-00
100
AcDbLine
 10
41.99999999999568
 20
-14.50000000001245
 30
0.0
 11
38.99999999999477
 21
-17.50000000001148
 31
0.0
  0
LINE
  5
18DB
330
1888
100
AcDbEntity
  8
LW 3500-39-00
100
AcDbLine
 10
42.00000000000431
 20
14.49999999998761
 30
0.0
 11
39.00000000000512
 21
17.4999999999884
 31
0.0
  0
LINE
  5
18DC
330
1888
100
AcDbEntity
  8
LW 3500-39-00
100
AcDbLine
 10
70.00000000001512
 20
-0.0000000000192131
 30
0.0
 11
60.00000000001512
 21
-0.0000000000192131
 31
0.0
  0
LINE
  5
18DD
330
1888
100
AcDbEntity
  8
LW 3500-39-00
  6
MITTE2
 62
     3
100
AcDbLine
 10
65.00000000001512
 20
22.49999999998079
 30
0.0
 11
65.00000000001512
 21
-22.50000000001922
 31
0.0
  0
LINE
  5
18DE
330
1888
100
AcDbEntity
  8
LW 3500-39-00
  6
MITTE2
 62
     3
100
AcDbLine
 10
145.0000000000151
 20
22.49999999995702
 30
0.0
 11
145.0000000000151
 21
-22.50000000004297
 31
0.0
  0
LINE
  5
18DF
330
1888
100
AcDbEntity
  8
LW 3500-39-00
  6
MITTE2
 62
     3
100
AcDbLine
 10
187.3663674569925
 20
-0.000000000055536
 30
0.0
 11
-23.30038640845748
 21
0.0000000000069349
 31
0.0
  0
LINE
  5
18E0
330
1888
100
AcDbEntity
  8
LW 3500-39-00
100
AcDbLine
 10
-15.99999999999795
 20
7.000000000005059
 30
0.0
 11
-15.99999999999795
 21
-6.99999999999494
 31
0.0
  0
LINE
  5
18E1
330
1888
100
AcDbEntity
  8
LW 3500-39-00
100
AcDbLine
 10
-16.99999999999795
 20
6.000000000005059
 30
0.0
 11
-16.99999999999795
 21
-5.99999999999494
 31
0.0
  0
LINE
  5
18E2
330
1888
100
AcDbEntity
  8
LW 3500-39-00
100
AcDbLine
 10
0.0000000000020464
 20
-6.99999999999494
 30
0.0
 11
-15.99999999999795
 21
-6.99999999999494
 31
0.0
  0
LINE
  5
18E3
330
1888
100
AcDbEntity
  8
LW 3500-39-00
100
AcDbLine
 10
0.0000000000020464
 20
7.000000000005059
 30
0.0
 11
-15.99999999999795
 21
7.000000000005059
 31
0.0
  0
LINE
  5
18E4
330
1888
100
AcDbEntity
  8
LW 3500-39-00
100
AcDbLine
 10
-16.99999999999795
 20
6.000000000005059
 30
0.0
 11
-15.99999999999795
 21
7.000000000005059
 31
0.0
  0
LINE
  5
18E5
330
1888
100
AcDbEntity
  8
LW 3500-39-00
100
AcDbLine
 10
-16.99999999999795
 20
-5.99999999999494
 30
0.0
 11
-15.99999999999795
 21
-6.99999999999494
 31
0.0
  0
LINE
  5
18E6
330
1888
100
AcDbEntity
  8
LW 3500-39-00
 62
     3
100
AcDbLine
 10
-16.99999999999795
 20
-5.794499999994911
 30
0.0
 11
0.0000000000020464
 21
-5.794499999994911
 31
0.0
  0
LINE
  5
18E7
330
1888
100
AcDbEntity
  8
LW 3500-39-00
 62
     3
100
AcDbLine
 10
0.0000000000020464
 20
5.794500000005029
 30
0.0
 11
-16.99999999999795
 21
5.794500000005029
 31
0.0
  0
LINE
  5
18E8
330
1888
100
AcDbEntity
  8
LW 3500-39-00
100
AcDbLine
 10
-15.99999999999795
 20
7.000000000005059
 30
0.0
 11
-15.99999999999795
 21
-6.99999999999494
 31
0.0
  0
INSERT
  5
18E9
330
1888
100
AcDbEntity
  8
LW 3500-39-00
100
AcDbBlockReference
 66
     1
  2
insertpoint-ECKELT
 10
0.0
 20
0.0
 30
0.0
  0
ATTRIB
  5
18EA
330
18E9
100
AcDbEntity
  8
insertpoint_ECKELT
100
AcDbText
 10
-6.931514324693087
 20
0.0
 30
0.0
 40
0.6
  1
LW 3500/39-00
 72
     2
 11
-1.200000000000045
 21
0.0
 31
0.0
100
AcDbAttribute
  2
LINKS
 70
     0
  0
ATTRIB
  5
18EB
330
18E9
100
AcDbEntity
  8
insertpoint_ECKELT
100
AcDbText
 10
1.200000000000045
 20
0.0
 30
0.0
 40
0.6
  1

100
AcDbAttribute
  2
RECHTS
 70
     0
  0
SEQEND
  5
18EC
330
18E9
100
AcDbEntity
  8
LW 3500-39-00
  0
HATCH
  5
18ED
330
1888
100
AcDbEntity
  8
LW 3500-39-00
 62
     1
100
AcDbHatch
 10
0.0
 20
0.0
 30
0.0
210
0.0
220
0.0
230
1.0
  2
SOLID
 70
     1
 71
     0
 91
        5
 92
        7
 72
     0
 73
     1
 93
       76
 10
101.6198830459461
 20
19.76920546873941
 10
101.651741875319
 20
19.82078643058111
 10
101.7698999995501
 20
19.97202882959709
 10
101.9043780747629
 20
20.11245295985964
 10
102.0503979812245
 20
20.24083752157299
 10
102.2140667773064
 20
20.35774380448874
 10
102.3894537306711
 20
20.45992168631039
 10
102.5712066632715
 20
20.55127336589328
 10
102.7523755987372
 20
20.62079167833946
 10
100.4952376605372
 20
20.6207916783394
 10
100.2823411081372
 20
20.61210202313936
 10
100.0803066247372
 20
20.5860330575394
 10
99.88478938273715
 20
20.54475719533934
 10
99.70013420973726
 20
20.49044685033937
 10
99.52416869193712
 20
20.42092960873936
 10
99.3568928293372
 20
20.33837788433925
 10
99.20632456679028
 20
20.24305236679544
 10
99.06361696633736
 20
20.13634340093933
 10
98.9381757107666
 20
20.01729512469922
 10
98.82691075868923
 20
19.88903581394732
 10
98.72689282733723
 20
19.75182615833933
 10
98.64434110293723
 20
19.60627443373926
 10
98.58134110273727
 20
19.45203305393915
 10
98.5313755853374
 20
19.29127443273938
 10
98.50313420593728
 20
19.12617098393929
 10
98.49444455073729
 20
18.95237787993932
 10
98.50530661973733
 20
18.77858477593924
 10
98.53572041293729
 20
18.61130891333926
 10
98.59003075793737
 20
18.45055029213932
 10
98.65954799953726
 20
18.29413649853927
 10
98.74861696533741
 20
18.14641236013921
 10
98.85506524153733
 20
18.00520546313936
 10
98.97776317296132
 20
17.87399166961927
 10
99.11396222166956
 20
17.75285787613137
 10
99.26130662213735
 20
17.64241235853927
 10
99.42206524333744
 20
17.54465373753942
 10
99.59769186458458
 20
17.45975580623536
 10
99.77834110653725
 20
17.38606753013937
 10
99.96951352093743
 20
17.32958477133934
 10
100.1693755905373
 20
17.28613649533935
 10
100.3779273153373
 20
17.26006752973933
 10
100.5886514539372
 20
17.25137787453934
 10
102.7078225396899
 20
17.25137787453945
 10
102.5472786756374
 20
17.31444867827434
 10
102.363714531835
 20
17.40506895179709
 10
102.1952481256648
 20
17.50959864472867
 10
102.0324152309041
 20
17.62521688315411
 10
101.888502862534
 20
17.75500647969397
 10
101.7610669690497
 20
17.89436016292251
 10
101.6473616143063
 20
18.04484840763507
 10
101.5953903828576
 20
18.1290330497394
 10
100.5669273159373
 20
18.12903304973935
 10
100.4348184879318
 20
18.1365930497634
 10
100.3040652461372
 20
18.15692684293134
 10
100.1758928319374
 20
18.18986063613931
 10
100.0607549005374
 20
18.23548132593941
 10
99.95580993468696
 20
18.29196408473933
 10
99.85766027920295
 20
18.35956960219533
 10
99.76747903753732
 20
18.43751580933929
 10
99.69578938213738
 20
18.52223994753933
 10
101.4233106963961
 20
18.52223994753939
 10
101.4127262291231
 20
18.55487538829772
 10
101.3766144211587
 20
18.74024933584883
 10
101.364570768377
 20
18.93053904979956
 10
101.3765924408063
 20
19.12529014315459
 10
101.4128981624816
 20
19.31165951442108
 10
101.4294968651566
 20
19.36079167433934
 10
99.65885834753727
 20
19.36079167433934
 10
99.72837558913727
 20
19.45637788153925
 10
99.81092731353726
 20
19.53892960593936
 10
99.90601821039081
 20
19.60879443374728
 10
100.0086169693372
 20
19.66710202013939
 10
100.127308969714
 20
19.71107167545131
 10
100.2497549011373
 20
19.74313650313934
 10
100.3866169705372
 20
19.76268822733931
 10
100.5299962813372
 20
19.76920546873936
 97
        0
 92
        7
 72
     0
 73
     1
 93
       72
 10
103.348346910974
 20
19.75460684800339
 10
103.4712099458468
 20
19.77268133081941
 10
103.5952721531372
 20
19.77789512393946
 10
104.8639618123372
 20
19.77789512393951
 10
104.0167204303372
 20
18.96323994893959
 10
105.7828928497374
 20
17.24486063313958
 10
107.1015480263372
 20
17.24486063313958
 10
105.3875135381373
 20
18.98713650073955
 10
107.0689618193372
 20
20.62079167833963
 10
103.6300307739373
 20
20.62079167833946
 10
103.4220438767252
 20
20.61001650589151
 10
103.2153256691723
 20
20.58455581615539
 10
103.0108928409372
 20
20.54475719533946
 10
102.8175480127372
 20
20.48827443653943
 10
102.6307204259371
 20
20.41658478113942
 10
102.4595602874627
 20
20.33055719465943
 10
102.2939962869372
 20
20.23410202193941
 10
102.1419273209372
 20
20.12548133193945
 10
102.0062296653341
 20
20.00617236604341
 10
101.8812376649373
 20
19.87565374493937
 10
101.7726169749371
 20
19.73661926173935
 10
101.6813755953372
 20
19.58889512333951
 10
101.6096859399372
 20
19.4346537435394
 10
101.5553755949372
 20
19.27389512233941
 10
101.5227893879373
 20
19.10661925973937
 10
101.5119273189373
 20
18.93065374193929
 10
101.5227893879373
 20
18.75903305173943
 10
101.5553755949373
 20
18.59175718913945
 10
101.6075135261374
 20
18.43099856793947
 10
101.6770307677373
 20
18.27675718813941
 10
101.7688717335461
 20
18.12799029111551
 10
101.8742511821565
 20
17.98852132515537
 10
101.9922566997726
 20
17.85947994543551
 10
102.1245480105373
 20
17.74017097953947
 10
102.2766691144685
 20
17.63215856540336
 10
102.4352031839373
 20
17.53379166853938
 10
102.6068238741373
 20
17.44906753033945
 10
102.7893066333374
 20
17.37737787493944
 10
102.9835378063677
 20
17.32332821959545
 10
103.1803411173373
 20
17.27961925393941
 10
103.3888928421373
 20
17.25355028833945
 10
103.5996169807373
 20
17.24486063313946
 10
105.5026514695373
 20
17.24486063313958
 10
104.6163066391373
 20
18.11817098073953
 10
103.5996169807373
 20
18.11817098073948
 10
103.5329499460428
 20
18.12191827367877
 10
103.4320022215845
 20
18.13190063595544
 10
103.3118677384445
 20
18.15336408429948
 10
103.194748565659
 20
18.18768822233937
 10
103.0932533929229
 20
18.22861649833146
 10
103.0371182203308
 20
18.2567709811795
 10
102.9834335305053
 20
18.28935718817956
 10
102.8508728404292
 20
18.3886799471154
 10
102.7772714608853
 20
18.45871856802745
 10
102.7222051158829
 20
18.52658477513933
 10
102.6734995984868
 20
18.59914339605939
 10
102.6341354604308
 20
18.67630753423538
 10
102.6047122879237
 20
18.75772960345938
 10
102.5840135292372
 20
18.84488684511547
 10
102.5764969774892
 20
18.93421650057132
 10
102.5778525637005
 20
18.99652132835541
 10
102.5838571154437
 20
19.05865236303532
 10
102.5960139430685
 20
19.12182615633946
 10
102.6142274603677
 20
19.18352270825943
 10
102.6578755984371
 20
19.28223719133132
 10
102.6994034606381
 20
19.35010339844336
 10
102.7624816677348
 20
19.42813650213941
 10
102.8918836080996
 20
19.55465923919308
 10
102.9511514614373
 20
19.59471719232346
 10
103.0274466340933
 20
19.63903443384339
 10
103.111466910222
 20
19.68117926156344
 10
103.2280038761092
 20
19.72401926169948
 97
        0
 92
        7
 72
     0
 73
     1
 93
       57
 10
107.9063838909613
 20
19.73253512379568
 10
108.0378583741373
 20
19.77250753771568
 10
108.1725480297372
 20
19.79961926193971
 10
108.3159273405372
 20
19.80830891713964
 10
109.5563756203372
 20
19.8083089171397
 10
109.5563756203372
 20
20.63382616113973
 10
108.3224445819372
 20
20.63382616113961
 10
108.1117204433373
 20
20.62513650593962
 10
107.9053411323373
 20
20.59689512653961
 10
107.7076514765373
 20
20.55561926433967
 10
107.5186514759373
 20
20.50130891933964
 10
107.3339963029373
 20
20.42961926393963
 10
107.167589405857
 20
20.34698064298755
 10
107.0087685777667
 20
20.25052547026752
 10
106.8586895428077
 20
20.14103581474757
 10
106.7241302320358
 20
20.02181374540362
 10
106.6040652661372
 20
19.89303305533957
 10
106.4997894037372
 20
19.75399857213961
 10
106.4150652655372
 20
19.60844684753954
 10
106.3433756101372
 20
19.45420546773948
 10
106.2934100927373
 20
19.29344684653966
 10
106.2608238857373
 20
19.12617098393969
 10
106.2499618167373
 20
18.9523778799396
 10
106.2608238857373
 20
18.77858477593958
 10
106.2934100927373
 20
18.6113089133396
 10
106.3455480239372
 20
18.45055029213949
 10
106.4172376793374
 20
18.29413649853961
 10
106.5041342313374
 20
18.14641236013961
 10
106.6129808523725
 20
18.00685649762761
 10
106.732837266546
 20
17.87651166962763
 10
106.8692648531861
 20
17.75520408303561
 10
107.0168238881373
 20
17.64458477233955
 10
107.1775825093373
 20
17.54682615133953
 10
107.3513756133372
 20
17.4621020131396
 10
107.5360307863374
 20
17.38823994393971
 10
107.7272032007373
 20
17.33175718513962
 10
107.9270652703373
 20
17.28830890913968
 10
108.1334445813373
 20
17.26441235733955
 10
108.3463411337374
 20
17.25572270213962
 10
109.5563756203373
 20
17.25572270213968
 10
109.5563756203373
 20
18.11382615313965
 10
108.3224445819372
 20
18.1138261531396
 10
108.1887976849613
 20
18.12416684282755
 10
108.0565411328174
 20
18.14615167048367
 10
107.9359287186413
 20
18.18047580852362
 10
107.8199218217214
 20
18.22844270522768
 10
107.7102583730973
 20
18.28935718817968
 10
107.6131949245133
 20
18.35696270563557
 10
107.5257769932013
 20
18.43673374037161
 10
107.4513066481373
 20
18.52223994753962
 10
109.5563756203373
 20
18.52223994753967
 10
109.5563756203373
 20
19.34992960533969
 10
107.4143756135372
 20
19.34992960533958
 10
107.4838928551372
 20
19.4476882263396
 10
107.5707894071372
 20
19.53675719213953
 10
107.6719369936653
 20
19.61305236479563
 10
107.7793411319372
 20
19.6801365029396
 97
        0
 92
        7
 72
     0
 73
     1
 93
        6
 10
109.7866514831373
 20
20.62079167833974
 10
109.7866514831373
 20
17.25137787453968
 10
112.0242376971374
 20
17.2513778745398
 10
112.0242376971373
 20
18.11817098073982
 10
110.8098583829373
 20
18.11817098073982
 10
110.8098583829372
 20
20.62079167833974
 97
        0
 92
        7
 72
     0
 73
     1
 93
        8
 10
111.0423066595372
 20
20.62079167833974
 10
111.0423066595372
 20
19.79527443433972
 10
112.2762376979373
 20
19.79527443433983
 10
112.2762376979374
 20
17.24486063313981
 10
113.3016170115373
 20
17.24486063313981
 10
113.3016170115372
 20
19.79527443433977
 10
114.5442377051372
 20
19.79527443433983
 10
114.5442377051372
 20
20.62079167833986
 97
        0
 75
     0
 76
     1
 47
0.0142553043587597
 98
        5
 10
100.9295431720125
 20
20.17834200875029
 10
103.1970403853551
 20
20.0357890237446
 10
107.6892521175566
 20
20.09281019629242
 10
110.4131012013882
 20
20.33515042098486
 10
111.824939183615
 20
20.23536328857148
450
        0
451
        0
460
0.0
461
0.0
452
        0
462
0.0
453
        0
470

  0
LWPOLYLINE
  5
18EE
330
1888
100
AcDbEntity
  8
LW 3500-39-00
 62
     1
100
AcDbPolyline
 90
        8
 70
     1
 43
0.0
 10
113.3016170115372
 20
19.79527443433977
 10
113.3016170115373
 20
17.24486063313981
 10
112.2762376979374
 20
17.24486063313981
 10
112.2762376979373
 20
19.79527443433983
 10
111.0423066595372
 20
19.79527443433972
 10
111.0423066595372
 20
20.62079167833974
 10
114.5442377051372
 20
20.62079167833986
 10
114.5442377051372
 20
19.79527443433983
  0
LWPOLYLINE
  5
18EF
330
1888
100
AcDbEntity
  8
LW 3500-39-00
 62
     1
100
AcDbPolyline
 90
       73
 70
     1
 43
0.0
 10
103.5996169807373
 20
18.11817098073948
 10
104.6163066391373
 20
18.11817098073953
 10
105.5026514695373
 20
17.24486063313958
 10
103.5996169807373
 20
17.24486063313941
 10
103.3888928421373
 20
17.25355028833945
 10
103.1803411173373
 20
17.27961925393947
 10
102.9835378063677
 20
17.32332821959545
 10
102.7893066333374
 20
17.37737787493944
 10
102.6068238741373
 20
17.44906753033945
 10
102.4352031839373
 20
17.53379166853943
 10
102.2766691144686
 20
17.63215856540347
 10
102.1245480105373
 20
17.74017097953947
 10
101.9922566997725
 20
17.85947994543539
 10
101.8742511821565
 20
17.98852132515537
 10
101.7688717335461
 20
18.12799029111545
 10
101.6770307677373
 20
18.27675718813941
 10
101.6075135261374
 20
18.43099856793947
 10
101.5553755949373
 20
18.59175718913945
 10
101.5227893879373
 20
18.75903305173943
 10
101.5119273189373
 20
18.93065374193941
 10
101.5227893879373
 20
19.10661925973937
 10
101.5553755949372
 20
19.27389512233941
 10
101.6096859399373
 20
19.4346537435394
 10
101.6813755953372
 20
19.58889512333945
 10
101.7726169749372
 20
19.7366192617394
 10
101.8812376649373
 20
19.87565374493937
 10
102.0062296653341
 20
20.00617236604347
 10
102.1419273209371
 20
20.1254813319394
 10
102.2939962869372
 20
20.23410202193941
 10
102.4595602874628
 20
20.33055719465938
 10
102.6307204259371
 20
20.41658478113936
 10
102.8175480127372
 20
20.48827443653943
 10
103.0108928409372
 20
20.54475719533952
 10
103.2153256691724
 20
20.58455581615544
 10
103.4220438767252
 20
20.61001650589151
 10
103.6300307739371
 20
20.62079167833946
 10
107.0689618193372
 20
20.62079167833963
 10
105.3875135381373
 20
18.98713650073955
 10
107.1015480263372
 20
17.24486063313958
 10
105.7828928497374
 20
17.24486063313958
 10
104.0167204303372
 20
18.96323994893959
 10
104.8639618123372
 20
19.77789512393951
 10
103.5952721531372
 20
19.77789512393946
 10
103.4712099458468
 20
19.77268133081941
 10
103.348346910974
 20
19.75460684800339
 10
103.2280038761092
 20
19.72401926169948
 10
103.111466910222
 20
19.68117926156338
 10
103.0274466340932
 20
19.63903443384345
 10
102.9511514614372
 20
19.59471719232346
 10
102.910909668206
 20
19.56751857154745
 10
102.8733964267077
 20
19.53658339903546
 10
102.7624816677348
 20
19.42813650213941
 10
102.6994034606381
 20
19.35010339844336
 10
102.6578755984372
 20
19.28223719133143
 10
102.6142274603677
 20
19.18352270825943
 10
102.5960139430685
 20
19.12182615633946
 10
102.5838571154437
 20
19.05865236303543
 10
102.5778525637005
 20
18.99652132835547
 10
102.5764969774893
 20
18.93421650057144
 10
102.5840135292372
 20
18.84488684511547
 10
102.6047122879238
 20
18.75772960345944
 10
102.6341354604309
 20
18.67630753423543
 10
102.6734995984868
 20
18.59914339605939
 10
102.7222051158828
 20
18.52658477513944
 10
102.7772714608853
 20
18.45871856802745
 10
102.8508728404292
 20
18.3886799471154
 10
102.9834335305054
 20
18.28935718817951
 10
103.0371182203309
 20
18.25677098117944
 10
103.0932533929229
 20
18.22861649833146
 10
103.194748565659
 20
18.18768822233937
 10
103.3118677384445
 20
18.15336408429948
 10
103.4320022215845
 20
18.13190063595544
 10
103.5329499460429
 20
18.12191827367883
  0
LWPOLYLINE
  5
18F0
330
1888
100
AcDbEntity
  8
LW 3500-39-00
 62
     1
100
AcDbPolyline
 90
       76
 70
     1
 43
0.0
 10
102.3894537306711
 20
20.45992168631039
 10
102.2140667773063
 20
20.35774380448868
 10
102.0503979812243
 20
20.24083752157304
 10
101.9043780747629
 20
20.11245295985964
 10
101.7698999995501
 20
19.97202882959709
 10
101.651741875319
 20
19.82078643058122
 10
101.6198830459461
 20
19.76920546873941
 10
100.5299962813372
 20
19.76920546873941
 10
100.3866169705372
 20
19.76268822733931
 10
100.2497549011372
 20
19.74313650313934
 10
100.127308969714
 20
19.71107167545131
 10
100.0086169693372
 20
19.66710202013939
 10
99.90601821039092
 20
19.60879443374733
 10
99.81092731353726
 20
19.5389296059393
 10
99.72837558913717
 20
19.45637788153931
 10
99.65885834753727
 20
19.36079167433934
 10
101.4294968651566
 20
19.36079167433934
 10
101.4128981624816
 20
19.31165951442108
 10
101.3765924408062
 20
19.12529014315447
 10
101.364570768377
 20
18.93053904979956
 10
101.3766144211587
 20
18.74024933584883
 10
101.4127262291232
 20
18.55487538829777
 10
101.4233106963961
 20
18.52223994753939
 10
99.69578938213738
 20
18.52223994753933
 10
99.76747903753732
 20
18.43751580933929
 10
99.85766027920295
 20
18.35956960219533
 10
99.95580993468696
 20
18.29196408473933
 10
100.0607549005374
 20
18.23548132593941
 10
100.1758928319374
 20
18.18986063613937
 10
100.3040652461372
 20
18.15692684293134
 10
100.4348184879318
 20
18.1365930497634
 10
100.5669273159373
 20
18.12903304973935
 10
101.5953903828576
 20
18.1290330497394
 10
101.6473616143063
 20
18.04484840763513
 10
101.7610669690497
 20
17.89436016292251
 10
101.888502862534
 20
17.75500647969397
 10
102.0324152309042
 20
17.62521688315422
 10
102.1952481256648
 20
17.50959864472867
 10
102.363714531835
 20
17.40506895179709
 10
102.5472786756374
 20
17.31444867827434
 10
102.7078225396899
 20
17.25137787453945
 10
100.5886514539373
 20
17.25137787453929
 10
100.3779273153373
 20
17.26006752973933
 10
100.1693755905373
 20
17.28613649533935
 10
99.96951352093731
 20
17.32958477133934
 10
99.77834110653738
 20
17.38606753013925
 10
99.59769186458448
 20
17.45975580623531
 10
99.42206524333744
 20
17.54465373753942
 10
99.26130662213735
 20
17.64241235853927
 10
99.11396222166969
 20
17.75285787613131
 10
98.97776317296132
 20
17.87399166961927
 10
98.85506524153733
 20
18.0052054631393
 10
98.74861696533731
 20
18.14641236013926
 10
98.65954799953739
 20
18.29413649853933
 10
98.59003075793737
 20
18.45055029213932
 10
98.53572041293729
 20
18.61130891333926
 10
98.50530661973733
 20
18.77858477593935
 10
98.49444455073729
 20
18.95237787993926
 10
98.50313420593716
 20
19.12617098393923
 10
98.53137558533729
 20
19.29127443273933
 10
98.58134110273727
 20
19.45203305393926
 10
98.64434110293723
 20
19.60627443373926
 10
98.72689282733723
 20
19.75182615833933
 10
98.82691075868933
 20
19.88903581394732
 10
98.9381757107666
 20
20.01729512469927
 10
99.06361696633723
 20
20.13634340093927
 10
99.20632456679028
 20
20.24305236679532
 10
99.35689282933731
 20
20.33837788433936
 10
99.52416869193724
 20
20.4209296087393
 10
99.70013420973726
 20
20.49044685033937
 10
99.88478938273727
 20
20.54475719533929
 10
100.0803066247372
 20
20.5860330575394
 10
100.2823411081372
 20
20.61210202313936
 10
100.4952376605372
 20
20.62079167833934
 10
102.7523755987373
 20
20.62079167833951
 10
102.5712066632715
 20
20.55127336589328
  0
LWPOLYLINE
  5
18F1
330
1888
100
AcDbEntity
  8
LW 3500-39-00
 62
     1
100
AcDbPolyline
 90
        6
 70
     1
 43
0.0
 10
112.0242376971374
 20
17.2513778745398
 10
109.7866514831373
 20
17.25137787453968
 10
109.7866514831373
 20
20.62079167833974
 10
110.8098583829372
 20
20.62079167833974
 10
110.8098583829373
 20
18.11817098073982
 10
112.0242376971373
 20
18.11817098073982
  0
LWPOLYLINE
  5
18F2
330
1888
100
AcDbEntity
  8
LW 3500-39-00
 62
     1
100
AcDbPolyline
 90
       57
 70
     1
 43
0.0
 10
106.732837266546
 20
17.87651166962763
 10
106.6129808523725
 20
18.00685649762755
 10
106.5041342313372
 20
18.14641236013955
 10
106.4172376793374
 20
18.29413649853961
 10
106.3455480239372
 20
18.45055029213949
 10
106.2934100927373
 20
18.6113089133396
 10
106.2608238857373
 20
18.77858477593958
 10
106.2499618167373
 20
18.9523778799396
 10
106.2608238857373
 20
19.12617098393963
 10
106.2934100927373
 20
19.29344684653955
 10
106.3433756101372
 20
19.45420546773948
 10
106.4150652655372
 20
19.6084468475396
 10
106.4997894037371
 20
19.75399857213949
 10
106.6040652661372
 20
19.89303305533963
 10
106.7241302320355
 20
20.02181374540356
 10
106.8586895428077
 20
20.14103581474757
 10
107.0087685777669
 20
20.25052547026758
 10
107.1675894058573
 20
20.34698064298766
 10
107.3339963029373
 20
20.42961926393963
 10
107.5186514759372
 20
20.50130891933958
 10
107.7076514765373
 20
20.55561926433967
 10
107.9053411323373
 20
20.59689512653961
 10
108.1117204433373
 20
20.62513650593962
 10
108.3224445819372
 20
20.63382616113961
 10
109.5563756203372
 20
20.63382616113973
 10
109.5563756203372
 20
19.8083089171397
 10
108.3159273405373
 20
19.80830891713964
 10
108.1725480297373
 20
19.79961926193965
 10
108.0378583741373
 20
19.77250753771568
 10
107.9063838909612
 20
19.73253512379563
 10
107.7793411319372
 20
19.6801365029396
 10
107.6719369936653
 20
19.61305236479563
 10
107.5707894071372
 20
19.53675719213964
 10
107.4838928551372
 20
19.4476882263396
 10
107.4143756135372
 20
19.34992960533958
 10
109.5563756203373
 20
19.34992960533969
 10
109.5563756203373
 20
18.52223994753967
 10
107.4513066481373
 20
18.52223994753962
 10
107.5257769932013
 20
18.43673374037161
 10
107.6131949245133
 20
18.35696270563557
 10
107.7102583730973
 20
18.28935718817968
 10
107.8199218217214
 20
18.22844270522768
 10
107.9359287186413
 20
18.18047580852362
 10
108.0565411328174
 20
18.14615167048367
 10
108.1887976849613
 20
18.12416684282755
 10
108.3224445819372
 20
18.1138261531396
 10
109.5563756203373
 20
18.11382615313965
 10
109.5563756203373
 20
17.25572270213968
 10
108.3463411337374
 20
17.25572270213962
 10
108.1334445813373
 20
17.26441235733955
 10
107.9270652703373
 20
17.28830890913963
 10
107.7272032007373
 20
17.33175718513962
 10
107.5360307863374
 20
17.38823994393971
 10
107.3513756133372
 20
17.4621020131396
 10
107.1775825093373
 20
17.54682615133964
 10
107.0168238881373
 20
17.64458477233955
 10
106.8692648531861
 20
17.75520408303561
  0
ENDBLK
  5
188A
330
1888
100
AcDbEntity
  8
0
100
AcDbBlockEnd
  0
BLOCK
  5
18F5
330
18F4
100
AcDbEntity
  8
0
100
AcDbBlockBegin
  2
LW 3500-39-00_d
 70
     0
 10
0.0
 20
0.0
 30
0.0
  3
LW 3500-39-00_d
  1

  0
LINE
  5
18F7
330
18F4
100
AcDbEntity
  8
LW 3500-39-00
100
AcDbLine
 10
-14.00000000000978
 20
32.99999999999585
 30
0.0
 11
-13.99999999999022
 21
-33.00000000000409
 31
0.0
  0
ARC
  5
18F8
330
18F4
100
AcDbEntity
  8
LW 3500-39-00
100
AcDbCircle
 10
-145.0000000000216
 20
-0.0000000000429736
 30
0.0
 40
35.0
100
AcDbArc
 50
90.00000000001953
 51
270.0000000000196
  0
LINE
  5
18F9
330
18F4
100
AcDbEntity
  8
LW 3500-39-00
100
AcDbLine
 10
-145.000000000032
 20
34.99999999995703
 30
0.0
 11
-16.00000000003206
 21
34.99999999999523
 31
0.0
  0
LINE
  5
18FA
330
18F4
100
AcDbEntity
  8
LW 3500-39-00
100
AcDbLine
 10
-16.00000000001125
 20
-35.00000000000478
 30
0.0
 11
-145.0000000000112
 21
-35.00000000004297
 31
0.0
  0
LINE
  5
18FB
330
18F4
100
AcDbEntity
  8
LW 3500-39-00
100
AcDbLine
 10
-16.00000000003206
 20
34.99999999999523
 30
0.0
 11
-12.00000000003081
 21
34.99999999999648
 31
0.0
  0
LINE
  5
18FC
330
18F4
100
AcDbEntity
  8
LW 3500-39-00
100
AcDbLine
 10
-12.00000000001012
 20
-35.00000000000353
 30
0.0
 11
-16.00000000001125
 21
-35.00000000000478
 31
0.0
  0
ARC
  5
18FD
330
18F4
100
AcDbEntity
  8
LW 3500-39-00
100
AcDbCircle
 10
-12.00000000000978
 20
32.99999999999642
 30
0.0
 40
2.00000000000001
100
AcDbArc
 50
90.00000000001953
 51
180.0
  0
ARC
  5
18FE
330
18F4
100
AcDbEntity
  8
LW 3500-39-00
100
AcDbCircle
 10
-11.99999999999022
 20
-33.00000000000352
 30
0.0
 40
1.999999999999996
100
AcDbArc
 50
180.0
 51
270.0000000000196
  0
LINE
  5
18FF
330
18F4
100
AcDbEntity
  8
LW 3500-39-00
100
AcDbLine
 10
-4.999999999989654
 20
-35.00000000000148
 30
0.0
 11
-5.000000000010345
 21
34.99999999999853
 31
0.0
  0
LINE
  5
1900
330
18F4
100
AcDbEntity
  8
LW 3500-39-00
100
AcDbLine
 10
-12.00000000001034
 20
34.99999999999648
 30
0.0
 11
-5.000000000010345
 21
34.99999999999853
 31
0.0
  0
LINE
  5
1901
330
18F4
100
AcDbEntity
  8
LW 3500-39-00
100
AcDbLine
 10
-4.999999999989654
 20
-35.00000000000148
 30
0.0
 11
-11.99999999998954
 21
-35.00000000000353
 31
0.0
  0
LINE
  5
1902
330
18F4
100
AcDbEntity
  8
LW 3500-39-00
100
AcDbLine
 10
-19.00000000000659
 20
22.49999999999443
 30
0.0
 11
-18.99999999999329
 21
-22.50000000000557
 31
0.0
  0
LINE
  5
1903
330
18F4
100
AcDbEntity
  8
LW 3500-39-00
100
AcDbLine
 10
-14.00000000000659
 20
22.49999999999591
 30
0.0
 11
-19.00000000000659
 21
22.49999999999443
 31
0.0
  0
LINE
  5
1904
330
18F4
100
AcDbEntity
  8
LW 3500-39-00
100
AcDbLine
 10
-13.99999999999329
 20
-22.50000000000409
 30
0.0
 11
-18.99999999999329
 21
-22.50000000000557
 31
0.0
  0
LINE
  5
1905
330
18F4
100
AcDbEntity
  8
LW 3500-39-00
100
AcDbLine
 10
0.0000000000067075
 20
-22.5
 30
0.0
 11
-0.0000000000067075
 21
22.5
 31
0.0
  0
LINE
  5
1906
330
18F4
100
AcDbEntity
  8
LW 3500-39-00
100
AcDbLine
 10
-4.999999999993292
 20
-22.50000000000148
 30
0.0
 11
0.0000000000067075
 21
-22.5
 31
0.0
  0
LINE
  5
1907
330
18F4
100
AcDbEntity
  8
LW 3500-39-00
100
AcDbLine
 10
-5.000000000006707
 20
22.49999999999852
 30
0.0
 11
-0.0000000000067075
 21
22.5
 31
0.0
  0
CIRCLE
  5
1908
330
18F4
100
AcDbEntity
  8
LW 3500-39-00
100
AcDbCircle
 10
-145.0000000000151
 20
-0.0000000000429736
 30
0.0
 40
17.49999999999999
  0
CIRCLE
  5
1909
330
18F4
100
AcDbEntity
  8
LW 3500-39-00
100
AcDbCircle
 10
-145.0000000000143
 20
-0.0000000000429736
 30
0.0
 40
14.49999999999999
  0
CIRCLE
  5
190A
330
18F4
100
AcDbEntity
  8
LW 3500-39-00
100
AcDbCircle
 10
-65.00000000001512
 20
-0.0000000000192131
 30
0.0
 40
17.49999999999999
  0
CIRCLE
  5
190B
330
18F4
100
AcDbEntity
  8
LW 3500-39-00
100
AcDbCircle
 10
-65.00000000001432
 20
-0.0000000000192131
 30
0.0
 40
14.49999999999999
  0
POLYLINE
  5
190C
330
18F4
100
AcDbEntity
  8
LW 3500-39-00
100
AcDb2dPolyline
 66
     1
 10
0.0
 20
0.0
 30
0.0
 70
   128
  0
VERTEX
  5
190D
330
190C
100
AcDbEntity
  8
LW 3500-39-00
100
AcDbVertex
100
AcDb2dVertex
 10
-36.99999952315761
 20
-0.0000000000109139
 30
0.0
  0
VERTEX
  5
190E
330
190C
100
AcDbEntity
  8
LW 3500-39-00
100
AcDbVertex
100
AcDb2dVertex
 10
-36.98318386077358
 20
-0.2554797381271783
 30
0.0
  0
VERTEX
  5
190F
330
190C
100
AcDbEntity
  8
LW 3500-39-00
100
AcDbVertex
100
AcDb2dVertex
 10
-36.93250799178543
 20
-0.513535626243538
 30
0.0
  0
VERTEX
  5
1910
330
190C
100
AcDbEntity
  8
LW 3500-39-00
100
AcDbVertex
100
AcDb2dVertex
 10
-36.84763216971806
 20
-0.7656736672033731
 30
0.0
  0
VERTEX
  5
1911
330
190C
100
AcDbEntity
  8
LW 3500-39-00
100
AcDbVertex
100
AcDb2dVertex
 10
-36.72932291030338
 20
-1.003869771968254
 30
0.0
  0
VERTEX
  5
1912
330
190C
100
AcDbEntity
  8
LW 3500-39-00
100
AcDbVertex
100
AcDb2dVertex
 10
-36.58275866507927
 20
-1.221954673539471
 30
0.0
  0
VERTEX
  5
1913
330
190C
100
AcDbEntity
  8
LW 3500-39-00
100
AcDbVertex
100
AcDb2dVertex
 10
-36.4142110347691
 20
-1.414216607819867
 30
0.0
  0
VERTEX
  5
1914
330
190C
100
AcDbEntity
  8
LW 3500-39-00
100
AcDbVertex
100
AcDb2dVertex
 10
-36.22194790839581
 20
-1.58276334406014
 30
0.0
  0
VERTEX
  5
1915
330
190C
100
AcDbEntity
  8
LW 3500-39-00
100
AcDbVertex
100
AcDb2dVertex
 10
-36.00386404990582
 20
-1.729326844226022
 30
0.0
  0
VERTEX
  5
1916
330
190C
100
AcDbEntity
  8
LW 3500-39-00
100
AcDbVertex
100
AcDb2dVertex
 10
-35.76566958426861
 20
-1.847633719454847
 30
0.0
  0
VERTEX
  5
1917
330
190C
100
AcDbEntity
  8
LW 3500-39-00
100
AcDbVertex
100
AcDb2dVertex
 10
-35.51353359221832
 20
-1.932508051405932
 30
0.0
  0
VERTEX
  5
1918
330
190C
100
AcDbEntity
  8
LW 3500-39-00
100
AcDbVertex
100
AcDb2dVertex
 10
-35.25547885894196
 20
-1.983183622370688
 30
0.0
  0
VERTEX
  5
1919
330
190C
100
AcDbEntity
  8
LW 3500-39-00
100
AcDbVertex
100
AcDb2dVertex
 10
-35.00000023841278
 20
-2.000000029812667
 30
0.0
  0
VERTEX
  5
191A
330
190C
100
AcDbEntity
  8
LW 3500-39-00
100
AcDbVertex
100
AcDb2dVertex
 10
-34.74452042579071
 20
-1.983183622370518
 30
0.0
  0
VERTEX
  5
191B
330
190C
100
AcDbEntity
  8
LW 3500-39-00
100
AcDbVertex
100
AcDb2dVertex
 10
-34.48646688460724
 20
-1.932508051405648
 30
0.0
  0
VERTEX
  5
191C
330
190C
100
AcDbEntity
  8
LW 3500-39-00
100
AcDbVertex
100
AcDb2dVertex
 10
-34.23433089255718
 20
-1.847633719454393
 30
0.0
  0
VERTEX
  5
191D
330
190C
100
AcDbEntity
  8
LW 3500-39-00
100
AcDbVertex
100
AcDb2dVertex
 10
-33.99613642691998
 20
-1.729326844225454
 30
0.0
  0
VERTEX
  5
191E
330
190C
100
AcDbEntity
  8
LW 3500-39-00
100
AcDbVertex
100
AcDb2dVertex
 10
-33.77805137633709
 20
-1.582763344059458
 30
0.0
  0
VERTEX
  5
191F
330
190C
100
AcDbEntity
  8
LW 3500-39-00
100
AcDbVertex
100
AcDb2dVertex
 10
-33.5857894420567
 20
-1.414216607819014
 30
0.0
  0
VERTEX
  5
1920
330
190C
100
AcDbEntity
  8
LW 3500-39-00
100
AcDbVertex
100
AcDb2dVertex
 10
-33.41724181174675
 20
-1.221954673538562
 30
0.0
  0
VERTEX
  5
1921
330
190C
100
AcDbEntity
  8
LW 3500-39-00
100
AcDbVertex
100
AcDb2dVertex
 10
-33.27067637442997
 20
-1.003869771967288
 30
0.0
  0
VERTEX
  5
1922
330
190C
100
AcDbEntity
  8
LW 3500-39-00
100
AcDbVertex
100
AcDb2dVertex
 10
-33.15236830710819
 20
-0.7656736672022362
 30
0.0
  0
VERTEX
  5
1923
330
190C
100
AcDbEntity
  8
LW 3500-39-00
100
AcDbVertex
100
AcDb2dVertex
 10
-33.06749248504104
 20
-0.5135356262424012
 30
0.0
  0
VERTEX
  5
1924
330
190C
100
AcDbEntity
  8
LW 3500-39-00
100
AcDbVertex
100
AcDb2dVertex
 10
-33.01681661605312
 20
-0.2554797381260414
 30
0.0
  0
VERTEX
  5
1925
330
190C
100
AcDbEntity
  8
LW 3500-39-00
100
AcDbVertex
100
AcDb2dVertex
 10
-32.99999976157619
 20
-0.0000000000097202
 30
0.0
  0
SEQEND
  5
1926
330
190C
100
AcDbEntity
  8
LW 3500-39-00
  0
POLYLINE
  5
1927
330
18F4
100
AcDbEntity
  8
LW 3500-39-00
100
AcDb2dPolyline
 66
     1
 10
0.0
 20
0.0
 30
0.0
 70
   128
  0
VERTEX
  5
1928
330
1927
100
AcDbEntity
  8
LW 3500-39-00
100
AcDbVertex
100
AcDb2dVertex
 10
-32.99999976157619
 20
-0.0000000000097202
 30
0.0
  0
VERTEX
  5
1929
330
1927
100
AcDbEntity
  8
LW 3500-39-00
100
AcDbVertex
100
AcDb2dVertex
 10
-33.01681661605324
 20
0.2554797381064873
 30
0.0
  0
VERTEX
  5
192A
330
1927
100
AcDbEntity
  8
LW 3500-39-00
100
AcDbVertex
100
AcDb2dVertex
 10
-33.06749248504127
 20
0.513535626222847
 30
0.0
  0
VERTEX
  5
192B
330
1927
100
AcDbEntity
  8
LW 3500-39-00
100
AcDbVertex
100
AcDb2dVertex
 10
-33.15236830710865
 20
0.7656736671826821
 30
0.0
  0
VERTEX
  5
192C
330
1927
100
AcDbEntity
  8
LW 3500-39-00
100
AcDbVertex
100
AcDb2dVertex
 10
-33.27067637443054
 20
1.003869771947506
 30
0.0
  0
VERTEX
  5
192D
330
1927
100
AcDbEntity
  8
LW 3500-39-00
100
AcDbVertex
100
AcDb2dVertex
 10
-33.41724181174743
 20
1.22195467351878
 30
0.0
  0
VERTEX
  5
192E
330
1927
100
AcDbEntity
  8
LW 3500-39-00
100
AcDbVertex
100
AcDb2dVertex
 10
-33.5857894420576
 20
1.414216607799119
 30
0.0
  0
VERTEX
  5
192F
330
1927
100
AcDbEntity
  8
LW 3500-39-00
100
AcDbVertex
100
AcDb2dVertex
 10
-33.778051376338
 20
1.582763344039449
 30
0.0
  0
VERTEX
  5
1930
330
1927
100
AcDbEntity
  8
LW 3500-39-00
100
AcDbVertex
100
AcDb2dVertex
 10
-33.996136426921
 20
1.729326844205331
 30
0.0
  0
VERTEX
  5
1931
330
1927
100
AcDbEntity
  8
LW 3500-39-00
100
AcDbVertex
100
AcDb2dVertex
 10
-34.23433089255821
 20
1.847633719434156
 30
0.0
  0
VERTEX
  5
1932
330
1927
100
AcDbEntity
  8
LW 3500-39-00
100
AcDbVertex
100
AcDb2dVertex
 10
-34.48646688460849
 20
1.932508051385184
 30
0.0
  0
VERTEX
  5
1933
330
1927
100
AcDbEntity
  8
LW 3500-39-00
100
AcDbVertex
100
AcDb2dVertex
 10
-34.74452042579196
 20
1.98318362234994
 30
0.0
  0
VERTEX
  5
1934
330
1927
100
AcDbEntity
  8
LW 3500-39-00
100
AcDbVertex
100
AcDb2dVertex
 10
-35.00000023841403
 20
2.000000029791976
 30
0.0
  0
VERTEX
  5
1935
330
1927
100
AcDbEntity
  8
LW 3500-39-00
100
AcDbVertex
100
AcDb2dVertex
 10
-35.25547885894321
 20
1.98318362234977
 30
0.0
  0
VERTEX
  5
1936
330
1927
100
AcDbEntity
  8
LW 3500-39-00
100
AcDbVertex
100
AcDb2dVertex
 10
-35.51353359221958
 20
1.9325080513849
 30
0.0
  0
VERTEX
  5
1937
330
1927
100
AcDbEntity
  8
LW 3500-39-00
100
AcDbVertex
100
AcDb2dVertex
 10
-35.76566958426963
 20
1.847633719433702
 30
0.0
  0
VERTEX
  5
1938
330
1927
100
AcDbEntity
  8
LW 3500-39-00
100
AcDbVertex
100
AcDb2dVertex
 10
-36.00386404990684
 20
1.729326844204763
 30
0.0
  0
VERTEX
  5
1939
330
1927
100
AcDbEntity
  8
LW 3500-39-00
100
AcDbVertex
100
AcDb2dVertex
 10
-36.22194790839671
 20
1.582763344038767
 30
0.0
  0
VERTEX
  5
193A
330
1927
100
AcDbEntity
  8
LW 3500-39-00
100
AcDbVertex
100
AcDb2dVertex
 10
-36.41421103477
 20
1.414216607798266
 30
0.0
  0
VERTEX
  5
193B
330
1927
100
AcDbEntity
  8
LW 3500-39-00
100
AcDbVertex
100
AcDb2dVertex
 10
-36.58275866507995
 20
1.221954673517871
 30
0.0
  0
VERTEX
  5
193C
330
1927
100
AcDbEntity
  8
LW 3500-39-00
100
AcDbVertex
100
AcDb2dVertex
 10
-36.72932291030395
 20
1.00386977194654
 30
0.0
  0
VERTEX
  5
193D
330
1927
100
AcDbEntity
  8
LW 3500-39-00
100
AcDbVertex
100
AcDb2dVertex
 10
-36.84763216971851
 20
0.7656736671815452
 30
0.0
  0
VERTEX
  5
193E
330
1927
100
AcDbEntity
  8
LW 3500-39-00
100
AcDbVertex
100
AcDb2dVertex
 10
-36.93250799178566
 20
0.5135356262217102
 30
0.0
  0
VERTEX
  5
193F
330
1927
100
AcDbEntity
  8
LW 3500-39-00
100
AcDbVertex
100
AcDb2dVertex
 10
-36.9831838607737
 20
0.2554797381053504
 30
0.0
  0
VERTEX
  5
1940
330
1927
100
AcDbEntity
  8
LW 3500-39-00
100
AcDbVertex
100
AcDb2dVertex
 10
-36.99999952315761
 20
-0.0000000000109139
 30
0.0
  0
SEQEND
  5
1941
330
1927
100
AcDbEntity
  8
LW 3500-39-00
  0
LINE
  5
1942
330
18F4
100
AcDbEntity
  8
LW 3500-39-00
100
AcDbLine
 10
-38.99999999999477
 20
-17.50000000001148
 30
0.0
 11
-39.00000000000512
 21
17.49999999998852
 31
0.0
  0
LINE
  5
1943
330
18F4
100
AcDbEntity
  8
LW 3500-39-00
100
AcDbLine
 10
-41.99999999999556
 20
-14.50000000001245
 30
0.0
 11
-42.00000000000431
 21
14.49999999998761
 31
0.0
  0
LINE
  5
1944
330
18F4
100
AcDbEntity
  8
LW 3500-39-00
100
AcDbLine
 10
-19.00000000000511
 20
17.49999999999443
 30
0.0
 11
-39.00000000000512
 21
17.4999999999884
 31
0.0
  0
LINE
  5
1945
330
18F4
100
AcDbEntity
  8
LW 3500-39-00
100
AcDbLine
 10
-18.99999999999477
 20
-17.50000000000557
 30
0.0
 11
-38.99999999999477
 21
-17.50000000001159
 31
0.0
  0
LINE
  5
1946
330
18F4
100
AcDbEntity
  8
LW 3500-39-00
100
AcDbLine
 10
-41.99999999999568
 20
-14.50000000001245
 30
0.0
 11
-38.99999999999477
 21
-17.50000000001148
 31
0.0
  0
LINE
  5
1947
330
18F4
100
AcDbEntity
  8
LW 3500-39-00
100
AcDbLine
 10
-42.00000000000431
 20
14.49999999998761
 30
0.0
 11
-39.00000000000512
 21
17.4999999999884
 31
0.0
  0
LINE
  5
1948
330
18F4
100
AcDbEntity
  8
LW 3500-39-00
100
AcDbLine
 10
-70.00000000001512
 20
-0.0000000000192131
 30
0.0
 11
-60.00000000001512
 21
-0.0000000000192131
 31
0.0
  0
LINE
  5
1949
330
18F4
100
AcDbEntity
  8
LW 3500-39-00
  6
MITTE2
 62
     3
100
AcDbLine
 10
-65.00000000001512
 20
22.49999999998079
 30
0.0
 11
-65.00000000001512
 21
-22.50000000001922
 31
0.0
  0
LINE
  5
194A
330
18F4
100
AcDbEntity
  8
LW 3500-39-00
  6
MITTE2
 62
     3
100
AcDbLine
 10
-145.0000000000151
 20
22.49999999995702
 30
0.0
 11
-145.0000000000151
 21
-22.50000000004297
 31
0.0
  0
LINE
  5
194B
330
18F4
100
AcDbEntity
  8
LW 3500-39-00
  6
MITTE2
 62
     3
100
AcDbLine
 10
-187.3663674569925
 20
-0.000000000055536
 30
0.0
 11
23.30038640845748
 21
0.0000000000069349
 31
0.0
  0
LINE
  5
194C
330
18F4
100
AcDbEntity
  8
LW 3500-39-00
100
AcDbLine
 10
15.99999999999795
 20
7.000000000005059
 30
0.0
 11
15.99999999999795
 21
-6.99999999999494
 31
0.0
  0
LINE
  5
194D
330
18F4
100
AcDbEntity
  8
LW 3500-39-00
100
AcDbLine
 10
16.99999999999795
 20
6.000000000005059
 30
0.0
 11
16.99999999999795
 21
-5.99999999999494
 31
0.0
  0
LINE
  5
194E
330
18F4
100
AcDbEntity
  8
LW 3500-39-00
100
AcDbLine
 10
-0.0000000000020464
 20
-6.99999999999494
 30
0.0
 11
15.99999999999795
 21
-6.99999999999494
 31
0.0
  0
LINE
  5
194F
330
18F4
100
AcDbEntity
  8
LW 3500-39-00
100
AcDbLine
 10
-0.0000000000020464
 20
7.000000000005059
 30
0.0
 11
15.99999999999795
 21
7.000000000005059
 31
0.0
  0
LINE
  5
1950
330
18F4
100
AcDbEntity
  8
LW 3500-39-00
100
AcDbLine
 10
16.99999999999795
 20
6.000000000005059
 30
0.0
 11
15.99999999999795
 21
7.000000000005059
 31
0.0
  0
LINE
  5
1951
330
18F4
100
AcDbEntity
  8
LW 3500-39-00
100
AcDbLine
 10
16.99999999999795
 20
-5.99999999999494
 30
0.0
 11
15.99999999999795
 21
-6.99999999999494
 31
0.0
  0
LINE
  5
1952
330
18F4
100
AcDbEntity
  8
LW 3500-39-00
 62
     3
100
AcDbLine
 10
16.99999999999795
 20
-5.794499999994911
 30
0.0
 11
-0.0000000000020464
 21
-5.794499999994911
 31
0.0
  0
LINE
  5
1953
330
18F4
100
AcDbEntity
  8
LW 3500-39-00
 62
     3
100
AcDbLine
 10
-0.0000000000020464
 20
5.794500000005029
 30
0.0
 11
16.99999999999795
 21
5.794500000005029
 31
0.0
  0
LINE
  5
1954
330
18F4
100
AcDbEntity
  8
LW 3500-39-00
100
AcDbLine
 10
15.99999999999795
 20
7.000000000005059
 30
0.0
 11
15.99999999999795
 21
-6.99999999999494
 31
0.0
  0
INSERT
  5
1955
330
18F4
100
AcDbEntity
  8
LW 3500-39-00
100
AcDbBlockReference
 66
     1
  2
insertpoint-ECKELT
 10
0.0
 20
0.0
 30
0.0
  0
ATTRIB
  5
1956
330
1955
100
AcDbEntity
  8
insertpoint_ECKELT
100
AcDbText
 10
-1.200000000000045
 20
0.0
 30
0.0
 40
0.6
  1

 72
     2
 11
-1.200000000000045
 21
0.0
 31
0.0
100
AcDbAttribute
  2
LINKS
 70
     0
  0
ATTRIB
  5
1957
330
1955
100
AcDbEntity
  8
insertpoint_ECKELT
100
AcDbText
 10
1.200000000000045
 20
0.0
 30
0.0
 40
0.6
  1
LW 3500/39-00
100
AcDbAttribute
  2
RECHTS
 70
     0
  0
SEQEND
  5
1958
330
1955
100
AcDbEntity
  8
LW 3500-39-00
  0
HATCH
  5
1959
330
18F4
100
AcDbEntity
  8
LW 3500-39-00
 62
     1
100
AcDbHatch
 10
0.0
 20
0.0
 30
0.0
210
0.0
220
0.0
230
1.0
  2
SOLID
 70
     1
 71
     0
 91
        5
 92
        7
 72
     0
 73
     1
 93
       76
 10
-108.3801169540833
 20
19.76920546871565
 10
-108.3482581247104
 20
19.82078643055735
 10
-108.2301000004793
 20
19.97202882957333
 10
-108.0956219252665
 20
20.11245295983588
 10
-107.9496020188049
 20
20.24083752154922
 10
-107.785933222723
 20
20.35774380446497
 10
-107.6105462693583
 20
20.45992168628663
 10
-107.4287933367579
 20
20.55127336586952
 10
-107.2476244012922
 20
20.6207916783157
 10
-109.5047623394922
 20
20.62079167831564
 10
-109.7176588918922
 20
20.6121020231156
 10
-109.9196933752922
 20
20.58603305751564
 10
-110.1152106172923
 20
20.54475719531558
 10
-110.2998657902922
 20
20.49044685031561
 10
-110.4758313080923
 20
20.4209296087156
 10
-110.6431071706922
 20
20.33837788431549
 10
-110.7936754332391
 20
20.24305236677168
 10
-110.9363830336921
 20
20.13634340091556
 10
-111.0618242892628
 20
20.01729512467546
 10
-111.1730892413402
 20
19.88903581392355
 10
-111.2731071726922
 20
19.75182615831556
 10
-111.3556588970922
 20
19.60627443371549
 10
-111.4186588972922
 20
19.45203305391538
 10
-111.468624414692
 20
19.29127443271562
 10
-111.4968657940921
 20
19.12617098391553
 10
-111.5055554492921
 20
18.95237787991556
 10
-111.4946933802921
 20
18.77858477591547
 10
-111.4642795870921
 20
18.6113089133155
 10
-111.409969242092
 20
18.45055029211556
 10
-111.3404520004922
 20
18.29413649851551
 10
-111.251383034692
 20
18.14641236011545
 10
-111.1449347584921
 20
18.0052054631156
 10
-111.0222368270681
 20
17.87399166959551
 10
-110.8860377783599
 20
17.75285787610761
 10
-110.7386933778921
 20
17.64241235851551
 10
-110.577934756692
 20
17.54465373751566
 10
-110.4023081354448
 20
17.4597558062116
 10
-110.2216588934922
 20
17.38606753011561
 10
-110.030486479092
 20
17.32958477131558
 10
-109.8306244094921
 20
17.28613649531559
 10
-109.6220726846921
 20
17.26006752971557
 10
-109.4113485460922
 20
17.25137787451558
 10
-107.2921774603395
 20
17.2513778745157
 10
-107.452721324392
 20
17.31444867825058
 10
-107.6362854681944
 20
17.40506895177333
 10
-107.8047518743646
 20
17.50959864470491
 10
-107.9675847691253
 20
17.62521688313035
 10
-108.1114971374954
 20
17.75500647967021
 10
-108.2389330309797
 20
17.89436016289875
 10
-108.3526383857231
 20
18.04484840761131
 10
-108.4046096171718
 20
18.12903304971564
 10
-109.4330726840921
 20
18.12903304971559
 10
-109.5651815120976
 20
18.13659304973964
 10
-109.6959347538922
 20
18.15692684290758
 10
-109.824107168092
 20
18.18986063611555
 10
-109.939245099492
 20
18.23548132591566
 10
-110.0441900653425
 20
18.29196408471557
 10
-110.1423397208265
 20
18.35956960217157
 10
-110.2325209624921
 20
18.43751580931552
 10
-110.304210617892
 20
18.52223994751557
 10
-108.5766893036333
 20
18.52223994751563
 10
-108.5872737709063
 20
18.55487538827395
 10
-108.6233855788707
 20
18.74024933582507
 10
-108.6354292316524
 20
18.9305390497758
 10
-108.6234075592231
 20
19.12529014313082
 10
-108.5871018375478
 20
19.31165951439732
 10
-108.5705031348728
 20
19.36079167431558
 10
-110.3411416524922
 20
19.36079167431558
 10
-110.2716244108921
 20
19.45637788151549
 10
-110.1890726864922
 20
19.53892960591559
 10
-110.0939817896386
 20
19.60879443372352
 10
-109.9913830306922
 20
19.66710202011563
 10
-109.8726910303154
 20
19.71107167542754
 10
-109.7502450988921
 20
19.74313650311558
 10
-109.6133830294922
 20
19.76268822731555
 10
-109.4700037186921
 20
19.7692054687156
 97
        0
 92
        7
 72
     0
 73
     1
 93
       72
 10
-106.6516530890554
 20
19.75460684797963
 10
-106.5287900541826
 20
19.77268133079565
 10
-106.4047278468922
 20
19.7778951239157
 10
-105.1360381876921
 20
19.77789512391575
 10
-105.9832795696922
 20
18.96323994891583
 10
-104.217107150292
 20
17.24486063311582
 10
-102.8984519736922
 20
17.24486063311582
 10
-104.6124864618921
 20
18.98713650071579
 10
-102.9310381806922
 20
20.62079167831587
 10
-106.3699692260921
 20
20.6207916783157
 10
-106.5779561233042
 20
20.61001650586775
 10
-106.7846743308571
 20
20.58455581613163
 10
-106.9891071590922
 20
20.5447571953157
 10
-107.1824519872922
 20
20.48827443651567
 10
-107.3692795740923
 20
20.41658478111566
 10
-107.5404397125667
 20
20.33055719463567
 10
-107.7060037130922
 20
20.23410202191564
 10
-107.8580726790921
 20
20.12548133191569
 10
-107.9937703346953
 20
20.00617236601966
 10
-108.1187623350921
 20
19.87565374491561
 10
-108.2273830250923
 20
19.73661926171559
 10
-108.3186244046921
 20
19.58889512331575
 10
-108.3903140600922
 20
19.43465374351564
 10
-108.4446244050922
 20
19.27389512231565
 10
-108.4772106120921
 20
19.10661925971561
 10
-108.4880726810921
 20
18.93065374191553
 10
-108.4772106120921
 20
18.75903305171567
 10
-108.4446244050921
 20
18.5917571891157
 10
-108.392486473892
 20
18.43099856791571
 10
-108.3229692322921
 20
18.27675718811565
 10
-108.2311282664833
 20
18.12799029109175
 10
-108.1257488178729
 20
17.98852132513161
 10
-108.0077433002568
 20
17.85947994541175
 10
-107.8754519894921
 20
17.74017097951571
 10
-107.7233308855609
 20
17.6321585653796
 10
-107.5647968160921
 20
17.53379166851562
 10
-107.393176125892
 20
17.44906753031569
 10
-107.210693366692
 20
17.37737787491568
 10
-107.0164621936617
 20
17.32332821957169
 10
-106.8196588826921
 20
17.27961925391565
 10
-106.6111071578921
 20
17.25355028831569
 10
-106.4003830192921
 20
17.24486063311571
 10
-104.4973485304921
 20
17.24486063311582
 10
-105.3836933608921
 20
18.11817098071577
 10
-106.4003830192921
 20
18.11817098071571
 10
-106.4670500539866
 20
18.12191827365501
 10
-106.5679977784449
 20
18.13190063593168
 10
-106.6881322615849
 20
18.15336408427572
 10
-106.8052514343704
 20
18.18768822231561
 10
-106.9067466071064
 20
18.2286164983077
 10
-106.9628817796986
 20
18.25677098115574
 10
-107.0165664695241
 20
18.2893571881558
 10
-107.1491271596002
 20
18.38867994709164
 10
-107.2227285391441
 20
18.45871856800369
 10
-107.2777948841465
 20
18.52658477511556
 10
-107.3265004015426
 20
18.59914339603563
 10
-107.3658645395986
 20
18.67630753421162
 10
-107.3952877121057
 20
18.75772960343562
 10
-107.4159864707922
 20
18.84488684509171
 10
-107.4235030225402
 20
18.93421650054756
 10
-107.4221474363289
 20
18.99652132833165
 10
-107.4161428845857
 20
19.05865236301156
 10
-107.4039860569609
 20
19.1218261563157
 10
-107.3857725396617
 20
19.18352270823567
 10
-107.3421244015923
 20
19.28223719130756
 10
-107.3005965393913
 20
19.3501033984196
 10
-107.2375183322946
 20
19.42813650211565
 10
-107.1081163919298
 20
19.55465923916932
 10
-107.0488485385921
 20
19.5947171922997
 10
-106.9725533659361
 20
19.63903443381963
 10
-106.8885330898074
 20
19.68117926153968
 10
-106.7719961239202
 20
19.72401926167572
 97
        0
 92
        7
 72
     0
 73
     1
 93
       57
 10
-102.0936161090681
 20
19.73253512377192
 10
-101.9621416258921
 20
19.77250753769192
 10
-101.8274519702922
 20
19.79961926191595
 10
-101.6840726594922
 20
19.80830891711588
 10
-100.4436243796922
 20
19.80830891711594
 10
-100.4436243796922
 20
20.63382616111596
 10
-101.6775554180922
 20
20.63382616111585
 10
-101.8882795566921
 20
20.62513650591586
 10
-102.0946588676921
 20
20.59689512651585
 10
-102.2923485234921
 20
20.55561926431591
 10
-102.4813485240921
 20
20.50130891931587
 10
-102.6660036970921
 20
20.42961926391587
 10
-102.8324105941724
 20
20.34698064296379
 10
-102.9912314222626
 20
20.25052547024376
 10
-103.1413104572217
 20
20.14103581472381
 10
-103.2758697679936
 20
20.02181374537986
 10
-103.3959347338922
 20
19.89303305531581
 10
-103.5002105962921
 20
19.75399857211584
 10
-103.5849347344922
 20
19.60844684751578
 10
-103.6566243898922
 20
19.45420546771572
 10
-103.7065899072921
 20
19.2934468465159
 10
-103.7391761142921
 20
19.12617098391592
 10
-103.750038183292
 20
18.95237787991584
 10
-103.7391761142921
 20
18.77858477591582
 10
-103.7065899072921
 20
18.61130891331584
 10
-103.6544519760922
 20
18.45055029211573
 10
-103.582762320692
 20
18.29413649851585
 10
-103.495865768692
 20
18.14641236011584
 10
-103.3870191476569
 20
18.00685649760385
 10
-103.2671627334833
 20
17.87651166960387
 10
-103.1307351468433
 20
17.75520408301185
 10
-102.9831761118921
 20
17.64458477231579
 10
-102.8224174906921
 20
17.54682615131577
 10
-102.6486243866921
 20
17.46210201311584
 10
-102.463969213692
 20
17.38823994391595
 10
-102.2727967992921
 20
17.33175718511586
 10
-102.072934729692
 20
17.28830890911592
 10
-101.8665554186921
 20
17.26441235731579
 10
-101.653658866292
 20
17.25572270211586
 10
-100.4436243796921
 20
17.25572270211592
 10
-100.4436243796921
 20
18.11382615311589
 10
-101.6775554180922
 20
18.11382615311584
 10
-101.8112023150681
 20
18.12416684280379
 10
-101.943458867212
 20
18.14615167045991
 10
-102.0640712813881
 20
18.18047580849986
 10
-102.180078178308
 20
18.22844270520391
 10
-102.2897416269321
 20
18.28935718815592
 10
-102.3868050755161
 20
18.35696270561181
 10
-102.4742230068281
 20
18.43673374034785
 10
-102.5486933518921
 20
18.52223994751586
 10
-100.4436243796921
 20
18.52223994751591
 10
-100.4436243796921
 20
19.34992960531593
 10
-102.5856243864922
 20
19.34992960531582
 10
-102.5161071448922
 20
19.44768822631585
 10
-102.4292105928922
 20
19.53675719211577
 10
-102.3280630063641
 20
19.61305236477187
 10
-102.2206588680922
 20
19.68013650291584
 97
        0
 92
        7
 72
     0
 73
     1
 93
        6
 10
-100.2133485168921
 20
20.62079167831598
 10
-100.2133485168921
 20
17.25137787451592
 10
-97.97576230289202
 20
17.25137787451604
 10
-97.97576230289212
 20
18.11817098071606
 10
-99.19014161709208
 20
18.11817098071606
 10
-99.1901416170922
 20
20.62079167831598
 97
        0
 92
        7
 72
     0
 73
     1
 93
        8
 10
-98.95769334049226
 20
20.62079167831598
 10
-98.95769334049226
 20
19.79527443431596
 10
-97.72376230209216
 20
19.79527443431607
 10
-97.72376230209204
 20
17.24486063311605
 10
-96.69838298849208
 20
17.24486063311605
 10
-96.69838298849221
 20
19.79527443431601
 10
-95.45576229489222
 20
19.79527443431607
 10
-95.45576229489222
 20
20.6207916783161
 97
        0
 75
     0
 76
     1
 47
0.0142553043587597
 98
        5
 10
-109.0704568280169
 20
20.17834200872653
 10
-106.8029596146743
 20
20.03578902372084
 10
-102.3107478824728
 20
20.09281019626866
 10
-99.58689879864119
 20
20.3351504209611
 10
-98.17506081641443
 20
20.23536328854772
450
        0
451
        0
460
0.0
461
0.0
452
        0
462
0.0
453
        0
470

  0
LWPOLYLINE
  5
195A
330
18F4
100
AcDbEntity
  8
LW 3500-39-00
 62
     1
100
AcDbPolyline
 90
        8
 70
     1
 43
0.0
 10
-96.69838298849221
 20
19.79527443431601
 10
-96.69838298849208
 20
17.24486063311605
 10
-97.72376230209204
 20
17.24486063311605
 10
-97.72376230209216
 20
19.79527443431607
 10
-98.95769334049226
 20
19.79527443431596
 10
-98.95769334049226
 20
20.62079167831598
 10
-95.45576229489222
 20
20.6207916783161
 10
-95.45576229489222
 20
19.79527443431607
  0
LWPOLYLINE
  5
195B
330
18F4
100
AcDbEntity
  8
LW 3500-39-00
 62
     1
100
AcDbPolyline
 90
       73
 70
     1
 43
0.0
 10
-106.4003830192921
 20
18.11817098071571
 10
-105.3836933608921
 20
18.11817098071577
 10
-104.4973485304921
 20
17.24486063311582
 10
-106.4003830192921
 20
17.24486063311565
 10
-106.6111071578921
 20
17.25355028831569
 10
-106.8196588826921
 20
17.27961925391571
 10
-107.0164621936617
 20
17.32332821957169
 10
-107.210693366692
 20
17.37737787491568
 10
-107.393176125892
 20
17.44906753031569
 10
-107.5647968160921
 20
17.53379166851567
 10
-107.7233308855608
 20
17.63215856537971
 10
-107.8754519894921
 20
17.74017097951571
 10
-108.0077433002569
 20
17.85947994541163
 10
-108.1257488178729
 20
17.98852132513161
 10
-108.2311282664833
 20
18.12799029109169
 10
-108.3229692322921
 20
18.27675718811565
 10
-108.392486473892
 20
18.43099856791571
 10
-108.4446244050921
 20
18.5917571891157
 10
-108.4772106120921
 20
18.75903305171567
 10
-108.4880726810921
 20
18.93065374191565
 10
-108.4772106120921
 20
19.10661925971561
 10
-108.4446244050922
 20
19.27389512231565
 10
-108.3903140600921
 20
19.43465374351564
 10
-108.3186244046921
 20
19.58889512331569
 10
-108.2273830250922
 20
19.73661926171564
 10
-108.1187623350921
 20
19.87565374491561
 10
-107.9937703346953
 20
20.00617236601971
 10
-107.8580726790923
 20
20.12548133191564
 10
-107.7060037130922
 20
20.23410202191564
 10
-107.5404397125666
 20
20.33055719463562
 10
-107.3692795740923
 20
20.4165847811156
 10
-107.1824519872922
 20
20.48827443651567
 10
-106.9891071590922
 20
20.54475719531575
 10
-106.784674330857
 20
20.58455581613168
 10
-106.5779561233042
 20
20.61001650586775
 10
-106.3699692260922
 20
20.6207916783157
 10
-102.9310381806922
 20
20.62079167831587
 10
-104.6124864618921
 20
18.98713650071579
 10
-102.8984519736922
 20
17.24486063311582
 10
-104.217107150292
 20
17.24486063311582
 10
-105.9832795696922
 20
18.96323994891583
 10
-105.1360381876921
 20
19.77789512391575
 10
-106.4047278468922
 20
19.7778951239157
 10
-106.5287900541826
 20
19.77268133079565
 10
-106.6516530890554
 20
19.75460684797963
 10
-106.7719961239202
 20
19.72401926167572
 10
-106.8885330898074
 20
19.68117926153962
 10
-106.9725533659362
 20
19.63903443381969
 10
-107.0488485385922
 20
19.5947171922997
 10
-107.0890903318234
 20
19.56751857152369
 10
-107.1266035733217
 20
19.5365833990117
 10
-107.2375183322946
 20
19.42813650211565
 10
-107.3005965393913
 20
19.3501033984196
 10
-107.3421244015921
 20
19.28223719130767
 10
-107.3857725396617
 20
19.18352270823567
 10
-107.4039860569609
 20
19.1218261563157
 10
-107.4161428845857
 20
19.05865236301167
 10
-107.4221474363289
 20
18.99652132833171
 10
-107.4235030225401
 20
18.93421650054768
 10
-107.4159864707922
 20
18.84488684509171
 10
-107.3952877121056
 20
18.75772960343567
 10
-107.3658645395985
 20
18.67630753421167
 10
-107.3265004015426
 20
18.59914339603563
 10
-107.2777948841466
 20
18.52658477511568
 10
-107.2227285391441
 20
18.45871856800369
 10
-107.1491271596002
 20
18.38867994709164
 10
-107.016566469524
 20
18.28935718815575
 10
-106.9628817796985
 20
18.25677098115568
 10
-106.9067466071064
 20
18.2286164983077
 10
-106.8052514343704
 20
18.18768822231561
 10
-106.6881322615849
 20
18.15336408427572
 10
-106.5679977784449
 20
18.13190063593168
 10
-106.4670500539865
 20
18.12191827365507
  0
LWPOLYLINE
  5
195C
330
18F4
100
AcDbEntity
  8
LW 3500-39-00
 62
     1
100
AcDbPolyline
 90
       76
 70
     1
 43
0.0
 10
-107.6105462693583
 20
20.45992168628663
 10
-107.7859332227231
 20
20.35774380446492
 10
-107.9496020188051
 20
20.24083752154928
 10
-108.0956219252665
 20
20.11245295983588
 10
-108.2301000004793
 20
19.97202882957333
 10
-108.3482581247104
 20
19.82078643055746
 10
-108.3801169540833
 20
19.76920546871565
 10
-109.4700037186921
 20
19.76920546871565
 10
-109.6133830294922
 20
19.76268822731555
 10
-109.7502450988922
 20
19.74313650311558
 10
-109.8726910303154
 20
19.71107167542754
 10
-109.9913830306922
 20
19.66710202011563
 10
-110.0939817896385
 20
19.60879443372357
 10
-110.1890726864922
 20
19.53892960591554
 10
-110.2716244108923
 20
19.45637788151555
 10
-110.3411416524922
 20
19.36079167431558
 10
-108.5705031348728
 20
19.36079167431558
 10
-108.5871018375478
 20
19.31165951439732
 10
-108.6234075592232
 20
19.12529014313071
 10
-108.6354292316524
 20
18.9305390497758
 10
-108.6233855788707
 20
18.74024933582507
 10
-108.5872737709062
 20
18.55487538827401
 10
-108.5766893036333
 20
18.52223994751563
 10
-110.304210617892
 20
18.52223994751557
 10
-110.2325209624921
 20
18.43751580931552
 10
-110.1423397208265
 20
18.35956960217157
 10
-110.0441900653425
 20
18.29196408471557
 10
-109.939245099492
 20
18.23548132591566
 10
-109.824107168092
 20
18.18986063611561
 10
-109.6959347538922
 20
18.15692684290758
 10
-109.5651815120976
 20
18.13659304973964
 10
-109.4330726840921
 20
18.12903304971559
 10
-108.4046096171718
 20
18.12903304971564
 10
-108.3526383857231
 20
18.04484840761137
 10
-108.2389330309797
 20
17.89436016289875
 10
-108.1114971374954
 20
17.75500647967021
 10
-107.9675847691252
 20
17.62521688313046
 10
-107.8047518743646
 20
17.50959864470491
 10
-107.6362854681944
 20
17.40506895177333
 10
-107.452721324392
 20
17.31444867825058
 10
-107.2921774603395
 20
17.2513778745157
 10
-109.4113485460921
 20
17.25137787451552
 10
-109.6220726846921
 20
17.26006752971557
 10
-109.8306244094921
 20
17.28613649531559
 10
-110.0304864790921
 20
17.32958477131558
 10
-110.221658893492
 20
17.3860675301155
 10
-110.402308135445
 20
17.45975580621155
 10
-110.577934756692
 20
17.54465373751566
 10
-110.7386933778921
 20
17.64241235851551
 10
-110.8860377783597
 20
17.75285787610755
 10
-111.0222368270681
 20
17.87399166959551
 10
-111.1449347584921
 20
18.00520546311554
 10
-111.2513830346921
 20
18.1464123601155
 10
-111.340452000492
 20
18.29413649851557
 10
-111.409969242092
 20
18.45055029211556
 10
-111.4642795870921
 20
18.6113089133155
 10
-111.4946933802921
 20
18.77858477591559
 10
-111.5055554492921
 20
18.9523778799155
 10
-111.4968657940923
 20
19.12617098391547
 10
-111.4686244146921
 20
19.29127443271557
 10
-111.4186588972922
 20
19.4520330539155
 10
-111.3556588970922
 20
19.60627443371549
 10
-111.2731071726922
 20
19.75182615831556
 10
-111.1730892413401
 20
19.88903581392355
 10
-111.0618242892628
 20
20.01729512467552
 10
-110.9363830336922
 20
20.13634340091551
 10
-110.7936754332391
 20
20.24305236677157
 10
-110.6431071706921
 20
20.33837788431561
 10
-110.4758313080922
 20
20.42092960871554
 10
-110.2998657902922
 20
20.49044685031561
 10
-110.1152106172921
 20
20.54475719531553
 10
-109.9196933752922
 20
20.58603305751564
 10
-109.7176588918922
 20
20.6121020231156
 10
-109.5047623394922
 20
20.62079167831559
 10
-107.2476244012921
 20
20.62079167831575
 10
-107.4287933367579
 20
20.55127336586952
  0
LWPOLYLINE
  5
195D
330
18F4
100
AcDbEntity
  8
LW 3500-39-00
 62
     1
100
AcDbPolyline
 90
        6
 70
     1
 43
0.0
 10
-97.97576230289202
 20
17.25137787451604
 10
-100.2133485168921
 20
17.25137787451592
 10
-100.2133485168921
 20
20.62079167831598
 10
-99.1901416170922
 20
20.62079167831598
 10
-99.19014161709208
 20
18.11817098071606
 10
-97.97576230289212
 20
18.11817098071606
  0
LWPOLYLINE
  5
195E
330
18F4
100
AcDbEntity
  8
LW 3500-39-00
 62
     1
100
AcDbPolyline
 90
       57
 70
     1
 43
0.0
 10
-103.2671627334833
 20
17.87651166960387
 10
-103.3870191476569
 20
18.00685649760379
 10
-103.4958657686921
 20
18.14641236011579
 10
-103.582762320692
 20
18.29413649851585
 10
-103.6544519760922
 20
18.45055029211573
 10
-103.7065899072921
 20
18.61130891331584
 10
-103.7391761142921
 20
18.77858477591582
 10
-103.750038183292
 20
18.95237787991584
 10
-103.7391761142921
 20
19.12617098391587
 10
-103.7065899072921
 20
19.29344684651579
 10
-103.6566243898922
 20
19.45420546771572
 10
-103.5849347344922
 20
19.60844684751583
 10
-103.5002105962923
 20
19.75399857211573
 10
-103.3959347338922
 20
19.89303305531587
 10
-103.2758697679938
 20
20.0218137453798
 10
-103.1413104572217
 20
20.14103581472381
 10
-102.9912314222625
 20
20.25052547024381
 10
-102.832410594172
 20
20.3469806429639
 10
-102.6660036970921
 20
20.42961926391587
 10
-102.4813485240922
 20
20.50130891931582
 10
-102.2923485234921
 20
20.55561926431591
 10
-102.0946588676921
 20
20.59689512651585
 10
-101.8882795566921
 20
20.62513650591586
 10
-101.6775554180922
 20
20.63382616111585
 10
-100.4436243796922
 20
20.63382616111596
 10
-100.4436243796922
 20
19.80830891711594
 10
-101.6840726594921
 20
19.80830891711588
 10
-101.8274519702921
 20
19.79961926191589
 10
-101.9621416258921
 20
19.77250753769192
 10
-102.0936161090682
 20
19.73253512377187
 10
-102.2206588680922
 20
19.68013650291584
 10
-102.3280630063641
 20
19.61305236477187
 10
-102.4292105928922
 20
19.53675719211588
 10
-102.5161071448922
 20
19.44768822631585
 10
-102.5856243864922
 20
19.34992960531582
 10
-100.4436243796921
 20
19.34992960531593
 10
-100.4436243796921
 20
18.52223994751591
 10
-102.5486933518921
 20
18.52223994751586
 10
-102.4742230068281
 20
18.43673374034785
 10
-102.3868050755161
 20
18.35696270561181
 10
-102.2897416269321
 20
18.28935718815592
 10
-102.180078178308
 20
18.22844270520391
 10
-102.0640712813881
 20
18.18047580849986
 10
-101.943458867212
 20
18.14615167045991
 10
-101.8112023150681
 20
18.12416684280379
 10
-101.6775554180922
 20
18.11382615311584
 10
-100.4436243796921
 20
18.11382615311589
 10
-100.4436243796921
 20
17.25572270211592
 10
-101.653658866292
 20
17.25572270211586
 10
-101.8665554186921
 20
17.26441235731579
 10
-102.072934729692
 20
17.28830890911587
 10
-102.2727967992921
 20
17.33175718511586
 10
-102.463969213692
 20
17.38823994391595
 10
-102.6486243866921
 20
17.46210201311584
 10
-102.8224174906921
 20
17.54682615131588
 10
-102.9831761118921
 20
17.64458477231579
 10
-103.1307351468433
 20
17.75520408301185
  0
ENDBLK
  5
18F6
330
18F4
100
AcDbEntity
  8
0
100
AcDbBlockEnd
  0
ENDSEC
  0
SECTION
  2
ENTITIES
  0
INSERT
  5
175E
330
23
100
AcDbEntity
  8
0
100
AcDbBlockReference
  2
LW 3500-39-00_a
 10
270.1401696236951
 20
335.1866254961618
 30
0.0
  0
INSERT
  5
1887
330
23
100
AcDbEntity
  8
0
100
AcDbBlockReference
  2
LW 3500-39-00_b
 10
270.1401696238897
 20
465.3278722640312
 30
0.0
  0
INSERT
  5
18F3
330
23
100
AcDbEntity
  8
0
100
AcDbBlockReference
  2
LW 3500-39-00_c
 10
515.667533200067
 20
465.3278722639973
 30
0.0
  0
INSERT
  5
195F
330
23
100
AcDbEntity
  8
0
100
AcDbBlockReference
  2
LW 3500-39-00_d
 10
24.6128060477098
 20
465.3278722639973
 30
0.0
  0
ENDSEC
  0
SECTION
  2
OBJECTS
  0
DICTIONARY
  5
C
330
0
100
AcDbDictionary
281
     1
  3
ACAD_COLOR
350
1C
  3
ACAD_GROUP
350
D
  3
ACAD_LAYOUT
350
1A
  3
ACAD_MATERIAL
350
1B
  3
ACAD_MLINESTYLE
350
17
  3
ACAD_PLOTSETTINGS
350
19
  3
ACAD_PLOTSTYLENAME
350
E
  3
ACAD_TABLESTYLE
350
1D
  3
AcDbVariableDictionary
350
61C
  0
DICTIONARY
  5
9C6
330
2
100
AcDbDictionary
280
     1
281
     1
  3
ACAD_LAYERFILTERS
360
14CC
  3
ACLYDICTIONARY
360
14CB
  0
DICTIONARY
  5
9A6
330
23
100
AcDbDictionary
280
     1
281
     1
  3
ACAD_SORTENTS
360
9A7
  0
DICTIONARY
  5
627
330
626
100
AcDbDictionary
280
     1
281
     1
  3
ACAD_SORTENTS
360
628
  0
DICTIONARY
  5
1C
102
{ACAD_REACTORS
330
C
102
}
330
C
100
AcDbDictionary
281
     1
  0
DICTIONARY
  5
D
102
{ACAD_REACTORS
330
C
102
}
330
C
100
AcDbDictionary
281
     1
  0
DICTIONARY
  5
1A
102
{ACAD_REACTORS
330
C
102
}
330
C
100
AcDbDictionary
281
     1
  3
Layout1
350
22
  3
Layout2
350
2A
  3
Model
350
26
  0
DICTIONARY
  5
1B
102
{ACAD_REACTORS
330
C
102
}
330
C
100
AcDbDictionary
281
     1
  0
DICTIONARY
  5
17
102
{ACAD_REACTORS
330
C
102
}
330
C
100
AcDbDictionary
281
     1
  3
Standard
350
18
  0
DICTIONARY
  5
19
102
{ACAD_REACTORS
330
C
102
}
330
C
100
AcDbDictionary
281
     1
  0
ACDBDICTIONARYWDFLT
  5
E
102
{ACAD_REACTORS
330
C
102
}
330
C
100
AcDbDictionary
281
     1
  3
Normal
350
F
100
AcDbDictionaryWithDefault
340
F
  0
DICTIONARY
  5
1D
102
{ACAD_REACTORS
330
C
102
}
330
C
100
AcDbDictionary
281
     1
  3
Standard
350
1E
  0
DICTIONARY
  5
61C
102
{ACAD_REACTORS
330
C
102
}
330
C
100
AcDbDictionary
281
     1
  3
CTABLESTYLE
350
61D
  0
DICTIONARY
  5
14CC
102
{ACAD_REACTORS
330
9C6
102
}
330
9C6
100
AcDbDictionary
281
     1
  0
DICTIONARY
  5
14CB
102
{ACAD_REACTORS
330
9C6
102
}
330
9C6
100
AcDbDictionary
281
     1
1001
ACAD
1000
<All
  0
SORTENTSTABLE
  5
9A7
102
{ACAD_REACTORS
330
9A6
102
}
330
9A6
100
AcDbSortentsTable
330
23
  0
SORTENTSTABLE
  5
628
102
{ACAD_REACTORS
330
627
102
}
330
627
100
AcDbSortentsTable
330
626
  0
LAYOUT
  5
22
102
{ACAD_REACTORS
330
1A
102
}
330
1A
100
AcDbPlotSettings
  1

  2

  4

  6

 40
0.0
 41
0.0
 42
0.0
 43
0.0
 44
0.0
 45
0.0
 46
0.0
 47
0.0
 48
0.0
 49
0.0
140
0.0
141
0.0
142
1.0
143
1.0
 70
   688
 72
     0
 73
     0
 74
     5
  7

 75
    16
147
1.0
 76
     0
 77
     2
 78
   300
148
0.0
149
0.0
100
AcDbLayout
  1
Layout1
 70
     1
 71
     1
 10
0.0
 20
0.0
 11
840.0
 21
594.0
 12
0.0
 22
0.0
 32
0.0
 14
0.0
 24
0.0
 34
0.0
 15
840.0
 25
594.0
 35
0.0
146
0.0
 13
0.0
 23
0.0
 33
0.0
 16
1.0
 26
0.0
 36
0.0
 17
0.0
 27
1.0
 37
0.0
 76
     0
330
1F
  0
LAYOUT
  5
2A
102
{ACAD_REACTORS
330
1A
102
}
330
1A
100
AcDbPlotSettings
  1

  2

  4

  6

 40
0.0
 41
0.0
 42
0.0
 43
0.0
 44
0.0
 45
0.0
 46
0.0
 47
0.0
 48
0.0
 49
0.0
140
0.0
141
0.0
142
1.0
143
1.0
 70
   688
 72
     0
 73
     0
 74
     5
  7

 75
    16
147
1.0
 76
     0
 77
     2
 78
   300
148
0.0
149
0.0
100
AcDbLayout
  1
Layout2
 70
     1
 71
     2
 10
0.0
 20
0.0
 11
12.0
 21
9.0
 12
0.0
 22
0.0
 32
0.0
 14
0.0
 24
0.0
 34
0.0
 15
0.0
 25
0.0
 35
0.0
146
0.0
 13
0.0
 23
0.0
 33
0.0
 16
1.0
 26
0.0
 36
0.0
 17
0.0
 27
1.0
 37
0.0
 76
     0
330
27
  0
LAYOUT
  5
26
102
{ACAD_REACTORS
330
1A
102
}
330
1A
100
AcDbPlotSettings
  1

  2

  4

  6

 40
0.0
 41
0.0
 42
0.0
 43
0.0
 44
0.0
 45
0.0
 46
0.0
 47
0.0
 48
0.0
 49
0.0
140
0.0
141
0.0
142
1.0
143
1.0
 70
  1712
 72
     0
 73
     0
 74
     0
  7

 75
     0
147
1.0
 76
     0
 77
     2
 78
   300
148
0.0
149
0.0
100
AcDbLayout
  1
Model
 70
     1
 71
     0
 10
0.0
 20
0.0
 11
12.0
 21
9.0
 12
0.0
 22
0.0
 32
0.0
 14
0.0
 24
0.0
 34
0.0
 15
0.0
 25
0.0
 35
0.0
146
0.0
 13
0.0
 23
0.0
 33
0.0
 16
1.0
 26
0.0
 36
0.0
 17
0.0
 27
1.0
 37
0.0
 76
     0
330
23
  0
MLINESTYLE
  5
18
102
{ACAD_REACTORS
330
17
102
}
330
17
100
AcDbMlineStyle
  2
STANDARD
 70
     0
  3

 62
   256
 51
90.0
 52
90.0
 71
     2
 49
0.5
 62
   256
  6
BYLAYER
 49
-0.5
 62
   256
  6
BYLAYER
  0
ACDBPLACEHOLDER
  5
F
102
{ACAD_REACTORS
330
E
102
}
330
E
  0
TABLESTYLE
  5
1E
102
{ACAD_REACTORS
330
1D
102
}
330
1D
100
AcDbTableStyle
  3
Standard
 70
     0
 71
     0
 40
0.06
 41
0.06
280
     0
281
     0
  7
Standard
140
0.18
170
     2
 62
     0
 63
     7
283
     0
274
    -2
284
     1
 64
     0
275
    -2
285
     1
 65
     0
276
    -2
286
     1
 66
     0
277
    -2
287
     1
 67
     0
278
    -2
288
     1
 68
     0
279
    -2
289
     1
 69
     0
  7
Standard
140
0.25
170
     5
 62
     0
 63
     7
283
     0
274
    -2
284
     1
 64
     0
275
    -2
285
     1
 65
     0
276
    -2
286
     1
 66
     0
277
    -2
287
     1
 67
     0
278
    -2
288
     1
 68
     0
279
    -2
289
     1
 69
     0
  7
Standard
140
0.18
170
     5
 62
     0
 63
     7
283
     0
274
    -2
284
     1
 64
     0
275
    -2
285
     1
 65
     0
276
    -2
286
     1
 66
     0
277
    -2
287
     1
 67
     0
278
    -2
288
     1
 68
     0
279
    -2
289
     1
 69
     0
  0
DICTIONARYVAR
  5
61D
102
{ACAD_REACTORS
330
61C
102
}
330
61C
100
DictionaryVariables
280
     0
  1
STANDARD
  0
ENDSEC
  0
EOF
