  0
SECTION
  2
HEADER
  9
$ACADVER
  1
AC1018
  9
$ACADMAINTVER
 70
    76
  9
$DWGCODEPAGE
  3
ANSI_1252
  9
$AUTHOR
  1
Grandl
  9
$CUSTOMPROPERTYTAG
  1
Manager
  9
$CUSTOMPROPERTY
  1

  9
$CUSTOMPROPERTYTAG
  1
Firma
  9
$CUSTOMPROPERTY
  1

  9
$CUSTOMPROPERTYTAG
  1
Kategorie
  9
$CUSTOMPROPERTY
  1

  9
$CUSTOMPROPERTYTAG
  1
Bauteilnummer
  9
$CUSTOMPROPERTY
  1
3500-19-01
  9
$CUSTOMPROPERTYTAG
  1
Bezeichnung
  9
$CUSTOMPROPERTY
  1

  9
$CUSTOMPROPERTYTAG
  1
Projekt
  9
$CUSTOMPROPERTY
  1

  9
$CUSTOMPROPERTYTAG
  1
Konstrukteur
  9
$CUSTOMPROPERTY
  1
Grandl
  9
$CUSTOMPROPERTYTAG
  1
Ingenieur
  9
$CUSTOMPROPERTY
  1

  9
$CUSTOMPROPERTYTAG
  1
Bevollmächtigter
  9
$CUSTOMPROPERTY
  1

  9
$CUSTOMPROPERTYTAG
  1
Kostenstelle
  9
$CUSTOMPROPERTY
  1

  9
$CUSTOMPROPERTYTAG
  1
Händler
  9
$CUSTOMPROPERTY
  1

  9
$CUSTOMPROPERTYTAG
  1
Benutzerstatus
  9
$CUSTOMPROPERTY
  1

  9
$CUSTOMPROPERTYTAG
  1
Konstruktionsstatus
  9
$CUSTOMPROPERTY
  1
InBearbeitung
  9
$CUSTOMPROPERTYTAG
  1
Überprüft von
  9
$CUSTOMPROPERTY
  1

  9
$CUSTOMPROPERTYTAG
  1
Konstruktion genehmigt von
  9
$CUSTOMPROPERTY
  1

  9
$CUSTOMPROPERTYTAG
  1
Fertigung genehmigt von
  9
$CUSTOMPROPERTY
  1

  9
$INSBASE
 10
0.0
 20
0.0
 30
0.0
  9
$EXTMIN
 10
-162.7535614092827
 20
134.9540042318398
 30
0.0
  9
$EXTMAX
 10
703.0339006570596
 20
510.025303840943
 30
0.0
  9
$LIMMIN
 10
0.0
 20
0.0
  9
$LIMMAX
 10
840.0
 20
594.0
  9
$ORTHOMODE
 70
     1
  9
$REGENMODE
 70
     1
  9
$FILLMODE
 70
     1
  9
$QTEXTMODE
 70
     0
  9
$MIRRTEXT
 70
     0
  9
$LTSCALE
 40
2.0
  9
$ATTMODE
 70
     1
  9
$TEXTSIZE
 40
0.2
  9
$TRACEWID
 40
0.05
  9
$TEXTSTYLE
  7
Standard
  9
$CLAYER
  8
0
  9
$CELTYPE
  6
ByLayer
  9
$CECOLOR
 62
   256
  9
$CELTSCALE
 40
1.0
  9
$DISPSILH
 70
     0
  9
$DIMSCALE
 40
1.0
  9
$DIMASZ
 40
1.799999999999999
  9
$DIMEXO
 40
0.0625
  9
$DIMDLI
 40
0.38
  9
$DIMRND
 40
0.0
  9
$DIMDLE
 40
0.0
  9
$DIMEXE
 40
0.18
  9
$DIMTP
 40
0.0
  9
$DIMTM
 40
0.0
  9
$DIMTXT
 40
0.3000000119209289
  9
$DIMCEN
 40
0.09
  9
$DIMTSZ
 40
0.0
  9
$DIMTOL
 70
     0
  9
$DIMLIM
 70
     0
  9
$DIMTIH
 70
     1
  9
$DIMTOH
 70
     1
  9
$DIMSE1
 70
     0
  9
$DIMSE2
 70
     0
  9
$DIMTAD
 70
     0
  9
$DIMZIN
 70
     0
  9
$DIMBLK
  1

  9
$DIMASO
 70
     1
  9
$DIMSHO
 70
     1
  9
$DIMPOST
  1

  9
$DIMAPOST
  1

  9
$DIMALT
 70
     0
  9
$DIMALTD
 70
     2
  9
$DIMALTF
 40
25.4
  9
$DIMLFAC
 40
1.0
  9
$DIMTOFL
 70
     0
  9
$DIMTVP
 40
0.0
  9
$DIMTIX
 70
     0
  9
$DIMSOXD
 70
     0
  9
$DIMSAH
 70
     0
  9
$DIMBLK1
  1

  9
$DIMBLK2
  1

  9
$DIMSTYLE
  2
Standard
  9
$DIMCLRD
 70
     0
  9
$DIMCLRE
 70
     0
  9
$DIMCLRT
 70
     0
  9
$DIMTFAC
 40
1.0
  9
$DIMGAP
 40
0.09
  9
$DIMJUST
 70
     0
  9
$DIMSD1
 70
     0
  9
$DIMSD2
 70
     0
  9
$DIMTOLJ
 70
     1
  9
$DIMTZIN
 70
     0
  9
$DIMALTZ
 70
     0
  9
$DIMALTTZ
 70
     0
  9
$DIMUPT
 70
     0
  9
$DIMDEC
 70
     4
  9
$DIMTDEC
 70
     4
  9
$DIMALTU
 70
     2
  9
$DIMALTTD
 70
     2
  9
$DIMTXSTY
  7
Standard
  9
$DIMAUNIT
 70
     0
  9
$DIMADEC
 70
     0
  9
$DIMALTRND
 40
0.0
  9
$DIMAZIN
 70
     0
  9
$DIMDSEP
 70
    46
  9
$DIMATFIT
 70
     3
  9
$DIMFRAC
 70
     0
  9
$DIMLDRBLK
  1

  9
$DIMLUNIT
 70
     2
  9
$DIMLWD
 70
    -2
  9
$DIMLWE
 70
    -2
  9
$DIMTMOVE
 70
     0
  9
$LUNITS
 70
     2
  9
$LUPREC
 70
     4
  9
$SKETCHINC
 40
0.1
  9
$FILLETRAD
 40
0.0
  9
$AUNITS
 70
     0
  9
$AUPREC
 70
     0
  9
$MENU
  1
.
  9
$ELEVATION
 40
0.0
  9
$PELEVATION
 40
0.0
  9
$THICKNESS
 40
0.0
  9
$LIMCHECK
 70
     0
  9
$CHAMFERA
 40
0.0
  9
$CHAMFERB
 40
0.0
  9
$CHAMFERC
 40
0.0
  9
$CHAMFERD
 40
0.0
  9
$SKPOLY
 70
     0
  9
$TDCREATE
 40
2453706.351795776
  9
$TDUCREATE
 40
2453706.310129109
  9
$TDUPDATE
 40
2453710.480087165
  9
$TDUUPDATE
 40
2453710.438420498
  9
$TDINDWG
 40
0.2367909606
  9
$TDUSRTIMER
 40
0.2367909606
  9
$USRTIMER
 70
     1
  9
$ANGBASE
 50
0.0
  9
$ANGDIR
 70
     0
  9
$PDMODE
 70
     0
  9
$PDSIZE
 40
0.0
  9
$PLINEWID
 40
0.0
  9
$SPLFRAME
 70
     0
  9
$SPLINETYPE
 70
     6
  9
$SPLINESEGS
 70
     8
  9
$HANDSEED
  5
2AD3
  9
$SURFTAB1
 70
     6
  9
$SURFTAB2
 70
     6
  9
$SURFTYPE
 70
     6
  9
$SURFU
 70
     6
  9
$SURFV
 70
     6
  9
$UCSBASE
  2

  9
$UCSNAME
  2

  9
$UCSORG
 10
0.0
 20
0.0
 30
0.0
  9
$UCSXDIR
 10
1.0
 20
0.0
 30
0.0
  9
$UCSYDIR
 10
0.0
 20
1.0
 30
0.0
  9
$UCSORTHOREF
  2

  9
$UCSORTHOVIEW
 70
     0
  9
$UCSORGTOP
 10
0.0
 20
0.0
 30
0.0
  9
$UCSORGBOTTOM
 10
0.0
 20
0.0
 30
0.0
  9
$UCSORGLEFT
 10
0.0
 20
0.0
 30
0.0
  9
$UCSORGRIGHT
 10
0.0
 20
0.0
 30
0.0
  9
$UCSORGFRONT
 10
0.0
 20
0.0
 30
0.0
  9
$UCSORGBACK
 10
0.0
 20
0.0
 30
0.0
  9
$PUCSBASE
  2

  9
$PUCSNAME
  2

  9
$PUCSORG
 10
0.0
 20
0.0
 30
0.0
  9
$PUCSXDIR
 10
1.0
 20
0.0
 30
0.0
  9
$PUCSYDIR
 10
0.0
 20
1.0
 30
0.0
  9
$PUCSORTHOREF
  2

  9
$PUCSORTHOVIEW
 70
     0
  9
$PUCSORGTOP
 10
0.0
 20
0.0
 30
0.0
  9
$PUCSORGBOTTOM
 10
0.0
 20
0.0
 30
0.0
  9
$PUCSORGLEFT
 10
0.0
 20
0.0
 30
0.0
  9
$PUCSORGRIGHT
 10
0.0
 20
0.0
 30
0.0
  9
$PUCSORGFRONT
 10
0.0
 20
0.0
 30
0.0
  9
$PUCSORGBACK
 10
0.0
 20
0.0
 30
0.0
  9
$USERI1
 70
     0
  9
$USERI2
 70
     0
  9
$USERI3
 70
     0
  9
$USERI4
 70
     0
  9
$USERI5
 70
     0
  9
$USERR1
 40
0.0
  9
$USERR2
 40
0.0
  9
$USERR3
 40
0.0
  9
$USERR4
 40
0.0
  9
$USERR5
 40
0.0
  9
$WORLDVIEW
 70
     1
  9
$SHADEDGE
 70
     3
  9
$SHADEDIF
 70
    70
  9
$TILEMODE
 70
     1
  9
$MAXACTVP
 70
    64
  9
$PINSBASE
 10
0.0
 20
0.0
 30
0.0
  9
$PLIMCHECK
 70
     0
  9
$PEXTMIN
 10
0.0
 20
0.0
 30
0.0
  9
$PEXTMAX
 10
840.0
 20
594.0
 30
0.0
  9
$PLIMMIN
 10
0.0
 20
0.0
  9
$PLIMMAX
 10
840.0
 20
594.0
  9
$UNITMODE
 70
     0
  9
$VISRETAIN
 70
     1
  9
$PLINEGEN
 70
     0
  9
$PSLTSCALE
 70
     1
  9
$TREEDEPTH
 70
  3020
  9
$CMLSTYLE
  2
Standard
  9
$CMLJUST
 70
     0
  9
$CMLSCALE
 40
1.0
  9
$PROXYGRAPHICS
 70
     1
  9
$MEASUREMENT
 70
     1
  9
$CELWEIGHT
370
    -1
  9
$ENDCAPS
280
     0
  9
$JOINSTYLE
280
     0
  9
$LWDISPLAY
290
     0
  9
$INSUNITS
 70
     0
  9
$HYPERLINKBASE
  1

  9
$STYLESHEET
  1

  9
$XEDIT
290
     1
  9
$CEPSNTYPE
380
     0
  9
$PSTYLEMODE
290
     1
  9
$FINGERPRINTGUID
  2
{CD339A04-B85F-4A73-AC85-5D4F30B09856}
  9
$VERSIONGUID
  2
{18E6FAF7-4832-4825-8374-277E5A698358}
  9
$EXTNAMES
290
     1
  9
$PSVPSCALE
 40
0.0
  9
$OLESTARTUP
290
     0
  9
$SORTENTS
280
   127
  9
$INDEXCTL
280
     0
  9
$HIDETEXT
280
     1
  9
$XCLIPFRAME
290
     0
  9
$HALOGAP
280
     0
  9
$OBSCOLOR
 70
   257
  9
$OBSLTYPE
280
     0
  9
$INTERSECTIONDISPLAY
280
     0
  9
$INTERSECTIONCOLOR
 70
   257
  9
$DIMASSOC
280
     1
  9
$PROJECTNAME
  1

  0
ENDSEC
  0
SECTION
  2
CLASSES
  0
CLASS
  1
ACDBDICTIONARYWDFLT
  2
AcDbDictionaryWithDefault
  3
ObjectDBX Classes
 90
        0
 91
        1
280
     0
281
     0
  0
CLASS
  1
TABLESTYLE
  2
AcDbTableStyle
  3
ObjectDBX Classes
 90
     2047
 91
        1
280
     0
281
     0
  0
CLASS
  1
DICTIONARYVAR
  2
AcDbDictionaryVar
  3
ObjectDBX Classes
 90
        0
 91
        4
280
     0
281
     0
  0
CLASS
  1
SORTENTSTABLE
  2
AcDbSortentsTable
  3
ObjectDBX Classes
 90
        0
 91
        2
280
     0
281
     0
  0
ENDSEC
  0
SECTION
  2
TABLES
  0
TABLE
  2
VPORT
  5
8
330
0
100
AcDbSymbolTable
 70
     3
  0
VPORT
  5
2AD2
330
8
100
AcDbSymbolTableRecord
100
AcDbViewportTableRecord
  2
*Active
 70
     0
 10
0.0
 20
0.0
 11
1.0
 21
1.0
 12
270.1481828304966
 22
322.4917158902294
 13
0.0
 23
0.0
 14
1.0
 24
1.0
 15
0.0
 25
0.0
 16
0.0
 26
0.0
 36
1.0
 17
0.0
 27
0.0
 37
0.0
 40
490.9012822870937
 41
1.773333333333333
 42
50.0
 43
0.0
 44
0.0
 50
0.0
 51
0.0
 71
     0
 72
   100
 73
     1
 74
     1
 75
     0
 76
     0
 77
     0
 78
     0
281
     0
 65
     1
110
0.0
120
0.0
130
0.0
111
1.0
121
0.0
131
0.0
112
0.0
122
1.0
132
0.0
 79
     0
146
0.0
  0
ENDTAB
  0
TABLE
  2
LTYPE
  5
5
330
0
100
AcDbSymbolTable
 70
     2
  0
LTYPE
  5
14
330
5
100
AcDbSymbolTableRecord
100
AcDbLinetypeTableRecord
  2
ByBlock
 70
     0
  3

 72
    65
 73
     0
 40
0.0
  0
LTYPE
  5
15
330
5
100
AcDbSymbolTableRecord
100
AcDbLinetypeTableRecord
  2
ByLayer
 70
     0
  3

 72
    65
 73
     0
 40
0.0
  0
LTYPE
  5
16
330
5
100
AcDbSymbolTableRecord
100
AcDbLinetypeTableRecord
  2
Continuous
 70
     0
  3
Solid line
 72
    65
 73
     0
 40
0.0
  0
LTYPE
  5
7E7
330
5
100
AcDbSymbolTableRecord
100
AcDbLinetypeTableRecord
  2
MITTE2
 70
     0
  3
Mitte (.5x) ___ _ ___ _ ___ _ ___ _ ___ _ ___
 72
    65
 73
     4
 40
28.575
 49
19.05
 74
     0
 49
-3.174999999999999
 74
     0
 49
3.174999999999999
 74
     0
 49
-3.174999999999999
 74
     0
  0
ENDTAB
  0
TABLE
  2
LAYER
  5
2
102
{ACAD_XDICTIONARY
360
9C6
102
}
330
0
100
AcDbSymbolTable
 70
     3
  0
LAYER
  5
10
330
2
100
AcDbSymbolTableRecord
100
AcDbLayerTableRecord
  2
0
 70
     0
 62
     7
  6
Continuous
370
    -3
390
F
  0
LAYER
  5
7E9
330
2
100
AcDbSymbolTableRecord
100
AcDbLayerTableRecord
  2
LW 3520-06-01
 70
     0
 62
     7
  6
Continuous
370
    -3
390
F
  0
LAYER
  5
7EA
330
2
100
AcDbSymbolTableRecord
100
AcDbLayerTableRecord
  2
insertpoint_ECKELT
 70
     0
 62
   141
  6
Continuous
370
    -3
390
F
  0
ENDTAB
  0
TABLE
  2
STYLE
  5
3
330
0
100
AcDbSymbolTable
 70
     1
  0
STYLE
  5
11
330
3
100
AcDbSymbolTableRecord
100
AcDbTextStyleTableRecord
  2
Standard
 70
     0
 40
0.0
 41
1.0
 50
0.0
 71
     0
 42
0.2
  3
ARIAL.TTF
  4

1001
ACAD
1000
Arial
1071
      256
  0
ENDTAB
  0
TABLE
  2
VIEW
  5
6
330
0
100
AcDbSymbolTable
 70
     0
  0
ENDTAB
  0
TABLE
  2
UCS
  5
7
330
0
100
AcDbSymbolTable
 70
     0
  0
ENDTAB
  0
TABLE
  2
APPID
  5
9
330
0
100
AcDbSymbolTable
 70
     2
  0
APPID
  5
12
330
9
100
AcDbSymbolTableRecord
100
AcDbRegAppTableRecord
  2
ACAD
 70
     0
  0
APPID
  5
A3E
330
9
100
AcDbSymbolTableRecord
100
AcDbRegAppTableRecord
  2
ACAD_PSEXT
 70
     0
  0
ENDTAB
  0
TABLE
  2
DIMSTYLE
  5
A
330
0
100
AcDbSymbolTable
 70
     1
100
AcDbDimStyleTable
 71
     0
  0
DIMSTYLE
105
2B
330
A
100
AcDbSymbolTableRecord
100
AcDbDimStyleTableRecord
  2
Standard
 70
     0
340
11
  0
ENDTAB
  0
TABLE
  2
BLOCK_RECORD
  5
1
330
0
100
AcDbSymbolTable
 70
     6
  0
BLOCK_RECORD
  5
23
102
{ACAD_XDICTIONARY
360
9A6
102
}
330
1
100
AcDbSymbolTableRecord
100
AcDbBlockTableRecord
  2
*Model_Space
340
26
  0
BLOCK_RECORD
  5
1F
330
1
100
AcDbSymbolTableRecord
100
AcDbBlockTableRecord
  2
*Paper_Space
340
22
  0
BLOCK_RECORD
  5
27
330
1
100
AcDbSymbolTableRecord
100
AcDbBlockTableRecord
  2
*Paper_Space0
340
2A
  0
BLOCK_RECORD
  5
626
102
{ACAD_XDICTIONARY
360
627
102
}
330
1
100
AcDbSymbolTableRecord
100
AcDbBlockTableRecord
  2
insertpoint-ECKELT
340
0
102
{BLKREFS
331
28C3
331
29DD
331
2A49
331
2AB5
102
}
  0
BLOCK_RECORD
  5
265F
330
1
100
AcDbSymbolTableRecord
100
AcDbBlockTableRecord
  2
LW 3520-06-01_a
340
0
310
2800000020000000200000000100080000000000000400000000000000000000000000000000000000000000000080000080000000808000800000008000800080800000C0C0C000C0DCC000F0CAA6000020400000206000002080000020A0000020C0000020E00000400000004020000040400000406000004080000040A0
310
000040C0000040E00000600000006020000060400000606000006080000060A0000060C0000060E00000800000008020000080400000806000008080000080A0000080C0000080E00000A0000000A0200000A0400000A0600000A0800000A0A00000A0C00000A0E00000C0000000C0200000C0400000C0600000C0800000C0
310
A00000C0C00000C0E00000E0000000E0200000E0400000E0600000E0800000E0A00000E0C00000E0E00040000000400020004000400040006000400080004000A0004000C0004000E00040200000402020004020400040206000402080004020A0004020C0004020E000404000004040200040404000404060004040800040
310
40A0004040C0004040E00040600000406020004060400040606000406080004060A0004060C0004060E00040800000408020004080400040806000408080004080A0004080C0004080E00040A0000040A0200040A0400040A0600040A0800040A0A00040A0C00040A0E00040C0000040C0200040C0400040C0600040C08000
310
40C0A00040C0C00040C0E00040E0000040E0200040E0400040E0600040E0800040E0A00040E0C00040E0E00080000000800020008000400080006000800080008000A0008000C0008000E00080200000802020008020400080206000802080008020A0008020C0008020E00080400000804020008040400080406000804080
310
008040A0008040C0008040E00080600000806020008060400080606000806080008060A0008060C0008060E00080800000808020008080400080806000808080008080A0008080C0008080E00080A0000080A0200080A0400080A0600080A0800080A0A00080A0C00080A0E00080C0000080C0200080C0400080C0600080C0
310
800080C0A00080C0C00080C0E00080E0000080E0200080E0400080E0600080E0800080E0A00080E0C00080E0E000C0000000C0002000C0004000C0006000C0008000C000A000C000C000C000E000C0200000C0202000C0204000C0206000C0208000C020A000C020C000C020E000C0400000C0402000C0404000C0406000C0
310
408000C040A000C040C000C040E000C0600000C0602000C0604000C0606000C0608000C060A000C060C000C060E000C0800000C0802000C0804000C0806000C0808000C080A000C080C000C080E000C0A00000C0A02000C0A04000C0A06000C0A08000C0A0A000C0A0C000C0A0E000C0C00000C0C02000C0C04000C0C06000
310
C0C08000C0C0A000F0FBFF00A4A0A000808080000000FF0000FF000000FFFF00FF000000FF00FF00FFFF0000FFFFFF0000000000000000000000000000000000000000000000000000000000000000000000000000000000000000000000000000000000000000000000000000000000000000000000000000000000000000
310
00FA00000000000000000000000000000000000000000000000000000000000000FA00000000000000000000000000000000000000000000000000000000000000FA0000000000000000000000000000000000000000000000000000000000FFFFFAFF00000000000000000000000000000000000000000000000000000000
310
FFFFFAFF00000000000000000000000000000000000000000000000000FFFFFFFFFFFAFFFFFFFF00000000000000000000000000000000000000000000FFFF00FFFAFAFF00FFFF00000000000000000000000000000000000000000000FAFAFAFAFAFAFAFAFAFA00000000000000000000000000000000000000000000FFFF
310
00FFFAFAFF00FFFF00000000000000000000000000000000000000000000FFFFFFFFFFFAFFFFFFFF00000000000000000000000000000000000000000000000000FFFFFAFF00000000000000000000000000000000000000000000000000000000FFFFFAFF0000000000000000000000000000000000000000000000000000
310
0000FFFFFAFF00000000000000000000000000000000000000000000000000000000FFFFFAFF00000000000000000000000000000000000000000000000000000000FFFFFAFF00000000000000000000000000000000000000000000000000FFFFFFFFFFFAFFFFFFFF00000000000000000000000000000000000000000000
310
FFFF00FFFAFAFF00FFFF00000000000000000000000000000000000000000000FAFAFAFAFAFAFAFAFAFA00000000000000000000000000000000000000000000FFFF00FFFFFAFF00FFFF000000000000000000000000000000FFFFFAFF00000000FFFFFFFFFAFFFFFF00000000FFFAFFFF00000000000000FFFFFFFAFFFF00
310
000000FFFFFFFAFFFF00000000FFFFFAFFFFFF000000000000FF0000FA00FF0000FFF9F9FFFFFAFF00FFFF0000FF00FA0000FF000000000000FFFFFFFAFFFF00FF00F900FFFFFAFF000000FF00FFFFFAFFFFFF00000000FFFFFFFFFFFAFFFFFFFFFFFFFFFFFFFAFFFFFFFFFFFFFFFFFAFFFFFFFFFF0000FFFFFFFFFAFAFFFF
310
FFFFFFFFFFFF0909FFFFFFFFFFFFFFFFFAFAFFFFFFFF000000000000FAFA000000000000000000FA0000000000000000FAFA00000000000000000000FFFA000000000000000000FA0000000000000000FAFF0000000000000000000000FA000000000000000000000000000000000000FA0000000000000000000000000000
310
0000000000000000000000000000000000000000000000000000000000000000000000000000000000000000000000000000000000000000
102
{BLKREFS
331
28CD
102
}
  0
BLOCK_RECORD
  5
28CE
330
1
100
AcDbSymbolTableRecord
100
AcDbBlockTableRecord
  2
LW 3520-06-01_b
340
0
310
2800000020000000200000000100080000000000000400000000000000000000000000000000000000000000000080000080000000808000800000008000800080800000C0C0C000C0DCC000F0CAA6000020400000206000002080000020A0000020C0000020E00000400000004020000040400000406000004080000040A0
310
000040C0000040E00000600000006020000060400000606000006080000060A0000060C0000060E00000800000008020000080400000806000008080000080A0000080C0000080E00000A0000000A0200000A0400000A0600000A0800000A0A00000A0C00000A0E00000C0000000C0200000C0400000C0600000C0800000C0
310
A00000C0C00000C0E00000E0000000E0200000E0400000E0600000E0800000E0A00000E0C00000E0E00040000000400020004000400040006000400080004000A0004000C0004000E00040200000402020004020400040206000402080004020A0004020C0004020E000404000004040200040404000404060004040800040
310
40A0004040C0004040E00040600000406020004060400040606000406080004060A0004060C0004060E00040800000408020004080400040806000408080004080A0004080C0004080E00040A0000040A0200040A0400040A0600040A0800040A0A00040A0C00040A0E00040C0000040C0200040C0400040C0600040C08000
310
40C0A00040C0C00040C0E00040E0000040E0200040E0400040E0600040E0800040E0A00040E0C00040E0E00080000000800020008000400080006000800080008000A0008000C0008000E00080200000802020008020400080206000802080008020A0008020C0008020E00080400000804020008040400080406000804080
310
008040A0008040C0008040E00080600000806020008060400080606000806080008060A0008060C0008060E00080800000808020008080400080806000808080008080A0008080C0008080E00080A0000080A0200080A0400080A0600080A0800080A0A00080A0C00080A0E00080C0000080C0200080C0400080C0600080C0
310
800080C0A00080C0C00080C0E00080E0000080E0200080E0400080E0600080E0800080E0A00080E0C00080E0E000C0000000C0002000C0004000C0006000C0008000C000A000C000C000C000E000C0200000C0202000C0204000C0206000C0208000C020A000C020C000C020E000C0400000C0402000C0404000C0406000C0
310
408000C040A000C040C000C040E000C0600000C0602000C0604000C0606000C0608000C060A000C060C000C060E000C0800000C0802000C0804000C0806000C0808000C080A000C080C000C080E000C0A00000C0A02000C0A04000C0A06000C0A08000C0A0A000C0A0C000C0A0E000C0C00000C0C02000C0C04000C0C06000
310
C0C08000C0C0A000F0FBFF00A4A0A000808080000000FF0000FF000000FFFF00FF000000FF00FF00FFFF0000FFFFFF0000000000000000000000000000000000000000000000000000000000000000000000000000000000000000000000000000000000000000000000000000000000000000000000000000000000000000
310
00000000000000000000000000000000000000000000000000000000000000000000000000000000000000000000000000000000000000000000000000000000000000000000000000000000000000000000000000000000000000000000000000000000000000000000000000000000000000000000000000000000000000
310
00000000000000000000000000000000000000000000000000000000000000000000000000000000000000000000000000000000000000000000000000000000000000000000000000000000000000000000000000000000000000000000000000000000000000000000000000000000000000000000000000000000000000
310
0000FA00000000000000000000000000000000000000000000000000000000000000FA0000000000000000000000000000000000000000FFFFFAFFFFFFFFFFFFFFFFFAFFFFFFFFFFFFFFFFFFFAFFFF00000000000000FF00FFFA00000000000000FFFAFFFF0000000000FFFFFA0000FF0000000000FF0000FFFAFFFF0000FF
310
FFFFFFFAFFFFFFFF000000FFFFFAFFFF00FF00000000FF00FFFFFA00FF00FFFFFF00FF0909FF00FFFFFFFFFF00FAFFFF00FF000000FAFAFAFAFAFAFAFAFAFAFAFAFAFA09FAFAFAFAFAFAFAFAFAFAFAFAFAFAFA000000FF0000FFFAFFFF0000FFFFFFFFFAFFFFFFFF000000FFFFFAFFFF00FF0000000000FF00FFFAFF000000
310
000000FFFAFFFF0000F9F9F9FFFFFAFF00FF00000000000000FFFFFAFFFFFFFFFFFFFFFFFAFFFFFFFFF9F9F9FFFFFAFFFF00000000000000000000000000000000000000FA00000000000000000000000000000000000000000000000000000000000000FA0000000000000000000000000000000000000000000000000000
310
00000000000000000000000000000000000000000000000000000000000000000000000000000000000000000000000000000000000000000000000000000000000000000000000000000000000000000000000000000000000000000000000000000000000000000000000000000000000000000000000000000000000000
310
00000000000000000000000000000000000000000000000000000000000000000000000000000000000000000000000000000000000000000000000000000000000000000000000000000000000000000000000000000000000000000000000000000000000000000000000000000000000000000000000000000000000000
310
0000000000000000000000000000000000000000000000000000000000000000000000000000000000000000000000000000000000000000
102
{BLKREFS
331
29E7
102
}
  0
BLOCK_RECORD
  5
29E8
330
1
100
AcDbSymbolTableRecord
100
AcDbBlockTableRecord
  2
LW 3520-06-01_c
340
0
310
2800000020000000200000000100080000000000000400000000000000000000000000000000000000000000000080000080000000808000800000008000800080800000C0C0C000C0DCC000F0CAA6000020400000206000002080000020A0000020C0000020E00000400000004020000040400000406000004080000040A0
310
000040C0000040E00000600000006020000060400000606000006080000060A0000060C0000060E00000800000008020000080400000806000008080000080A0000080C0000080E00000A0000000A0200000A0400000A0600000A0800000A0A00000A0C00000A0E00000C0000000C0200000C0400000C0600000C0800000C0
310
A00000C0C00000C0E00000E0000000E0200000E0400000E0600000E0800000E0A00000E0C00000E0E00040000000400020004000400040006000400080004000A0004000C0004000E00040200000402020004020400040206000402080004020A0004020C0004020E000404000004040200040404000404060004040800040
310
40A0004040C0004040E00040600000406020004060400040606000406080004060A0004060C0004060E00040800000408020004080400040806000408080004080A0004080C0004080E00040A0000040A0200040A0400040A0600040A0800040A0A00040A0C00040A0E00040C0000040C0200040C0400040C0600040C08000
310
40C0A00040C0C00040C0E00040E0000040E0200040E0400040E0600040E0800040E0A00040E0C00040E0E00080000000800020008000400080006000800080008000A0008000C0008000E00080200000802020008020400080206000802080008020A0008020C0008020E00080400000804020008040400080406000804080
310
008040A0008040C0008040E00080600000806020008060400080606000806080008060A0008060C0008060E00080800000808020008080400080806000808080008080A0008080C0008080E00080A0000080A0200080A0400080A0600080A0800080A0A00080A0C00080A0E00080C0000080C0200080C0400080C0600080C0
310
800080C0A00080C0C00080C0E00080E0000080E0200080E0400080E0600080E0800080E0A00080E0C00080E0E000C0000000C0002000C0004000C0006000C0008000C000A000C000C000C000E000C0200000C0202000C0204000C0206000C0208000C020A000C020C000C020E000C0400000C0402000C0404000C0406000C0
310
408000C040A000C040C000C040E000C0600000C0602000C0604000C0606000C0608000C060A000C060C000C060E000C0800000C0802000C0804000C0806000C0808000C080A000C080C000C080E000C0A00000C0A02000C0A04000C0A06000C0A08000C0A0A000C0A0C000C0A0E000C0C00000C0C02000C0C04000C0C06000
310
C0C08000C0C0A000F0FBFF00A4A0A000808080000000FF0000FF000000FFFF00FF000000FF00FF00FFFF0000FFFFFF0000000000000000000000000000000000000000000000000000000000000000000000000000000000000000000000000000000000000000000000000000000000000000000000000000000000000000
310
00000000000000000000000000000000000000000000000000000000000000000000000000000000000000000000000000000000000000000000000000000000000000000000000000000000000000000000000000000000000000000000000000000000000000000000000000000000000000000000000000000000000000
310
00000000000000000000000000000000000000000000000000000000000000000000000000000000000000000000000000000000000000000000000000000000000000000000000000000000000000000000000000000000000000000000000000000000000000000000000000000000000000000000000000000000000000
310
000000000000000000000000000000000000000000000000FFFFFFFFFFFFFFFFFFFFFFFFFFFFFFFFFFFFFFFFFF0000000000000000000000FFFFFF0000000000FA00000000000000000000FA00FFFF000000000000000000FFFFFFFFFFFF0000FA00000000000000000000FA000000FF0000000000000000FFFFFF0000FF00
310
FFFAFFFF000000000000FFFFFAFFFF00FF0000000000FFFAFA09FFFF00FFFFFFFFFA00FFFAFAFAFAFAFAFAFAFAFAFAFAFAFAFA0000FAFFFA0909FAFAFAFAFAFAFAFAFAFAFF0000000000FF00FA00FF00FF0000000000000000FFFFFF0000FF00FFFAFFFF000000000000FFFFFAFFFF00FF0000000000000000FFFFFFFFFFFF
310
0000FAFF000000F9F9F90000FFFAFF0000FF0000000000000000FFFFFF0000000000FA00000000000000000000FA00FFFF000000000000000000FFFFFFFFFFFFFFFFFFFFFFFFFFFFFFFFFFFFFFFFFF000000000000000000000000000000000000000000000000000000000000000000000000000000000000000000000000
310
00000000000000000000000000000000000000000000000000000000000000000000000000000000000000000000000000000000000000000000000000000000000000000000000000000000000000000000000000000000000000000000000000000000000000000000000000000000000000000000000000000000000000
310
00000000000000000000000000000000000000000000000000000000000000000000000000000000000000000000000000000000000000000000000000000000000000000000000000000000000000000000000000000000000000000000000000000000000000000000000000000000000000000000000000000000000000
310
0000000000000000000000000000000000000000000000000000000000000000000000000000000000000000000000000000000000000000
102
{BLKREFS
331
2A53
102
}
  0
BLOCK_RECORD
  5
2A54
330
1
100
AcDbSymbolTableRecord
100
AcDbBlockTableRecord
  2
LW 3520-06-01_d
340
0
310
2800000020000000200000000100080000000000000400000000000000000000000000000000000000000000000080000080000000808000800000008000800080800000C0C0C000C0DCC000F0CAA6000020400000206000002080000020A0000020C0000020E00000400000004020000040400000406000004080000040A0
310
000040C0000040E00000600000006020000060400000606000006080000060A0000060C0000060E00000800000008020000080400000806000008080000080A0000080C0000080E00000A0000000A0200000A0400000A0600000A0800000A0A00000A0C00000A0E00000C0000000C0200000C0400000C0600000C0800000C0
310
A00000C0C00000C0E00000E0000000E0200000E0400000E0600000E0800000E0A00000E0C00000E0E00040000000400020004000400040006000400080004000A0004000C0004000E00040200000402020004020400040206000402080004020A0004020C0004020E000404000004040200040404000404060004040800040
310
40A0004040C0004040E00040600000406020004060400040606000406080004060A0004060C0004060E00040800000408020004080400040806000408080004080A0004080C0004080E00040A0000040A0200040A0400040A0600040A0800040A0A00040A0C00040A0E00040C0000040C0200040C0400040C0600040C08000
310
40C0A00040C0C00040C0E00040E0000040E0200040E0400040E0600040E0800040E0A00040E0C00040E0E00080000000800020008000400080006000800080008000A0008000C0008000E00080200000802020008020400080206000802080008020A0008020C0008020E00080400000804020008040400080406000804080
310
008040A0008040C0008040E00080600000806020008060400080606000806080008060A0008060C0008060E00080800000808020008080400080806000808080008080A0008080C0008080E00080A0000080A0200080A0400080A0600080A0800080A0A00080A0C00080A0E00080C0000080C0200080C0400080C0600080C0
310
800080C0A00080C0C00080C0E00080E0000080E0200080E0400080E0600080E0800080E0A00080E0C00080E0E000C0000000C0002000C0004000C0006000C0008000C000A000C000C000C000E000C0200000C0202000C0204000C0206000C0208000C020A000C020C000C020E000C0400000C0402000C0404000C0406000C0
310
408000C040A000C040C000C040E000C0600000C0602000C0604000C0606000C0608000C060A000C060C000C060E000C0800000C0802000C0804000C0806000C0808000C080A000C080C000C080E000C0A00000C0A02000C0A04000C0A06000C0A08000C0A0A000C0A0C000C0A0E000C0C00000C0C02000C0C04000C0C06000
310
C0C08000C0C0A000F0FBFF00A4A0A000808080000000FF0000FF000000FFFF00FF000000FF00FF00FFFF0000FFFFFF0000000000000000000000000000000000000000000000000000000000000000000000000000000000000000000000000000000000000000000000000000000000000000000000000000000000000000
310
00000000000000000000000000000000000000000000000000000000000000000000000000000000000000000000000000000000000000000000000000000000000000000000000000000000000000000000000000000000000000000000000000000000000000000000000000000000000000000000000000000000000000
310
00000000000000000000000000000000000000000000000000000000000000000000000000000000000000000000000000000000000000000000000000000000000000000000000000000000000000000000000000000000000000000000000000000000000000000000000000000000000000000000000000000000000000
310
00000000000000000000000000000000000000000000000000FFFFFFFFFFFFFFFFFFFFFFFFFFFFFFFFFFFFFFFFFF000000000000000000FFFF00FA00000000000000000000FA0000000000FFFFFF000000000000000000FF0000FA00000000000000000000FA0000FFFFFFFFFFFF0000000000000000FF00FFFFFAFFFF0000
310
00000000FFFFFAFF00FF0000FFFFFF000000000000FAFAFAFAFAFAFAFAFAFAFAFAFAFAFAFF00FA00FFFFFF00FFFF0909FAFF0000000000FF00FF00FA00FF0000000000FFFAFAFAFAFAFAFAFAFAFA0909FAFFFA00000000FF00FFFFFAFFFF000000000000FFFFFAFF00FF0000FFFFFF000000000000000000FF00FFFAFF0000
310
00F9F9F90000FFFA0000FFFFFFFFFFFF000000000000000000FFFF00FA00000000000000000000FA0000000000FFFFFF0000000000000000000000FFFFFFFFFFFFFFFFFFFFFFFFFFFFFFFFFFFFFFFFFF0000000000000000000000000000000000000000000000000000000000000000000000000000000000000000000000
310
00000000000000000000000000000000000000000000000000000000000000000000000000000000000000000000000000000000000000000000000000000000000000000000000000000000000000000000000000000000000000000000000000000000000000000000000000000000000000000000000000000000000000
310
00000000000000000000000000000000000000000000000000000000000000000000000000000000000000000000000000000000000000000000000000000000000000000000000000000000000000000000000000000000000000000000000000000000000000000000000000000000000000000000000000000000000000
310
0000000000000000000000000000000000000000000000000000000000000000000000000000000000000000000000000000000000000000
102
{BLKREFS
331
2ABF
102
}
  0
ENDTAB
  0
ENDSEC
  0
SECTION
  2
BLOCKS
  0
BLOCK
  5
24
330
23
100
AcDbEntity
  8
0
100
AcDbBlockBegin
  2
*Model_Space
 70
     0
 10
0.0
 20
0.0
 30
0.0
  3
*Model_Space
  1

  0
ENDBLK
  5
25
330
23
100
AcDbEntity
  8
0
100
AcDbBlockEnd
  0
BLOCK
  5
20
330
1F
100
AcDbEntity
 67
     1
  8
0
100
AcDbBlockBegin
  2
*Paper_Space
 70
     0
 10
0.0
 20
0.0
 30
0.0
  3
*Paper_Space
  1

  0
ENDBLK
  5
21
330
1F
100
AcDbEntity
 67
     1
  8
0
100
AcDbBlockEnd
  0
BLOCK
  5
28
330
27
100
AcDbEntity
 67
     1
  8
0
100
AcDbBlockBegin
  2
*Paper_Space0
 70
     0
 10
0.0
 20
0.0
 30
0.0
  3
*Paper_Space0
  1

  0
ENDBLK
  5
29
330
27
100
AcDbEntity
 67
     1
  8
0
100
AcDbBlockEnd
  0
BLOCK
  5
629
330
626
100
AcDbEntity
  8
0
100
AcDbBlockBegin
  2
insertpoint-ECKELT
 70
     2
 10
0.0
 20
0.0
 30
0.0
  3
insertpoint-ECKELT
  1

  0
ATTDEF
  5
62A
330
626
100
AcDbEntity
  8
insertpoint_ECKELT
100
AcDbText
 10
-2.457298772169167
 20
-0.0000000000000284
 30
0.0
 40
0.6
  1
LW
 72
     2
 11
-1.199999999999999
 21
-0.0000000000000284
 31
0.0
100
AcDbAttributeDefinition
  3
Nr. links
  2
LINKS
 70
     0
  0
ATTDEF
  5
62B
330
626
100
AcDbEntity
  8
insertpoint_ECKELT
100
AcDbText
 10
1.199999999999999
 20
-0.0000000000000284
 30
0.0
 40
0.6
  1
LW
100
AcDbAttributeDefinition
  3
Nr. rechts
  2
RECHTS
 70
     0
  0
LINE
  5
62C
102
{ACAD_REACTORS
330
62F
102
}
330
626
100
AcDbEntity
  8
insertpoint_ECKELT
100
AcDbLine
 10
0.0
 20
1.799999999999997
 30
0.0
 11
0.0
 21
-1.799999999999997
 31
0.0
  0
LINE
  5
62D
102
{ACAD_REACTORS
330
62F
102
}
330
626
100
AcDbEntity
  8
insertpoint_ECKELT
100
AcDbLine
 10
-1.8
 20
-0.0000000000000284
 30
0.0
 11
1.8
 21
-0.0000000000000284
 31
0.0
  0
CIRCLE
  5
62E
102
{ACAD_REACTORS
330
62F
102
}
330
626
100
AcDbEntity
  8
insertpoint_ECKELT
100
AcDbCircle
 10
0.0
 20
0.0
 30
0.0
 40
1.199999999999999
  0
HATCH
  5
62F
330
626
100
AcDbEntity
  8
insertpoint_ECKELT
100
AcDbHatch
 10
0.0
 20
0.0
 30
0.0
210
0.0
220
0.0
230
1.0
  2
SOLID
 70
     1
 71
     1
 91
        2
 92
        7
 72
     1
 73
     1
 93
        3
 10
0.0
 20
-0.0000000000000284
 42
0.0
 10
0.0
 20
1.200000000000002
 42
0.4142135623731013
 10
-1.199999999999999
 20
-0.0000000000000284
 42
0.0
 97
        3
330
62E
330
62D
330
62C
 92
        7
 72
     1
 73
     1
 93
        3
 10
1.199999999999999
 20
-0.0000000000000284
 42
0.0
 10
0.0
 20
-0.0000000000000284
 42
0.0
 10
0.0
 20
-1.200000000000002
 42
0.4142135623730888
 97
        3
330
62D
330
62C
330
62E
 75
     0
 76
     1
 47
0.0223086566480813
 98
        2
 10
-0.3163651093721391
 20
0.271413292077348
 10
0.7415965996738798
 20
-0.4513871917946233
450
        0
451
        0
460
0.0
461
0.0
452
        0
462
0.0
453
        0
470

  0
ENDBLK
  5
630
330
626
100
AcDbEntity
  8
0
100
AcDbBlockEnd
  0
BLOCK
  5
2660
330
265F
100
AcDbEntity
  8
0
100
AcDbBlockBegin
  2
LW 3520-06-01_a
 70
     0
 10
0.0
 20
0.0
 30
0.0
  3
LW 3520-06-01_a
  1

  0
LINE
  5
2662
330
265F
100
AcDbEntity
  8
LW 3520-06-01
100
AcDbLine
 10
-12.0
 20
-172.9999999999999
 30
0.0
 11
-12.0
 21
-139.9999999999999
 31
0.0
  0
LINE
  5
2663
330
265F
100
AcDbEntity
  8
LW 3520-06-01
100
AcDbLine
 10
-12.00000000000005
 20
-11.0
 30
0.0
 11
-12.0
 21
-139.9999999999999
 31
0.0
  0
LINE
  5
2664
330
265F
100
AcDbEntity
  8
LW 3520-06-01
100
AcDbLine
 10
-83.00000000000002
 20
-9.0
 30
0.0
 11
-14.0
 21
-9.0
 31
0.0
  0
LINE
  5
2665
330
265F
100
AcDbEntity
  8
LW 3520-06-01
100
AcDbLine
 10
-83.00000000000002
 20
-9.0
 30
0.0
 11
-116.0
 21
-9.0
 31
0.0
  0
ARC
  5
2666
330
265F
100
AcDbEntity
  8
LW 3520-06-01
100
AcDbCircle
 10
-14.0
 20
-11.0
 30
0.0
 40
1.999999999999988
100
AcDbArc
 50
0.0
 51
90.0
  0
ARC
  5
2667
330
265F
100
AcDbEntity
  8
LW 3520-06-01
100
AcDbCircle
 10
-10.0
 20
-172.9999999999999
 30
0.0
 40
2.0
100
AcDbArc
 50
180.0
 51
270.0
  0
ARC
  5
2668
330
265F
100
AcDbEntity
  8
LW 3520-06-01
100
AcDbCircle
 10
-116.0
 20
-7.0
 30
0.0
 40
2.0
100
AcDbArc
 50
180.0
 51
270.0
  0
LINE
  5
2669
330
265F
100
AcDbEntity
  8
LW 3520-06-01
100
AcDbLine
 10
-118.0
 20
0.0
 30
0.0
 11
-83.00000000000006
 21
0.0
 31
0.0
  0
LINE
  5
266A
330
265F
100
AcDbEntity
  8
LW 3520-06-01
100
AcDbLine
 10
-3.0
 20
-139.9999999999999
 30
0.0
 11
-3.0
 21
-175.0
 31
0.0
  0
LINE
  5
266B
330
265F
100
AcDbEntity
  8
LW 3520-06-01
100
AcDbLine
 10
-3.0
 20
-175.0
 30
0.0
 11
-10.0
 21
-175.0
 31
0.0
  0
LINE
  5
266C
330
265F
100
AcDbEntity
  8
LW 3520-06-01
100
AcDbLine
 10
-118.0
 20
-7.0
 30
0.0
 11
-118.0
 21
0.0
 31
0.0
  0
LINE
  5
266D
330
265F
100
AcDbEntity
  8
LW 3520-06-01
100
AcDbLine
 10
-83.00000000000002
 20
0.0
 30
0.0
 11
-3.0
 21
0.0
 31
0.0
  0
LINE
  5
266E
330
265F
100
AcDbEntity
  8
LW 3520-06-01
100
AcDbLine
 10
-3.0
 20
0.0
 30
0.0
 11
-3.0
 21
-139.9999999999999
 31
0.0
  0
ARC
  5
266F
330
265F
100
AcDbEntity
  8
LW 3520-06-01
100
AcDbCircle
 10
-14.0
 20
-40.0
 30
0.0
 40
1.99999999999998
100
AcDbArc
 50
0.0
 51
53.13010235415793
  0
ARC
  5
2670
330
265F
100
AcDbEntity
  8
LW 3520-06-01
100
AcDbCircle
 10
-52.66666666666671
 20
-11.00000000000005
 30
0.0
 40
2.000000000000055
100
AcDbArc
 50
53.13010235415793
 51
90.0
  0
LINE
  5
2671
330
265F
100
AcDbEntity
  8
LW 3520-06-01
100
AcDbLine
 10
-51.4666666666667
 20
-9.399999999999977
 30
0.0
 11
-12.80000000000001
 21
-38.39999999999998
 31
0.0
  0
LINE
  5
2672
330
265F
100
AcDbEntity
  8
LW 3520-06-01
100
AcDbLine
 10
12.0
 20
-139.9999999999999
 30
0.0
 11
12.0
 21
-11.0
 31
0.0
  0
LINE
  5
2673
330
265F
100
AcDbEntity
  8
LW 3520-06-01
100
AcDbLine
 10
12.0
 20
-139.9999999999999
 30
0.0
 11
12.0
 21
-172.9999999999999
 31
0.0
  0
ARC
  5
2674
330
265F
100
AcDbEntity
  8
LW 3520-06-01
100
AcDbCircle
 10
14.0
 20
-11.0
 30
0.0
 40
1.999999999999988
100
AcDbArc
 50
90.0
 51
180.0
  0
LINE
  5
2675
330
265F
100
AcDbEntity
  8
LW 3520-06-01
100
AcDbLine
 10
116.0
 20
-9.0
 30
0.0
 11
83.0
 21
-9.0
 31
0.0
  0
LINE
  5
2676
330
265F
100
AcDbEntity
  8
LW 3520-06-01
100
AcDbLine
 10
14.0
 20
-9.0
 30
0.0
 11
83.0
 21
-9.0
 31
0.0
  0
ARC
  5
2677
330
265F
100
AcDbEntity
  8
LW 3520-06-01
100
AcDbCircle
 10
10.0
 20
-172.9999999999999
 30
0.0
 40
2.0
100
AcDbArc
 50
270.0
 51
0.0
  0
ARC
  5
2678
330
265F
100
AcDbEntity
  8
LW 3520-06-01
100
AcDbCircle
 10
116.0
 20
-6.999999999999943
 30
0.0
 40
2.0
100
AcDbArc
 50
270.0
 51
0.0
  0
LINE
  5
2679
330
265F
100
AcDbEntity
  8
LW 3520-06-01
100
AcDbLine
 10
83.0
 20
0.0
 30
0.0
 11
118.0
 21
0.0
 31
0.0
  0
LINE
  5
267A
330
265F
100
AcDbEntity
  8
LW 3520-06-01
100
AcDbLine
 10
3.0
 20
-175.0
 30
0.0
 11
3.0
 21
-139.9999999999999
 31
0.0
  0
LINE
  5
267B
330
265F
100
AcDbEntity
  8
LW 3520-06-01
100
AcDbLine
 10
3.0
 20
-175.0
 30
0.0
 11
10.0
 21
-175.0
 31
0.0
  0
LINE
  5
267C
330
265F
100
AcDbEntity
  8
LW 3520-06-01
100
AcDbLine
 10
118.0
 20
-6.999999999999943
 30
0.0
 11
118.0
 21
0.0
 31
0.0
  0
LINE
  5
267D
330
265F
100
AcDbEntity
  8
LW 3520-06-01
100
AcDbLine
 10
83.0
 20
0.0
 30
0.0
 11
3.0
 21
0.0
 31
0.0
  0
LINE
  5
267E
330
265F
100
AcDbEntity
  8
LW 3520-06-01
100
AcDbLine
 10
3.0
 20
0.0
 30
0.0
 11
3.0
 21
-139.9999999999999
 31
0.0
  0
ARC
  5
267F
330
265F
100
AcDbEntity
  8
LW 3520-06-01
100
AcDbCircle
 10
13.99999999999994
 20
-40.0
 30
0.0
 40
1.999999999999928
100
AcDbArc
 50
126.869897645842
 51
180.0
  0
ARC
  5
2680
330
265F
100
AcDbEntity
  8
LW 3520-06-01
100
AcDbCircle
 10
52.66665613093266
 20
-10.99997498133973
 30
0.0
 40
1.999972927955441
100
AcDbArc
 50
89.99969816967691
 51
126.8700862261824
  0
LINE
  5
2681
330
265F
100
AcDbEntity
  8
LW 3520-06-01
100
AcDbLine
 10
51.4666666666667
 20
-9.399999999999977
 30
0.0
 11
12.80000000000001
 21
-38.39999999999998
 31
0.0
  0
LINE
  5
2682
330
265F
100
AcDbEntity
  8
LW 3520-06-01
100
AcDbLine
 10
-60.50000000000003
 20
-14.0
 30
0.0
 11
-105.5
 21
-14.0
 31
0.0
  0
LINE
  5
2683
330
265F
100
AcDbEntity
  8
LW 3520-06-01
100
AcDbLine
 10
-60.50000000000003
 20
-9.0
 30
0.0
 11
-60.50000000000003
 21
-14.0
 31
0.0
  0
LINE
  5
2684
330
265F
100
AcDbEntity
  8
LW 3520-06-01
100
AcDbLine
 10
-105.5
 20
-9.0
 30
0.0
 11
-105.5
 21
-14.0
 31
0.0
  0
LINE
  5
2685
330
265F
100
AcDbEntity
  8
LW 3520-06-01
100
AcDbLine
 10
-105.5
 20
5.0
 30
0.0
 11
-60.50000000000003
 21
5.0
 31
0.0
  0
LINE
  5
2686
330
265F
100
AcDbEntity
  8
LW 3520-06-01
100
AcDbLine
 10
-105.5
 20
0.0
 30
0.0
 11
-105.5
 21
5.0
 31
0.0
  0
LINE
  5
2687
330
265F
100
AcDbEntity
  8
LW 3520-06-01
100
AcDbLine
 10
-60.50000000000003
 20
0.0
 30
0.0
 11
-60.50000000000003
 21
5.0
 31
0.0
  0
LINE
  5
2688
330
265F
100
AcDbEntity
  8
LW 3520-06-01
100
AcDbLine
 10
105.5
 20
-14.0
 30
0.0
 11
60.5
 21
-14.0
 31
0.0
  0
LINE
  5
2689
330
265F
100
AcDbEntity
  8
LW 3520-06-01
100
AcDbLine
 10
105.5
 20
-9.0
 30
0.0
 11
105.5
 21
-14.0
 31
0.0
  0
LINE
  5
268A
330
265F
100
AcDbEntity
  8
LW 3520-06-01
100
AcDbLine
 10
60.5
 20
-9.0
 30
0.0
 11
60.5
 21
-14.0
 31
0.0
  0
LINE
  5
268B
330
265F
100
AcDbEntity
  8
LW 3520-06-01
100
AcDbLine
 10
60.5
 20
5.0
 30
0.0
 11
105.5
 21
5.0
 31
0.0
  0
LINE
  5
268C
330
265F
100
AcDbEntity
  8
LW 3520-06-01
100
AcDbLine
 10
60.5
 20
0.0
 30
0.0
 11
60.5
 21
5.0
 31
0.0
  0
LINE
  5
268D
330
265F
100
AcDbEntity
  8
LW 3520-06-01
100
AcDbLine
 10
105.5
 20
0.0
 30
0.0
 11
105.5
 21
5.0
 31
0.0
  0
LINE
  5
268E
330
265F
100
AcDbEntity
  8
LW 3520-06-01
100
AcDbLine
 10
89.99999999999994
 20
21.0
 30
0.0
 11
75.99999999999988
 21
21.0
 31
0.0
  0
LINE
  5
268F
330
265F
100
AcDbEntity
  8
LW 3520-06-01
100
AcDbLine
 10
88.99999999999995
 20
22.0
 30
0.0
 11
76.99999999999988
 21
22.0
 31
0.0
  0
LINE
  5
2690
330
265F
100
AcDbEntity
  8
LW 3520-06-01
100
AcDbLine
 10
75.99999999999994
 20
5.000000000000056
 30
0.0
 11
75.99999999999988
 21
21.0
 31
0.0
  0
LINE
  5
2691
330
265F
100
AcDbEntity
  8
LW 3520-06-01
100
AcDbLine
 10
89.99999999999994
 20
5.000000000000056
 30
0.0
 11
89.99999999999994
 21
21.0
 31
0.0
  0
LINE
  5
2692
330
265F
100
AcDbEntity
  8
LW 3520-06-01
100
AcDbLine
 10
88.99999999999995
 20
22.0
 30
0.0
 11
89.99999999999994
 21
21.00000000000006
 31
0.0
  0
LINE
  5
2693
330
265F
100
AcDbEntity
  8
LW 3520-06-01
100
AcDbLine
 10
76.99999999999988
 20
22.0
 30
0.0
 11
75.99999999999994
 21
21.0
 31
0.0
  0
LINE
  5
2694
330
265F
100
AcDbEntity
  8
LW 3520-06-01
 62
     3
100
AcDbLine
 10
77.20549999999992
 20
21.99999999999994
 30
0.0
 11
77.20549999999992
 21
5.000000000000056
 31
0.0
  0
LINE
  5
2695
330
265F
100
AcDbEntity
  8
LW 3520-06-01
 62
     3
100
AcDbLine
 10
88.79449999999991
 20
5.000000000000056
 30
0.0
 11
88.79449999999991
 21
21.99999999999994
 31
0.0
  0
LINE
  5
2696
330
265F
100
AcDbEntity
  8
LW 3520-06-01
100
AcDbLine
 10
89.99999999999994
 20
21.0
 30
0.0
 11
75.99999999999988
 21
21.0
 31
0.0
  0
LINE
  5
2697
330
265F
100
AcDbEntity
  8
LW 3520-06-01
100
AcDbLine
 10
-76.0
 20
21.0
 30
0.0
 11
-89.99999999999998
 21
21.0
 31
0.0
  0
LINE
  5
2698
330
265F
100
AcDbEntity
  8
LW 3520-06-01
100
AcDbLine
 10
-76.99999999999997
 20
22.0
 30
0.0
 11
-89.0
 21
22.0
 31
0.0
  0
LINE
  5
2699
330
265F
100
AcDbEntity
  8
LW 3520-06-01
100
AcDbLine
 10
-89.99999999999998
 20
5.0
 30
0.0
 11
-89.99999999999998
 21
21.0
 31
0.0
  0
LINE
  5
269A
330
265F
100
AcDbEntity
  8
LW 3520-06-01
100
AcDbLine
 10
-76.0
 20
5.0
 30
0.0
 11
-76.0
 21
21.0
 31
0.0
  0
LINE
  5
269B
330
265F
100
AcDbEntity
  8
LW 3520-06-01
100
AcDbLine
 10
-77.0
 20
22.0
 30
0.0
 11
-76.0
 21
21.0
 31
0.0
  0
LINE
  5
269C
330
265F
100
AcDbEntity
  8
LW 3520-06-01
100
AcDbLine
 10
-89.0
 20
22.0
 30
0.0
 11
-90.0
 21
21.0
 31
0.0
  0
LINE
  5
269D
330
265F
100
AcDbEntity
  8
LW 3520-06-01
 62
     3
100
AcDbLine
 10
-88.7945
 20
22.0
 30
0.0
 11
-88.7945
 21
5.0
 31
0.0
  0
LINE
  5
269E
330
265F
100
AcDbEntity
  8
LW 3520-06-01
 62
     3
100
AcDbLine
 10
-77.2055
 20
5.0
 30
0.0
 11
-77.2055
 21
22.0
 31
0.0
  0
LINE
  5
269F
330
265F
100
AcDbEntity
  8
LW 3520-06-01
100
AcDbLine
 10
-76.00000000000003
 20
21.0
 30
0.0
 11
-90.0
 21
21.0
 31
0.0
  0
ELLIPSE
  5
26A0
330
265F
100
AcDbEntity
  8
LW 3520-06-01
100
AcDbEllipse
 10
89.25000000000006
 20
-30.0
 30
0.0
 11
0.000000000000115
 21
1.999999999999962
 31
0.0
210
0.0
220
0.0
230
1.0
 40
0.8660254037844643
 41
3.935761501374585
 42
5.489016459394972
  0
POLYLINE
  5
26A1
330
265F
100
AcDbEntity
  8
LW 3520-06-01
100
AcDb2dPolyline
 66
     1
 10
0.0
 20
0.0
 30
0.0
 70
   128
  0
VERTEX
  5
26A2
330
26A1
100
AcDbEntity
  8
LW 3520-06-01
100
AcDbVertex
100
AcDb2dVertex
 10
91.75000000000006
 20
-31.99999952316284
 30
0.0
  0
VERTEX
  5
26A3
330
26A1
100
AcDbEntity
  8
LW 3520-06-01
100
AcDbVertex
100
AcDb2dVertex
 10
91.52777421474462
 20
-31.98318386077881
 30
0.0
  0
VERTEX
  5
26A4
330
26A1
100
AcDbEntity
  8
LW 3520-06-01
100
AcDbVertex
100
AcDb2dVertex
 10
91.30145597457891
 20
-31.93250799179077
 30
0.0
  0
VERTEX
  5
26A5
330
26A1
100
AcDbEntity
  8
LW 3520-06-01
100
AcDbVertex
100
AcDb2dVertex
 10
91.07852804660803
 20
-31.84763216972351
 30
0.0
  0
VERTEX
  5
26A6
330
26A1
100
AcDbEntity
  8
LW 3520-06-01
100
AcDbVertex
100
AcDb2dVertex
 10
90.8661978244782
 20
-31.72932291030884
 30
0.0
  0
VERTEX
  5
26A7
330
26A1
100
AcDbEntity
  8
LW 3520-06-01
100
AcDbVertex
100
AcDb2dVertex
 10
90.6703834533692
 20
-31.58275866508484
 30
0.0
  0
VERTEX
  5
26A8
330
26A1
100
AcDbEntity
  8
LW 3520-06-01
100
AcDbVertex
100
AcDb2dVertex
 10
90.49663412570959
 20
-31.41421103477478
 30
0.0
  0
VERTEX
  5
26A9
330
26A1
100
AcDbEntity
  8
LW 3520-06-01
100
AcDbVertex
100
AcDb2dVertex
 10
90.34341621398931
 20
-31.22194790840149
 30
0.0
  0
VERTEX
  5
26AA
330
26A1
100
AcDbEntity
  8
LW 3520-06-01
100
AcDbVertex
100
AcDb2dVertex
 10
90.20952391624456
 20
-31.0038640499115
 30
0.0
  0
VERTEX
  5
26AB
330
26A1
100
AcDbEntity
  8
LW 3520-06-01
100
AcDbVertex
100
AcDb2dVertex
 10
90.10099756717687
 20
-30.76566958427429
 30
0.0
  0
VERTEX
  5
26AC
330
26A1
100
AcDbEntity
  8
LW 3520-06-01
100
AcDbVertex
100
AcDb2dVertex
 10
90.02290117740637
 20
-30.51353359222412
 30
0.0
  0
VERTEX
  5
26AD
330
26A1
100
AcDbEntity
  8
LW 3520-06-01
100
AcDbVertex
100
AcDb2dVertex
 10
89.97616219520574
 20
-30.25547885894776
 30
0.0
  0
VERTEX
  5
26AE
330
26A1
100
AcDbEntity
  8
LW 3520-06-01
100
AcDbVertex
100
AcDb2dVertex
 10
89.96061849594122
 20
-30.00000023841858
 30
0.0
  0
VERTEX
  5
26AF
330
26A1
100
AcDbEntity
  8
LW 3520-06-01
100
AcDbVertex
100
AcDb2dVertex
 10
89.97616219520574
 20
-29.74452042579651
 30
0.0
  0
VERTEX
  5
26B0
330
26A1
100
AcDbEntity
  8
LW 3520-06-01
100
AcDbVertex
100
AcDb2dVertex
 10
90.02290117740637
 20
-29.48646688461304
 30
0.0
  0
VERTEX
  5
26B1
330
26A1
100
AcDbEntity
  8
LW 3520-06-01
100
AcDbVertex
100
AcDb2dVertex
 10
90.10099756717687
 20
-29.23433089256287
 30
0.0
  0
VERTEX
  5
26B2
330
26A1
100
AcDbEntity
  8
LW 3520-06-01
100
AcDbVertex
100
AcDb2dVertex
 10
90.20952391624456
 20
-28.99613642692566
 30
0.0
  0
VERTEX
  5
26B3
330
26A1
100
AcDbEntity
  8
LW 3520-06-01
100
AcDbVertex
100
AcDb2dVertex
 10
90.34341621398931
 20
-28.77805137634278
 30
0.0
  0
VERTEX
  5
26B4
330
26A1
100
AcDbEntity
  8
LW 3520-06-01
100
AcDbVertex
100
AcDb2dVertex
 10
90.49663412570959
 20
-28.58578944206238
 30
0.0
  0
VERTEX
  5
26B5
330
26A1
100
AcDbEntity
  8
LW 3520-06-01
100
AcDbVertex
100
AcDb2dVertex
 10
90.6703834533692
 20
-28.41724181175232
 30
0.0
  0
VERTEX
  5
26B6
330
26A1
100
AcDbEntity
  8
LW 3520-06-01
100
AcDbVertex
100
AcDb2dVertex
 10
90.8661978244782
 20
-28.27067637443543
 30
0.0
  0
VERTEX
  5
26B7
330
26A1
100
AcDbEntity
  8
LW 3520-06-01
100
AcDbVertex
100
AcDb2dVertex
 10
91.07852804660803
 20
-28.15236830711365
 30
0.0
  0
VERTEX
  5
26B8
330
26A1
100
AcDbEntity
  8
LW 3520-06-01
100
AcDbVertex
100
AcDb2dVertex
 10
91.30145597457891
 20
-28.06749248504639
 30
0.0
  0
VERTEX
  5
26B9
330
26A1
100
AcDbEntity
  8
LW 3520-06-01
100
AcDbVertex
100
AcDb2dVertex
 10
91.52777421474462
 20
-28.01681661605835
 30
0.0
  0
VERTEX
  5
26BA
330
26A1
100
AcDbEntity
  8
LW 3520-06-01
100
AcDbVertex
100
AcDb2dVertex
 10
91.75000000000006
 20
-27.99999976158142
 30
0.0
  0
SEQEND
  5
26BB
330
26A1
100
AcDbEntity
  8
LW 3520-06-01
  0
POLYLINE
  5
26BC
330
265F
100
AcDbEntity
  8
LW 3520-06-01
100
AcDb2dPolyline
 66
     1
 10
0.0
 20
0.0
 30
0.0
 70
   128
  0
VERTEX
  5
26BD
330
26BC
100
AcDbEntity
  8
LW 3520-06-01
100
AcDbVertex
100
AcDb2dVertex
 10
91.75000000000006
 20
-27.99999976158142
 30
0.0
  0
VERTEX
  5
26BE
330
26BC
100
AcDbEntity
  8
LW 3520-06-01
100
AcDbVertex
100
AcDb2dVertex
 10
91.97027850151068
 20
-28.01681661605835
 30
0.0
  0
VERTEX
  5
26BF
330
26BC
100
AcDbEntity
  8
LW 3520-06-01
100
AcDbVertex
100
AcDb2dVertex
 10
92.19092595577246
 20
-28.06749248504639
 30
0.0
  0
VERTEX
  5
26C0
330
26BC
100
AcDbEntity
  8
LW 3520-06-01
100
AcDbVertex
100
AcDb2dVertex
 10
92.40471351146704
 20
-28.15236830711365
 30
0.0
  0
VERTEX
  5
26C1
330
26BC
100
AcDbEntity
  8
LW 3520-06-01
100
AcDbVertex
100
AcDb2dVertex
 10
92.60495173931127
 20
-28.27067637443543
 30
0.0
  0
VERTEX
  5
26C2
330
26BC
100
AcDbEntity
  8
LW 3520-06-01
100
AcDbVertex
100
AcDb2dVertex
 10
92.78687107563024
 20
-28.41724181175232
 30
0.0
  0
VERTEX
  5
26C3
330
26BC
100
AcDbEntity
  8
LW 3520-06-01
100
AcDbVertex
100
AcDb2dVertex
 10
92.94612932205206
 20
-28.58578944206238
 30
0.0
  0
VERTEX
  5
26C4
330
26BC
100
AcDbEntity
  8
LW 3520-06-01
100
AcDbVertex
100
AcDb2dVertex
 10
93.08484244346624
 20
-28.77805137634278
 30
0.0
  0
VERTEX
  5
26C5
330
26BC
100
AcDbEntity
  8
LW 3520-06-01
100
AcDbVertex
100
AcDb2dVertex
 10
93.20480632781988
 20
-28.99613642692566
 30
0.0
  0
VERTEX
  5
26C6
330
26BC
100
AcDbEntity
  8
LW 3520-06-01
100
AcDbVertex
100
AcDb2dVertex
 10
93.30119299888616
 20
-29.23433089256287
 30
0.0
  0
VERTEX
  5
26C7
330
26BC
100
AcDbEntity
  8
LW 3520-06-01
100
AcDbVertex
100
AcDb2dVertex
 10
93.37010312080389
 20
-29.48646688461304
 30
0.0
  0
VERTEX
  5
26C8
330
26BC
100
AcDbEntity
  8
LW 3520-06-01
100
AcDbVertex
100
AcDb2dVertex
 10
93.41113734245306
 20
-29.74452042579651
 30
0.0
  0
VERTEX
  5
26C9
330
26BC
100
AcDbEntity
  8
LW 3520-06-01
100
AcDbVertex
100
AcDb2dVertex
 10
93.42472004890447
 20
-30.00000023841858
 30
0.0
  0
VERTEX
  5
26CA
330
26BC
100
AcDbEntity
  8
LW 3520-06-01
100
AcDbVertex
100
AcDb2dVertex
 10
93.41113734245306
 20
-30.25547885894776
 30
0.0
  0
VERTEX
  5
26CB
330
26BC
100
AcDbEntity
  8
LW 3520-06-01
100
AcDbVertex
100
AcDb2dVertex
 10
93.37010312080389
 20
-30.51353359222412
 30
0.0
  0
VERTEX
  5
26CC
330
26BC
100
AcDbEntity
  8
LW 3520-06-01
100
AcDbVertex
100
AcDb2dVertex
 10
93.30119299888616
 20
-30.76566958427429
 30
0.0
  0
VERTEX
  5
26CD
330
26BC
100
AcDbEntity
  8
LW 3520-06-01
100
AcDbVertex
100
AcDb2dVertex
 10
93.20480632781988
 20
-31.0038640499115
 30
0.0
  0
VERTEX
  5
26CE
330
26BC
100
AcDbEntity
  8
LW 3520-06-01
100
AcDbVertex
100
AcDb2dVertex
 10
93.08484244346624
 20
-31.22194790840149
 30
0.0
  0
VERTEX
  5
26CF
330
26BC
100
AcDbEntity
  8
LW 3520-06-01
100
AcDbVertex
100
AcDb2dVertex
 10
92.94612932205206
 20
-31.41421103477478
 30
0.0
  0
VERTEX
  5
26D0
330
26BC
100
AcDbEntity
  8
LW 3520-06-01
100
AcDbVertex
100
AcDb2dVertex
 10
92.78687107563024
 20
-31.58275866508484
 30
0.0
  0
VERTEX
  5
26D1
330
26BC
100
AcDbEntity
  8
LW 3520-06-01
100
AcDbVertex
100
AcDb2dVertex
 10
92.60495173931127
 20
-31.72932291030884
 30
0.0
  0
VERTEX
  5
26D2
330
26BC
100
AcDbEntity
  8
LW 3520-06-01
100
AcDbVertex
100
AcDb2dVertex
 10
92.40471351146704
 20
-31.84763216972351
 30
0.0
  0
VERTEX
  5
26D3
330
26BC
100
AcDbEntity
  8
LW 3520-06-01
100
AcDbVertex
100
AcDb2dVertex
 10
92.19092595577246
 20
-31.93250799179077
 30
0.0
  0
VERTEX
  5
26D4
330
26BC
100
AcDbEntity
  8
LW 3520-06-01
100
AcDbVertex
100
AcDb2dVertex
 10
91.97027850151068
 20
-31.98318386077881
 30
0.0
  0
VERTEX
  5
26D5
330
26BC
100
AcDbEntity
  8
LW 3520-06-01
100
AcDbVertex
100
AcDb2dVertex
 10
91.75000000000006
 20
-31.99999952316284
 30
0.0
  0
SEQEND
  5
26D6
330
26BC
100
AcDbEntity
  8
LW 3520-06-01
  0
POLYLINE
  5
26D7
330
265F
100
AcDbEntity
  8
LW 3520-06-01
100
AcDb2dPolyline
 66
     1
 10
0.0
 20
0.0
 30
0.0
 70
   128
  0
VERTEX
  5
26D8
330
26D7
100
AcDbEntity
  8
LW 3520-06-01
100
AcDbVertex
100
AcDb2dVertex
 10
65.50000000000006
 20
-27.99999976158142
 30
0.0
  0
VERTEX
  5
26D9
330
26D7
100
AcDbEntity
  8
LW 3520-06-01
100
AcDbVertex
100
AcDb2dVertex
 10
65.50194668769842
 20
-28.01681661605835
 30
0.0
  0
VERTEX
  5
26DA
330
26D7
100
AcDbEntity
  8
LW 3520-06-01
100
AcDbVertex
100
AcDb2dVertex
 10
65.50761866569525
 20
-28.06749248504639
 30
0.0
  0
VERTEX
  5
26DB
330
26D7
100
AcDbEntity
  8
LW 3520-06-01
100
AcDbVertex
100
AcDb2dVertex
 10
65.5167584419251
 20
-28.15236830711365
 30
0.0
  0
VERTEX
  5
26DC
330
26D7
100
AcDbEntity
  8
LW 3520-06-01
100
AcDbVertex
100
AcDb2dVertex
 10
65.52885103225714
 20
-28.27067637443543
 30
0.0
  0
VERTEX
  5
26DD
330
26D7
100
AcDbEntity
  8
LW 3520-06-01
100
AcDbVertex
100
AcDb2dVertex
 10
65.54274606704717
 20
-28.41724181175232
 30
0.0
  0
VERTEX
  5
26DE
330
26D7
100
AcDbEntity
  8
LW 3520-06-01
100
AcDbVertex
100
AcDb2dVertex
 10
65.55723714828497
 20
-28.58578944206238
 30
0.0
  0
VERTEX
  5
26DF
330
26D7
100
AcDbEntity
  8
LW 3520-06-01
100
AcDbVertex
100
AcDb2dVertex
 10
65.57174134254461
 20
-28.77805137634278
 30
0.0
  0
VERTEX
  5
26E0
330
26D7
100
AcDbEntity
  8
LW 3520-06-01
100
AcDbVertex
100
AcDb2dVertex
 10
65.58566975593572
 20
-28.99613642692566
 30
0.0
  0
VERTEX
  5
26E1
330
26D7
100
AcDbEntity
  8
LW 3520-06-01
100
AcDbVertex
100
AcDb2dVertex
 10
65.59780883789068
 20
-29.23433089256287
 30
0.0
  0
VERTEX
  5
26E2
330
26D7
100
AcDbEntity
  8
LW 3520-06-01
100
AcDbVertex
100
AcDb2dVertex
 10
65.60699510574346
 20
-29.48646688461304
 30
0.0
  0
VERTEX
  5
26E3
330
26D7
100
AcDbEntity
  8
LW 3520-06-01
100
AcDbVertex
100
AcDb2dVertex
 10
65.61270046234136
 20
-29.74452042579651
 30
0.0
  0
VERTEX
  5
26E4
330
26D7
100
AcDbEntity
  8
LW 3520-06-01
100
AcDbVertex
100
AcDb2dVertex
 10
65.61466145515447
 20
-30.00000023841858
 30
0.0
  0
VERTEX
  5
26E5
330
26D7
100
AcDbEntity
  8
LW 3520-06-01
100
AcDbVertex
100
AcDb2dVertex
 10
65.61270046234136
 20
-30.25547885894776
 30
0.0
  0
VERTEX
  5
26E6
330
26D7
100
AcDbEntity
  8
LW 3520-06-01
100
AcDbVertex
100
AcDb2dVertex
 10
65.60699510574346
 20
-30.51353359222412
 30
0.0
  0
VERTEX
  5
26E7
330
26D7
100
AcDbEntity
  8
LW 3520-06-01
100
AcDbVertex
100
AcDb2dVertex
 10
65.59780883789068
 20
-30.76566958427429
 30
0.0
  0
VERTEX
  5
26E8
330
26D7
100
AcDbEntity
  8
LW 3520-06-01
100
AcDbVertex
100
AcDb2dVertex
 10
65.58566975593572
 20
-31.0038640499115
 30
0.0
  0
VERTEX
  5
26E9
330
26D7
100
AcDbEntity
  8
LW 3520-06-01
100
AcDbVertex
100
AcDb2dVertex
 10
65.57174134254461
 20
-31.22194790840149
 30
0.0
  0
VERTEX
  5
26EA
330
26D7
100
AcDbEntity
  8
LW 3520-06-01
100
AcDbVertex
100
AcDb2dVertex
 10
65.55723714828497
 20
-31.41421103477478
 30
0.0
  0
VERTEX
  5
26EB
330
26D7
100
AcDbEntity
  8
LW 3520-06-01
100
AcDbVertex
100
AcDb2dVertex
 10
65.54274606704717
 20
-31.58275866508484
 30
0.0
  0
VERTEX
  5
26EC
330
26D7
100
AcDbEntity
  8
LW 3520-06-01
100
AcDbVertex
100
AcDb2dVertex
 10
65.52885103225714
 20
-31.72932291030884
 30
0.0
  0
VERTEX
  5
26ED
330
26D7
100
AcDbEntity
  8
LW 3520-06-01
100
AcDbVertex
100
AcDb2dVertex
 10
65.5167584419251
 20
-31.84763216972351
 30
0.0
  0
VERTEX
  5
26EE
330
26D7
100
AcDbEntity
  8
LW 3520-06-01
100
AcDbVertex
100
AcDb2dVertex
 10
65.50761866569525
 20
-31.93250799179077
 30
0.0
  0
VERTEX
  5
26EF
330
26D7
100
AcDbEntity
  8
LW 3520-06-01
100
AcDbVertex
100
AcDb2dVertex
 10
65.50194668769842
 20
-31.98318386077881
 30
0.0
  0
VERTEX
  5
26F0
330
26D7
100
AcDbEntity
  8
LW 3520-06-01
100
AcDbVertex
100
AcDb2dVertex
 10
65.50000000000006
 20
-31.99999952316284
 30
0.0
  0
SEQEND
  5
26F1
330
26D7
100
AcDbEntity
  8
LW 3520-06-01
  0
LINE
  5
26F2
330
265F
100
AcDbEntity
  8
LW 3520-06-01
100
AcDbLine
 10
65.50000000000006
 20
-34.0
 30
0.0
 11
100.5
 21
-34.0
 31
0.0
  0
LINE
  5
26F3
330
265F
100
AcDbEntity
  8
LW 3520-06-01
100
AcDbLine
 10
68.5
 20
-37.0
 30
0.0
 11
97.50000000000012
 21
-37.0
 31
0.0
  0
LINE
  5
26F4
330
265F
100
AcDbEntity
  8
LW 3520-06-01
100
AcDbLine
 10
100.5
 20
-14.0
 30
0.0
 11
100.5
 21
-34.0
 31
0.0
  0
LINE
  5
26F5
330
265F
100
AcDbEntity
  8
LW 3520-06-01
100
AcDbLine
 10
65.50000000000006
 20
-14.0
 30
0.0
 11
65.50000000000006
 21
-28.0
 31
0.0
  0
LINE
  5
26F6
330
265F
100
AcDbEntity
  8
LW 3520-06-01
100
AcDbLine
 10
65.50000000000006
 20
-32.0
 30
0.0
 11
65.50000000000006
 21
-34.0
 31
0.0
  0
LINE
  5
26F7
330
265F
100
AcDbEntity
  8
LW 3520-06-01
100
AcDbLine
 10
68.5
 20
-37.0
 30
0.0
 11
65.50000000000006
 21
-34.0
 31
0.0
  0
LINE
  5
26F8
330
265F
100
AcDbEntity
  8
LW 3520-06-01
100
AcDbLine
 10
97.5
 20
-37.0
 30
0.0
 11
100.5
 21
-34.0
 31
0.0
  0
ELLIPSE
  5
26F9
330
265F
100
AcDbEntity
  8
LW 3520-06-01
100
AcDbEllipse
 10
28.0
 20
-66.25
 30
0.0
 11
-1.999999999999962
 21
0.0000000000001156
 31
0.0
210
0.0
220
0.0
230
1.0
 40
0.8660254037844643
 41
0.7941688477847935
 42
2.347423805805178
  0
POLYLINE
  5
26FA
330
265F
100
AcDbEntity
  8
LW 3520-06-01
100
AcDb2dPolyline
 66
     1
 10
0.0
 20
0.0
 30
0.0
 70
   128
  0
VERTEX
  5
26FB
330
26FA
100
AcDbEntity
  8
LW 3520-06-01
100
AcDbVertex
100
AcDb2dVertex
 10
29.99999952316284
 20
-68.75
 30
0.0
  0
VERTEX
  5
26FC
330
26FA
100
AcDbEntity
  8
LW 3520-06-01
100
AcDbVertex
100
AcDb2dVertex
 10
29.98318386077881
 20
-68.97027850151062
 30
0.0
  0
VERTEX
  5
26FD
330
26FA
100
AcDbEntity
  8
LW 3520-06-01
100
AcDbVertex
100
AcDb2dVertex
 10
29.93250799179077
 20
-69.19092595577239
 30
0.0
  0
VERTEX
  5
26FE
330
26FA
100
AcDbEntity
  8
LW 3520-06-01
100
AcDbVertex
100
AcDb2dVertex
 10
29.84763216972351
 20
-69.40471351146697
 30
0.0
  0
VERTEX
  5
26FF
330
26FA
100
AcDbEntity
  8
LW 3520-06-01
100
AcDbVertex
100
AcDb2dVertex
 10
29.72932291030884
 20
-69.60495173931121
 30
0.0
  0
VERTEX
  5
2700
330
26FA
100
AcDbEntity
  8
LW 3520-06-01
100
AcDbVertex
100
AcDb2dVertex
 10
29.58275866508484
 20
-69.78687107563018
 30
0.0
  0
VERTEX
  5
2701
330
26FA
100
AcDbEntity
  8
LW 3520-06-01
100
AcDbVertex
100
AcDb2dVertex
 10
29.41421103477478
 20
-69.946129322052
 30
0.0
  0
VERTEX
  5
2702
330
26FA
100
AcDbEntity
  8
LW 3520-06-01
100
AcDbVertex
100
AcDb2dVertex
 10
29.22194790840149
 20
-70.08484244346618
 30
0.0
  0
VERTEX
  5
2703
330
26FA
100
AcDbEntity
  8
LW 3520-06-01
100
AcDbVertex
100
AcDb2dVertex
 10
29.0038640499115
 20
-70.20480632781982
 30
0.0
  0
VERTEX
  5
2704
330
26FA
100
AcDbEntity
  8
LW 3520-06-01
100
AcDbVertex
100
AcDb2dVertex
 10
28.76566958427429
 20
-70.3011929988861
 30
0.0
  0
VERTEX
  5
2705
330
26FA
100
AcDbEntity
  8
LW 3520-06-01
100
AcDbVertex
100
AcDb2dVertex
 10
28.51353359222412
 20
-70.37010312080383
 30
0.0
  0
VERTEX
  5
2706
330
26FA
100
AcDbEntity
  8
LW 3520-06-01
100
AcDbVertex
100
AcDb2dVertex
 10
28.25547885894776
 20
-70.411137342453
 30
0.0
  0
VERTEX
  5
2707
330
26FA
100
AcDbEntity
  8
LW 3520-06-01
100
AcDbVertex
100
AcDb2dVertex
 10
28.00000023841858
 20
-70.42472004890441
 30
0.0
  0
VERTEX
  5
2708
330
26FA
100
AcDbEntity
  8
LW 3520-06-01
100
AcDbVertex
100
AcDb2dVertex
 10
27.74452042579651
 20
-70.411137342453
 30
0.0
  0
VERTEX
  5
2709
330
26FA
100
AcDbEntity
  8
LW 3520-06-01
100
AcDbVertex
100
AcDb2dVertex
 10
27.48646688461304
 20
-70.37010312080383
 30
0.0
  0
VERTEX
  5
270A
330
26FA
100
AcDbEntity
  8
LW 3520-06-01
100
AcDbVertex
100
AcDb2dVertex
 10
27.23433089256287
 20
-70.3011929988861
 30
0.0
  0
VERTEX
  5
270B
330
26FA
100
AcDbEntity
  8
LW 3520-06-01
100
AcDbVertex
100
AcDb2dVertex
 10
26.99613642692566
 20
-70.20480632781982
 30
0.0
  0
VERTEX
  5
270C
330
26FA
100
AcDbEntity
  8
LW 3520-06-01
100
AcDbVertex
100
AcDb2dVertex
 10
26.77805137634277
 20
-70.08484244346618
 30
0.0
  0
VERTEX
  5
270D
330
26FA
100
AcDbEntity
  8
LW 3520-06-01
100
AcDbVertex
100
AcDb2dVertex
 10
26.58578944206238
 20
-69.946129322052
 30
0.0
  0
VERTEX
  5
270E
330
26FA
100
AcDbEntity
  8
LW 3520-06-01
100
AcDbVertex
100
AcDb2dVertex
 10
26.41724181175232
 20
-69.78687107563018
 30
0.0
  0
VERTEX
  5
270F
330
26FA
100
AcDbEntity
  8
LW 3520-06-01
100
AcDbVertex
100
AcDb2dVertex
 10
26.27067637443543
 20
-69.60495173931121
 30
0.0
  0
VERTEX
  5
2710
330
26FA
100
AcDbEntity
  8
LW 3520-06-01
100
AcDbVertex
100
AcDb2dVertex
 10
26.15236830711365
 20
-69.40471351146697
 30
0.0
  0
VERTEX
  5
2711
330
26FA
100
AcDbEntity
  8
LW 3520-06-01
100
AcDbVertex
100
AcDb2dVertex
 10
26.06749248504639
 20
-69.19092595577239
 30
0.0
  0
VERTEX
  5
2712
330
26FA
100
AcDbEntity
  8
LW 3520-06-01
100
AcDbVertex
100
AcDb2dVertex
 10
26.01681661605835
 20
-68.97027850151062
 30
0.0
  0
VERTEX
  5
2713
330
26FA
100
AcDbEntity
  8
LW 3520-06-01
100
AcDbVertex
100
AcDb2dVertex
 10
25.99999976158142
 20
-68.75
 30
0.0
  0
SEQEND
  5
2714
330
26FA
100
AcDbEntity
  8
LW 3520-06-01
  0
POLYLINE
  5
2715
330
265F
100
AcDbEntity
  8
LW 3520-06-01
100
AcDb2dPolyline
 66
     1
 10
0.0
 20
0.0
 30
0.0
 70
   128
  0
VERTEX
  5
2716
330
2715
100
AcDbEntity
  8
LW 3520-06-01
100
AcDbVertex
100
AcDb2dVertex
 10
25.99999976158142
 20
-68.75
 30
0.0
  0
VERTEX
  5
2717
330
2715
100
AcDbEntity
  8
LW 3520-06-01
100
AcDbVertex
100
AcDb2dVertex
 10
26.01681661605835
 20
-68.52777421474456
 30
0.0
  0
VERTEX
  5
2718
330
2715
100
AcDbEntity
  8
LW 3520-06-01
100
AcDbVertex
100
AcDb2dVertex
 10
26.06749248504639
 20
-68.30145597457885
 30
0.0
  0
VERTEX
  5
2719
330
2715
100
AcDbEntity
  8
LW 3520-06-01
100
AcDbVertex
100
AcDb2dVertex
 10
26.15236830711365
 20
-68.07852804660797
 30
0.0
  0
VERTEX
  5
271A
330
2715
100
AcDbEntity
  8
LW 3520-06-01
100
AcDbVertex
100
AcDb2dVertex
 10
26.27067637443543
 20
-67.86619782447814
 30
0.0
  0
VERTEX
  5
271B
330
2715
100
AcDbEntity
  8
LW 3520-06-01
100
AcDbVertex
100
AcDb2dVertex
 10
26.41724181175232
 20
-67.67038345336914
 30
0.0
  0
VERTEX
  5
271C
330
2715
100
AcDbEntity
  8
LW 3520-06-01
100
AcDbVertex
100
AcDb2dVertex
 10
26.58578944206238
 20
-67.49663412570953
 30
0.0
  0
VERTEX
  5
271D
330
2715
100
AcDbEntity
  8
LW 3520-06-01
100
AcDbVertex
100
AcDb2dVertex
 10
26.77805137634277
 20
-67.34341621398925
 30
0.0
  0
VERTEX
  5
271E
330
2715
100
AcDbEntity
  8
LW 3520-06-01
100
AcDbVertex
100
AcDb2dVertex
 10
26.99613642692566
 20
-67.2095239162445
 30
0.0
  0
VERTEX
  5
271F
330
2715
100
AcDbEntity
  8
LW 3520-06-01
100
AcDbVertex
100
AcDb2dVertex
 10
27.23433089256287
 20
-67.10099756717681
 30
0.0
  0
VERTEX
  5
2720
330
2715
100
AcDbEntity
  8
LW 3520-06-01
100
AcDbVertex
100
AcDb2dVertex
 10
27.48646688461304
 20
-67.02290117740631
 30
0.0
  0
VERTEX
  5
2721
330
2715
100
AcDbEntity
  8
LW 3520-06-01
100
AcDbVertex
100
AcDb2dVertex
 10
27.74452042579651
 20
-66.97616219520568
 30
0.0
  0
VERTEX
  5
2722
330
2715
100
AcDbEntity
  8
LW 3520-06-01
100
AcDbVertex
100
AcDb2dVertex
 10
28.00000023841858
 20
-66.96061849594116
 30
0.0
  0
VERTEX
  5
2723
330
2715
100
AcDbEntity
  8
LW 3520-06-01
100
AcDbVertex
100
AcDb2dVertex
 10
28.25547885894776
 20
-66.97616219520568
 30
0.0
  0
VERTEX
  5
2724
330
2715
100
AcDbEntity
  8
LW 3520-06-01
100
AcDbVertex
100
AcDb2dVertex
 10
28.51353359222412
 20
-67.02290117740631
 30
0.0
  0
VERTEX
  5
2725
330
2715
100
AcDbEntity
  8
LW 3520-06-01
100
AcDbVertex
100
AcDb2dVertex
 10
28.76566958427429
 20
-67.10099756717681
 30
0.0
  0
VERTEX
  5
2726
330
2715
100
AcDbEntity
  8
LW 3520-06-01
100
AcDbVertex
100
AcDb2dVertex
 10
29.0038640499115
 20
-67.2095239162445
 30
0.0
  0
VERTEX
  5
2727
330
2715
100
AcDbEntity
  8
LW 3520-06-01
100
AcDbVertex
100
AcDb2dVertex
 10
29.22194790840149
 20
-67.34341621398925
 30
0.0
  0
VERTEX
  5
2728
330
2715
100
AcDbEntity
  8
LW 3520-06-01
100
AcDbVertex
100
AcDb2dVertex
 10
29.41421103477478
 20
-67.49663412570953
 30
0.0
  0
VERTEX
  5
2729
330
2715
100
AcDbEntity
  8
LW 3520-06-01
100
AcDbVertex
100
AcDb2dVertex
 10
29.58275866508484
 20
-67.67038345336914
 30
0.0
  0
VERTEX
  5
272A
330
2715
100
AcDbEntity
  8
LW 3520-06-01
100
AcDbVertex
100
AcDb2dVertex
 10
29.72932291030884
 20
-67.86619782447814
 30
0.0
  0
VERTEX
  5
272B
330
2715
100
AcDbEntity
  8
LW 3520-06-01
100
AcDbVertex
100
AcDb2dVertex
 10
29.84763216972351
 20
-68.07852804660797
 30
0.0
  0
VERTEX
  5
272C
330
2715
100
AcDbEntity
  8
LW 3520-06-01
100
AcDbVertex
100
AcDb2dVertex
 10
29.93250799179077
 20
-68.30145597457885
 30
0.0
  0
VERTEX
  5
272D
330
2715
100
AcDbEntity
  8
LW 3520-06-01
100
AcDbVertex
100
AcDb2dVertex
 10
29.98318386077881
 20
-68.52777421474456
 30
0.0
  0
VERTEX
  5
272E
330
2715
100
AcDbEntity
  8
LW 3520-06-01
100
AcDbVertex
100
AcDb2dVertex
 10
29.99999952316284
 20
-68.75
 30
0.0
  0
SEQEND
  5
272F
330
2715
100
AcDbEntity
  8
LW 3520-06-01
  0
POLYLINE
  5
2730
330
265F
100
AcDbEntity
  8
LW 3520-06-01
100
AcDb2dPolyline
 66
     1
 10
0.0
 20
0.0
 30
0.0
 70
   128
  0
VERTEX
  5
2731
330
2730
100
AcDbEntity
  8
LW 3520-06-01
100
AcDbVertex
100
AcDb2dVertex
 10
29.99999952316284
 20
-42.5
 30
0.0
  0
VERTEX
  5
2732
330
2730
100
AcDbEntity
  8
LW 3520-06-01
100
AcDbVertex
100
AcDb2dVertex
 10
29.98318386077881
 20
-42.50194668769836
 30
0.0
  0
VERTEX
  5
2733
330
2730
100
AcDbEntity
  8
LW 3520-06-01
100
AcDbVertex
100
AcDb2dVertex
 10
29.93250799179077
 20
-42.50761866569519
 30
0.0
  0
VERTEX
  5
2734
330
2730
100
AcDbEntity
  8
LW 3520-06-01
100
AcDbVertex
100
AcDb2dVertex
 10
29.84763216972351
 20
-42.51675844192504
 30
0.0
  0
VERTEX
  5
2735
330
2730
100
AcDbEntity
  8
LW 3520-06-01
100
AcDbVertex
100
AcDb2dVertex
 10
29.72932291030884
 20
-42.52885103225708
 30
0.0
  0
VERTEX
  5
2736
330
2730
100
AcDbEntity
  8
LW 3520-06-01
100
AcDbVertex
100
AcDb2dVertex
 10
29.58275866508484
 20
-42.54274606704711
 30
0.0
  0
VERTEX
  5
2737
330
2730
100
AcDbEntity
  8
LW 3520-06-01
100
AcDbVertex
100
AcDb2dVertex
 10
29.41421103477478
 20
-42.55723714828491
 30
0.0
  0
VERTEX
  5
2738
330
2730
100
AcDbEntity
  8
LW 3520-06-01
100
AcDbVertex
100
AcDb2dVertex
 10
29.22194790840149
 20
-42.57174134254455
 30
0.0
  0
VERTEX
  5
2739
330
2730
100
AcDbEntity
  8
LW 3520-06-01
100
AcDbVertex
100
AcDb2dVertex
 10
29.0038640499115
 20
-42.58566975593566
 30
0.0
  0
VERTEX
  5
273A
330
2730
100
AcDbEntity
  8
LW 3520-06-01
100
AcDbVertex
100
AcDb2dVertex
 10
28.76566958427429
 20
-42.59780883789062
 30
0.0
  0
VERTEX
  5
273B
330
2730
100
AcDbEntity
  8
LW 3520-06-01
100
AcDbVertex
100
AcDb2dVertex
 10
28.51353359222412
 20
-42.6069951057434
 30
0.0
  0
VERTEX
  5
273C
330
2730
100
AcDbEntity
  8
LW 3520-06-01
100
AcDbVertex
100
AcDb2dVertex
 10
28.25547885894776
 20
-42.6127004623413
 30
0.0
  0
VERTEX
  5
273D
330
2730
100
AcDbEntity
  8
LW 3520-06-01
100
AcDbVertex
100
AcDb2dVertex
 10
28.00000023841858
 20
-42.61466145515441
 30
0.0
  0
VERTEX
  5
273E
330
2730
100
AcDbEntity
  8
LW 3520-06-01
100
AcDbVertex
100
AcDb2dVertex
 10
27.74452042579651
 20
-42.6127004623413
 30
0.0
  0
VERTEX
  5
273F
330
2730
100
AcDbEntity
  8
LW 3520-06-01
100
AcDbVertex
100
AcDb2dVertex
 10
27.48646688461304
 20
-42.6069951057434
 30
0.0
  0
VERTEX
  5
2740
330
2730
100
AcDbEntity
  8
LW 3520-06-01
100
AcDbVertex
100
AcDb2dVertex
 10
27.23433089256287
 20
-42.59780883789062
 30
0.0
  0
VERTEX
  5
2741
330
2730
100
AcDbEntity
  8
LW 3520-06-01
100
AcDbVertex
100
AcDb2dVertex
 10
26.99613642692566
 20
-42.58566975593566
 30
0.0
  0
VERTEX
  5
2742
330
2730
100
AcDbEntity
  8
LW 3520-06-01
100
AcDbVertex
100
AcDb2dVertex
 10
26.77805137634277
 20
-42.57174134254455
 30
0.0
  0
VERTEX
  5
2743
330
2730
100
AcDbEntity
  8
LW 3520-06-01
100
AcDbVertex
100
AcDb2dVertex
 10
26.58578944206238
 20
-42.55723714828491
 30
0.0
  0
VERTEX
  5
2744
330
2730
100
AcDbEntity
  8
LW 3520-06-01
100
AcDbVertex
100
AcDb2dVertex
 10
26.41724181175232
 20
-42.54274606704711
 30
0.0
  0
VERTEX
  5
2745
330
2730
100
AcDbEntity
  8
LW 3520-06-01
100
AcDbVertex
100
AcDb2dVertex
 10
26.27067637443543
 20
-42.52885103225708
 30
0.0
  0
VERTEX
  5
2746
330
2730
100
AcDbEntity
  8
LW 3520-06-01
100
AcDbVertex
100
AcDb2dVertex
 10
26.15236830711365
 20
-42.51675844192504
 30
0.0
  0
VERTEX
  5
2747
330
2730
100
AcDbEntity
  8
LW 3520-06-01
100
AcDbVertex
100
AcDb2dVertex
 10
26.06749248504639
 20
-42.50761866569519
 30
0.0
  0
VERTEX
  5
2748
330
2730
100
AcDbEntity
  8
LW 3520-06-01
100
AcDbVertex
100
AcDb2dVertex
 10
26.01681661605835
 20
-42.50194668769836
 30
0.0
  0
VERTEX
  5
2749
330
2730
100
AcDbEntity
  8
LW 3520-06-01
100
AcDbVertex
100
AcDb2dVertex
 10
25.99999976158142
 20
-42.5
 30
0.0
  0
SEQEND
  5
274A
330
2730
100
AcDbEntity
  8
LW 3520-06-01
  0
LINE
  5
274B
330
265F
100
AcDbEntity
  8
LW 3520-06-01
100
AcDbLine
 10
32.0
 20
-77.5
 30
0.0
 11
32.0
 21
-42.5
 31
0.0
  0
LINE
  5
274C
330
265F
100
AcDbEntity
  8
LW 3520-06-01
100
AcDbLine
 10
35.0
 20
-74.49999999999994
 30
0.0
 11
35.0
 21
-45.49999999999999
 31
0.0
  0
LINE
  5
274D
330
265F
100
AcDbEntity
  8
LW 3520-06-01
100
AcDbLine
 10
12.0
 20
-42.5
 30
0.0
 11
26.0
 21
-42.5
 31
0.0
  0
LINE
  5
274E
330
265F
100
AcDbEntity
  8
LW 3520-06-01
100
AcDbLine
 10
30.0
 20
-42.5
 30
0.0
 11
32.0
 21
-42.5
 31
0.0
  0
LINE
  5
274F
330
265F
100
AcDbEntity
  8
LW 3520-06-01
100
AcDbLine
 10
12.0
 20
-77.5
 30
0.0
 11
32.0
 21
-77.5
 31
0.0
  0
LINE
  5
2750
330
265F
100
AcDbEntity
  8
LW 3520-06-01
100
AcDbLine
 10
35.0
 20
-74.49999999999994
 30
0.0
 11
32.0
 21
-77.5
 31
0.0
  0
LINE
  5
2751
330
265F
100
AcDbEntity
  8
LW 3520-06-01
100
AcDbLine
 10
35.0
 20
-45.49999999999999
 30
0.0
 11
32.0
 21
-42.5
 31
0.0
  0
ELLIPSE
  5
2752
330
265F
100
AcDbEntity
  8
LW 3520-06-01
100
AcDbEllipse
 10
28.0
 20
-146.25
 30
0.0
 11
-1.999999999999996
 21
0.0000000000001138
 31
0.0
210
0.0
220
0.0
230
1.0
 40
0.8660254037844353
 41
0.7941688477848095
 42
2.347423805805161
  0
POLYLINE
  5
2753
330
265F
100
AcDbEntity
  8
LW 3520-06-01
100
AcDb2dPolyline
 66
     1
 10
0.0
 20
0.0
 30
0.0
 70
   128
  0
VERTEX
  5
2754
330
2753
100
AcDbEntity
  8
LW 3520-06-01
100
AcDbVertex
100
AcDb2dVertex
 10
29.99999952316284
 20
-148.75
 30
0.0
  0
VERTEX
  5
2755
330
2753
100
AcDbEntity
  8
LW 3520-06-01
100
AcDbVertex
100
AcDb2dVertex
 10
29.98318386077881
 20
-148.9702785015106
 30
0.0
  0
VERTEX
  5
2756
330
2753
100
AcDbEntity
  8
LW 3520-06-01
100
AcDbVertex
100
AcDb2dVertex
 10
29.93250799179077
 20
-149.1909259557724
 30
0.0
  0
VERTEX
  5
2757
330
2753
100
AcDbEntity
  8
LW 3520-06-01
100
AcDbVertex
100
AcDb2dVertex
 10
29.84763216972351
 20
-149.4047135114669
 30
0.0
  0
VERTEX
  5
2758
330
2753
100
AcDbEntity
  8
LW 3520-06-01
100
AcDbVertex
100
AcDb2dVertex
 10
29.72932291030884
 20
-149.6049517393112
 30
0.0
  0
VERTEX
  5
2759
330
2753
100
AcDbEntity
  8
LW 3520-06-01
100
AcDbVertex
100
AcDb2dVertex
 10
29.58275866508484
 20
-149.7868710756302
 30
0.0
  0
VERTEX
  5
275A
330
2753
100
AcDbEntity
  8
LW 3520-06-01
100
AcDbVertex
100
AcDb2dVertex
 10
29.41421103477478
 20
-149.946129322052
 30
0.0
  0
VERTEX
  5
275B
330
2753
100
AcDbEntity
  8
LW 3520-06-01
100
AcDbVertex
100
AcDb2dVertex
 10
29.22194790840149
 20
-150.0848424434662
 30
0.0
  0
VERTEX
  5
275C
330
2753
100
AcDbEntity
  8
LW 3520-06-01
100
AcDbVertex
100
AcDb2dVertex
 10
29.0038640499115
 20
-150.2048063278198
 30
0.0
  0
VERTEX
  5
275D
330
2753
100
AcDbEntity
  8
LW 3520-06-01
100
AcDbVertex
100
AcDb2dVertex
 10
28.76566958427429
 20
-150.3011929988861
 30
0.0
  0
VERTEX
  5
275E
330
2753
100
AcDbEntity
  8
LW 3520-06-01
100
AcDbVertex
100
AcDb2dVertex
 10
28.51353359222412
 20
-150.3701031208038
 30
0.0
  0
VERTEX
  5
275F
330
2753
100
AcDbEntity
  8
LW 3520-06-01
100
AcDbVertex
100
AcDb2dVertex
 10
28.25547885894776
 20
-150.411137342453
 30
0.0
  0
VERTEX
  5
2760
330
2753
100
AcDbEntity
  8
LW 3520-06-01
100
AcDbVertex
100
AcDb2dVertex
 10
28.00000023841858
 20
-150.4247200489044
 30
0.0
  0
VERTEX
  5
2761
330
2753
100
AcDbEntity
  8
LW 3520-06-01
100
AcDbVertex
100
AcDb2dVertex
 10
27.74452042579651
 20
-150.411137342453
 30
0.0
  0
VERTEX
  5
2762
330
2753
100
AcDbEntity
  8
LW 3520-06-01
100
AcDbVertex
100
AcDb2dVertex
 10
27.48646688461304
 20
-150.3701031208038
 30
0.0
  0
VERTEX
  5
2763
330
2753
100
AcDbEntity
  8
LW 3520-06-01
100
AcDbVertex
100
AcDb2dVertex
 10
27.23433089256287
 20
-150.3011929988861
 30
0.0
  0
VERTEX
  5
2764
330
2753
100
AcDbEntity
  8
LW 3520-06-01
100
AcDbVertex
100
AcDb2dVertex
 10
26.99613642692566
 20
-150.2048063278198
 30
0.0
  0
VERTEX
  5
2765
330
2753
100
AcDbEntity
  8
LW 3520-06-01
100
AcDbVertex
100
AcDb2dVertex
 10
26.77805137634277
 20
-150.0848424434662
 30
0.0
  0
VERTEX
  5
2766
330
2753
100
AcDbEntity
  8
LW 3520-06-01
100
AcDbVertex
100
AcDb2dVertex
 10
26.58578944206238
 20
-149.946129322052
 30
0.0
  0
VERTEX
  5
2767
330
2753
100
AcDbEntity
  8
LW 3520-06-01
100
AcDbVertex
100
AcDb2dVertex
 10
26.41724181175232
 20
-149.7868710756302
 30
0.0
  0
VERTEX
  5
2768
330
2753
100
AcDbEntity
  8
LW 3520-06-01
100
AcDbVertex
100
AcDb2dVertex
 10
26.27067637443543
 20
-149.6049517393112
 30
0.0
  0
VERTEX
  5
2769
330
2753
100
AcDbEntity
  8
LW 3520-06-01
100
AcDbVertex
100
AcDb2dVertex
 10
26.15236830711365
 20
-149.4047135114669
 30
0.0
  0
VERTEX
  5
276A
330
2753
100
AcDbEntity
  8
LW 3520-06-01
100
AcDbVertex
100
AcDb2dVertex
 10
26.06749248504639
 20
-149.1909259557724
 30
0.0
  0
VERTEX
  5
276B
330
2753
100
AcDbEntity
  8
LW 3520-06-01
100
AcDbVertex
100
AcDb2dVertex
 10
26.01681661605835
 20
-148.9702785015106
 30
0.0
  0
VERTEX
  5
276C
330
2753
100
AcDbEntity
  8
LW 3520-06-01
100
AcDbVertex
100
AcDb2dVertex
 10
25.99999976158142
 20
-148.75
 30
0.0
  0
SEQEND
  5
276D
330
2753
100
AcDbEntity
  8
LW 3520-06-01
  0
POLYLINE
  5
276E
330
265F
100
AcDbEntity
  8
LW 3520-06-01
100
AcDb2dPolyline
 66
     1
 10
0.0
 20
0.0
 30
0.0
 70
   128
  0
VERTEX
  5
276F
330
276E
100
AcDbEntity
  8
LW 3520-06-01
100
AcDbVertex
100
AcDb2dVertex
 10
25.99999976158142
 20
-148.75
 30
0.0
  0
VERTEX
  5
2770
330
276E
100
AcDbEntity
  8
LW 3520-06-01
100
AcDbVertex
100
AcDb2dVertex
 10
26.01681661605835
 20
-148.5277742147445
 30
0.0
  0
VERTEX
  5
2771
330
276E
100
AcDbEntity
  8
LW 3520-06-01
100
AcDbVertex
100
AcDb2dVertex
 10
26.06749248504639
 20
-148.3014559745788
 30
0.0
  0
VERTEX
  5
2772
330
276E
100
AcDbEntity
  8
LW 3520-06-01
100
AcDbVertex
100
AcDb2dVertex
 10
26.15236830711365
 20
-148.0785280466079
 30
0.0
  0
VERTEX
  5
2773
330
276E
100
AcDbEntity
  8
LW 3520-06-01
100
AcDbVertex
100
AcDb2dVertex
 10
26.27067637443543
 20
-147.8661978244781
 30
0.0
  0
VERTEX
  5
2774
330
276E
100
AcDbEntity
  8
LW 3520-06-01
100
AcDbVertex
100
AcDb2dVertex
 10
26.41724181175232
 20
-147.6703834533691
 30
0.0
  0
VERTEX
  5
2775
330
276E
100
AcDbEntity
  8
LW 3520-06-01
100
AcDbVertex
100
AcDb2dVertex
 10
26.58578944206238
 20
-147.4966341257095
 30
0.0
  0
VERTEX
  5
2776
330
276E
100
AcDbEntity
  8
LW 3520-06-01
100
AcDbVertex
100
AcDb2dVertex
 10
26.77805137634277
 20
-147.3434162139892
 30
0.0
  0
VERTEX
  5
2777
330
276E
100
AcDbEntity
  8
LW 3520-06-01
100
AcDbVertex
100
AcDb2dVertex
 10
26.99613642692566
 20
-147.2095239162445
 30
0.0
  0
VERTEX
  5
2778
330
276E
100
AcDbEntity
  8
LW 3520-06-01
100
AcDbVertex
100
AcDb2dVertex
 10
27.23433089256287
 20
-147.1009975671768
 30
0.0
  0
VERTEX
  5
2779
330
276E
100
AcDbEntity
  8
LW 3520-06-01
100
AcDbVertex
100
AcDb2dVertex
 10
27.48646688461304
 20
-147.0229011774063
 30
0.0
  0
VERTEX
  5
277A
330
276E
100
AcDbEntity
  8
LW 3520-06-01
100
AcDbVertex
100
AcDb2dVertex
 10
27.74452042579651
 20
-146.9761621952057
 30
0.0
  0
VERTEX
  5
277B
330
276E
100
AcDbEntity
  8
LW 3520-06-01
100
AcDbVertex
100
AcDb2dVertex
 10
28.00000023841858
 20
-146.9606184959411
 30
0.0
  0
VERTEX
  5
277C
330
276E
100
AcDbEntity
  8
LW 3520-06-01
100
AcDbVertex
100
AcDb2dVertex
 10
28.25547885894776
 20
-146.9761621952057
 30
0.0
  0
VERTEX
  5
277D
330
276E
100
AcDbEntity
  8
LW 3520-06-01
100
AcDbVertex
100
AcDb2dVertex
 10
28.51353359222412
 20
-147.0229011774063
 30
0.0
  0
VERTEX
  5
277E
330
276E
100
AcDbEntity
  8
LW 3520-06-01
100
AcDbVertex
100
AcDb2dVertex
 10
28.76566958427429
 20
-147.1009975671768
 30
0.0
  0
VERTEX
  5
277F
330
276E
100
AcDbEntity
  8
LW 3520-06-01
100
AcDbVertex
100
AcDb2dVertex
 10
29.0038640499115
 20
-147.2095239162445
 30
0.0
  0
VERTEX
  5
2780
330
276E
100
AcDbEntity
  8
LW 3520-06-01
100
AcDbVertex
100
AcDb2dVertex
 10
29.22194790840149
 20
-147.3434162139892
 30
0.0
  0
VERTEX
  5
2781
330
276E
100
AcDbEntity
  8
LW 3520-06-01
100
AcDbVertex
100
AcDb2dVertex
 10
29.41421103477478
 20
-147.4966341257095
 30
0.0
  0
VERTEX
  5
2782
330
276E
100
AcDbEntity
  8
LW 3520-06-01
100
AcDbVertex
100
AcDb2dVertex
 10
29.58275866508484
 20
-147.6703834533691
 30
0.0
  0
VERTEX
  5
2783
330
276E
100
AcDbEntity
  8
LW 3520-06-01
100
AcDbVertex
100
AcDb2dVertex
 10
29.72932291030884
 20
-147.8661978244781
 30
0.0
  0
VERTEX
  5
2784
330
276E
100
AcDbEntity
  8
LW 3520-06-01
100
AcDbVertex
100
AcDb2dVertex
 10
29.84763216972351
 20
-148.0785280466079
 30
0.0
  0
VERTEX
  5
2785
330
276E
100
AcDbEntity
  8
LW 3520-06-01
100
AcDbVertex
100
AcDb2dVertex
 10
29.93250799179077
 20
-148.3014559745788
 30
0.0
  0
VERTEX
  5
2786
330
276E
100
AcDbEntity
  8
LW 3520-06-01
100
AcDbVertex
100
AcDb2dVertex
 10
29.98318386077881
 20
-148.5277742147445
 30
0.0
  0
VERTEX
  5
2787
330
276E
100
AcDbEntity
  8
LW 3520-06-01
100
AcDbVertex
100
AcDb2dVertex
 10
29.99999952316284
 20
-148.75
 30
0.0
  0
SEQEND
  5
2788
330
276E
100
AcDbEntity
  8
LW 3520-06-01
  0
POLYLINE
  5
2789
330
265F
100
AcDbEntity
  8
LW 3520-06-01
100
AcDb2dPolyline
 66
     1
 10
0.0
 20
0.0
 30
0.0
 70
   128
  0
VERTEX
  5
278A
330
2789
100
AcDbEntity
  8
LW 3520-06-01
100
AcDbVertex
100
AcDb2dVertex
 10
29.99999952316284
 20
-122.4999999999999
 30
0.0
  0
VERTEX
  5
278B
330
2789
100
AcDbEntity
  8
LW 3520-06-01
100
AcDbVertex
100
AcDb2dVertex
 10
29.98318386077881
 20
-122.5019466876983
 30
0.0
  0
VERTEX
  5
278C
330
2789
100
AcDbEntity
  8
LW 3520-06-01
100
AcDbVertex
100
AcDb2dVertex
 10
29.93250799179077
 20
-122.5076186656951
 30
0.0
  0
VERTEX
  5
278D
330
2789
100
AcDbEntity
  8
LW 3520-06-01
100
AcDbVertex
100
AcDb2dVertex
 10
29.84763216972351
 20
-122.516758441925
 30
0.0
  0
VERTEX
  5
278E
330
2789
100
AcDbEntity
  8
LW 3520-06-01
100
AcDbVertex
100
AcDb2dVertex
 10
29.72932291030884
 20
-122.528851032257
 30
0.0
  0
VERTEX
  5
278F
330
2789
100
AcDbEntity
  8
LW 3520-06-01
100
AcDbVertex
100
AcDb2dVertex
 10
29.58275866508484
 20
-122.5427460670471
 30
0.0
  0
VERTEX
  5
2790
330
2789
100
AcDbEntity
  8
LW 3520-06-01
100
AcDbVertex
100
AcDb2dVertex
 10
29.41421103477478
 20
-122.5572371482849
 30
0.0
  0
VERTEX
  5
2791
330
2789
100
AcDbEntity
  8
LW 3520-06-01
100
AcDbVertex
100
AcDb2dVertex
 10
29.22194790840149
 20
-122.5717413425445
 30
0.0
  0
VERTEX
  5
2792
330
2789
100
AcDbEntity
  8
LW 3520-06-01
100
AcDbVertex
100
AcDb2dVertex
 10
29.0038640499115
 20
-122.5856697559356
 30
0.0
  0
VERTEX
  5
2793
330
2789
100
AcDbEntity
  8
LW 3520-06-01
100
AcDbVertex
100
AcDb2dVertex
 10
28.76566958427429
 20
-122.5978088378906
 30
0.0
  0
VERTEX
  5
2794
330
2789
100
AcDbEntity
  8
LW 3520-06-01
100
AcDbVertex
100
AcDb2dVertex
 10
28.51353359222412
 20
-122.6069951057433
 30
0.0
  0
VERTEX
  5
2795
330
2789
100
AcDbEntity
  8
LW 3520-06-01
100
AcDbVertex
100
AcDb2dVertex
 10
28.25547885894776
 20
-122.6127004623412
 30
0.0
  0
VERTEX
  5
2796
330
2789
100
AcDbEntity
  8
LW 3520-06-01
100
AcDbVertex
100
AcDb2dVertex
 10
28.00000023841858
 20
-122.6146614551544
 30
0.0
  0
VERTEX
  5
2797
330
2789
100
AcDbEntity
  8
LW 3520-06-01
100
AcDbVertex
100
AcDb2dVertex
 10
27.74452042579651
 20
-122.6127004623412
 30
0.0
  0
VERTEX
  5
2798
330
2789
100
AcDbEntity
  8
LW 3520-06-01
100
AcDbVertex
100
AcDb2dVertex
 10
27.48646688461304
 20
-122.6069951057433
 30
0.0
  0
VERTEX
  5
2799
330
2789
100
AcDbEntity
  8
LW 3520-06-01
100
AcDbVertex
100
AcDb2dVertex
 10
27.23433089256287
 20
-122.5978088378906
 30
0.0
  0
VERTEX
  5
279A
330
2789
100
AcDbEntity
  8
LW 3520-06-01
100
AcDbVertex
100
AcDb2dVertex
 10
26.99613642692566
 20
-122.5856697559356
 30
0.0
  0
VERTEX
  5
279B
330
2789
100
AcDbEntity
  8
LW 3520-06-01
100
AcDbVertex
100
AcDb2dVertex
 10
26.77805137634277
 20
-122.5717413425445
 30
0.0
  0
VERTEX
  5
279C
330
2789
100
AcDbEntity
  8
LW 3520-06-01
100
AcDbVertex
100
AcDb2dVertex
 10
26.58578944206238
 20
-122.5572371482849
 30
0.0
  0
VERTEX
  5
279D
330
2789
100
AcDbEntity
  8
LW 3520-06-01
100
AcDbVertex
100
AcDb2dVertex
 10
26.41724181175232
 20
-122.5427460670471
 30
0.0
  0
VERTEX
  5
279E
330
2789
100
AcDbEntity
  8
LW 3520-06-01
100
AcDbVertex
100
AcDb2dVertex
 10
26.27067637443543
 20
-122.528851032257
 30
0.0
  0
VERTEX
  5
279F
330
2789
100
AcDbEntity
  8
LW 3520-06-01
100
AcDbVertex
100
AcDb2dVertex
 10
26.15236830711365
 20
-122.516758441925
 30
0.0
  0
VERTEX
  5
27A0
330
2789
100
AcDbEntity
  8
LW 3520-06-01
100
AcDbVertex
100
AcDb2dVertex
 10
26.06749248504639
 20
-122.5076186656951
 30
0.0
  0
VERTEX
  5
27A1
330
2789
100
AcDbEntity
  8
LW 3520-06-01
100
AcDbVertex
100
AcDb2dVertex
 10
26.01681661605835
 20
-122.5019466876983
 30
0.0
  0
VERTEX
  5
27A2
330
2789
100
AcDbEntity
  8
LW 3520-06-01
100
AcDbVertex
100
AcDb2dVertex
 10
25.99999976158142
 20
-122.4999999999999
 30
0.0
  0
SEQEND
  5
27A3
330
2789
100
AcDbEntity
  8
LW 3520-06-01
  0
LINE
  5
27A4
330
265F
100
AcDbEntity
  8
LW 3520-06-01
100
AcDbLine
 10
32.0
 20
-157.5
 30
0.0
 11
32.0
 21
-122.4999999999999
 31
0.0
  0
LINE
  5
27A5
330
265F
100
AcDbEntity
  8
LW 3520-06-01
100
AcDbLine
 10
35.0
 20
-154.4999999999999
 30
0.0
 11
35.0
 21
-125.5
 31
0.0
  0
LINE
  5
27A6
330
265F
100
AcDbEntity
  8
LW 3520-06-01
100
AcDbLine
 10
12.0
 20
-122.4999999999999
 30
0.0
 11
26.0
 21
-122.4999999999999
 31
0.0
  0
LINE
  5
27A7
330
265F
100
AcDbEntity
  8
LW 3520-06-01
100
AcDbLine
 10
30.0
 20
-122.4999999999999
 30
0.0
 11
32.0
 21
-122.4999999999999
 31
0.0
  0
LINE
  5
27A8
330
265F
100
AcDbEntity
  8
LW 3520-06-01
100
AcDbLine
 10
12.0
 20
-157.5
 30
0.0
 11
32.0
 21
-157.5
 31
0.0
  0
LINE
  5
27A9
330
265F
100
AcDbEntity
  8
LW 3520-06-01
100
AcDbLine
 10
35.0
 20
-154.4999999999999
 30
0.0
 11
32.0
 21
-157.5
 31
0.0
  0
LINE
  5
27AA
330
265F
100
AcDbEntity
  8
LW 3520-06-01
100
AcDbLine
 10
35.0
 20
-125.5
 30
0.0
 11
32.0
 21
-122.4999999999999
 31
0.0
  0
ELLIPSE
  5
27AB
330
265F
100
AcDbEntity
  8
LW 3520-06-01
100
AcDbEllipse
 10
-28.0
 20
-146.25
 30
0.0
 11
-1.999999999999997
 21
0.0000000000001147
 31
0.0
210
0.0
220
0.0
230
1.0
 40
0.8660254037844351
 41
0.7941688477848099
 42
2.347423805805161
  0
POLYLINE
  5
27AC
330
265F
100
AcDbEntity
  8
LW 3520-06-01
100
AcDb2dPolyline
 66
     1
 10
0.0
 20
0.0
 30
0.0
 70
   128
  0
VERTEX
  5
27AD
330
27AC
100
AcDbEntity
  8
LW 3520-06-01
100
AcDbVertex
100
AcDb2dVertex
 10
-29.99999952316282
 20
-148.75
 30
0.0
  0
VERTEX
  5
27AE
330
27AC
100
AcDbEntity
  8
LW 3520-06-01
100
AcDbVertex
100
AcDb2dVertex
 10
-29.98318386077878
 20
-148.5277742147445
 30
0.0
  0
VERTEX
  5
27AF
330
27AC
100
AcDbEntity
  8
LW 3520-06-01
100
AcDbVertex
100
AcDb2dVertex
 10
-29.93250799179075
 20
-148.3014559745788
 30
0.0
  0
VERTEX
  5
27B0
330
27AC
100
AcDbEntity
  8
LW 3520-06-01
100
AcDbVertex
100
AcDb2dVertex
 10
-29.84763216972348
 20
-148.0785280466079
 30
0.0
  0
VERTEX
  5
27B1
330
27AC
100
AcDbEntity
  8
LW 3520-06-01
100
AcDbVertex
100
AcDb2dVertex
 10
-29.72932291030881
 20
-147.8661978244781
 30
0.0
  0
VERTEX
  5
27B2
330
27AC
100
AcDbEntity
  8
LW 3520-06-01
100
AcDbVertex
100
AcDb2dVertex
 10
-29.58275866508481
 20
-147.6703834533691
 30
0.0
  0
VERTEX
  5
27B3
330
27AC
100
AcDbEntity
  8
LW 3520-06-01
100
AcDbVertex
100
AcDb2dVertex
 10
-29.41421103477475
 20
-147.4966341257095
 30
0.0
  0
VERTEX
  5
27B4
330
27AC
100
AcDbEntity
  8
LW 3520-06-01
100
AcDbVertex
100
AcDb2dVertex
 10
-29.22194790840146
 20
-147.3434162139892
 30
0.0
  0
VERTEX
  5
27B5
330
27AC
100
AcDbEntity
  8
LW 3520-06-01
100
AcDbVertex
100
AcDb2dVertex
 10
-29.00386404991147
 20
-147.2095239162445
 30
0.0
  0
VERTEX
  5
27B6
330
27AC
100
AcDbEntity
  8
LW 3520-06-01
100
AcDbVertex
100
AcDb2dVertex
 10
-28.76566958427427
 20
-147.1009975671768
 30
0.0
  0
VERTEX
  5
27B7
330
27AC
100
AcDbEntity
  8
LW 3520-06-01
100
AcDbVertex
100
AcDb2dVertex
 10
-28.51353359222409
 20
-147.0229011774063
 30
0.0
  0
VERTEX
  5
27B8
330
27AC
100
AcDbEntity
  8
LW 3520-06-01
100
AcDbVertex
100
AcDb2dVertex
 10
-28.25547885894773
 20
-146.9761621952057
 30
0.0
  0
VERTEX
  5
27B9
330
27AC
100
AcDbEntity
  8
LW 3520-06-01
100
AcDbVertex
100
AcDb2dVertex
 10
-28.00000023841855
 20
-146.9606184959411
 30
0.0
  0
VERTEX
  5
27BA
330
27AC
100
AcDbEntity
  8
LW 3520-06-01
100
AcDbVertex
100
AcDb2dVertex
 10
-27.74452042579648
 20
-146.9761621952057
 30
0.0
  0
VERTEX
  5
27BB
330
27AC
100
AcDbEntity
  8
LW 3520-06-01
100
AcDbVertex
100
AcDb2dVertex
 10
-27.48646688461301
 20
-147.0229011774063
 30
0.0
  0
VERTEX
  5
27BC
330
27AC
100
AcDbEntity
  8
LW 3520-06-01
100
AcDbVertex
100
AcDb2dVertex
 10
-27.23433089256284
 20
-147.1009975671768
 30
0.0
  0
VERTEX
  5
27BD
330
27AC
100
AcDbEntity
  8
LW 3520-06-01
100
AcDbVertex
100
AcDb2dVertex
 10
-26.99613642692563
 20
-147.2095239162445
 30
0.0
  0
VERTEX
  5
27BE
330
27AC
100
AcDbEntity
  8
LW 3520-06-01
100
AcDbVertex
100
AcDb2dVertex
 10
-26.77805137634275
 20
-147.3434162139892
 30
0.0
  0
VERTEX
  5
27BF
330
27AC
100
AcDbEntity
  8
LW 3520-06-01
100
AcDbVertex
100
AcDb2dVertex
 10
-26.58578944206235
 20
-147.4966341257095
 30
0.0
  0
VERTEX
  5
27C0
330
27AC
100
AcDbEntity
  8
LW 3520-06-01
100
AcDbVertex
100
AcDb2dVertex
 10
-26.41724181175229
 20
-147.6703834533691
 30
0.0
  0
VERTEX
  5
27C1
330
27AC
100
AcDbEntity
  8
LW 3520-06-01
100
AcDbVertex
100
AcDb2dVertex
 10
-26.2706763744354
 20
-147.8661978244781
 30
0.0
  0
VERTEX
  5
27C2
330
27AC
100
AcDbEntity
  8
LW 3520-06-01
100
AcDbVertex
100
AcDb2dVertex
 10
-26.15236830711362
 20
-148.0785280466079
 30
0.0
  0
VERTEX
  5
27C3
330
27AC
100
AcDbEntity
  8
LW 3520-06-01
100
AcDbVertex
100
AcDb2dVertex
 10
-26.06749248504636
 20
-148.3014559745788
 30
0.0
  0
VERTEX
  5
27C4
330
27AC
100
AcDbEntity
  8
LW 3520-06-01
100
AcDbVertex
100
AcDb2dVertex
 10
-26.01681661605832
 20
-148.5277742147445
 30
0.0
  0
VERTEX
  5
27C5
330
27AC
100
AcDbEntity
  8
LW 3520-06-01
100
AcDbVertex
100
AcDb2dVertex
 10
-25.9999997615814
 20
-148.75
 30
0.0
  0
SEQEND
  5
27C6
330
27AC
100
AcDbEntity
  8
LW 3520-06-01
  0
POLYLINE
  5
27C7
330
265F
100
AcDbEntity
  8
LW 3520-06-01
100
AcDb2dPolyline
 66
     1
 10
0.0
 20
0.0
 30
0.0
 70
   128
  0
VERTEX
  5
27C8
330
27C7
100
AcDbEntity
  8
LW 3520-06-01
100
AcDbVertex
100
AcDb2dVertex
 10
-25.9999997615814
 20
-148.75
 30
0.0
  0
VERTEX
  5
27C9
330
27C7
100
AcDbEntity
  8
LW 3520-06-01
100
AcDbVertex
100
AcDb2dVertex
 10
-26.01681661605832
 20
-148.9702785015106
 30
0.0
  0
VERTEX
  5
27CA
330
27C7
100
AcDbEntity
  8
LW 3520-06-01
100
AcDbVertex
100
AcDb2dVertex
 10
-26.06749248504636
 20
-149.1909259557724
 30
0.0
  0
VERTEX
  5
27CB
330
27C7
100
AcDbEntity
  8
LW 3520-06-01
100
AcDbVertex
100
AcDb2dVertex
 10
-26.15236830711362
 20
-149.4047135114669
 30
0.0
  0
VERTEX
  5
27CC
330
27C7
100
AcDbEntity
  8
LW 3520-06-01
100
AcDbVertex
100
AcDb2dVertex
 10
-26.2706763744354
 20
-149.6049517393112
 30
0.0
  0
VERTEX
  5
27CD
330
27C7
100
AcDbEntity
  8
LW 3520-06-01
100
AcDbVertex
100
AcDb2dVertex
 10
-26.41724181175229
 20
-149.7868710756302
 30
0.0
  0
VERTEX
  5
27CE
330
27C7
100
AcDbEntity
  8
LW 3520-06-01
100
AcDbVertex
100
AcDb2dVertex
 10
-26.58578944206235
 20
-149.946129322052
 30
0.0
  0
VERTEX
  5
27CF
330
27C7
100
AcDbEntity
  8
LW 3520-06-01
100
AcDbVertex
100
AcDb2dVertex
 10
-26.77805137634275
 20
-150.0848424434662
 30
0.0
  0
VERTEX
  5
27D0
330
27C7
100
AcDbEntity
  8
LW 3520-06-01
100
AcDbVertex
100
AcDb2dVertex
 10
-26.99613642692563
 20
-150.2048063278198
 30
0.0
  0
VERTEX
  5
27D1
330
27C7
100
AcDbEntity
  8
LW 3520-06-01
100
AcDbVertex
100
AcDb2dVertex
 10
-27.23433089256284
 20
-150.3011929988861
 30
0.0
  0
VERTEX
  5
27D2
330
27C7
100
AcDbEntity
  8
LW 3520-06-01
100
AcDbVertex
100
AcDb2dVertex
 10
-27.48646688461301
 20
-150.3701031208038
 30
0.0
  0
VERTEX
  5
27D3
330
27C7
100
AcDbEntity
  8
LW 3520-06-01
100
AcDbVertex
100
AcDb2dVertex
 10
-27.74452042579648
 20
-150.411137342453
 30
0.0
  0
VERTEX
  5
27D4
330
27C7
100
AcDbEntity
  8
LW 3520-06-01
100
AcDbVertex
100
AcDb2dVertex
 10
-28.00000023841855
 20
-150.4247200489044
 30
0.0
  0
VERTEX
  5
27D5
330
27C7
100
AcDbEntity
  8
LW 3520-06-01
100
AcDbVertex
100
AcDb2dVertex
 10
-28.25547885894773
 20
-150.411137342453
 30
0.0
  0
VERTEX
  5
27D6
330
27C7
100
AcDbEntity
  8
LW 3520-06-01
100
AcDbVertex
100
AcDb2dVertex
 10
-28.51353359222409
 20
-150.3701031208038
 30
0.0
  0
VERTEX
  5
27D7
330
27C7
100
AcDbEntity
  8
LW 3520-06-01
100
AcDbVertex
100
AcDb2dVertex
 10
-28.76566958427427
 20
-150.3011929988861
 30
0.0
  0
VERTEX
  5
27D8
330
27C7
100
AcDbEntity
  8
LW 3520-06-01
100
AcDbVertex
100
AcDb2dVertex
 10
-29.00386404991147
 20
-150.2048063278198
 30
0.0
  0
VERTEX
  5
27D9
330
27C7
100
AcDbEntity
  8
LW 3520-06-01
100
AcDbVertex
100
AcDb2dVertex
 10
-29.22194790840146
 20
-150.0848424434662
 30
0.0
  0
VERTEX
  5
27DA
330
27C7
100
AcDbEntity
  8
LW 3520-06-01
100
AcDbVertex
100
AcDb2dVertex
 10
-29.41421103477475
 20
-149.946129322052
 30
0.0
  0
VERTEX
  5
27DB
330
27C7
100
AcDbEntity
  8
LW 3520-06-01
100
AcDbVertex
100
AcDb2dVertex
 10
-29.58275866508481
 20
-149.7868710756302
 30
0.0
  0
VERTEX
  5
27DC
330
27C7
100
AcDbEntity
  8
LW 3520-06-01
100
AcDbVertex
100
AcDb2dVertex
 10
-29.72932291030881
 20
-149.6049517393112
 30
0.0
  0
VERTEX
  5
27DD
330
27C7
100
AcDbEntity
  8
LW 3520-06-01
100
AcDbVertex
100
AcDb2dVertex
 10
-29.84763216972348
 20
-149.4047135114669
 30
0.0
  0
VERTEX
  5
27DE
330
27C7
100
AcDbEntity
  8
LW 3520-06-01
100
AcDbVertex
100
AcDb2dVertex
 10
-29.93250799179075
 20
-149.1909259557724
 30
0.0
  0
VERTEX
  5
27DF
330
27C7
100
AcDbEntity
  8
LW 3520-06-01
100
AcDbVertex
100
AcDb2dVertex
 10
-29.98318386077878
 20
-148.9702785015106
 30
0.0
  0
VERTEX
  5
27E0
330
27C7
100
AcDbEntity
  8
LW 3520-06-01
100
AcDbVertex
100
AcDb2dVertex
 10
-29.99999952316282
 20
-148.75
 30
0.0
  0
SEQEND
  5
27E1
330
27C7
100
AcDbEntity
  8
LW 3520-06-01
  0
POLYLINE
  5
27E2
330
265F
100
AcDbEntity
  8
LW 3520-06-01
100
AcDb2dPolyline
 66
     1
 10
0.0
 20
0.0
 30
0.0
 70
   128
  0
VERTEX
  5
27E3
330
27E2
100
AcDbEntity
  8
LW 3520-06-01
100
AcDbVertex
100
AcDb2dVertex
 10
-25.9999997615814
 20
-122.4999999999999
 30
0.0
  0
VERTEX
  5
27E4
330
27E2
100
AcDbEntity
  8
LW 3520-06-01
100
AcDbVertex
100
AcDb2dVertex
 10
-26.01681661605832
 20
-122.5019466876983
 30
0.0
  0
VERTEX
  5
27E5
330
27E2
100
AcDbEntity
  8
LW 3520-06-01
100
AcDbVertex
100
AcDb2dVertex
 10
-26.06749248504636
 20
-122.5076186656951
 30
0.0
  0
VERTEX
  5
27E6
330
27E2
100
AcDbEntity
  8
LW 3520-06-01
100
AcDbVertex
100
AcDb2dVertex
 10
-26.15236830711362
 20
-122.516758441925
 30
0.0
  0
VERTEX
  5
27E7
330
27E2
100
AcDbEntity
  8
LW 3520-06-01
100
AcDbVertex
100
AcDb2dVertex
 10
-26.2706763744354
 20
-122.528851032257
 30
0.0
  0
VERTEX
  5
27E8
330
27E2
100
AcDbEntity
  8
LW 3520-06-01
100
AcDbVertex
100
AcDb2dVertex
 10
-26.41724181175229
 20
-122.5427460670471
 30
0.0
  0
VERTEX
  5
27E9
330
27E2
100
AcDbEntity
  8
LW 3520-06-01
100
AcDbVertex
100
AcDb2dVertex
 10
-26.58578944206235
 20
-122.5572371482849
 30
0.0
  0
VERTEX
  5
27EA
330
27E2
100
AcDbEntity
  8
LW 3520-06-01
100
AcDbVertex
100
AcDb2dVertex
 10
-26.77805137634275
 20
-122.5717413425445
 30
0.0
  0
VERTEX
  5
27EB
330
27E2
100
AcDbEntity
  8
LW 3520-06-01
100
AcDbVertex
100
AcDb2dVertex
 10
-26.99613642692563
 20
-122.5856697559356
 30
0.0
  0
VERTEX
  5
27EC
330
27E2
100
AcDbEntity
  8
LW 3520-06-01
100
AcDbVertex
100
AcDb2dVertex
 10
-27.23433089256284
 20
-122.5978088378906
 30
0.0
  0
VERTEX
  5
27ED
330
27E2
100
AcDbEntity
  8
LW 3520-06-01
100
AcDbVertex
100
AcDb2dVertex
 10
-27.48646688461301
 20
-122.6069951057433
 30
0.0
  0
VERTEX
  5
27EE
330
27E2
100
AcDbEntity
  8
LW 3520-06-01
100
AcDbVertex
100
AcDb2dVertex
 10
-27.74452042579648
 20
-122.6127004623412
 30
0.0
  0
VERTEX
  5
27EF
330
27E2
100
AcDbEntity
  8
LW 3520-06-01
100
AcDbVertex
100
AcDb2dVertex
 10
-28.00000023841855
 20
-122.6146614551544
 30
0.0
  0
VERTEX
  5
27F0
330
27E2
100
AcDbEntity
  8
LW 3520-06-01
100
AcDbVertex
100
AcDb2dVertex
 10
-28.25547885894773
 20
-122.6127004623412
 30
0.0
  0
VERTEX
  5
27F1
330
27E2
100
AcDbEntity
  8
LW 3520-06-01
100
AcDbVertex
100
AcDb2dVertex
 10
-28.51353359222409
 20
-122.6069951057433
 30
0.0
  0
VERTEX
  5
27F2
330
27E2
100
AcDbEntity
  8
LW 3520-06-01
100
AcDbVertex
100
AcDb2dVertex
 10
-28.76566958427427
 20
-122.5978088378906
 30
0.0
  0
VERTEX
  5
27F3
330
27E2
100
AcDbEntity
  8
LW 3520-06-01
100
AcDbVertex
100
AcDb2dVertex
 10
-29.00386404991147
 20
-122.5856697559356
 30
0.0
  0
VERTEX
  5
27F4
330
27E2
100
AcDbEntity
  8
LW 3520-06-01
100
AcDbVertex
100
AcDb2dVertex
 10
-29.22194790840146
 20
-122.5717413425445
 30
0.0
  0
VERTEX
  5
27F5
330
27E2
100
AcDbEntity
  8
LW 3520-06-01
100
AcDbVertex
100
AcDb2dVertex
 10
-29.41421103477475
 20
-122.5572371482849
 30
0.0
  0
VERTEX
  5
27F6
330
27E2
100
AcDbEntity
  8
LW 3520-06-01
100
AcDbVertex
100
AcDb2dVertex
 10
-29.58275866508481
 20
-122.5427460670471
 30
0.0
  0
VERTEX
  5
27F7
330
27E2
100
AcDbEntity
  8
LW 3520-06-01
100
AcDbVertex
100
AcDb2dVertex
 10
-29.72932291030881
 20
-122.528851032257
 30
0.0
  0
VERTEX
  5
27F8
330
27E2
100
AcDbEntity
  8
LW 3520-06-01
100
AcDbVertex
100
AcDb2dVertex
 10
-29.84763216972348
 20
-122.516758441925
 30
0.0
  0
VERTEX
  5
27F9
330
27E2
100
AcDbEntity
  8
LW 3520-06-01
100
AcDbVertex
100
AcDb2dVertex
 10
-29.93250799179075
 20
-122.5076186656951
 30
0.0
  0
VERTEX
  5
27FA
330
27E2
100
AcDbEntity
  8
LW 3520-06-01
100
AcDbVertex
100
AcDb2dVertex
 10
-29.98318386077878
 20
-122.5019466876983
 30
0.0
  0
VERTEX
  5
27FB
330
27E2
100
AcDbEntity
  8
LW 3520-06-01
100
AcDbVertex
100
AcDb2dVertex
 10
-29.99999952316282
 20
-122.4999999999999
 30
0.0
  0
SEQEND
  5
27FC
330
27E2
100
AcDbEntity
  8
LW 3520-06-01
  0
LINE
  5
27FD
330
265F
100
AcDbEntity
  8
LW 3520-06-01
100
AcDbLine
 10
-31.99999999999997
 20
-122.4999999999999
 30
0.0
 11
-31.99999999999997
 21
-157.5
 31
0.0
  0
LINE
  5
27FE
330
265F
100
AcDbEntity
  8
LW 3520-06-01
100
AcDbLine
 10
-34.99999999999997
 20
-125.5
 30
0.0
 11
-34.99999999999997
 21
-154.4999999999999
 31
0.0
  0
LINE
  5
27FF
330
265F
100
AcDbEntity
  8
LW 3520-06-01
100
AcDbLine
 10
-12.0
 20
-157.5
 30
0.0
 11
-31.99999999999997
 21
-157.5
 31
0.0
  0
LINE
  5
2800
330
265F
100
AcDbEntity
  8
LW 3520-06-01
100
AcDbLine
 10
-12.0
 20
-122.4999999999999
 30
0.0
 11
-26.0
 21
-122.4999999999999
 31
0.0
  0
LINE
  5
2801
330
265F
100
AcDbEntity
  8
LW 3520-06-01
100
AcDbLine
 10
-29.99999999999997
 20
-122.4999999999999
 30
0.0
 11
-31.99999999999997
 21
-122.4999999999999
 31
0.0
  0
LINE
  5
2802
330
265F
100
AcDbEntity
  8
LW 3520-06-01
100
AcDbLine
 10
-34.99999999999997
 20
-125.5
 30
0.0
 11
-31.99999999999997
 21
-122.4999999999999
 31
0.0
  0
LINE
  5
2803
330
265F
100
AcDbEntity
  8
LW 3520-06-01
100
AcDbLine
 10
-34.99999999999997
 20
-154.4999999999999
 30
0.0
 11
-31.99999999999997
 21
-157.5
 31
0.0
  0
ELLIPSE
  5
2804
330
265F
100
AcDbEntity
  8
LW 3520-06-01
100
AcDbEllipse
 10
-28.0
 20
-66.25
 30
0.0
 11
-1.999999999999942
 21
0.0000000000001831
 31
0.0
210
0.0
220
0.0
230
1.0
 40
0.866025403784473
 41
0.794168847784833
 42
2.347423805805217
  0
POLYLINE
  5
2805
330
265F
100
AcDbEntity
  8
LW 3520-06-01
100
AcDb2dPolyline
 66
     1
 10
0.0
 20
0.0
 30
0.0
 70
   128
  0
VERTEX
  5
2806
330
2805
100
AcDbEntity
  8
LW 3520-06-01
100
AcDbVertex
100
AcDb2dVertex
 10
-29.99999952316282
 20
-68.75
 30
0.0
  0
VERTEX
  5
2807
330
2805
100
AcDbEntity
  8
LW 3520-06-01
100
AcDbVertex
100
AcDb2dVertex
 10
-29.98318386077878
 20
-68.52777421474456
 30
0.0
  0
VERTEX
  5
2808
330
2805
100
AcDbEntity
  8
LW 3520-06-01
100
AcDbVertex
100
AcDb2dVertex
 10
-29.93250799179075
 20
-68.30145597457885
 30
0.0
  0
VERTEX
  5
2809
330
2805
100
AcDbEntity
  8
LW 3520-06-01
100
AcDbVertex
100
AcDb2dVertex
 10
-29.84763216972348
 20
-68.07852804660797
 30
0.0
  0
VERTEX
  5
280A
330
2805
100
AcDbEntity
  8
LW 3520-06-01
100
AcDbVertex
100
AcDb2dVertex
 10
-29.72932291030881
 20
-67.86619782447814
 30
0.0
  0
VERTEX
  5
280B
330
2805
100
AcDbEntity
  8
LW 3520-06-01
100
AcDbVertex
100
AcDb2dVertex
 10
-29.58275866508481
 20
-67.67038345336914
 30
0.0
  0
VERTEX
  5
280C
330
2805
100
AcDbEntity
  8
LW 3520-06-01
100
AcDbVertex
100
AcDb2dVertex
 10
-29.41421103477475
 20
-67.49663412570953
 30
0.0
  0
VERTEX
  5
280D
330
2805
100
AcDbEntity
  8
LW 3520-06-01
100
AcDbVertex
100
AcDb2dVertex
 10
-29.22194790840146
 20
-67.34341621398925
 30
0.0
  0
VERTEX
  5
280E
330
2805
100
AcDbEntity
  8
LW 3520-06-01
100
AcDbVertex
100
AcDb2dVertex
 10
-29.00386404991147
 20
-67.2095239162445
 30
0.0
  0
VERTEX
  5
280F
330
2805
100
AcDbEntity
  8
LW 3520-06-01
100
AcDbVertex
100
AcDb2dVertex
 10
-28.76566958427427
 20
-67.10099756717681
 30
0.0
  0
VERTEX
  5
2810
330
2805
100
AcDbEntity
  8
LW 3520-06-01
100
AcDbVertex
100
AcDb2dVertex
 10
-28.51353359222409
 20
-67.02290117740631
 30
0.0
  0
VERTEX
  5
2811
330
2805
100
AcDbEntity
  8
LW 3520-06-01
100
AcDbVertex
100
AcDb2dVertex
 10
-28.25547885894773
 20
-66.97616219520568
 30
0.0
  0
VERTEX
  5
2812
330
2805
100
AcDbEntity
  8
LW 3520-06-01
100
AcDbVertex
100
AcDb2dVertex
 10
-28.00000023841855
 20
-66.96061849594116
 30
0.0
  0
VERTEX
  5
2813
330
2805
100
AcDbEntity
  8
LW 3520-06-01
100
AcDbVertex
100
AcDb2dVertex
 10
-27.74452042579648
 20
-66.97616219520568
 30
0.0
  0
VERTEX
  5
2814
330
2805
100
AcDbEntity
  8
LW 3520-06-01
100
AcDbVertex
100
AcDb2dVertex
 10
-27.48646688461301
 20
-67.02290117740631
 30
0.0
  0
VERTEX
  5
2815
330
2805
100
AcDbEntity
  8
LW 3520-06-01
100
AcDbVertex
100
AcDb2dVertex
 10
-27.23433089256284
 20
-67.10099756717681
 30
0.0
  0
VERTEX
  5
2816
330
2805
100
AcDbEntity
  8
LW 3520-06-01
100
AcDbVertex
100
AcDb2dVertex
 10
-26.99613642692563
 20
-67.2095239162445
 30
0.0
  0
VERTEX
  5
2817
330
2805
100
AcDbEntity
  8
LW 3520-06-01
100
AcDbVertex
100
AcDb2dVertex
 10
-26.77805137634275
 20
-67.34341621398925
 30
0.0
  0
VERTEX
  5
2818
330
2805
100
AcDbEntity
  8
LW 3520-06-01
100
AcDbVertex
100
AcDb2dVertex
 10
-26.58578944206235
 20
-67.49663412570953
 30
0.0
  0
VERTEX
  5
2819
330
2805
100
AcDbEntity
  8
LW 3520-06-01
100
AcDbVertex
100
AcDb2dVertex
 10
-26.41724181175229
 20
-67.67038345336914
 30
0.0
  0
VERTEX
  5
281A
330
2805
100
AcDbEntity
  8
LW 3520-06-01
100
AcDbVertex
100
AcDb2dVertex
 10
-26.2706763744354
 20
-67.86619782447814
 30
0.0
  0
VERTEX
  5
281B
330
2805
100
AcDbEntity
  8
LW 3520-06-01
100
AcDbVertex
100
AcDb2dVertex
 10
-26.15236830711362
 20
-68.07852804660797
 30
0.0
  0
VERTEX
  5
281C
330
2805
100
AcDbEntity
  8
LW 3520-06-01
100
AcDbVertex
100
AcDb2dVertex
 10
-26.06749248504636
 20
-68.30145597457885
 30
0.0
  0
VERTEX
  5
281D
330
2805
100
AcDbEntity
  8
LW 3520-06-01
100
AcDbVertex
100
AcDb2dVertex
 10
-26.01681661605832
 20
-68.52777421474456
 30
0.0
  0
VERTEX
  5
281E
330
2805
100
AcDbEntity
  8
LW 3520-06-01
100
AcDbVertex
100
AcDb2dVertex
 10
-25.9999997615814
 20
-68.75
 30
0.0
  0
SEQEND
  5
281F
330
2805
100
AcDbEntity
  8
LW 3520-06-01
  0
POLYLINE
  5
2820
330
265F
100
AcDbEntity
  8
LW 3520-06-01
100
AcDb2dPolyline
 66
     1
 10
0.0
 20
0.0
 30
0.0
 70
   128
  0
VERTEX
  5
2821
330
2820
100
AcDbEntity
  8
LW 3520-06-01
100
AcDbVertex
100
AcDb2dVertex
 10
-25.9999997615814
 20
-68.75
 30
0.0
  0
VERTEX
  5
2822
330
2820
100
AcDbEntity
  8
LW 3520-06-01
100
AcDbVertex
100
AcDb2dVertex
 10
-26.01681661605832
 20
-68.97027850151062
 30
0.0
  0
VERTEX
  5
2823
330
2820
100
AcDbEntity
  8
LW 3520-06-01
100
AcDbVertex
100
AcDb2dVertex
 10
-26.06749248504636
 20
-69.19092595577239
 30
0.0
  0
VERTEX
  5
2824
330
2820
100
AcDbEntity
  8
LW 3520-06-01
100
AcDbVertex
100
AcDb2dVertex
 10
-26.15236830711362
 20
-69.40471351146697
 30
0.0
  0
VERTEX
  5
2825
330
2820
100
AcDbEntity
  8
LW 3520-06-01
100
AcDbVertex
100
AcDb2dVertex
 10
-26.2706763744354
 20
-69.60495173931121
 30
0.0
  0
VERTEX
  5
2826
330
2820
100
AcDbEntity
  8
LW 3520-06-01
100
AcDbVertex
100
AcDb2dVertex
 10
-26.41724181175229
 20
-69.78687107563018
 30
0.0
  0
VERTEX
  5
2827
330
2820
100
AcDbEntity
  8
LW 3520-06-01
100
AcDbVertex
100
AcDb2dVertex
 10
-26.58578944206235
 20
-69.946129322052
 30
0.0
  0
VERTEX
  5
2828
330
2820
100
AcDbEntity
  8
LW 3520-06-01
100
AcDbVertex
100
AcDb2dVertex
 10
-26.77805137634275
 20
-70.08484244346618
 30
0.0
  0
VERTEX
  5
2829
330
2820
100
AcDbEntity
  8
LW 3520-06-01
100
AcDbVertex
100
AcDb2dVertex
 10
-26.99613642692563
 20
-70.20480632781982
 30
0.0
  0
VERTEX
  5
282A
330
2820
100
AcDbEntity
  8
LW 3520-06-01
100
AcDbVertex
100
AcDb2dVertex
 10
-27.23433089256284
 20
-70.3011929988861
 30
0.0
  0
VERTEX
  5
282B
330
2820
100
AcDbEntity
  8
LW 3520-06-01
100
AcDbVertex
100
AcDb2dVertex
 10
-27.48646688461301
 20
-70.37010312080383
 30
0.0
  0
VERTEX
  5
282C
330
2820
100
AcDbEntity
  8
LW 3520-06-01
100
AcDbVertex
100
AcDb2dVertex
 10
-27.74452042579648
 20
-70.411137342453
 30
0.0
  0
VERTEX
  5
282D
330
2820
100
AcDbEntity
  8
LW 3520-06-01
100
AcDbVertex
100
AcDb2dVertex
 10
-28.00000023841855
 20
-70.42472004890441
 30
0.0
  0
VERTEX
  5
282E
330
2820
100
AcDbEntity
  8
LW 3520-06-01
100
AcDbVertex
100
AcDb2dVertex
 10
-28.25547885894773
 20
-70.411137342453
 30
0.0
  0
VERTEX
  5
282F
330
2820
100
AcDbEntity
  8
LW 3520-06-01
100
AcDbVertex
100
AcDb2dVertex
 10
-28.51353359222409
 20
-70.37010312080383
 30
0.0
  0
VERTEX
  5
2830
330
2820
100
AcDbEntity
  8
LW 3520-06-01
100
AcDbVertex
100
AcDb2dVertex
 10
-28.76566958427427
 20
-70.3011929988861
 30
0.0
  0
VERTEX
  5
2831
330
2820
100
AcDbEntity
  8
LW 3520-06-01
100
AcDbVertex
100
AcDb2dVertex
 10
-29.00386404991147
 20
-70.20480632781982
 30
0.0
  0
VERTEX
  5
2832
330
2820
100
AcDbEntity
  8
LW 3520-06-01
100
AcDbVertex
100
AcDb2dVertex
 10
-29.22194790840146
 20
-70.08484244346618
 30
0.0
  0
VERTEX
  5
2833
330
2820
100
AcDbEntity
  8
LW 3520-06-01
100
AcDbVertex
100
AcDb2dVertex
 10
-29.41421103477475
 20
-69.946129322052
 30
0.0
  0
VERTEX
  5
2834
330
2820
100
AcDbEntity
  8
LW 3520-06-01
100
AcDbVertex
100
AcDb2dVertex
 10
-29.58275866508481
 20
-69.78687107563018
 30
0.0
  0
VERTEX
  5
2835
330
2820
100
AcDbEntity
  8
LW 3520-06-01
100
AcDbVertex
100
AcDb2dVertex
 10
-29.72932291030881
 20
-69.60495173931121
 30
0.0
  0
VERTEX
  5
2836
330
2820
100
AcDbEntity
  8
LW 3520-06-01
100
AcDbVertex
100
AcDb2dVertex
 10
-29.84763216972348
 20
-69.40471351146697
 30
0.0
  0
VERTEX
  5
2837
330
2820
100
AcDbEntity
  8
LW 3520-06-01
100
AcDbVertex
100
AcDb2dVertex
 10
-29.93250799179075
 20
-69.19092595577239
 30
0.0
  0
VERTEX
  5
2838
330
2820
100
AcDbEntity
  8
LW 3520-06-01
100
AcDbVertex
100
AcDb2dVertex
 10
-29.98318386077878
 20
-68.97027850151062
 30
0.0
  0
VERTEX
  5
2839
330
2820
100
AcDbEntity
  8
LW 3520-06-01
100
AcDbVertex
100
AcDb2dVertex
 10
-29.99999952316282
 20
-68.75
 30
0.0
  0
SEQEND
  5
283A
330
2820
100
AcDbEntity
  8
LW 3520-06-01
  0
POLYLINE
  5
283B
330
265F
100
AcDbEntity
  8
LW 3520-06-01
100
AcDb2dPolyline
 66
     1
 10
0.0
 20
0.0
 30
0.0
 70
   128
  0
VERTEX
  5
283C
330
283B
100
AcDbEntity
  8
LW 3520-06-01
100
AcDbVertex
100
AcDb2dVertex
 10
-25.9999997615814
 20
-42.5
 30
0.0
  0
VERTEX
  5
283D
330
283B
100
AcDbEntity
  8
LW 3520-06-01
100
AcDbVertex
100
AcDb2dVertex
 10
-26.01681661605832
 20
-42.50194668769836
 30
0.0
  0
VERTEX
  5
283E
330
283B
100
AcDbEntity
  8
LW 3520-06-01
100
AcDbVertex
100
AcDb2dVertex
 10
-26.06749248504636
 20
-42.50761866569519
 30
0.0
  0
VERTEX
  5
283F
330
283B
100
AcDbEntity
  8
LW 3520-06-01
100
AcDbVertex
100
AcDb2dVertex
 10
-26.15236830711362
 20
-42.51675844192504
 30
0.0
  0
VERTEX
  5
2840
330
283B
100
AcDbEntity
  8
LW 3520-06-01
100
AcDbVertex
100
AcDb2dVertex
 10
-26.2706763744354
 20
-42.52885103225708
 30
0.0
  0
VERTEX
  5
2841
330
283B
100
AcDbEntity
  8
LW 3520-06-01
100
AcDbVertex
100
AcDb2dVertex
 10
-26.41724181175229
 20
-42.54274606704711
 30
0.0
  0
VERTEX
  5
2842
330
283B
100
AcDbEntity
  8
LW 3520-06-01
100
AcDbVertex
100
AcDb2dVertex
 10
-26.58578944206235
 20
-42.55723714828491
 30
0.0
  0
VERTEX
  5
2843
330
283B
100
AcDbEntity
  8
LW 3520-06-01
100
AcDbVertex
100
AcDb2dVertex
 10
-26.77805137634275
 20
-42.57174134254455
 30
0.0
  0
VERTEX
  5
2844
330
283B
100
AcDbEntity
  8
LW 3520-06-01
100
AcDbVertex
100
AcDb2dVertex
 10
-26.99613642692563
 20
-42.58566975593566
 30
0.0
  0
VERTEX
  5
2845
330
283B
100
AcDbEntity
  8
LW 3520-06-01
100
AcDbVertex
100
AcDb2dVertex
 10
-27.23433089256284
 20
-42.59780883789062
 30
0.0
  0
VERTEX
  5
2846
330
283B
100
AcDbEntity
  8
LW 3520-06-01
100
AcDbVertex
100
AcDb2dVertex
 10
-27.48646688461301
 20
-42.6069951057434
 30
0.0
  0
VERTEX
  5
2847
330
283B
100
AcDbEntity
  8
LW 3520-06-01
100
AcDbVertex
100
AcDb2dVertex
 10
-27.74452042579648
 20
-42.6127004623413
 30
0.0
  0
VERTEX
  5
2848
330
283B
100
AcDbEntity
  8
LW 3520-06-01
100
AcDbVertex
100
AcDb2dVertex
 10
-28.00000023841855
 20
-42.61466145515441
 30
0.0
  0
VERTEX
  5
2849
330
283B
100
AcDbEntity
  8
LW 3520-06-01
100
AcDbVertex
100
AcDb2dVertex
 10
-28.25547885894773
 20
-42.6127004623413
 30
0.0
  0
VERTEX
  5
284A
330
283B
100
AcDbEntity
  8
LW 3520-06-01
100
AcDbVertex
100
AcDb2dVertex
 10
-28.51353359222409
 20
-42.6069951057434
 30
0.0
  0
VERTEX
  5
284B
330
283B
100
AcDbEntity
  8
LW 3520-06-01
100
AcDbVertex
100
AcDb2dVertex
 10
-28.76566958427427
 20
-42.59780883789062
 30
0.0
  0
VERTEX
  5
284C
330
283B
100
AcDbEntity
  8
LW 3520-06-01
100
AcDbVertex
100
AcDb2dVertex
 10
-29.00386404991147
 20
-42.58566975593566
 30
0.0
  0
VERTEX
  5
284D
330
283B
100
AcDbEntity
  8
LW 3520-06-01
100
AcDbVertex
100
AcDb2dVertex
 10
-29.22194790840146
 20
-42.57174134254455
 30
0.0
  0
VERTEX
  5
284E
330
283B
100
AcDbEntity
  8
LW 3520-06-01
100
AcDbVertex
100
AcDb2dVertex
 10
-29.41421103477475
 20
-42.55723714828491
 30
0.0
  0
VERTEX
  5
284F
330
283B
100
AcDbEntity
  8
LW 3520-06-01
100
AcDbVertex
100
AcDb2dVertex
 10
-29.58275866508481
 20
-42.54274606704711
 30
0.0
  0
VERTEX
  5
2850
330
283B
100
AcDbEntity
  8
LW 3520-06-01
100
AcDbVertex
100
AcDb2dVertex
 10
-29.72932291030881
 20
-42.52885103225708
 30
0.0
  0
VERTEX
  5
2851
330
283B
100
AcDbEntity
  8
LW 3520-06-01
100
AcDbVertex
100
AcDb2dVertex
 10
-29.84763216972348
 20
-42.51675844192504
 30
0.0
  0
VERTEX
  5
2852
330
283B
100
AcDbEntity
  8
LW 3520-06-01
100
AcDbVertex
100
AcDb2dVertex
 10
-29.93250799179075
 20
-42.50761866569519
 30
0.0
  0
VERTEX
  5
2853
330
283B
100
AcDbEntity
  8
LW 3520-06-01
100
AcDbVertex
100
AcDb2dVertex
 10
-29.98318386077878
 20
-42.50194668769836
 30
0.0
  0
VERTEX
  5
2854
330
283B
100
AcDbEntity
  8
LW 3520-06-01
100
AcDbVertex
100
AcDb2dVertex
 10
-29.99999952316282
 20
-42.5
 30
0.0
  0
SEQEND
  5
2855
330
283B
100
AcDbEntity
  8
LW 3520-06-01
  0
LINE
  5
2856
330
265F
100
AcDbEntity
  8
LW 3520-06-01
100
AcDbLine
 10
-31.99999999999997
 20
-42.5
 30
0.0
 11
-31.99999999999997
 21
-77.5
 31
0.0
  0
LINE
  5
2857
330
265F
100
AcDbEntity
  8
LW 3520-06-01
100
AcDbLine
 10
-34.99999999999997
 20
-45.49999999999999
 30
0.0
 11
-34.99999999999997
 21
-74.49999999999994
 31
0.0
  0
LINE
  5
2858
330
265F
100
AcDbEntity
  8
LW 3520-06-01
100
AcDbLine
 10
-12.0
 20
-77.5
 30
0.0
 11
-31.99999999999997
 21
-77.5
 31
0.0
  0
LINE
  5
2859
330
265F
100
AcDbEntity
  8
LW 3520-06-01
100
AcDbLine
 10
-12.0
 20
-42.5
 30
0.0
 11
-26.0
 21
-42.5
 31
0.0
  0
LINE
  5
285A
330
265F
100
AcDbEntity
  8
LW 3520-06-01
100
AcDbLine
 10
-29.99999999999997
 20
-42.5
 30
0.0
 11
-31.99999999999997
 21
-42.5
 31
0.0
  0
LINE
  5
285B
330
265F
100
AcDbEntity
  8
LW 3520-06-01
100
AcDbLine
 10
-34.99999999999997
 20
-45.49999999999999
 30
0.0
 11
-31.99999999999997
 21
-42.5
 31
0.0
  0
LINE
  5
285C
330
265F
100
AcDbEntity
  8
LW 3520-06-01
100
AcDbLine
 10
-34.99999999999997
 20
-74.49999999999994
 30
0.0
 11
-31.99999999999997
 21
-77.5
 31
0.0
  0
ELLIPSE
  5
285D
330
265F
100
AcDbEntity
  8
LW 3520-06-01
100
AcDbEllipse
 10
-76.75000000000003
 20
-30.0
 30
0.0
 11
0.0000000000001952
 21
2.00000000000002
 31
0.0
210
0.0
220
0.0
230
1.0
 40
0.866025403784425
 41
3.935761501374648
 42
5.489016459394978
  0
POLYLINE
  5
285E
330
265F
100
AcDbEntity
  8
LW 3520-06-01
100
AcDb2dPolyline
 66
     1
 10
0.0
 20
0.0
 30
0.0
 70
   128
  0
VERTEX
  5
285F
330
285E
100
AcDbEntity
  8
LW 3520-06-01
100
AcDbVertex
100
AcDb2dVertex
 10
-74.25000000000003
 20
-31.99999952316284
 30
0.0
  0
VERTEX
  5
2860
330
285E
100
AcDbEntity
  8
LW 3520-06-01
100
AcDbVertex
100
AcDb2dVertex
 10
-74.47222578525546
 20
-31.98318386077881
 30
0.0
  0
VERTEX
  5
2861
330
285E
100
AcDbEntity
  8
LW 3520-06-01
100
AcDbVertex
100
AcDb2dVertex
 10
-74.69854402542117
 20
-31.93250799179077
 30
0.0
  0
VERTEX
  5
2862
330
285E
100
AcDbEntity
  8
LW 3520-06-01
100
AcDbVertex
100
AcDb2dVertex
 10
-74.92147195339206
 20
-31.84763216972351
 30
0.0
  0
VERTEX
  5
2863
330
285E
100
AcDbEntity
  8
LW 3520-06-01
100
AcDbVertex
100
AcDb2dVertex
 10
-75.13380217552188
 20
-31.72932291030884
 30
0.0
  0
VERTEX
  5
2864
330
285E
100
AcDbEntity
  8
LW 3520-06-01
100
AcDbVertex
100
AcDb2dVertex
 10
-75.32961654663089
 20
-31.58275866508484
 30
0.0
  0
VERTEX
  5
2865
330
285E
100
AcDbEntity
  8
LW 3520-06-01
100
AcDbVertex
100
AcDb2dVertex
 10
-75.5033658742905
 20
-31.41421103477478
 30
0.0
  0
VERTEX
  5
2866
330
285E
100
AcDbEntity
  8
LW 3520-06-01
100
AcDbVertex
100
AcDb2dVertex
 10
-75.65658378601077
 20
-31.22194790840149
 30
0.0
  0
VERTEX
  5
2867
330
285E
100
AcDbEntity
  8
LW 3520-06-01
100
AcDbVertex
100
AcDb2dVertex
 10
-75.79047608375552
 20
-31.0038640499115
 30
0.0
  0
VERTEX
  5
2868
330
285E
100
AcDbEntity
  8
LW 3520-06-01
100
AcDbVertex
100
AcDb2dVertex
 10
-75.89900243282321
 20
-30.76566958427429
 30
0.0
  0
VERTEX
  5
2869
330
285E
100
AcDbEntity
  8
LW 3520-06-01
100
AcDbVertex
100
AcDb2dVertex
 10
-75.97709882259372
 20
-30.51353359222412
 30
0.0
  0
VERTEX
  5
286A
330
285E
100
AcDbEntity
  8
LW 3520-06-01
100
AcDbVertex
100
AcDb2dVertex
 10
-76.02383780479434
 20
-30.25547885894776
 30
0.0
  0
VERTEX
  5
286B
330
285E
100
AcDbEntity
  8
LW 3520-06-01
100
AcDbVertex
100
AcDb2dVertex
 10
-76.03938150405887
 20
-30.00000023841858
 30
0.0
  0
VERTEX
  5
286C
330
285E
100
AcDbEntity
  8
LW 3520-06-01
100
AcDbVertex
100
AcDb2dVertex
 10
-76.02383780479434
 20
-29.74452042579651
 30
0.0
  0
VERTEX
  5
286D
330
285E
100
AcDbEntity
  8
LW 3520-06-01
100
AcDbVertex
100
AcDb2dVertex
 10
-75.97709882259372
 20
-29.48646688461304
 30
0.0
  0
VERTEX
  5
286E
330
285E
100
AcDbEntity
  8
LW 3520-06-01
100
AcDbVertex
100
AcDb2dVertex
 10
-75.89900243282321
 20
-29.23433089256287
 30
0.0
  0
VERTEX
  5
286F
330
285E
100
AcDbEntity
  8
LW 3520-06-01
100
AcDbVertex
100
AcDb2dVertex
 10
-75.79047608375552
 20
-28.99613642692566
 30
0.0
  0
VERTEX
  5
2870
330
285E
100
AcDbEntity
  8
LW 3520-06-01
100
AcDbVertex
100
AcDb2dVertex
 10
-75.65658378601077
 20
-28.77805137634278
 30
0.0
  0
VERTEX
  5
2871
330
285E
100
AcDbEntity
  8
LW 3520-06-01
100
AcDbVertex
100
AcDb2dVertex
 10
-75.5033658742905
 20
-28.58578944206238
 30
0.0
  0
VERTEX
  5
2872
330
285E
100
AcDbEntity
  8
LW 3520-06-01
100
AcDbVertex
100
AcDb2dVertex
 10
-75.32961654663089
 20
-28.41724181175232
 30
0.0
  0
VERTEX
  5
2873
330
285E
100
AcDbEntity
  8
LW 3520-06-01
100
AcDbVertex
100
AcDb2dVertex
 10
-75.13380217552188
 20
-28.27067637443543
 30
0.0
  0
VERTEX
  5
2874
330
285E
100
AcDbEntity
  8
LW 3520-06-01
100
AcDbVertex
100
AcDb2dVertex
 10
-74.92147195339206
 20
-28.15236830711365
 30
0.0
  0
VERTEX
  5
2875
330
285E
100
AcDbEntity
  8
LW 3520-06-01
100
AcDbVertex
100
AcDb2dVertex
 10
-74.69854402542117
 20
-28.06749248504639
 30
0.0
  0
VERTEX
  5
2876
330
285E
100
AcDbEntity
  8
LW 3520-06-01
100
AcDbVertex
100
AcDb2dVertex
 10
-74.47222578525546
 20
-28.01681661605835
 30
0.0
  0
VERTEX
  5
2877
330
285E
100
AcDbEntity
  8
LW 3520-06-01
100
AcDbVertex
100
AcDb2dVertex
 10
-74.25000000000003
 20
-27.99999976158142
 30
0.0
  0
SEQEND
  5
2878
330
285E
100
AcDbEntity
  8
LW 3520-06-01
  0
POLYLINE
  5
2879
330
265F
100
AcDbEntity
  8
LW 3520-06-01
100
AcDb2dPolyline
 66
     1
 10
0.0
 20
0.0
 30
0.0
 70
   128
  0
VERTEX
  5
287A
330
2879
100
AcDbEntity
  8
LW 3520-06-01
100
AcDbVertex
100
AcDb2dVertex
 10
-74.25000000000003
 20
-27.99999976158142
 30
0.0
  0
VERTEX
  5
287B
330
2879
100
AcDbEntity
  8
LW 3520-06-01
100
AcDbVertex
100
AcDb2dVertex
 10
-74.02972149848941
 20
-28.01681661605835
 30
0.0
  0
VERTEX
  5
287C
330
2879
100
AcDbEntity
  8
LW 3520-06-01
100
AcDbVertex
100
AcDb2dVertex
 10
-73.80907404422763
 20
-28.06749248504639
 30
0.0
  0
VERTEX
  5
287D
330
2879
100
AcDbEntity
  8
LW 3520-06-01
100
AcDbVertex
100
AcDb2dVertex
 10
-73.59528648853305
 20
-28.15236830711365
 30
0.0
  0
VERTEX
  5
287E
330
2879
100
AcDbEntity
  8
LW 3520-06-01
100
AcDbVertex
100
AcDb2dVertex
 10
-73.39504826068881
 20
-28.27067637443543
 30
0.0
  0
VERTEX
  5
287F
330
2879
100
AcDbEntity
  8
LW 3520-06-01
100
AcDbVertex
100
AcDb2dVertex
 10
-73.21312892436984
 20
-28.41724181175232
 30
0.0
  0
VERTEX
  5
2880
330
2879
100
AcDbEntity
  8
LW 3520-06-01
100
AcDbVertex
100
AcDb2dVertex
 10
-73.05387067794803
 20
-28.58578944206238
 30
0.0
  0
VERTEX
  5
2881
330
2879
100
AcDbEntity
  8
LW 3520-06-01
100
AcDbVertex
100
AcDb2dVertex
 10
-72.91515755653384
 20
-28.77805137634278
 30
0.0
  0
VERTEX
  5
2882
330
2879
100
AcDbEntity
  8
LW 3520-06-01
100
AcDbVertex
100
AcDb2dVertex
 10
-72.7951936721802
 20
-28.99613642692566
 30
0.0
  0
VERTEX
  5
2883
330
2879
100
AcDbEntity
  8
LW 3520-06-01
100
AcDbVertex
100
AcDb2dVertex
 10
-72.69880700111392
 20
-29.23433089256287
 30
0.0
  0
VERTEX
  5
2884
330
2879
100
AcDbEntity
  8
LW 3520-06-01
100
AcDbVertex
100
AcDb2dVertex
 10
-72.6298968791962
 20
-29.48646688461304
 30
0.0
  0
VERTEX
  5
2885
330
2879
100
AcDbEntity
  8
LW 3520-06-01
100
AcDbVertex
100
AcDb2dVertex
 10
-72.58886265754703
 20
-29.74452042579651
 30
0.0
  0
VERTEX
  5
2886
330
2879
100
AcDbEntity
  8
LW 3520-06-01
100
AcDbVertex
100
AcDb2dVertex
 10
-72.57527995109561
 20
-30.00000023841858
 30
0.0
  0
VERTEX
  5
2887
330
2879
100
AcDbEntity
  8
LW 3520-06-01
100
AcDbVertex
100
AcDb2dVertex
 10
-72.58886265754703
 20
-30.25547885894776
 30
0.0
  0
VERTEX
  5
2888
330
2879
100
AcDbEntity
  8
LW 3520-06-01
100
AcDbVertex
100
AcDb2dVertex
 10
-72.6298968791962
 20
-30.51353359222412
 30
0.0
  0
VERTEX
  5
2889
330
2879
100
AcDbEntity
  8
LW 3520-06-01
100
AcDbVertex
100
AcDb2dVertex
 10
-72.69880700111392
 20
-30.76566958427429
 30
0.0
  0
VERTEX
  5
288A
330
2879
100
AcDbEntity
  8
LW 3520-06-01
100
AcDbVertex
100
AcDb2dVertex
 10
-72.7951936721802
 20
-31.0038640499115
 30
0.0
  0
VERTEX
  5
288B
330
2879
100
AcDbEntity
  8
LW 3520-06-01
100
AcDbVertex
100
AcDb2dVertex
 10
-72.91515755653384
 20
-31.22194790840149
 30
0.0
  0
VERTEX
  5
288C
330
2879
100
AcDbEntity
  8
LW 3520-06-01
100
AcDbVertex
100
AcDb2dVertex
 10
-73.05387067794803
 20
-31.41421103477478
 30
0.0
  0
VERTEX
  5
288D
330
2879
100
AcDbEntity
  8
LW 3520-06-01
100
AcDbVertex
100
AcDb2dVertex
 10
-73.21312892436984
 20
-31.58275866508484
 30
0.0
  0
VERTEX
  5
288E
330
2879
100
AcDbEntity
  8
LW 3520-06-01
100
AcDbVertex
100
AcDb2dVertex
 10
-73.39504826068881
 20
-31.72932291030884
 30
0.0
  0
VERTEX
  5
288F
330
2879
100
AcDbEntity
  8
LW 3520-06-01
100
AcDbVertex
100
AcDb2dVertex
 10
-73.59528648853305
 20
-31.84763216972351
 30
0.0
  0
VERTEX
  5
2890
330
2879
100
AcDbEntity
  8
LW 3520-06-01
100
AcDbVertex
100
AcDb2dVertex
 10
-73.80907404422763
 20
-31.93250799179077
 30
0.0
  0
VERTEX
  5
2891
330
2879
100
AcDbEntity
  8
LW 3520-06-01
100
AcDbVertex
100
AcDb2dVertex
 10
-74.02972149848941
 20
-31.98318386077881
 30
0.0
  0
VERTEX
  5
2892
330
2879
100
AcDbEntity
  8
LW 3520-06-01
100
AcDbVertex
100
AcDb2dVertex
 10
-74.25000000000003
 20
-31.99999952316284
 30
0.0
  0
SEQEND
  5
2893
330
2879
100
AcDbEntity
  8
LW 3520-06-01
  0
POLYLINE
  5
2894
330
265F
100
AcDbEntity
  8
LW 3520-06-01
100
AcDb2dPolyline
 66
     1
 10
0.0
 20
0.0
 30
0.0
 70
   128
  0
VERTEX
  5
2895
330
2894
100
AcDbEntity
  8
LW 3520-06-01
100
AcDbVertex
100
AcDb2dVertex
 10
-100.5
 20
-27.99999976158142
 30
0.0
  0
VERTEX
  5
2896
330
2894
100
AcDbEntity
  8
LW 3520-06-01
100
AcDbVertex
100
AcDb2dVertex
 10
-100.4980533123016
 20
-28.01681661605835
 30
0.0
  0
VERTEX
  5
2897
330
2894
100
AcDbEntity
  8
LW 3520-06-01
100
AcDbVertex
100
AcDb2dVertex
 10
-100.4923813343048
 20
-28.06749248504639
 30
0.0
  0
VERTEX
  5
2898
330
2894
100
AcDbEntity
  8
LW 3520-06-01
100
AcDbVertex
100
AcDb2dVertex
 10
-100.4832415580749
 20
-28.15236830711365
 30
0.0
  0
VERTEX
  5
2899
330
2894
100
AcDbEntity
  8
LW 3520-06-01
100
AcDbVertex
100
AcDb2dVertex
 10
-100.4711489677429
 20
-28.27067637443543
 30
0.0
  0
VERTEX
  5
289A
330
2894
100
AcDbEntity
  8
LW 3520-06-01
100
AcDbVertex
100
AcDb2dVertex
 10
-100.4572539329529
 20
-28.41724181175232
 30
0.0
  0
VERTEX
  5
289B
330
2894
100
AcDbEntity
  8
LW 3520-06-01
100
AcDbVertex
100
AcDb2dVertex
 10
-100.4427628517151
 20
-28.58578944206238
 30
0.0
  0
VERTEX
  5
289C
330
2894
100
AcDbEntity
  8
LW 3520-06-01
100
AcDbVertex
100
AcDb2dVertex
 10
-100.4282586574555
 20
-28.77805137634278
 30
0.0
  0
VERTEX
  5
289D
330
2894
100
AcDbEntity
  8
LW 3520-06-01
100
AcDbVertex
100
AcDb2dVertex
 10
-100.4143302440643
 20
-28.99613642692566
 30
0.0
  0
VERTEX
  5
289E
330
2894
100
AcDbEntity
  8
LW 3520-06-01
100
AcDbVertex
100
AcDb2dVertex
 10
-100.4021911621094
 20
-29.23433089256287
 30
0.0
  0
VERTEX
  5
289F
330
2894
100
AcDbEntity
  8
LW 3520-06-01
100
AcDbVertex
100
AcDb2dVertex
 10
-100.3930048942566
 20
-29.48646688461304
 30
0.0
  0
VERTEX
  5
28A0
330
2894
100
AcDbEntity
  8
LW 3520-06-01
100
AcDbVertex
100
AcDb2dVertex
 10
-100.3872995376587
 20
-29.74452042579651
 30
0.0
  0
VERTEX
  5
28A1
330
2894
100
AcDbEntity
  8
LW 3520-06-01
100
AcDbVertex
100
AcDb2dVertex
 10
-100.3853385448456
 20
-30.00000023841858
 30
0.0
  0
VERTEX
  5
28A2
330
2894
100
AcDbEntity
  8
LW 3520-06-01
100
AcDbVertex
100
AcDb2dVertex
 10
-100.3872995376587
 20
-30.25547885894776
 30
0.0
  0
VERTEX
  5
28A3
330
2894
100
AcDbEntity
  8
LW 3520-06-01
100
AcDbVertex
100
AcDb2dVertex
 10
-100.3930048942566
 20
-30.51353359222412
 30
0.0
  0
VERTEX
  5
28A4
330
2894
100
AcDbEntity
  8
LW 3520-06-01
100
AcDbVertex
100
AcDb2dVertex
 10
-100.4021911621094
 20
-30.76566958427429
 30
0.0
  0
VERTEX
  5
28A5
330
2894
100
AcDbEntity
  8
LW 3520-06-01
100
AcDbVertex
100
AcDb2dVertex
 10
-100.4143302440643
 20
-31.0038640499115
 30
0.0
  0
VERTEX
  5
28A6
330
2894
100
AcDbEntity
  8
LW 3520-06-01
100
AcDbVertex
100
AcDb2dVertex
 10
-100.4282586574555
 20
-31.22194790840149
 30
0.0
  0
VERTEX
  5
28A7
330
2894
100
AcDbEntity
  8
LW 3520-06-01
100
AcDbVertex
100
AcDb2dVertex
 10
-100.4427628517151
 20
-31.41421103477478
 30
0.0
  0
VERTEX
  5
28A8
330
2894
100
AcDbEntity
  8
LW 3520-06-01
100
AcDbVertex
100
AcDb2dVertex
 10
-100.4572539329529
 20
-31.58275866508484
 30
0.0
  0
VERTEX
  5
28A9
330
2894
100
AcDbEntity
  8
LW 3520-06-01
100
AcDbVertex
100
AcDb2dVertex
 10
-100.4711489677429
 20
-31.72932291030884
 30
0.0
  0
VERTEX
  5
28AA
330
2894
100
AcDbEntity
  8
LW 3520-06-01
100
AcDbVertex
100
AcDb2dVertex
 10
-100.4832415580749
 20
-31.84763216972351
 30
0.0
  0
VERTEX
  5
28AB
330
2894
100
AcDbEntity
  8
LW 3520-06-01
100
AcDbVertex
100
AcDb2dVertex
 10
-100.4923813343048
 20
-31.93250799179077
 30
0.0
  0
VERTEX
  5
28AC
330
2894
100
AcDbEntity
  8
LW 3520-06-01
100
AcDbVertex
100
AcDb2dVertex
 10
-100.4980533123016
 20
-31.98318386077881
 30
0.0
  0
VERTEX
  5
28AD
330
2894
100
AcDbEntity
  8
LW 3520-06-01
100
AcDbVertex
100
AcDb2dVertex
 10
-100.5
 20
-31.99999952316284
 30
0.0
  0
SEQEND
  5
28AE
330
2894
100
AcDbEntity
  8
LW 3520-06-01
  0
LINE
  5
28AF
330
265F
100
AcDbEntity
  8
LW 3520-06-01
100
AcDbLine
 10
-100.5
 20
-34.0
 30
0.0
 11
-65.50000000000003
 21
-34.0
 31
0.0
  0
LINE
  5
28B0
330
265F
100
AcDbEntity
  8
LW 3520-06-01
100
AcDbLine
 10
-97.5
 20
-37.0
 30
0.0
 11
-68.50000000000003
 21
-37.0
 31
0.0
  0
LINE
  5
28B1
330
265F
100
AcDbEntity
  8
LW 3520-06-01
100
AcDbLine
 10
-65.50000000000003
 20
-14.0
 30
0.0
 11
-65.50000000000003
 21
-34.0
 31
0.0
  0
LINE
  5
28B2
330
265F
100
AcDbEntity
  8
LW 3520-06-01
100
AcDbLine
 10
-100.5
 20
-14.0
 30
0.0
 11
-100.5
 21
-28.0
 31
0.0
  0
LINE
  5
28B3
330
265F
100
AcDbEntity
  8
LW 3520-06-01
100
AcDbLine
 10
-100.5
 20
-32.0
 30
0.0
 11
-100.5
 21
-34.0
 31
0.0
  0
LINE
  5
28B4
330
265F
100
AcDbEntity
  8
LW 3520-06-01
100
AcDbLine
 10
-97.5
 20
-37.0
 30
0.0
 11
-100.5
 21
-34.0
 31
0.0
  0
LINE
  5
28B5
330
265F
100
AcDbEntity
  8
LW 3520-06-01
100
AcDbLine
 10
-68.50000000000003
 20
-37.0
 30
0.0
 11
-65.50000000000003
 21
-34.0
 31
0.0
  0
LINE
  5
28B6
330
265F
100
AcDbEntity
  8
LW 3520-06-01
100
AcDbLine
 10
3.0
 20
-146.9999999999999
 30
0.0
 11
-2.999999999999943
 21
-146.9999999999999
 31
0.0
  0
LINE
  5
28B7
330
265F
100
AcDbEntity
  8
LW 3520-06-01
100
AcDbLine
 10
3.000000000000056
 20
-133.0
 30
0.0
 11
-3.0
 21
-133.0
 31
0.0
  0
LINE
  5
28B8
330
265F
100
AcDbEntity
  8
LW 3520-06-01
 62
     3
100
AcDbLine
 10
-2.999999999999943
 20
-145.7945
 30
0.0
 11
3.0
 21
-145.7945
 31
0.0
  0
LINE
  5
28B9
330
265F
100
AcDbEntity
  8
LW 3520-06-01
 62
     3
100
AcDbLine
 10
3.000000000000056
 20
-134.2054999999999
 30
0.0
 11
-3.0
 21
-134.2054999999999
 31
0.0
  0
LINE
  5
28BA
330
265F
100
AcDbEntity
  8
LW 3520-06-01
100
AcDbLine
 10
3.0
 20
-66.99999999999994
 30
0.0
 11
-2.999999999999943
 21
-66.99999999999994
 31
0.0
  0
LINE
  5
28BB
330
265F
100
AcDbEntity
  8
LW 3520-06-01
100
AcDbLine
 10
3.000000000000056
 20
-53.0
 30
0.0
 11
-3.0
 21
-53.0
 31
0.0
  0
LINE
  5
28BC
330
265F
100
AcDbEntity
  8
LW 3520-06-01
 62
     3
100
AcDbLine
 10
-2.999999999999943
 20
-65.79449999999997
 30
0.0
 11
3.0
 21
-65.79449999999997
 31
0.0
  0
LINE
  5
28BD
330
265F
100
AcDbEntity
  8
LW 3520-06-01
 62
     3
100
AcDbLine
 10
3.000000000000056
 20
-54.20549999999991
 30
0.0
 11
-3.0
 21
-54.20549999999997
 31
0.0
  0
LINE
  5
28BE
330
265F
100
AcDbEntity
  8
LW 3520-06-01
  6
MITTE2
 62
     3
100
AcDbLine
 10
83.0
 20
27.30489739875702
 30
0.0
 11
83.0
 21
-41.6303604871004
 31
0.0
  0
LINE
  5
28BF
330
265F
100
AcDbEntity
  8
LW 3520-06-01
  6
MITTE2
 62
     3
100
AcDbLine
 10
0.0
 20
-200.232621264322
 30
0.0
 11
0.0
 21
21.38032543962169
 31
0.0
  0
LINE
  5
28C0
330
265F
100
AcDbEntity
  8
LW 3520-06-01
  6
MITTE2
 62
     3
100
AcDbLine
 10
39.0980226786848
 20
-140.0
 30
0.0
 11
-39.0980226786848
 21
-140.0
 31
0.0
  0
LINE
  5
28C1
330
265F
100
AcDbEntity
  8
LW 3520-06-01
  6
MITTE2
 62
     3
100
AcDbLine
 10
39.33902532515907
 20
-60.0
 30
0.0
 11
-39.3390253251591
 21
-60.0
 31
0.0
  0
LINE
  5
28C2
330
265F
100
AcDbEntity
  8
LW 3520-06-01
  6
MITTE2
 62
     3
100
AcDbLine
 10
-82.99999999999988
 20
27.30489739875702
 30
0.0
 11
-82.99999999999988
 21
-41.6303604871004
 31
0.0
  0
INSERT
  5
28C3
330
265F
100
AcDbEntity
  8
LW 3520-06-01
100
AcDbBlockReference
 66
     1
  2
insertpoint-ECKELT
 10
0.0
 20
0.0
 30
0.0
  0
ATTRIB
  5
28C4
330
28C3
100
AcDbEntity
  8
insertpoint_ECKELT
100
AcDbText
 10
-6.931514324693087
 20
0.0
 30
0.0
 40
0.6
  1
LW 3520/06-01
 72
     2
 11
-1.200000000000045
 21
0.0
 31
0.0
100
AcDbAttribute
  2
LINKS
 70
     0
  0
ATTRIB
  5
28C5
330
28C3
100
AcDbEntity
  8
insertpoint_ECKELT
100
AcDbText
 10
1.200000000000045
 20
0.0
 30
0.0
 40
0.6
  1

100
AcDbAttribute
  2
RECHTS
 70
     0
  0
SEQEND
  5
28C6
330
28C3
100
AcDbEntity
  8
LW 3520-06-01
  0
HATCH
  5
28C7
330
265F
100
AcDbEntity
  8
LW 3520-06-01
 62
     1
100
AcDbHatch
 10
0.0
 20
0.0
 30
0.0
210
0.0
220
0.0
230
1.0
  2
SOLID
 70
     1
 71
     0
 91
        5
 92
        7
 72
     0
 73
     1
 93
       76
 10
-29.82432087502358
 20
-17.73042025943835
 10
-29.76788523442028
 20
-17.70827078758862
 10
-29.58261329562575
 20
-17.65817174291453
 10
-29.390776357298
 20
-17.62651928383218
 10
-29.19692969510075
 20
-17.61142357833842
 10
-28.99585088848571
 20
-17.61609982965501
 10
-28.79423459670099
 20
-17.63958969621649
 10
-28.59402124287098
 20
-17.67556011211041
 10
-28.40737510703068
 20
-17.72864682343288
 10
-30.21308545759072
 20
-16.3743640605129
 10
-30.38861649263075
 20
-16.25357785323297
 10
-30.56588545871071
 20
-16.15321233567295
 10
-30.74706476963078
 20
-16.06892268023296
 10
-30.92737511503069
 20
-16.001577852433
 10
-31.10985787423081
 20
-15.9516123350329
 10
-31.29320959895082
 20
-15.91728819699301
 10
-31.47085951951462
 20
-15.90320765349997
 10
-31.64905097939069
 20
-15.90295026591309
 10
-31.82083294959134
 20
-15.92292413356273
 10
-31.98680049770437
 20
-15.95877261091778
 10
-32.14914063615075
 20
-16.00852957659299
 10
-32.30251305043081
 20
-16.07543992163312
 10
-32.44545787847082
 20
-16.16103302535316
 10
-32.58188546511062
 20
-16.25966061187307
 10
-32.70354063791072
 20
-16.37479854327307
 10
-32.81476822447073
 20
-16.50861923335304
 10
-32.9103544316707
 20
-16.65417095795317
 10
-32.98638891467076
 20
-16.80623992395306
 10
-33.03939581139068
 20
-16.9674330279131
 10
-33.07763029427074
 20
-17.13427440775308
 10
-33.09500960467071
 20
-17.30589509795322
 10
-33.09457512191065
 20
-17.48272958127302
 10
-33.07514505288353
 20
-17.6613193749435
 10
-33.03886609000969
 20
-17.83994583895878
 10
-32.9872578801907
 20
-18.01670889331308
 10
-32.91730615583052
 20
-18.19137096283305
 10
-32.82774361761525
 20
-18.36466528062465
 10
-32.72743718971069
 20
-18.532005446673
 10
-32.60838891347063
 20
-18.6918951023531
 10
-32.4745682233906
 20
-18.8465709649131
 10
-32.32336822291072
 20
-18.99255717227305
 10
-32.16000270515073
 20
-19.12594337959302
 10
-30.46466583654851
 20
-20.39744603104452
 10
-30.55525844554959
 20
-20.25066306962515
 10
-30.64773759647787
 20
-20.0680283645255
 10
-30.719792905655
 20
-19.88332476647815
 10
-30.78068827840841
 20
-19.69313043888132
 10
-30.81794441518056
 20
-19.50295134062736
 10
-30.83628092003087
 20
-19.3150068579539
 10
-30.83695225699805
 20
-19.12639304933788
 10
-30.82801845689434
 20
-19.02786259678521
 10
-31.65078891043069
 20
-18.41078475663301
 10
-31.75193997282062
 20
-18.3254714598105
 10
-31.84434229035551
 20
-18.23075248019938
 10
-31.92711994579062
 20
-18.12750199711308
 10
-31.99185787703058
 20
-18.02192268643307
 10
-32.04192419443095
 20
-17.91376949988285
 10
-32.07988060834461
 20
-17.80079529262764
 10
-32.1052578773907
 20
-17.68432958191312
 10
-32.11177511879063
 20
-17.57353647811311
 10
-30.72975806738359
 20
-18.61004926666828
 10
-30.71864437674705
 20
-18.57759023369783
 10
-30.63630945458786
 20
-18.40762399087828
 10
-30.53177054844278
 20
-18.24816602804867
 10
-30.40530255448627
 20
-18.0995781568223
 10
-30.26443635438622
 20
-17.97226609281426
 10
-30.22167809629528
 20
-17.94291958648466
 10
-31.63818891039071
 20
-16.880536475913
 10
-31.52522339279077
 20
-16.84577785511305
 10
-31.40965097863071
 20
-16.82926751023302
 10
-31.29165936446313
 20
-16.83043018609879
 10
-31.17459580547072
 20
-16.845343372353
 10
-31.05326041198211
 20
-16.88138284832951
 10
-30.93606477023068
 20
-16.92919854503304
 10
-30.81484408019074
 20
-16.99567440731306
 10
-30.69623028671069
 20
-17.076488200673
 97
        0
 92
        7
 72
     0
 73
     1
 93
       72
 10
-28.45030895544292
 20
-18.77917747504386
 10
-28.34117383785505
 20
-18.8384357097147
 10
-28.2387957961507
 20
-18.90870199959289
 10
-27.22384406879061
 20
-19.66991579511284
 10
-28.39043027939053
 20
-19.81329510591286
 10
-28.00851993335047
 20
-22.24770201019294
 10
-26.95359579207056
 20
-23.03889511615285
 10
-27.27945786207053
 20
-20.61665372915286
 10
-24.95410613055057
 20
-20.31859855579279
 10
-27.70525096687064
 20
-18.25523992855295
 10
-27.87810558810909
 20
-18.13906792818409
 10
-28.05875656799301
 20
-18.03540555544123
 10
-28.24618200307063
 20
-17.9445847551529
 10
-28.43474752091069
 20
-17.87376406527289
 10
-28.62722338359075
 20
-17.81901923751286
 10
-28.81576804625828
 20
-17.78514522361223
 10
-29.00609235031069
 20
-17.762970961473
 10
-29.19291993711065
 20
-17.75862613387295
 10
-29.37306344113082
 20
-17.77265471322789
 10
-29.55136821411063
 20
-17.80207440987306
 10
-29.72168545603082
 20
-17.84812958243299
 10
-29.88331304275059
 20
-17.91156406539289
 10
-30.0332095949507
 20
-17.99194337599294
 10
-30.17311304367067
 20
-18.08796406595297
 10
-30.29954752683065
 20
-18.20223303183303
 10
-30.41381649271071
 20
-18.33648820467306
 10
-30.50809925163057
 20
-18.48030199823302
 10
-30.58239580359063
 20
-18.63367441251296
 10
-30.63714063135055
 20
-18.79356406819301
 10
-30.67407166595066
 20
-18.95866751699299
 10
-30.6898590315179
 20
-19.13278561409743
 10
-30.68923685220571
 20
-19.30758845603179
 10
-30.67225726594475
 20
-19.48162487037734
 10
-30.63800959687061
 20
-19.65644682955292
 10
-30.58112016220727
 20
-19.83412942322059
 10
-30.51331304475062
 20
-20.00794338239302
 10
-30.42685097551057
 20
-20.17869510707305
 10
-30.3238785613905
 20
-20.34553648691304
 10
-30.20092341617269
 20
-20.50531491500647
 10
-30.06970614679065
 20
-20.65836407411302
 10
-29.91850614631059
 20
-20.80435028147304
 10
-29.75514062855061
 20
-20.93773648879301
 10
-28.23271303751048
 20
-22.07955718207291
 10
-28.41780269327055
 20
-20.84910200575291
 10
-29.23115441999059
 20
-20.23908821071296
 10
-29.28223967198264
 20
-20.19609015554477
 10
-29.35700843418326
 20
-20.12753563104855
 10
-29.44023795168877
 20
-20.03828418248929
 10
-29.51333880709333
 20
-19.94055336838608
 10
-29.56997797968686
 20
-19.84691364395075
 10
-29.59799342805175
 20
-19.79070895411706
 10
-29.62138945571215
 20
-19.73242917462164
 10
-29.66784435241149
 20
-19.57343455342737
 10
-29.68470228349938
 20
-19.47324282897136
 10
-29.68803563523417
 20
-19.38591005628046
 10
-29.683464876599
 20
-19.29863984910673
 10
-29.66865770413827
 20
-19.21329005573227
 10
-29.64334300060952
 20
-19.13049849684887
 10
-29.60760766256507
 20
-19.04835344831212
 10
-29.56002311068991
 20
-18.97237979289861
 10
-29.52155574505051
 20
-18.92334928239813
 10
-29.47947348284797
 20
-18.87724718570012
 10
-29.43184374476559
 20
-18.8340022476317
 10
-29.38025499977434
 20
-18.79557311647522
 10
-29.28610779947561
 20
-18.74279041285939
 10
-29.21216578544758
 20
-18.7134141644903
 10
-29.1148833575526
 20
-18.6888346057915
 10
-28.93544816302855
 20
-18.66525758036743
 10
-28.86399910848016
 20
-18.66877192986578
 10
-28.77637262544349
 20
-18.67909524024344
 10
-28.68386950790844
 20
-18.69579154374457
 10
-28.56493593511706
 20
-18.73144172316813
 97
        0
 92
        7
 72
     0
 73
     1
 93
       57
 10
-24.81712240597764
 20
-21.5316570424024
 10
-24.68795937108493
 20
-21.57856380117198
 10
-24.56394061207058
 20
-21.63768821515271
 10
-24.44402337031059
 20
-21.71676407747276
 10
-23.45166474647053
 20
-22.46103304535274
 10
-22.95635440007052
 20
-21.80061925015275
 10
-23.94349923079059
 20
-21.06026062711283
 10
-24.11729233479056
 20
-20.94077786811283
 10
-24.29934061123058
 20
-20.83954338503281
 10
-24.48225785319048
 20
-20.75395028131277
 10
-24.66604406067049
 20
-20.68399855695282
 10
-24.85678199231049
 20
-20.63055717747284
 10
-25.03949068254596
 20
-20.59682393598632
 10
-25.22442044865019
 20
-20.57869557730817
 10
-25.41017746992944
 20
-20.57623988074874
 10
-25.5893581601533
 20
-20.59088194976073
 10
-25.76267854691057
 20
-20.62186752227285
 10
-25.92951992675054
 20
-20.67052959139283
 10
-26.0846302720706
 20
-20.73613648815285
 10
-26.23452682427072
 20
-20.8165157987529
 10
-26.37095441091046
 20
-20.91514338527281
 10
-26.4973888940705
 20
-21.02941235115281
 10
-26.6103544116705
 20
-21.1619295929529
 10
-26.70594061887058
 20
-21.30748131755286
 10
-26.78023717083053
 20
-21.46085373183286
 10
-26.83498199859068
 20
-21.6207433875129
 10
-26.87147855043046
 20
-21.78888821563294
 10
-26.89059579187048
 20
-21.95920545755291
 10
-26.88725201254951
 20
-22.13615812018361
 10
-26.86957377801068
 20
-22.31234783108766
 10
-26.83321626065387
 20
-22.4912504523453
 10
-26.78154061911059
 20
-22.66828132187288
 10
-26.71158889475058
 20
-22.84294339139291
 10
-26.6233888944706
 20
-23.01499856435282
 10
-26.51998199759041
 20
-23.18488132351285
 10
-26.40093372135047
 20
-23.34477097919284
 10
-26.26711303127044
 20
-23.49944684175284
 10
-26.1163475135505
 20
-23.64239166979292
 10
-25.95124406475046
 20
-23.77708132539289
 10
-24.98321647547047
 20
-24.50310201735283
 10
-24.46835440487044
 20
-23.81661925655283
 10
-25.45549923559062
 20
-23.07626063351279
 10
-25.55621233935855
 20
-22.98779994357687
 10
-25.64882668447999
 20
-22.89085815016563
 10
-25.7247221329969
 20
-22.79103139122799
 10
-25.78874751251041
 20
-22.68305373571286
 10
-25.83992958163853
 20
-22.56852408017676
 10
-25.87701703003214
 20
-22.45620159706164
 10
-25.89908875424007
 20
-22.33993401048565
 10
-25.90736130599046
 20
-22.22684683771285
 10
-24.22330612823041
 20
-23.4898882210328
 10
-23.7266923335504
 20
-22.82773649479282
 10
-25.44029233899059
 20
-21.54253649071279
 10
-25.32602337311059
 20
-21.50603993887285
 10
-25.2030647520306
 20
-21.48692269743287
 10
-25.07636957921452
 20
-21.48657511122485
 10
-24.95019578571052
 20
-21.49735028367286
 97
        0
 92
        7
 72
     0
 73
     1
 93
        6
 10
-22.77995439951039
 20
-21.94921235407276
 10
-24.80160268179046
 20
-24.64474339711279
 10
-23.01153371059033
 20
-25.98729512551279
 10
-22.49145784687036
 20
-25.29386064055268
 10
-23.4629612982304
 20
-24.56523305203268
 10
-21.96138887967046
 20
-22.5631364939527
 97
        0
 92
        7
 72
     0
 73
     1
 93
        8
 10
-21.77543025839051
 20
-22.70260545991266
 10
-22.27074060479058
 20
-23.3630192551127
 10
-21.28359577407039
 20
-24.10337787815263
 10
-22.81384405479034
 20
-26.14370891911278
 10
-21.99354060391036
 20
-26.75893650727272
 10
-20.46329232319047
 20
-24.71860546631262
 10
-19.46919576831047
 20
-25.46417788247266
 10
-18.97388542191047
 20
-24.80376408727261
 97
        0
 75
     0
 76
     1
 47
0.0142553043587597
 98
        5
 10
-30.131110850164
 20
-16.98890710306943
 10
-28.40264487049328
 20
-18.46344781907953
 10
-24.77466278120338
 20
-21.1131579203622
 10
-22.45017937932264
 20
-22.55359519090723
 10
-21.38058127298925
 20
-23.48052768617401
450
        0
451
        0
460
0.0
461
0.0
452
        0
462
0.0
453
        0
470

  0
LWPOLYLINE
  5
28C8
330
265F
100
AcDbEntity
  8
LW 3520-06-01
 62
     1
100
AcDbPolyline
 90
        8
 70
     1
 43
0.0
 10
-20.46329232319047
 20
-24.71860546631262
 10
-21.99354060391036
 20
-26.75893650727272
 10
-22.81384405479034
 20
-26.14370891911278
 10
-21.28359577407039
 20
-24.10337787815263
 10
-22.27074060479058
 20
-23.3630192551127
 10
-21.77543025839051
 20
-22.70260545991266
 10
-18.97388542191047
 20
-24.80376408727261
 10
-19.46919576831047
 20
-25.46417788247266
  0
LWPOLYLINE
  5
28C9
330
265F
100
AcDbEntity
  8
LW 3520-06-01
 62
     1
100
AcDbPolyline
 90
       73
 70
     1
 43
0.0
 10
-29.23115441999059
 20
-20.23908821071296
 10
-28.41780269327055
 20
-20.84910200575291
 10
-28.23271303751048
 20
-22.07955718207291
 10
-29.75514062855061
 20
-20.93773648879301
 10
-29.91850614631059
 20
-20.80435028147304
 10
-30.0697061467906
 20
-20.65836407411297
 10
-30.20092341617269
 20
-20.50531491500647
 10
-30.3238785613905
 20
-20.34553648691304
 10
-30.42685097551057
 20
-20.17869510707305
 10
-30.51331304475056
 20
-20.00794338239302
 10
-30.58112016220716
 20
-19.83412942322053
 10
-30.63800959687061
 20
-19.65644682955292
 10
-30.67225726594492
 20
-19.48162487037734
 10
-30.68923685220571
 20
-19.30758845603179
 10
-30.68985903151801
 20
-19.13278561409743
 10
-30.67407166595066
 20
-18.95866751699299
 10
-30.63714063135055
 20
-18.79356406819301
 10
-30.58239580359063
 20
-18.63367441251296
 10
-30.50809925163057
 20
-18.48030199823302
 10
-30.41381649271065
 20
-18.336488204673
 10
-30.29954752683065
 20
-18.20223303183303
 10
-30.17311304367067
 20
-18.08796406595297
 10
-30.03320959495065
 20
-17.991943375993
 10
-29.88331304275064
 20
-17.91156406539295
 10
-29.72168545603071
 20
-17.84812958243299
 10
-29.55136821411063
 20
-17.80207440987306
 10
-29.37306344113077
 20
-17.77265471322784
 10
-29.19291993711076
 20
-17.75862613387289
 10
-29.00609235031069
 20
-17.762970961473
 10
-28.81576804625823
 20
-17.7851452236124
 10
-28.6272233835908
 20
-17.81901923751297
 10
-28.43474752091069
 20
-17.87376406527289
 10
-28.24618200307063
 20
-17.94458475515284
 10
-28.0587565679929
 20
-18.03540555544123
 10
-27.87810558810909
 20
-18.13906792818409
 10
-27.7052509668707
 20
-18.25523992855289
 10
-24.95410613055057
 20
-20.31859855579279
 10
-27.27945786207053
 20
-20.61665372915286
 10
-26.95359579207056
 20
-23.03889511615285
 10
-28.00851993335047
 20
-22.24770201019294
 10
-28.39043027939053
 20
-19.81329510591286
 10
-27.22384406879061
 20
-19.66991579511284
 10
-28.2387957961507
 20
-18.90870199959289
 10
-28.34117383785505
 20
-18.8384357097147
 10
-28.45030895544292
 20
-18.77917747504386
 10
-28.56493593511706
 20
-18.73144172316813
 10
-28.6838695079085
 20
-18.69579154374469
 10
-28.77637262544349
 20
-18.67909524024327
 10
-28.86399910848027
 20
-18.66877192986573
 10
-28.91251171553083
 20
-18.66638575054782
 10
-28.96108341223666
 20
-18.66862594365841
 10
-29.1148833575526
 20
-18.6888346057915
 10
-29.21216578544758
 20
-18.7134141644903
 10
-29.2861077994755
 20
-18.74279041285933
 10
-29.38025499977434
 20
-18.79557311647522
 10
-29.43184374476559
 20
-18.8340022476317
 10
-29.47947348284791
 20
-18.87724718570007
 10
-29.52155574505045
 20
-18.92334928239808
 10
-29.5600231106898
 20
-18.97237979289855
 10
-29.60760766256507
 20
-19.04835344831212
 10
-29.6433430006094
 20
-19.13049849684887
 10
-29.66865770413816
 20
-19.21329005573239
 10
-29.683464876599
 20
-19.29863984910673
 10
-29.68803563523417
 20
-19.38591005628029
 10
-29.68470228349938
 20
-19.47324282897136
 10
-29.66784435241149
 20
-19.57343455342737
 10
-29.62138945571209
 20
-19.73242917462176
 10
-29.59799342805169
 20
-19.79070895411712
 10
-29.56997797968686
 20
-19.84691364395075
 10
-29.51333880709333
 20
-19.94055336838608
 10
-29.44023795168877
 20
-20.03828418248929
 10
-29.35700843418326
 20
-20.12753563104855
 10
-29.28223967198253
 20
-20.19609015554483
  0
LWPOLYLINE
  5
28CA
330
265F
100
AcDbEntity
  8
LW 3520-06-01
 62
     1
100
AcDbPolyline
 90
       76
 70
     1
 43
0.0
 10
-28.79423459670099
 20
-17.63958969621649
 10
-28.99585088848582
 20
-17.61609982965501
 10
-29.1969296951008
 20
-17.6114235783383
 10
-29.390776357298
 20
-17.62651928383218
 10
-29.58261329562575
 20
-17.65817174291453
 10
-29.76788523442022
 20
-17.70827078758856
 10
-29.82432087502358
 20
-17.73042025943835
 10
-30.69623028671069
 20
-17.076488200673
 10
-30.81484408019074
 20
-16.99567440731306
 10
-30.93606477023079
 20
-16.92919854503299
 10
-31.05326041198211
 20
-16.88138284832951
 10
-31.17459580547072
 20
-16.845343372353
 10
-31.29165936446302
 20
-16.83043018609885
 10
-31.40965097863077
 20
-16.82926751023308
 10
-31.52522339279082
 20
-16.845777855113
 10
-31.63818891039071
 20
-16.880536475913
 10
-30.22167809629528
 20
-17.94291958648466
 10
-30.26443635438622
 20
-17.97226609281426
 10
-30.4053025544865
 20
-18.0995781568223
 10
-30.53177054844278
 20
-18.24816602804867
 10
-30.63630945458786
 20
-18.40762399087828
 10
-30.71864437674694
 20
-18.57759023369783
 10
-30.72975806738359
 20
-18.61004926666828
 10
-32.11177511879063
 20
-17.57353647811311
 10
-32.1052578773907
 20
-17.68432958191312
 10
-32.07988060834461
 20
-17.80079529262764
 10
-32.04192419443095
 20
-17.91376949988285
 10
-31.99185787703058
 20
-18.02192268643307
 10
-31.92711994579062
 20
-18.12750199711308
 10
-31.84434229035551
 20
-18.23075248019938
 10
-31.75193997282062
 20
-18.3254714598105
 10
-31.65078891043069
 20
-18.41078475663301
 10
-30.82801845689434
 20
-19.02786259678521
 10
-30.83695225699799
 20
-19.12639304933782
 10
-30.83628092003087
 20
-19.3150068579539
 10
-30.81794441518056
 20
-19.50295134062736
 10
-30.78068827840818
 20
-19.69313043888132
 10
-30.719792905655
 20
-19.88332476647815
 10
-30.64773759647787
 20
-20.0680283645255
 10
-30.55525844554959
 20
-20.25066306962515
 10
-30.46466583654851
 20
-20.39744603104452
 10
-32.16000270515067
 20
-19.12594337959308
 10
-32.32336822291072
 20
-18.99255717227305
 10
-32.4745682233906
 20
-18.8465709649131
 10
-32.60838891347069
 20
-18.6918951023531
 10
-32.72743718971069
 20
-18.53200544667316
 10
-32.82774361761537
 20
-18.36466528062453
 10
-32.91730615583052
 20
-18.19137096283305
 10
-32.9872578801907
 20
-18.01670889331308
 10
-33.03886609000958
 20
-17.83994583895889
 10
-33.07514505288353
 20
-17.6613193749435
 10
-33.09457512191065
 20
-17.48272958127308
 10
-33.09500960467071
 20
-17.30589509795311
 10
-33.07763029427062
 20
-17.13427440775308
 10
-33.03939581139068
 20
-16.9674330279131
 10
-32.98638891467076
 20
-16.80623992395306
 10
-32.9103544316707
 20
-16.65417095795305
 10
-32.81476822447073
 20
-16.5086192333531
 10
-32.70354063791089
 20
-16.37479854327307
 10
-32.58188546511073
 20
-16.25966061187307
 10
-32.44545787847076
 20
-16.16103302535305
 10
-32.30251305043081
 20
-16.07543992163312
 10
-32.14914063615075
 20
-16.00852957659299
 10
-31.98680049770425
 20
-15.95877261091789
 10
-31.82083294959128
 20
-15.92292413356267
 10
-31.64905097939081
 20
-15.90295026591309
 10
-31.47085951951473
 20
-15.90320765350003
 10
-31.29320959895071
 20
-15.91728819699301
 10
-31.10985787423075
 20
-15.95161233503302
 10
-30.92737511503069
 20
-16.001577852433
 10
-30.74706476963078
 20
-16.06892268023307
 10
-30.56588545871071
 20
-16.15321233567295
 10
-30.38861649263075
 20
-16.25357785323297
 10
-30.21308545759072
 20
-16.37436406051302
 10
-28.40737510703056
 20
-17.72864682343288
 10
-28.59402124287098
 20
-17.67556011211041
  0
LWPOLYLINE
  5
28CB
330
265F
100
AcDbEntity
  8
LW 3520-06-01
 62
     1
100
AcDbPolyline
 90
        6
 70
     1
 43
0.0
 10
-23.01153371059033
 20
-25.98729512551279
 10
-24.80160268179046
 20
-24.64474339711279
 10
-22.77995439951039
 20
-21.94921235407276
 10
-21.96138887967046
 20
-22.5631364939527
 10
-23.4629612982304
 20
-24.56523305203268
 10
-22.49145784687036
 20
-25.29386064055268
  0
LWPOLYLINE
  5
28CC
330
265F
100
AcDbEntity
  8
LW 3520-06-01
 62
     1
100
AcDbPolyline
 90
       57
 70
     1
 43
0.0
 10
-26.86957377801068
 20
-22.31234783108766
 10
-26.88725201254963
 20
-22.13615812018361
 10
-26.89059579187059
 20
-21.95920545755291
 10
-26.87147855043046
 20
-21.78888821563294
 10
-26.83498199859068
 20
-21.6207433875129
 10
-26.78023717083053
 20
-21.46085373183286
 10
-26.70594061887058
 20
-21.30748131755286
 10
-26.6103544116705
 20
-21.1619295929529
 10
-26.49738889407056
 20
-21.02941235115281
 10
-26.37095441091057
 20
-20.91514338527293
 10
-26.23452682427072
 20
-20.8165157987529
 10
-26.0846302720706
 20
-20.7361364881528
 10
-25.92951992675066
 20
-20.67052959139289
 10
-25.76267854691057
 20
-20.62186752227274
 10
-25.58935816015353
 20
-20.59088194976061
 10
-25.41017746992944
 20
-20.57623988074874
 10
-25.22442044865008
 20
-20.57869557730817
 10
-25.03949068254562
 20
-20.59682393598643
 10
-24.85678199231049
 20
-20.63055717747284
 10
-24.6660440606706
 20
-20.68399855695282
 10
-24.48225785319048
 20
-20.75395028131277
 10
-24.29934061123058
 20
-20.83954338503281
 10
-24.11729233479056
 20
-20.94077786811283
 10
-23.94349923079059
 20
-21.06026062711283
 10
-22.95635440007052
 20
-21.80061925015275
 10
-23.45166474647053
 20
-22.46103304535274
 10
-24.44402337031053
 20
-21.71676407747282
 10
-24.56394061207053
 20
-21.63768821515282
 10
-24.68795937108493
 20
-21.57856380117198
 10
-24.81712240597776
 20
-21.5316570424024
 10
-24.95019578571052
 20
-21.49735028367286
 10
-25.07636957921452
 20
-21.48657511122485
 10
-25.2030647520306
 20
-21.48692269743276
 10
-25.32602337311059
 20
-21.50603993887285
 10
-25.44029233899059
 20
-21.54253649071279
 10
-23.7266923335504
 20
-22.82773649479282
 10
-24.22330612823041
 20
-23.4898882210328
 10
-25.90736130599046
 20
-22.22684683771285
 10
-25.89908875424007
 20
-22.33993401048565
 10
-25.87701703003214
 20
-22.45620159706164
 10
-25.83992958163853
 20
-22.56852408017676
 10
-25.78874751251041
 20
-22.68305373571286
 10
-25.7247221329969
 20
-22.79103139122799
 10
-25.64882668447999
 20
-22.89085815016563
 10
-25.55621233935855
 20
-22.98779994357687
 10
-25.45549923559062
 20
-23.07626063351279
 10
-24.46835440487044
 20
-23.81661925655283
 10
-24.98321647547047
 20
-24.50310201735283
 10
-25.95124406475046
 20
-23.77708132539289
 10
-26.1163475135505
 20
-23.64239166979292
 10
-26.26711303127044
 20
-23.49944684175284
 10
-26.40093372135047
 20
-23.34477097919284
 10
-26.51998199759041
 20
-23.18488132351285
 10
-26.6233888944706
 20
-23.01499856435282
 10
-26.71158889475052
 20
-22.84294339139285
 10
-26.78154061911059
 20
-22.66828132187288
 10
-26.83321626065387
 20
-22.4912504523453
  0
ENDBLK
  5
2661
330
265F
100
AcDbEntity
  8
0
100
AcDbBlockEnd
  0
BLOCK
  5
28CF
330
28CE
100
AcDbEntity
  8
0
100
AcDbBlockBegin
  2
LW 3520-06-01_b
 70
     0
 10
0.0
 20
0.0
 30
0.0
  3
LW 3520-06-01_b
  1

  0
LINE
  5
28D1
330
28CE
100
AcDbEntity
  8
LW 3520-06-01
100
AcDbLine
 10
-46.00000000000008
 20
-1.999999999961744
 30
0.0
 11
-35.00000000000006
 21
-1.999999999964245
 31
0.0
  0
LINE
  5
28D2
330
28CE
100
AcDbEntity
  8
LW 3520-06-01
100
AcDbLine
 10
-35.00000000000006
 20
2.000000000035868
 30
0.0
 11
-46.00000000000011
 21
2.000000000038255
 31
0.0
  0
LINE
  5
28D3
330
28CE
100
AcDbEntity
  8
LW 3520-06-01
100
AcDbLine
 10
-12.00000000000005
 20
-32.99999999999994
 30
0.0
 11
-12.00000000000005
 21
32.99999999999994
 31
0.0
  0
ARC
  5
28D4
330
28CE
100
AcDbEntity
  8
LW 3520-06-01
100
AcDbCircle
 10
-10.0
 20
32.99999999999994
 30
0.0
 40
2.00000000000001
100
AcDbArc
 50
90.0
 51
180.0
  0
ARC
  5
28D5
330
28CE
100
AcDbEntity
  8
LW 3520-06-01
100
AcDbCircle
 10
-10.00000000000005
 20
-33.00000000000006
 30
0.0
 40
2.000000000000003
100
AcDbArc
 50
180.0
 51
270.0
  0
LINE
  5
28D6
330
28CE
100
AcDbEntity
  8
LW 3520-06-01
100
AcDbLine
 10
-10.00000000000011
 20
35.00000000003826
 30
0.0
 11
-14.00000000000011
 21
35.00000000003945
 31
0.0
  0
LINE
  5
28D7
330
28CE
100
AcDbEntity
  8
LW 3520-06-01
100
AcDbLine
 10
-14.00000000000011
 20
-34.99999999996055
 30
0.0
 11
-10.00000000000011
 21
-34.99999999996175
 31
0.0
  0
LINE
  5
28D8
330
28CE
100
AcDbEntity
  8
LW 3520-06-01
100
AcDbLine
 10
-14.00000000000011
 20
35.00000000003945
 30
0.0
 11
-83.00000000000009
 21
35.00000000003945
 31
0.0
  0
LINE
  5
28D9
330
28CE
100
AcDbEntity
  8
LW 3520-06-01
100
AcDbLine
 10
-83.00000000000009
 20
-34.99999999996055
 30
0.0
 11
-14.00000000000011
 21
-34.99999999996055
 31
0.0
  0
ARC
  5
28DA
330
28CE
100
AcDbEntity
  8
LW 3520-06-01
100
AcDbCircle
 10
-83.00000000000009
 20
0.0000000000394493
 30
0.0
 40
35.0
100
AcDbArc
 50
90.0
 51
270.0
  0
LINE
  5
28DB
330
28CE
100
AcDbEntity
  8
LW 3520-06-01
100
AcDbLine
 10
-3.000000000000113
 20
35.0
 30
0.0
 11
-10.00000000000005
 21
35.0
 31
0.0
  0
LINE
  5
28DC
330
28CE
100
AcDbEntity
  8
LW 3520-06-01
100
AcDbLine
 10
-10.00000000000005
 20
-35.0
 30
0.0
 11
-3.000000000000113
 21
-35.0
 31
0.0
  0
LINE
  5
28DD
330
28CE
100
AcDbEntity
  8
LW 3520-06-01
100
AcDbLine
 10
-3.000000000000113
 20
35.0
 30
0.0
 11
-3.000000000000113
 21
-35.0
 31
0.0
  0
LINE
  5
28DE
330
28CE
100
AcDbEntity
  8
LW 3520-06-01
100
AcDbLine
 10
45.99999999999988
 20
2.000000000038255
 30
0.0
 11
34.99999999999989
 21
2.000000000035868
 31
0.0
  0
LINE
  5
28DF
330
28CE
100
AcDbEntity
  8
LW 3520-06-01
100
AcDbLine
 10
34.99999999999989
 20
-1.999999999964245
 30
0.0
 11
45.99999999999988
 21
-1.999999999961744
 31
0.0
  0
LINE
  5
28E0
330
28CE
100
AcDbEntity
  8
LW 3520-06-01
100
AcDbLine
 10
12.0
 20
32.99999999999994
 30
0.0
 11
12.0
 21
-32.99999999999994
 31
0.0
  0
ARC
  5
28E1
330
28CE
100
AcDbEntity
  8
LW 3520-06-01
100
AcDbCircle
 10
10.0
 20
-33.00000000000006
 30
0.0
 40
1.999999999999992
100
AcDbArc
 50
270.0
 51
0.0
  0
ARC
  5
28E2
330
28CE
100
AcDbEntity
  8
LW 3520-06-01
100
AcDbCircle
 10
10.0
 20
32.99999999999994
 30
0.0
 40
2.000000000000005
100
AcDbArc
 50
0.0
 51
90.0
  0
LINE
  5
28E3
330
28CE
100
AcDbEntity
  8
LW 3520-06-01
100
AcDbLine
 10
10.0
 20
-34.99999999996175
 30
0.0
 11
14.0
 21
-34.99999999996055
 31
0.0
  0
LINE
  5
28E4
330
28CE
100
AcDbEntity
  8
LW 3520-06-01
100
AcDbLine
 10
14.0
 20
35.00000000003945
 30
0.0
 11
10.0
 21
35.00000000003826
 31
0.0
  0
LINE
  5
28E5
330
28CE
100
AcDbEntity
  8
LW 3520-06-01
100
AcDbLine
 10
14.0
 20
-34.99999999996055
 30
0.0
 11
83.0
 21
-34.99999999996055
 31
0.0
  0
LINE
  5
28E6
330
28CE
100
AcDbEntity
  8
LW 3520-06-01
100
AcDbLine
 10
83.0
 20
35.00000000003945
 30
0.0
 11
14.0
 21
35.00000000003945
 31
0.0
  0
ARC
  5
28E7
330
28CE
100
AcDbEntity
  8
LW 3520-06-01
100
AcDbCircle
 10
83.0
 20
0.0000000000394493
 30
0.0
 40
35.0
100
AcDbArc
 50
270.0
 51
90.0
  0
LINE
  5
28E8
330
28CE
100
AcDbEntity
  8
LW 3520-06-01
100
AcDbLine
 10
2.999999999999886
 20
-35.0
 30
0.0
 11
10.0
 21
-35.0
 31
0.0
  0
LINE
  5
28E9
330
28CE
100
AcDbEntity
  8
LW 3520-06-01
100
AcDbLine
 10
10.0
 20
35.0
 30
0.0
 11
2.999999999999886
 21
35.0
 31
0.0
  0
LINE
  5
28EA
330
28CE
100
AcDbEntity
  8
LW 3520-06-01
100
AcDbLine
 10
2.999999999999886
 20
-35.0
 30
0.0
 11
2.999999999999886
 21
35.0
 31
0.0
  0
CIRCLE
  5
28EB
330
28CE
100
AcDbEntity
  8
LW 3520-06-01
100
AcDbCircle
 10
-83.00000000000009
 20
0.0000000000373461
 30
0.0
 40
22.5
  0
CIRCLE
  5
28EC
330
28CE
100
AcDbEntity
  8
LW 3520-06-01
100
AcDbCircle
 10
83.0
 20
0.0000000000373461
 30
0.0
 40
22.5
  0
CIRCLE
  5
28ED
330
28CE
100
AcDbEntity
  8
LW 3520-06-01
100
AcDbCircle
 10
83.0
 20
0.0000000000314344
 30
0.0
 40
17.5
  0
CIRCLE
  5
28EE
330
28CE
100
AcDbEntity
  8
LW 3520-06-01
100
AcDbCircle
 10
83.0
 20
0.0000000000305249
 30
0.0
 40
14.5
  0
POLYLINE
  5
28EF
330
28CE
100
AcDbEntity
  8
LW 3520-06-01
100
AcDb2dPolyline
 66
     1
 10
0.0
 20
0.0
 30
0.0
 70
   128
  0
VERTEX
  5
28F0
330
28EF
100
AcDbEntity
  8
LW 3520-06-01
100
AcDbVertex
100
AcDb2dVertex
 10
29.99999952316284
 20
-15.15544414520525
 30
0.0
  0
VERTEX
  5
28F1
330
28EF
100
AcDbEntity
  8
LW 3520-06-01
100
AcDbVertex
100
AcDb2dVertex
 10
29.98318386077881
 20
-15.28149843216198
 30
0.0
  0
VERTEX
  5
28F2
330
28EF
100
AcDbEntity
  8
LW 3520-06-01
100
AcDbVertex
100
AcDb2dVertex
 10
29.93250799179077
 20
-15.40561437607061
 30
0.0
  0
VERTEX
  5
28F3
330
28EF
100
AcDbEntity
  8
LW 3520-06-01
100
AcDbVertex
100
AcDb2dVertex
 10
29.84763216972351
 20
-15.52376866340881
 30
0.0
  0
VERTEX
  5
28F4
330
28EF
100
AcDbEntity
  8
LW 3520-06-01
100
AcDbVertex
100
AcDb2dVertex
 10
29.72932291030884
 20
-15.63239455223316
 30
0.0
  0
VERTEX
  5
28F5
330
28EF
100
AcDbEntity
  8
LW 3520-06-01
100
AcDbVertex
100
AcDb2dVertex
 10
29.58275866508484
 20
-15.72940349579084
 30
0.0
  0
VERTEX
  5
28F6
330
28EF
100
AcDbEntity
  8
LW 3520-06-01
100
AcDbVertex
100
AcDb2dVertex
 10
29.41421103477478
 20
-15.81298470497353
 30
0.0
  0
VERTEX
  5
28F7
330
28EF
100
AcDbEntity
  8
LW 3520-06-01
100
AcDbVertex
100
AcDb2dVertex
 10
29.22194790840149
 20
-15.8846962451957
 30
0.0
  0
VERTEX
  5
28F8
330
28EF
100
AcDbEntity
  8
LW 3520-06-01
100
AcDbVertex
100
AcDb2dVertex
 10
29.0038640499115
 20
-15.94591498375149
 30
0.0
  0
VERTEX
  5
28F9
330
28EF
100
AcDbEntity
  8
LW 3520-06-01
100
AcDbVertex
100
AcDb2dVertex
 10
28.76566958427429
 20
-15.9945559501669
 30
0.0
  0
VERTEX
  5
28FA
330
28EF
100
AcDbEntity
  8
LW 3520-06-01
100
AcDbVertex
100
AcDb2dVertex
 10
28.51353359222412
 20
-16.0290384292623
 30
0.0
  0
VERTEX
  5
28FB
330
28EF
100
AcDbEntity
  8
LW 3520-06-01
100
AcDbVertex
100
AcDb2dVertex
 10
28.25547885894776
 20
-16.04943513870444
 30
0.0
  0
VERTEX
  5
28FC
330
28EF
100
AcDbEntity
  8
LW 3520-06-01
100
AcDbVertex
100
AcDb2dVertex
 10
28.00000023841858
 20
-16.05614542961325
 30
0.0
  0
VERTEX
  5
28FD
330
28EF
100
AcDbEntity
  8
LW 3520-06-01
100
AcDbVertex
100
AcDb2dVertex
 10
27.74452042579651
 20
-16.04943513870444
 30
0.0
  0
VERTEX
  5
28FE
330
28EF
100
AcDbEntity
  8
LW 3520-06-01
100
AcDbVertex
100
AcDb2dVertex
 10
27.48646688461304
 20
-16.0290384292623
 30
0.0
  0
VERTEX
  5
28FF
330
28EF
100
AcDbEntity
  8
LW 3520-06-01
100
AcDbVertex
100
AcDb2dVertex
 10
27.23433089256287
 20
-15.9945559501669
 30
0.0
  0
VERTEX
  5
2900
330
28EF
100
AcDbEntity
  8
LW 3520-06-01
100
AcDbVertex
100
AcDb2dVertex
 10
26.99613642692566
 20
-15.94591498375149
 30
0.0
  0
VERTEX
  5
2901
330
28EF
100
AcDbEntity
  8
LW 3520-06-01
100
AcDbVertex
100
AcDb2dVertex
 10
26.77805137634277
 20
-15.8846962451957
 30
0.0
  0
VERTEX
  5
2902
330
28EF
100
AcDbEntity
  8
LW 3520-06-01
100
AcDbVertex
100
AcDb2dVertex
 10
26.58578944206238
 20
-15.81298470497353
 30
0.0
  0
VERTEX
  5
2903
330
28EF
100
AcDbEntity
  8
LW 3520-06-01
100
AcDbVertex
100
AcDb2dVertex
 10
26.41724181175232
 20
-15.72940349579084
 30
0.0
  0
VERTEX
  5
2904
330
28EF
100
AcDbEntity
  8
LW 3520-06-01
100
AcDbVertex
100
AcDb2dVertex
 10
26.27067637443543
 20
-15.63239455223316
 30
0.0
  0
VERTEX
  5
2905
330
28EF
100
AcDbEntity
  8
LW 3520-06-01
100
AcDbVertex
100
AcDb2dVertex
 10
26.15236830711365
 20
-15.52376866340881
 30
0.0
  0
VERTEX
  5
2906
330
28EF
100
AcDbEntity
  8
LW 3520-06-01
100
AcDbVertex
100
AcDb2dVertex
 10
26.06749248504639
 20
-15.40561437607061
 30
0.0
  0
VERTEX
  5
2907
330
28EF
100
AcDbEntity
  8
LW 3520-06-01
100
AcDbVertex
100
AcDb2dVertex
 10
26.01681661605835
 20
-15.28149843216198
 30
0.0
  0
VERTEX
  5
2908
330
28EF
100
AcDbEntity
  8
LW 3520-06-01
100
AcDbVertex
100
AcDb2dVertex
 10
25.99999976158142
 20
-15.15544414520525
 30
0.0
  0
SEQEND
  5
2909
330
28EF
100
AcDbEntity
  8
LW 3520-06-01
  0
POLYLINE
  5
290A
330
28CE
100
AcDbEntity
  8
LW 3520-06-01
100
AcDb2dPolyline
 66
     1
 10
0.0
 20
0.0
 30
0.0
 70
   128
  0
VERTEX
  5
290B
330
290A
100
AcDbEntity
  8
LW 3520-06-01
100
AcDbVertex
100
AcDb2dVertex
 10
25.99999976158142
 20
-15.15544414520525
 30
0.0
  0
VERTEX
  5
290C
330
290A
100
AcDbEntity
  8
LW 3520-06-01
100
AcDbVertex
100
AcDb2dVertex
 10
26.01681661605835
 20
-15.02601861953997
 30
0.0
  0
VERTEX
  5
290D
330
290A
100
AcDbEntity
  8
LW 3520-06-01
100
AcDbVertex
100
AcDb2dVertex
 10
26.06749248504639
 20
-14.89207863807945
 30
0.0
  0
VERTEX
  5
290E
330
290A
100
AcDbEntity
  8
LW 3520-06-01
100
AcDbVertex
100
AcDb2dVertex
 10
26.15236830711365
 20
-14.75809454918186
 30
0.0
  0
VERTEX
  5
290F
330
290A
100
AcDbEntity
  8
LW 3520-06-01
100
AcDbVertex
100
AcDb2dVertex
 10
26.27067637443543
 20
-14.62852478027628
 30
0.0
  0
VERTEX
  5
2910
330
290A
100
AcDbEntity
  8
LW 3520-06-01
100
AcDbVertex
100
AcDb2dVertex
 10
26.41724181175232
 20
-14.50744867325119
 30
0.0
  0
VERTEX
  5
2911
330
290A
100
AcDbEntity
  8
LW 3520-06-01
100
AcDbVertex
100
AcDb2dVertex
 10
26.58578944206238
 20
-14.39876794815365
 30
0.0
  0
VERTEX
  5
2912
330
290A
100
AcDbEntity
  8
LW 3520-06-01
100
AcDbVertex
100
AcDb2dVertex
 10
26.77805137634277
 20
-14.30193305015865
 30
0.0
  0
VERTEX
  5
2913
330
290A
100
AcDbEntity
  8
LW 3520-06-01
100
AcDbVertex
100
AcDb2dVertex
 10
26.99613642692566
 20
-14.21658873558351
 30
0.0
  0
VERTEX
  5
2914
330
290A
100
AcDbEntity
  8
LW 3520-06-01
100
AcDbVertex
100
AcDb2dVertex
 10
27.23433089256287
 20
-14.14692282677004
 30
0.0
  0
VERTEX
  5
2915
330
290A
100
AcDbEntity
  8
LW 3520-06-01
100
AcDbVertex
100
AcDb2dVertex
 10
27.48646688461304
 20
-14.09652948379823
 30
0.0
  0
VERTEX
  5
2916
330
290A
100
AcDbEntity
  8
LW 3520-06-01
100
AcDbVertex
100
AcDb2dVertex
 10
27.74452042579651
 20
-14.06625151634523
 30
0.0
  0
VERTEX
  5
2917
330
290A
100
AcDbEntity
  8
LW 3520-06-01
100
AcDbVertex
100
AcDb2dVertex
 10
28.00000023841858
 20
-14.05614495277717
 30
0.0
  0
VERTEX
  5
2918
330
290A
100
AcDbEntity
  8
LW 3520-06-01
100
AcDbVertex
100
AcDb2dVertex
 10
28.25547885894776
 20
-14.06625151634523
 30
0.0
  0
VERTEX
  5
2919
330
290A
100
AcDbEntity
  8
LW 3520-06-01
100
AcDbVertex
100
AcDb2dVertex
 10
28.51353359222412
 20
-14.09652948379823
 30
0.0
  0
VERTEX
  5
291A
330
290A
100
AcDbEntity
  8
LW 3520-06-01
100
AcDbVertex
100
AcDb2dVertex
 10
28.76566958427429
 20
-14.14692282677004
 30
0.0
  0
VERTEX
  5
291B
330
290A
100
AcDbEntity
  8
LW 3520-06-01
100
AcDbVertex
100
AcDb2dVertex
 10
29.0038640499115
 20
-14.21658873558351
 30
0.0
  0
VERTEX
  5
291C
330
290A
100
AcDbEntity
  8
LW 3520-06-01
100
AcDbVertex
100
AcDb2dVertex
 10
29.22194790840149
 20
-14.30193305015865
 30
0.0
  0
VERTEX
  5
291D
330
290A
100
AcDbEntity
  8
LW 3520-06-01
100
AcDbVertex
100
AcDb2dVertex
 10
29.41421103477478
 20
-14.39876794815365
 30
0.0
  0
VERTEX
  5
291E
330
290A
100
AcDbEntity
  8
LW 3520-06-01
100
AcDbVertex
100
AcDb2dVertex
 10
29.58275866508484
 20
-14.50744867325119
 30
0.0
  0
VERTEX
  5
291F
330
290A
100
AcDbEntity
  8
LW 3520-06-01
100
AcDbVertex
100
AcDb2dVertex
 10
29.72932291030884
 20
-14.62852478027628
 30
0.0
  0
VERTEX
  5
2920
330
290A
100
AcDbEntity
  8
LW 3520-06-01
100
AcDbVertex
100
AcDb2dVertex
 10
29.84763216972351
 20
-14.75809454918186
 30
0.0
  0
VERTEX
  5
2921
330
290A
100
AcDbEntity
  8
LW 3520-06-01
100
AcDbVertex
100
AcDb2dVertex
 10
29.93250799179077
 20
-14.89207863807945
 30
0.0
  0
VERTEX
  5
2922
330
290A
100
AcDbEntity
  8
LW 3520-06-01
100
AcDbVertex
100
AcDb2dVertex
 10
29.98318386077881
 20
-15.02601861953997
 30
0.0
  0
VERTEX
  5
2923
330
290A
100
AcDbEntity
  8
LW 3520-06-01
100
AcDbVertex
100
AcDb2dVertex
 10
29.99999952316284
 20
-15.15544414520525
 30
0.0
  0
SEQEND
  5
2924
330
290A
100
AcDbEntity
  8
LW 3520-06-01
  0
POLYLINE
  5
2925
330
28CE
100
AcDbEntity
  8
LW 3520-06-01
100
AcDb2dPolyline
 66
     1
 10
0.0
 20
0.0
 30
0.0
 70
   128
  0
VERTEX
  5
2926
330
2925
100
AcDbEntity
  8
LW 3520-06-01
100
AcDbVertex
100
AcDb2dVertex
 10
29.99999952316284
 20
15.15544414520002
 30
0.0
  0
VERTEX
  5
2927
330
2925
100
AcDbEntity
  8
LW 3520-06-01
100
AcDbVertex
100
AcDb2dVertex
 10
29.98318386077881
 20
15.02601861953474
 30
0.0
  0
VERTEX
  5
2928
330
2925
100
AcDbEntity
  8
LW 3520-06-01
100
AcDbVertex
100
AcDb2dVertex
 10
29.93250799179077
 20
14.89207863807411
 30
0.0
  0
VERTEX
  5
2929
330
2925
100
AcDbEntity
  8
LW 3520-06-01
100
AcDbVertex
100
AcDb2dVertex
 10
29.84763216972351
 20
14.75809454917629
 30
0.0
  0
VERTEX
  5
292A
330
2925
100
AcDbEntity
  8
LW 3520-06-01
100
AcDbVertex
100
AcDb2dVertex
 10
29.72932291030884
 20
14.62852478027059
 30
0.0
  0
VERTEX
  5
292B
330
2925
100
AcDbEntity
  8
LW 3520-06-01
100
AcDbVertex
100
AcDb2dVertex
 10
29.58275866508484
 20
14.50744867324539
 30
0.0
  0
VERTEX
  5
292C
330
2925
100
AcDbEntity
  8
LW 3520-06-01
100
AcDbVertex
100
AcDb2dVertex
 10
29.41421103477478
 20
14.39876794814762
 30
0.0
  0
VERTEX
  5
292D
330
2925
100
AcDbEntity
  8
LW 3520-06-01
100
AcDbVertex
100
AcDb2dVertex
 10
29.22194790840149
 20
14.30193305015263
 30
0.0
  0
VERTEX
  5
292E
330
2925
100
AcDbEntity
  8
LW 3520-06-01
100
AcDbVertex
100
AcDb2dVertex
 10
29.0038640499115
 20
14.21658873557737
 30
0.0
  0
VERTEX
  5
292F
330
2925
100
AcDbEntity
  8
LW 3520-06-01
100
AcDbVertex
100
AcDb2dVertex
 10
28.76566958427429
 20
14.1469228267639
 30
0.0
  0
VERTEX
  5
2930
330
2925
100
AcDbEntity
  8
LW 3520-06-01
100
AcDbVertex
100
AcDb2dVertex
 10
28.51353359222412
 20
14.0965294837921
 30
0.0
  0
VERTEX
  5
2931
330
2925
100
AcDbEntity
  8
LW 3520-06-01
100
AcDbVertex
100
AcDb2dVertex
 10
28.25547885894776
 20
14.06625151633909
 30
0.0
  0
VERTEX
  5
2932
330
2925
100
AcDbEntity
  8
LW 3520-06-01
100
AcDbVertex
100
AcDb2dVertex
 10
28.00000023841858
 20
14.05614495277092
 30
0.0
  0
VERTEX
  5
2933
330
2925
100
AcDbEntity
  8
LW 3520-06-01
100
AcDbVertex
100
AcDb2dVertex
 10
27.74452042579651
 20
14.06625151633909
 30
0.0
  0
VERTEX
  5
2934
330
2925
100
AcDbEntity
  8
LW 3520-06-01
100
AcDbVertex
100
AcDb2dVertex
 10
27.48646688461304
 20
14.0965294837921
 30
0.0
  0
VERTEX
  5
2935
330
2925
100
AcDbEntity
  8
LW 3520-06-01
100
AcDbVertex
100
AcDb2dVertex
 10
27.23433089256287
 20
14.1469228267639
 30
0.0
  0
VERTEX
  5
2936
330
2925
100
AcDbEntity
  8
LW 3520-06-01
100
AcDbVertex
100
AcDb2dVertex
 10
26.99613642692566
 20
14.21658873557737
 30
0.0
  0
VERTEX
  5
2937
330
2925
100
AcDbEntity
  8
LW 3520-06-01
100
AcDbVertex
100
AcDb2dVertex
 10
26.77805137634277
 20
14.30193305015263
 30
0.0
  0
VERTEX
  5
2938
330
2925
100
AcDbEntity
  8
LW 3520-06-01
100
AcDbVertex
100
AcDb2dVertex
 10
26.58578944206238
 20
14.39876794814762
 30
0.0
  0
VERTEX
  5
2939
330
2925
100
AcDbEntity
  8
LW 3520-06-01
100
AcDbVertex
100
AcDb2dVertex
 10
26.41724181175232
 20
14.50744867324539
 30
0.0
  0
VERTEX
  5
293A
330
2925
100
AcDbEntity
  8
LW 3520-06-01
100
AcDbVertex
100
AcDb2dVertex
 10
26.27067637443543
 20
14.62852478027059
 30
0.0
  0
VERTEX
  5
293B
330
2925
100
AcDbEntity
  8
LW 3520-06-01
100
AcDbVertex
100
AcDb2dVertex
 10
26.15236830711365
 20
14.75809454917629
 30
0.0
  0
VERTEX
  5
293C
330
2925
100
AcDbEntity
  8
LW 3520-06-01
100
AcDbVertex
100
AcDb2dVertex
 10
26.06749248504639
 20
14.89207863807411
 30
0.0
  0
VERTEX
  5
293D
330
2925
100
AcDbEntity
  8
LW 3520-06-01
100
AcDbVertex
100
AcDb2dVertex
 10
26.01681661605835
 20
15.02601861953474
 30
0.0
  0
VERTEX
  5
293E
330
2925
100
AcDbEntity
  8
LW 3520-06-01
100
AcDbVertex
100
AcDb2dVertex
 10
25.99999976158142
 20
15.15544414520002
 30
0.0
  0
SEQEND
  5
293F
330
2925
100
AcDbEntity
  8
LW 3520-06-01
  0
POLYLINE
  5
2940
330
28CE
100
AcDbEntity
  8
LW 3520-06-01
100
AcDb2dPolyline
 66
     1
 10
0.0
 20
0.0
 30
0.0
 70
   128
  0
VERTEX
  5
2941
330
2940
100
AcDbEntity
  8
LW 3520-06-01
100
AcDbVertex
100
AcDb2dVertex
 10
25.99999976158142
 20
15.15544414520002
 30
0.0
  0
VERTEX
  5
2942
330
2940
100
AcDbEntity
  8
LW 3520-06-01
100
AcDbVertex
100
AcDb2dVertex
 10
26.01681661605835
 20
15.28149843215686
 30
0.0
  0
VERTEX
  5
2943
330
2940
100
AcDbEntity
  8
LW 3520-06-01
100
AcDbVertex
100
AcDb2dVertex
 10
26.06749248504639
 20
15.40561437606561
 30
0.0
  0
VERTEX
  5
2944
330
2940
100
AcDbEntity
  8
LW 3520-06-01
100
AcDbVertex
100
AcDb2dVertex
 10
26.15236830711365
 20
15.52376866340393
 30
0.0
  0
VERTEX
  5
2945
330
2940
100
AcDbEntity
  8
LW 3520-06-01
100
AcDbVertex
100
AcDb2dVertex
 10
26.27067637443543
 20
15.6323945522285
 30
0.0
  0
VERTEX
  5
2946
330
2940
100
AcDbEntity
  8
LW 3520-06-01
100
AcDbVertex
100
AcDb2dVertex
 10
26.41724181175232
 20
15.7294034957863
 30
0.0
  0
VERTEX
  5
2947
330
2940
100
AcDbEntity
  8
LW 3520-06-01
100
AcDbVertex
100
AcDb2dVertex
 10
26.58578944206238
 20
15.8129847049691
 30
0.0
  0
VERTEX
  5
2948
330
2940
100
AcDbEntity
  8
LW 3520-06-01
100
AcDbVertex
100
AcDb2dVertex
 10
26.77805137634277
 20
15.88469624519126
 30
0.0
  0
VERTEX
  5
2949
330
2940
100
AcDbEntity
  8
LW 3520-06-01
100
AcDbVertex
100
AcDb2dVertex
 10
26.99613642692566
 20
15.94591498374728
 30
0.0
  0
VERTEX
  5
294A
330
2940
100
AcDbEntity
  8
LW 3520-06-01
100
AcDbVertex
100
AcDb2dVertex
 10
27.23433089256287
 20
15.99455595016269
 30
0.0
  0
VERTEX
  5
294B
330
2940
100
AcDbEntity
  8
LW 3520-06-01
100
AcDbVertex
100
AcDb2dVertex
 10
27.48646688461304
 20
16.02903842925821
 30
0.0
  0
VERTEX
  5
294C
330
2940
100
AcDbEntity
  8
LW 3520-06-01
100
AcDbVertex
100
AcDb2dVertex
 10
27.74452042579651
 20
16.04943513870034
 30
0.0
  0
VERTEX
  5
294D
330
2940
100
AcDbEntity
  8
LW 3520-06-01
100
AcDbVertex
100
AcDb2dVertex
 10
28.00000023841858
 20
16.05614542960916
 30
0.0
  0
VERTEX
  5
294E
330
2940
100
AcDbEntity
  8
LW 3520-06-01
100
AcDbVertex
100
AcDb2dVertex
 10
28.25547885894776
 20
16.04943513870034
 30
0.0
  0
VERTEX
  5
294F
330
2940
100
AcDbEntity
  8
LW 3520-06-01
100
AcDbVertex
100
AcDb2dVertex
 10
28.51353359222412
 20
16.02903842925821
 30
0.0
  0
VERTEX
  5
2950
330
2940
100
AcDbEntity
  8
LW 3520-06-01
100
AcDbVertex
100
AcDb2dVertex
 10
28.76566958427429
 20
15.99455595016269
 30
0.0
  0
VERTEX
  5
2951
330
2940
100
AcDbEntity
  8
LW 3520-06-01
100
AcDbVertex
100
AcDb2dVertex
 10
29.0038640499115
 20
15.94591498374728
 30
0.0
  0
VERTEX
  5
2952
330
2940
100
AcDbEntity
  8
LW 3520-06-01
100
AcDbVertex
100
AcDb2dVertex
 10
29.22194790840149
 20
15.88469624519126
 30
0.0
  0
VERTEX
  5
2953
330
2940
100
AcDbEntity
  8
LW 3520-06-01
100
AcDbVertex
100
AcDb2dVertex
 10
29.41421103477478
 20
15.8129847049691
 30
0.0
  0
VERTEX
  5
2954
330
2940
100
AcDbEntity
  8
LW 3520-06-01
100
AcDbVertex
100
AcDb2dVertex
 10
29.58275866508484
 20
15.7294034957863
 30
0.0
  0
VERTEX
  5
2955
330
2940
100
AcDbEntity
  8
LW 3520-06-01
100
AcDbVertex
100
AcDb2dVertex
 10
29.72932291030884
 20
15.6323945522285
 30
0.0
  0
VERTEX
  5
2956
330
2940
100
AcDbEntity
  8
LW 3520-06-01
100
AcDbVertex
100
AcDb2dVertex
 10
29.84763216972351
 20
15.52376866340393
 30
0.0
  0
VERTEX
  5
2957
330
2940
100
AcDbEntity
  8
LW 3520-06-01
100
AcDbVertex
100
AcDb2dVertex
 10
29.93250799179077
 20
15.40561437606561
 30
0.0
  0
VERTEX
  5
2958
330
2940
100
AcDbEntity
  8
LW 3520-06-01
100
AcDbVertex
100
AcDb2dVertex
 10
29.98318386077881
 20
15.28149843215686
 30
0.0
  0
VERTEX
  5
2959
330
2940
100
AcDbEntity
  8
LW 3520-06-01
100
AcDbVertex
100
AcDb2dVertex
 10
29.99999952316284
 20
15.15544414520002
 30
0.0
  0
SEQEND
  5
295A
330
2940
100
AcDbEntity
  8
LW 3520-06-01
  0
LINE
  5
295B
330
28CE
100
AcDbEntity
  8
LW 3520-06-01
100
AcDbLine
 10
32.0
 20
-17.5
 30
0.0
 11
32.0
 21
17.5
 31
0.0
  0
LINE
  5
295C
330
28CE
100
AcDbEntity
  8
LW 3520-06-01
100
AcDbLine
 10
35.0
 20
-14.50000000000005
 30
0.0
 11
35.0
 21
14.50000000000005
 31
0.0
  0
LINE
  5
295D
330
28CE
100
AcDbEntity
  8
LW 3520-06-01
100
AcDbLine
 10
12.0
 20
17.5
 30
0.0
 11
32.0
 21
17.5
 31
0.0
  0
LINE
  5
295E
330
28CE
100
AcDbEntity
  8
LW 3520-06-01
100
AcDbLine
 10
12.0
 20
-17.5
 30
0.0
 11
32.0
 21
-17.5
 31
0.0
  0
LINE
  5
295F
330
28CE
100
AcDbEntity
  8
LW 3520-06-01
100
AcDbLine
 10
35.0
 20
-14.50000000000005
 30
0.0
 11
32.0
 21
-17.5
 31
0.0
  0
LINE
  5
2960
330
28CE
100
AcDbEntity
  8
LW 3520-06-01
100
AcDbLine
 10
35.0
 20
14.50000000000005
 30
0.0
 11
32.0
 21
17.5
 31
0.0
  0
POLYLINE
  5
2961
330
28CE
100
AcDbEntity
  8
LW 3520-06-01
100
AcDb2dPolyline
 66
     1
 10
0.0
 20
0.0
 30
0.0
 70
   128
  0
VERTEX
  5
2962
330
2961
100
AcDbEntity
  8
LW 3520-06-01
100
AcDbVertex
100
AcDb2dVertex
 10
-29.99999952316287
 20
15.15544414520002
 30
0.0
  0
VERTEX
  5
2963
330
2961
100
AcDbEntity
  8
LW 3520-06-01
100
AcDbVertex
100
AcDb2dVertex
 10
-29.98318386077884
 20
15.28149843215686
 30
0.0
  0
VERTEX
  5
2964
330
2961
100
AcDbEntity
  8
LW 3520-06-01
100
AcDbVertex
100
AcDb2dVertex
 10
-29.9325079917908
 20
15.40561437606561
 30
0.0
  0
VERTEX
  5
2965
330
2961
100
AcDbEntity
  8
LW 3520-06-01
100
AcDbVertex
100
AcDb2dVertex
 10
-29.84763216972354
 20
15.52376866340393
 30
0.0
  0
VERTEX
  5
2966
330
2961
100
AcDbEntity
  8
LW 3520-06-01
100
AcDbVertex
100
AcDb2dVertex
 10
-29.72932291030886
 20
15.6323945522285
 30
0.0
  0
VERTEX
  5
2967
330
2961
100
AcDbEntity
  8
LW 3520-06-01
100
AcDbVertex
100
AcDb2dVertex
 10
-29.58275866508487
 20
15.7294034957863
 30
0.0
  0
VERTEX
  5
2968
330
2961
100
AcDbEntity
  8
LW 3520-06-01
100
AcDbVertex
100
AcDb2dVertex
 10
-29.41421103477481
 20
15.8129847049691
 30
0.0
  0
VERTEX
  5
2969
330
2961
100
AcDbEntity
  8
LW 3520-06-01
100
AcDbVertex
100
AcDb2dVertex
 10
-29.22194790840152
 20
15.88469624519126
 30
0.0
  0
VERTEX
  5
296A
330
2961
100
AcDbEntity
  8
LW 3520-06-01
100
AcDbVertex
100
AcDb2dVertex
 10
-29.00386404991153
 20
15.94591498374728
 30
0.0
  0
VERTEX
  5
296B
330
2961
100
AcDbEntity
  8
LW 3520-06-01
100
AcDbVertex
100
AcDb2dVertex
 10
-28.76566958427432
 20
15.99455595016269
 30
0.0
  0
VERTEX
  5
296C
330
2961
100
AcDbEntity
  8
LW 3520-06-01
100
AcDbVertex
100
AcDb2dVertex
 10
-28.51353359222415
 20
16.02903842925821
 30
0.0
  0
VERTEX
  5
296D
330
2961
100
AcDbEntity
  8
LW 3520-06-01
100
AcDbVertex
100
AcDb2dVertex
 10
-28.25547885894778
 20
16.04943513870034
 30
0.0
  0
VERTEX
  5
296E
330
2961
100
AcDbEntity
  8
LW 3520-06-01
100
AcDbVertex
100
AcDb2dVertex
 10
-28.00000023841861
 20
16.05614542960916
 30
0.0
  0
VERTEX
  5
296F
330
2961
100
AcDbEntity
  8
LW 3520-06-01
100
AcDbVertex
100
AcDb2dVertex
 10
-27.74452042579654
 20
16.04943513870034
 30
0.0
  0
VERTEX
  5
2970
330
2961
100
AcDbEntity
  8
LW 3520-06-01
100
AcDbVertex
100
AcDb2dVertex
 10
-27.48646688461306
 20
16.02903842925821
 30
0.0
  0
VERTEX
  5
2971
330
2961
100
AcDbEntity
  8
LW 3520-06-01
100
AcDbVertex
100
AcDb2dVertex
 10
-27.23433089256289
 20
15.99455595016269
 30
0.0
  0
VERTEX
  5
2972
330
2961
100
AcDbEntity
  8
LW 3520-06-01
100
AcDbVertex
100
AcDb2dVertex
 10
-26.99613642692569
 20
15.94591498374728
 30
0.0
  0
VERTEX
  5
2973
330
2961
100
AcDbEntity
  8
LW 3520-06-01
100
AcDbVertex
100
AcDb2dVertex
 10
-26.7780513763428
 20
15.88469624519126
 30
0.0
  0
VERTEX
  5
2974
330
2961
100
AcDbEntity
  8
LW 3520-06-01
100
AcDbVertex
100
AcDb2dVertex
 10
-26.58578944206241
 20
15.8129847049691
 30
0.0
  0
VERTEX
  5
2975
330
2961
100
AcDbEntity
  8
LW 3520-06-01
100
AcDbVertex
100
AcDb2dVertex
 10
-26.41724181175235
 20
15.7294034957863
 30
0.0
  0
VERTEX
  5
2976
330
2961
100
AcDbEntity
  8
LW 3520-06-01
100
AcDbVertex
100
AcDb2dVertex
 10
-26.27067637443545
 20
15.6323945522285
 30
0.0
  0
VERTEX
  5
2977
330
2961
100
AcDbEntity
  8
LW 3520-06-01
100
AcDbVertex
100
AcDb2dVertex
 10
-26.15236830711368
 20
15.52376866340393
 30
0.0
  0
VERTEX
  5
2978
330
2961
100
AcDbEntity
  8
LW 3520-06-01
100
AcDbVertex
100
AcDb2dVertex
 10
-26.06749248504641
 20
15.40561437606561
 30
0.0
  0
VERTEX
  5
2979
330
2961
100
AcDbEntity
  8
LW 3520-06-01
100
AcDbVertex
100
AcDb2dVertex
 10
-26.01681661605838
 20
15.28149843215686
 30
0.0
  0
VERTEX
  5
297A
330
2961
100
AcDbEntity
  8
LW 3520-06-01
100
AcDbVertex
100
AcDb2dVertex
 10
-25.99999976158145
 20
15.15544414520002
 30
0.0
  0
SEQEND
  5
297B
330
2961
100
AcDbEntity
  8
LW 3520-06-01
  0
POLYLINE
  5
297C
330
28CE
100
AcDbEntity
  8
LW 3520-06-01
100
AcDb2dPolyline
 66
     1
 10
0.0
 20
0.0
 30
0.0
 70
   128
  0
VERTEX
  5
297D
330
297C
100
AcDbEntity
  8
LW 3520-06-01
100
AcDbVertex
100
AcDb2dVertex
 10
-25.99999976158145
 20
15.15544414520002
 30
0.0
  0
VERTEX
  5
297E
330
297C
100
AcDbEntity
  8
LW 3520-06-01
100
AcDbVertex
100
AcDb2dVertex
 10
-26.01681661605838
 20
15.02601861953474
 30
0.0
  0
VERTEX
  5
297F
330
297C
100
AcDbEntity
  8
LW 3520-06-01
100
AcDbVertex
100
AcDb2dVertex
 10
-26.06749248504641
 20
14.89207863807411
 30
0.0
  0
VERTEX
  5
2980
330
297C
100
AcDbEntity
  8
LW 3520-06-01
100
AcDbVertex
100
AcDb2dVertex
 10
-26.15236830711368
 20
14.75809454917629
 30
0.0
  0
VERTEX
  5
2981
330
297C
100
AcDbEntity
  8
LW 3520-06-01
100
AcDbVertex
100
AcDb2dVertex
 10
-26.27067637443545
 20
14.62852478027059
 30
0.0
  0
VERTEX
  5
2982
330
297C
100
AcDbEntity
  8
LW 3520-06-01
100
AcDbVertex
100
AcDb2dVertex
 10
-26.41724181175235
 20
14.50744867324539
 30
0.0
  0
VERTEX
  5
2983
330
297C
100
AcDbEntity
  8
LW 3520-06-01
100
AcDbVertex
100
AcDb2dVertex
 10
-26.58578944206241
 20
14.39876794814762
 30
0.0
  0
VERTEX
  5
2984
330
297C
100
AcDbEntity
  8
LW 3520-06-01
100
AcDbVertex
100
AcDb2dVertex
 10
-26.7780513763428
 20
14.30193305015263
 30
0.0
  0
VERTEX
  5
2985
330
297C
100
AcDbEntity
  8
LW 3520-06-01
100
AcDbVertex
100
AcDb2dVertex
 10
-26.99613642692569
 20
14.21658873557737
 30
0.0
  0
VERTEX
  5
2986
330
297C
100
AcDbEntity
  8
LW 3520-06-01
100
AcDbVertex
100
AcDb2dVertex
 10
-27.23433089256289
 20
14.1469228267639
 30
0.0
  0
VERTEX
  5
2987
330
297C
100
AcDbEntity
  8
LW 3520-06-01
100
AcDbVertex
100
AcDb2dVertex
 10
-27.48646688461306
 20
14.0965294837921
 30
0.0
  0
VERTEX
  5
2988
330
297C
100
AcDbEntity
  8
LW 3520-06-01
100
AcDbVertex
100
AcDb2dVertex
 10
-27.74452042579654
 20
14.06625151633909
 30
0.0
  0
VERTEX
  5
2989
330
297C
100
AcDbEntity
  8
LW 3520-06-01
100
AcDbVertex
100
AcDb2dVertex
 10
-28.00000023841861
 20
14.05614495277092
 30
0.0
  0
VERTEX
  5
298A
330
297C
100
AcDbEntity
  8
LW 3520-06-01
100
AcDbVertex
100
AcDb2dVertex
 10
-28.25547885894778
 20
14.06625151633909
 30
0.0
  0
VERTEX
  5
298B
330
297C
100
AcDbEntity
  8
LW 3520-06-01
100
AcDbVertex
100
AcDb2dVertex
 10
-28.51353359222415
 20
14.0965294837921
 30
0.0
  0
VERTEX
  5
298C
330
297C
100
AcDbEntity
  8
LW 3520-06-01
100
AcDbVertex
100
AcDb2dVertex
 10
-28.76566958427432
 20
14.1469228267639
 30
0.0
  0
VERTEX
  5
298D
330
297C
100
AcDbEntity
  8
LW 3520-06-01
100
AcDbVertex
100
AcDb2dVertex
 10
-29.00386404991153
 20
14.21658873557737
 30
0.0
  0
VERTEX
  5
298E
330
297C
100
AcDbEntity
  8
LW 3520-06-01
100
AcDbVertex
100
AcDb2dVertex
 10
-29.22194790840152
 20
14.30193305015263
 30
0.0
  0
VERTEX
  5
298F
330
297C
100
AcDbEntity
  8
LW 3520-06-01
100
AcDbVertex
100
AcDb2dVertex
 10
-29.41421103477481
 20
14.39876794814762
 30
0.0
  0
VERTEX
  5
2990
330
297C
100
AcDbEntity
  8
LW 3520-06-01
100
AcDbVertex
100
AcDb2dVertex
 10
-29.58275866508487
 20
14.50744867324539
 30
0.0
  0
VERTEX
  5
2991
330
297C
100
AcDbEntity
  8
LW 3520-06-01
100
AcDbVertex
100
AcDb2dVertex
 10
-29.72932291030886
 20
14.62852478027059
 30
0.0
  0
VERTEX
  5
2992
330
297C
100
AcDbEntity
  8
LW 3520-06-01
100
AcDbVertex
100
AcDb2dVertex
 10
-29.84763216972354
 20
14.75809454917629
 30
0.0
  0
VERTEX
  5
2993
330
297C
100
AcDbEntity
  8
LW 3520-06-01
100
AcDbVertex
100
AcDb2dVertex
 10
-29.9325079917908
 20
14.89207863807411
 30
0.0
  0
VERTEX
  5
2994
330
297C
100
AcDbEntity
  8
LW 3520-06-01
100
AcDbVertex
100
AcDb2dVertex
 10
-29.98318386077884
 20
15.02601861953474
 30
0.0
  0
VERTEX
  5
2995
330
297C
100
AcDbEntity
  8
LW 3520-06-01
100
AcDbVertex
100
AcDb2dVertex
 10
-29.99999952316287
 20
15.15544414520002
 30
0.0
  0
SEQEND
  5
2996
330
297C
100
AcDbEntity
  8
LW 3520-06-01
  0
POLYLINE
  5
2997
330
28CE
100
AcDbEntity
  8
LW 3520-06-01
100
AcDb2dPolyline
 66
     1
 10
0.0
 20
0.0
 30
0.0
 70
   128
  0
VERTEX
  5
2998
330
2997
100
AcDbEntity
  8
LW 3520-06-01
100
AcDbVertex
100
AcDb2dVertex
 10
-29.99999952316287
 20
-15.15544414520525
 30
0.0
  0
VERTEX
  5
2999
330
2997
100
AcDbEntity
  8
LW 3520-06-01
100
AcDbVertex
100
AcDb2dVertex
 10
-29.98318386077884
 20
-15.02601861953997
 30
0.0
  0
VERTEX
  5
299A
330
2997
100
AcDbEntity
  8
LW 3520-06-01
100
AcDbVertex
100
AcDb2dVertex
 10
-29.9325079917908
 20
-14.89207863807945
 30
0.0
  0
VERTEX
  5
299B
330
2997
100
AcDbEntity
  8
LW 3520-06-01
100
AcDbVertex
100
AcDb2dVertex
 10
-29.84763216972354
 20
-14.75809454918186
 30
0.0
  0
VERTEX
  5
299C
330
2997
100
AcDbEntity
  8
LW 3520-06-01
100
AcDbVertex
100
AcDb2dVertex
 10
-29.72932291030886
 20
-14.62852478027628
 30
0.0
  0
VERTEX
  5
299D
330
2997
100
AcDbEntity
  8
LW 3520-06-01
100
AcDbVertex
100
AcDb2dVertex
 10
-29.58275866508487
 20
-14.50744867325119
 30
0.0
  0
VERTEX
  5
299E
330
2997
100
AcDbEntity
  8
LW 3520-06-01
100
AcDbVertex
100
AcDb2dVertex
 10
-29.41421103477481
 20
-14.39876794815365
 30
0.0
  0
VERTEX
  5
299F
330
2997
100
AcDbEntity
  8
LW 3520-06-01
100
AcDbVertex
100
AcDb2dVertex
 10
-29.22194790840152
 20
-14.30193305015865
 30
0.0
  0
VERTEX
  5
29A0
330
2997
100
AcDbEntity
  8
LW 3520-06-01
100
AcDbVertex
100
AcDb2dVertex
 10
-29.00386404991153
 20
-14.21658873558351
 30
0.0
  0
VERTEX
  5
29A1
330
2997
100
AcDbEntity
  8
LW 3520-06-01
100
AcDbVertex
100
AcDb2dVertex
 10
-28.76566958427432
 20
-14.14692282677004
 30
0.0
  0
VERTEX
  5
29A2
330
2997
100
AcDbEntity
  8
LW 3520-06-01
100
AcDbVertex
100
AcDb2dVertex
 10
-28.51353359222415
 20
-14.09652948379823
 30
0.0
  0
VERTEX
  5
29A3
330
2997
100
AcDbEntity
  8
LW 3520-06-01
100
AcDbVertex
100
AcDb2dVertex
 10
-28.25547885894778
 20
-14.06625151634523
 30
0.0
  0
VERTEX
  5
29A4
330
2997
100
AcDbEntity
  8
LW 3520-06-01
100
AcDbVertex
100
AcDb2dVertex
 10
-28.00000023841861
 20
-14.05614495277717
 30
0.0
  0
VERTEX
  5
29A5
330
2997
100
AcDbEntity
  8
LW 3520-06-01
100
AcDbVertex
100
AcDb2dVertex
 10
-27.74452042579654
 20
-14.06625151634523
 30
0.0
  0
VERTEX
  5
29A6
330
2997
100
AcDbEntity
  8
LW 3520-06-01
100
AcDbVertex
100
AcDb2dVertex
 10
-27.48646688461306
 20
-14.09652948379823
 30
0.0
  0
VERTEX
  5
29A7
330
2997
100
AcDbEntity
  8
LW 3520-06-01
100
AcDbVertex
100
AcDb2dVertex
 10
-27.23433089256289
 20
-14.14692282677004
 30
0.0
  0
VERTEX
  5
29A8
330
2997
100
AcDbEntity
  8
LW 3520-06-01
100
AcDbVertex
100
AcDb2dVertex
 10
-26.99613642692569
 20
-14.21658873558351
 30
0.0
  0
VERTEX
  5
29A9
330
2997
100
AcDbEntity
  8
LW 3520-06-01
100
AcDbVertex
100
AcDb2dVertex
 10
-26.7780513763428
 20
-14.30193305015865
 30
0.0
  0
VERTEX
  5
29AA
330
2997
100
AcDbEntity
  8
LW 3520-06-01
100
AcDbVertex
100
AcDb2dVertex
 10
-26.58578944206241
 20
-14.39876794815365
 30
0.0
  0
VERTEX
  5
29AB
330
2997
100
AcDbEntity
  8
LW 3520-06-01
100
AcDbVertex
100
AcDb2dVertex
 10
-26.41724181175235
 20
-14.50744867325119
 30
0.0
  0
VERTEX
  5
29AC
330
2997
100
AcDbEntity
  8
LW 3520-06-01
100
AcDbVertex
100
AcDb2dVertex
 10
-26.27067637443545
 20
-14.62852478027628
 30
0.0
  0
VERTEX
  5
29AD
330
2997
100
AcDbEntity
  8
LW 3520-06-01
100
AcDbVertex
100
AcDb2dVertex
 10
-26.15236830711368
 20
-14.75809454918186
 30
0.0
  0
VERTEX
  5
29AE
330
2997
100
AcDbEntity
  8
LW 3520-06-01
100
AcDbVertex
100
AcDb2dVertex
 10
-26.06749248504641
 20
-14.89207863807945
 30
0.0
  0
VERTEX
  5
29AF
330
2997
100
AcDbEntity
  8
LW 3520-06-01
100
AcDbVertex
100
AcDb2dVertex
 10
-26.01681661605838
 20
-15.02601861953997
 30
0.0
  0
VERTEX
  5
29B0
330
2997
100
AcDbEntity
  8
LW 3520-06-01
100
AcDbVertex
100
AcDb2dVertex
 10
-25.99999976158145
 20
-15.15544414520525
 30
0.0
  0
SEQEND
  5
29B1
330
2997
100
AcDbEntity
  8
LW 3520-06-01
  0
POLYLINE
  5
29B2
330
28CE
100
AcDbEntity
  8
LW 3520-06-01
100
AcDb2dPolyline
 66
     1
 10
0.0
 20
0.0
 30
0.0
 70
   128
  0
VERTEX
  5
29B3
330
29B2
100
AcDbEntity
  8
LW 3520-06-01
100
AcDbVertex
100
AcDb2dVertex
 10
-25.99999976158145
 20
-15.15544414520525
 30
0.0
  0
VERTEX
  5
29B4
330
29B2
100
AcDbEntity
  8
LW 3520-06-01
100
AcDbVertex
100
AcDb2dVertex
 10
-26.01681661605838
 20
-15.28149843216198
 30
0.0
  0
VERTEX
  5
29B5
330
29B2
100
AcDbEntity
  8
LW 3520-06-01
100
AcDbVertex
100
AcDb2dVertex
 10
-26.06749248504641
 20
-15.40561437607061
 30
0.0
  0
VERTEX
  5
29B6
330
29B2
100
AcDbEntity
  8
LW 3520-06-01
100
AcDbVertex
100
AcDb2dVertex
 10
-26.15236830711368
 20
-15.52376866340881
 30
0.0
  0
VERTEX
  5
29B7
330
29B2
100
AcDbEntity
  8
LW 3520-06-01
100
AcDbVertex
100
AcDb2dVertex
 10
-26.27067637443545
 20
-15.63239455223316
 30
0.0
  0
VERTEX
  5
29B8
330
29B2
100
AcDbEntity
  8
LW 3520-06-01
100
AcDbVertex
100
AcDb2dVertex
 10
-26.41724181175235
 20
-15.72940349579084
 30
0.0
  0
VERTEX
  5
29B9
330
29B2
100
AcDbEntity
  8
LW 3520-06-01
100
AcDbVertex
100
AcDb2dVertex
 10
-26.58578944206241
 20
-15.81298470497353
 30
0.0
  0
VERTEX
  5
29BA
330
29B2
100
AcDbEntity
  8
LW 3520-06-01
100
AcDbVertex
100
AcDb2dVertex
 10
-26.7780513763428
 20
-15.8846962451957
 30
0.0
  0
VERTEX
  5
29BB
330
29B2
100
AcDbEntity
  8
LW 3520-06-01
100
AcDbVertex
100
AcDb2dVertex
 10
-26.99613642692569
 20
-15.94591498375149
 30
0.0
  0
VERTEX
  5
29BC
330
29B2
100
AcDbEntity
  8
LW 3520-06-01
100
AcDbVertex
100
AcDb2dVertex
 10
-27.23433089256289
 20
-15.9945559501669
 30
0.0
  0
VERTEX
  5
29BD
330
29B2
100
AcDbEntity
  8
LW 3520-06-01
100
AcDbVertex
100
AcDb2dVertex
 10
-27.48646688461306
 20
-16.0290384292623
 30
0.0
  0
VERTEX
  5
29BE
330
29B2
100
AcDbEntity
  8
LW 3520-06-01
100
AcDbVertex
100
AcDb2dVertex
 10
-27.74452042579654
 20
-16.04943513870444
 30
0.0
  0
VERTEX
  5
29BF
330
29B2
100
AcDbEntity
  8
LW 3520-06-01
100
AcDbVertex
100
AcDb2dVertex
 10
-28.00000023841861
 20
-16.05614542961325
 30
0.0
  0
VERTEX
  5
29C0
330
29B2
100
AcDbEntity
  8
LW 3520-06-01
100
AcDbVertex
100
AcDb2dVertex
 10
-28.25547885894778
 20
-16.04943513870444
 30
0.0
  0
VERTEX
  5
29C1
330
29B2
100
AcDbEntity
  8
LW 3520-06-01
100
AcDbVertex
100
AcDb2dVertex
 10
-28.51353359222415
 20
-16.0290384292623
 30
0.0
  0
VERTEX
  5
29C2
330
29B2
100
AcDbEntity
  8
LW 3520-06-01
100
AcDbVertex
100
AcDb2dVertex
 10
-28.76566958427432
 20
-15.9945559501669
 30
0.0
  0
VERTEX
  5
29C3
330
29B2
100
AcDbEntity
  8
LW 3520-06-01
100
AcDbVertex
100
AcDb2dVertex
 10
-29.00386404991153
 20
-15.94591498375149
 30
0.0
  0
VERTEX
  5
29C4
330
29B2
100
AcDbEntity
  8
LW 3520-06-01
100
AcDbVertex
100
AcDb2dVertex
 10
-29.22194790840152
 20
-15.8846962451957
 30
0.0
  0
VERTEX
  5
29C5
330
29B2
100
AcDbEntity
  8
LW 3520-06-01
100
AcDbVertex
100
AcDb2dVertex
 10
-29.41421103477481
 20
-15.81298470497353
 30
0.0
  0
VERTEX
  5
29C6
330
29B2
100
AcDbEntity
  8
LW 3520-06-01
100
AcDbVertex
100
AcDb2dVertex
 10
-29.58275866508487
 20
-15.72940349579084
 30
0.0
  0
VERTEX
  5
29C7
330
29B2
100
AcDbEntity
  8
LW 3520-06-01
100
AcDbVertex
100
AcDb2dVertex
 10
-29.72932291030886
 20
-15.63239455223316
 30
0.0
  0
VERTEX
  5
29C8
330
29B2
100
AcDbEntity
  8
LW 3520-06-01
100
AcDbVertex
100
AcDb2dVertex
 10
-29.84763216972354
 20
-15.52376866340881
 30
0.0
  0
VERTEX
  5
29C9
330
29B2
100
AcDbEntity
  8
LW 3520-06-01
100
AcDbVertex
100
AcDb2dVertex
 10
-29.9325079917908
 20
-15.40561437607061
 30
0.0
  0
VERTEX
  5
29CA
330
29B2
100
AcDbEntity
  8
LW 3520-06-01
100
AcDbVertex
100
AcDb2dVertex
 10
-29.98318386077884
 20
-15.28149843216198
 30
0.0
  0
VERTEX
  5
29CB
330
29B2
100
AcDbEntity
  8
LW 3520-06-01
100
AcDbVertex
100
AcDb2dVertex
 10
-29.99999952316287
 20
-15.15544414520525
 30
0.0
  0
SEQEND
  5
29CC
330
29B2
100
AcDbEntity
  8
LW 3520-06-01
  0
LINE
  5
29CD
330
28CE
100
AcDbEntity
  8
LW 3520-06-01
100
AcDbLine
 10
-32.00000000000003
 20
17.5
 30
0.0
 11
-32.00000000000003
 21
-17.5
 31
0.0
  0
LINE
  5
29CE
330
28CE
100
AcDbEntity
  8
LW 3520-06-01
100
AcDbLine
 10
-35.00000000000003
 20
14.50000000000005
 30
0.0
 11
-35.00000000000003
 21
-14.50000000000005
 31
0.0
  0
LINE
  5
29CF
330
28CE
100
AcDbEntity
  8
LW 3520-06-01
100
AcDbLine
 10
-12.0
 20
-17.5
 30
0.0
 11
-32.00000000000003
 21
-17.5
 31
0.0
  0
LINE
  5
29D0
330
28CE
100
AcDbEntity
  8
LW 3520-06-01
100
AcDbLine
 10
-12.0
 20
17.5
 30
0.0
 11
-32.00000000000003
 21
17.5
 31
0.0
  0
LINE
  5
29D1
330
28CE
100
AcDbEntity
  8
LW 3520-06-01
100
AcDbLine
 10
-35.00000000000003
 20
14.50000000000005
 30
0.0
 11
-32.00000000000003
 21
17.5
 31
0.0
  0
LINE
  5
29D2
330
28CE
100
AcDbEntity
  8
LW 3520-06-01
100
AcDbLine
 10
-35.00000000000003
 20
-14.50000000000005
 30
0.0
 11
-32.00000000000003
 21
-17.5
 31
0.0
  0
CIRCLE
  5
29D3
330
28CE
100
AcDbEntity
  8
LW 3520-06-01
100
AcDbCircle
 10
-83.00000000000009
 20
0.0000000000314344
 30
0.0
 40
17.5
  0
CIRCLE
  5
29D4
330
28CE
100
AcDbEntity
  8
LW 3520-06-01
100
AcDbCircle
 10
-83.00000000000009
 20
0.0000000000305249
 30
0.0
 40
14.5
  0
LINE
  5
29D5
330
28CE
100
AcDbEntity
  8
LW 3520-06-01
  6
MITTE2
 62
     3
100
AcDbLine
 10
83.0
 20
27.50000000003735
 30
0.0
 11
83.0
 21
-27.49999999996266
 31
0.0
  0
LINE
  5
29D6
330
28CE
100
AcDbEntity
  8
LW 3520-06-01
  6
MITTE2
 62
     3
100
AcDbLine
 10
-83.00000000000009
 20
27.50000000003735
 30
0.0
 11
-83.00000000000009
 21
-27.49999999996266
 31
0.0
  0
LINE
  5
29D7
330
28CE
100
AcDbEntity
  8
LW 3520-06-01
  6
MITTE2
 62
     3
100
AcDbLine
 10
125.5080524954372
 20
0.0
 30
0.0
 11
-122.9268040422329
 21
0.0
 31
0.0
  0
LINE
  5
29D8
330
28CE
100
AcDbEntity
  8
LW 3520-06-01
  6
MITTE2
 62
     3
100
AcDbLine
 10
0.0
 20
-44.69743157691124
 30
0.0
 11
0.0
 21
44.69743157691124
 31
0.0
  0
LINE
  5
29D9
330
28CE
100
AcDbEntity
  8
LW 3520-06-01
100
AcDbLine
 10
2.999999999999886
 20
-7.0
 30
0.0
 11
-3.00000000000017
 21
-6.999999999999886
 31
0.0
  0
LINE
  5
29DA
330
28CE
100
AcDbEntity
  8
LW 3520-06-01
100
AcDbLine
 10
2.999999999999886
 20
7.000000000000056
 30
0.0
 11
-3.00000000000017
 21
7.000000000000113
 31
0.0
  0
LINE
  5
29DB
330
28CE
100
AcDbEntity
  8
LW 3520-06-01
 62
     3
100
AcDbLine
 10
-3.00000000000017
 20
-5.794499999999914
 30
0.0
 11
2.999999999999886
 21
-5.79449999999997
 31
0.0
  0
LINE
  5
29DC
330
28CE
100
AcDbEntity
  8
LW 3520-06-01
 62
     3
100
AcDbLine
 10
2.999999999999829
 20
5.794500000000084
 30
0.0
 11
-3.00000000000017
 21
5.794500000000027
 31
0.0
  0
INSERT
  5
29DD
330
28CE
100
AcDbEntity
  8
LW 3520-06-01
100
AcDbBlockReference
 66
     1
  2
insertpoint-ECKELT
 10
0.0
 20
0.0
 30
0.0
  0
ATTRIB
  5
29DE
330
29DD
100
AcDbEntity
  8
insertpoint_ECKELT
100
AcDbText
 10
-6.931514324693087
 20
0.0
 30
0.0
 40
0.6
  1
LW 3520/06-01
 72
     2
 11
-1.200000000000045
 21
0.0
 31
0.0
100
AcDbAttribute
  2
LINKS
 70
     0
  0
ATTRIB
  5
29DF
330
29DD
100
AcDbEntity
  8
insertpoint_ECKELT
100
AcDbText
 10
1.200000000000045
 20
0.0
 30
0.0
 40
0.6
  1

100
AcDbAttribute
  2
RECHTS
 70
     0
  0
SEQEND
  5
29E0
330
29DD
100
AcDbEntity
  8
LW 3520-06-01
  0
HATCH
  5
29E1
330
28CE
100
AcDbEntity
  8
LW 3520-06-01
 62
     1
100
AcDbHatch
 10
0.0
 20
0.0
 30
0.0
210
0.0
220
0.0
230
1.0
  2
SOLID
 70
     1
 71
     0
 91
        5
 92
        7
 72
     0
 73
     1
 93
       76
 10
44.8623925691495
 20
26.92799040657082
 10
44.89425139852232
 20
26.97957136841251
 10
45.0124095227535
 20
27.13081376742849
 10
45.14688759796626
 20
27.27123789769104
 10
45.29290750442783
 20
27.39962245940438
 10
45.45657630050982
 20
27.51652874232013
 10
45.63196325387446
 20
27.61870662414179
 10
45.81371618647483
 20
27.71005830372468
 10
45.99488512194056
 20
27.77957661617086
 10
43.73774718374057
 20
27.7795766161708
 10
43.52485063134054
 20
27.77088696097076
 10
43.32281614794055
 20
27.7448179953708
 10
43.1272989059405
 20
27.70354213317074
 10
42.94264373294061
 20
27.64923178817077
 10
42.76667821514047
 20
27.57971454657076
 10
42.59940235254055
 20
27.49716282217065
 10
42.44883408999363
 20
27.40183730462684
 10
42.3061264895407
 20
27.29512833877072
 10
42.18068523396993
 20
27.17608006253062
 10
42.06942028189257
 20
27.04782075177872
 10
41.96940235054057
 20
26.91061109617073
 10
41.88685062614058
 20
26.76505937157066
 10
41.82385062594062
 20
26.61081799177055
 10
41.77388510854075
 20
26.45005937057078
 10
41.74564372914062
 20
26.28495592177069
 10
41.73695407394063
 20
26.11116281777072
 10
41.74781614294068
 20
25.93736971377064
 10
41.77822993614063
 20
25.77009385117066
 10
41.83254028114072
 20
25.60933522997073
 10
41.90205752274062
 20
25.45292143637067
 10
41.99112648854077
 20
25.30519729797061
 10
42.09757476474067
 20
25.16399040097076
 10
42.22027269616467
 20
25.03277660745067
 10
42.35647174487292
 20
24.91164281396277
 10
42.50381614534069
 20
24.80119729637067
 10
42.66457476654079
 20
24.70343867537082
 10
42.84020138778794
 20
24.61854074406677
 10
43.0208506297406
 20
24.54485246797077
 10
43.21202304414078
 20
24.48836970917074
 10
43.4118851137407
 20
24.44492143317075
 10
43.62043683854063
 20
24.41885246757073
 10
43.8311609771406
 20
24.41016281237074
 10
45.95033206289326
 20
24.41016281237086
 10
45.78978819884082
 20
24.47323361610575
 10
45.60622405503841
 20
24.56385388962849
 10
45.43775764886823
 20
24.66838358256007
 10
45.27492475410747
 20
24.78400182098551
 10
45.13101238573733
 20
24.91379141752537
 10
45.00357649225304
 20
25.05314510075391
 10
44.88987113750965
 20
25.20363334546647
 10
44.837899906061
 20
25.2878179875708
 10
43.80943683914063
 20
25.28781798757075
 10
43.67732801113516
 20
25.29537798759481
 10
43.54657476934062
 20
25.31571178076274
 10
43.41840235514076
 20
25.34864557397071
 10
43.30326442374075
 20
25.39426626377082
 10
43.1983194578903
 20
25.45074902257074
 10
43.1001698024063
 20
25.51835454002674
 10
43.00998856074068
 20
25.59630074717069
 10
42.93829890534072
 20
25.68102488537074
 10
44.66582021959948
 20
25.68102488537079
 10
44.65523575232646
 20
25.71366032612912
 10
44.61912394436206
 20
25.89903427368023
 10
44.60708029158036
 20
26.08932398763097
 10
44.6191019640097
 20
26.28407508098599
 10
44.65540768568496
 20
26.47044445225248
 10
44.67200638835993
 20
26.51957661217074
 10
42.90136787074061
 20
26.51957661217074
 10
42.97088511234062
 20
26.61516281937065
 10
43.05343683674061
 20
26.69771454377076
 10
43.14852773359416
 20
26.76757937157868
 10
43.25112649254061
 20
26.82588695797079
 10
43.36981849291738
 20
26.86985661328271
 10
43.49226442434065
 20
26.90192144097074
 10
43.62912649374061
 20
26.92147316517071
 10
43.77250580454062
 20
26.92799040657076
 97
        0
 92
        7
 72
     0
 73
     1
 93
       72
 10
46.59085643417734
 20
26.91339178583479
 10
46.71371946905014
 20
26.93146626865081
 10
46.83778167634057
 20
26.93668006177086
 10
48.10647133554062
 20
26.93668006177091
 10
47.25922995354062
 20
26.12202488677099
 10
49.02540237294079
 20
24.40364557097098
 10
50.34405754954059
 20
24.40364557097098
 10
48.63002306134069
 20
26.14592143857095
 10
50.31147134254059
 20
27.77957661617103
 10
46.87254029714063
 20
27.77957661617086
 10
46.66455339992853
 20
27.76880144372291
 10
46.45783519237568
 20
27.74334075398679
 10
46.25340236414058
 20
27.70354213317086
 10
46.06005753594058
 20
27.64705937437083
 10
45.87322994914052
 20
27.57536971897082
 10
45.7020698106661
 20
27.48934213249083
 10
45.53650581014062
 20
27.39288695977081
 10
45.38443684414062
 20
27.28426626977086
 10
45.24873918853745
 20
27.16495730387482
 10
45.12374718814067
 20
27.03443868277077
 10
45.01512649814048
 20
26.89540419957075
 10
44.92388511854062
 20
26.74768006117091
 10
44.85219546314056
 20
26.5934386813708
 10
44.79788511814058
 20
26.43268006017081
 10
44.76529891114068
 20
26.26540419757077
 10
44.75443684214065
 20
26.0894386797707
 10
44.76529891114068
 20
25.91781798957084
 10
44.7978851181407
 20
25.75054212697086
 10
44.85002304934073
 20
25.58978350577087
 10
44.91954029094062
 20
25.43554212597082
 10
45.01138125674947
 20
25.28677522894691
 10
45.11676070535986
 20
25.14730626298677
 10
45.23476622297596
 20
25.01826488326691
 10
45.36705753374064
 20
24.89895591737087
 10
45.51917863767187
 20
24.79094350323476
 10
45.6777127071407
 20
24.69257660637078
 10
45.84933339734073
 20
24.60785246817085
 10
46.03181615654079
 20
24.53616281277084
 10
46.22604732957109
 20
24.48211315742685
 10
46.42285064054067
 20
24.43840419177082
 10
46.6314023653407
 20
24.41233522617086
 10
46.84212650394067
 20
24.40364557097087
 10
48.74516099274069
 20
24.40364557097098
 10
47.85881616234064
 20
25.27695591857094
 10
46.84212650394067
 20
25.27695591857088
 10
46.77545946924612
 20
25.28070321151017
 10
46.67451174478787
 20
25.29068557378685
 10
46.55437726164791
 20
25.31214902213088
 10
46.43725808886233
 20
25.34647316017077
 10
46.33576291612633
 20
25.38740143616286
 10
46.2796277435342
 20
25.4155559190109
 10
46.22594305370864
 20
25.44814212601096
 10
46.09338236363259
 20
25.54746488494681
 10
46.0197809840887
 20
25.61750350585885
 10
45.9647146390863
 20
25.68536971297073
 10
45.91600912169019
 20
25.75792833389079
 10
45.87664498363415
 20
25.83509247206678
 10
45.84722181112704
 20
25.91651454129078
 10
45.82652305244062
 20
26.00367178294687
 10
45.81900650069258
 20
26.09300143840272
 10
45.82036208690385
 20
26.15530626618681
 10
45.82636663864707
 20
26.21743730086672
 10
45.83852346627191
 20
26.28061109417087
 10
45.85673698357107
 20
26.34230764609083
 10
45.90038512164051
 20
26.44102212916272
 10
45.94191298384146
 20
26.50888833627476
 10
46.0049911909382
 20
26.58692143997081
 10
46.13439313130299
 20
26.71344417702449
 10
46.1936609846407
 20
26.75350213015486
 10
46.26995615729663
 20
26.79781937167479
 10
46.35397643342537
 20
26.83996419939485
 10
46.47051339931261
 20
26.88280419953088
 97
        0
 92
        7
 72
     0
 73
     1
 93
       57
 10
51.14889341416471
 20
26.89132006162708
 10
51.28036789734062
 20
26.93129247554708
 10
51.41505755294054
 20
26.95840419977111
 10
51.55843686374055
 20
26.96709385497104
 10
52.79888514354059
 20
26.9670938549711
 10
52.79888514354059
 20
27.79261109897112
 10
51.5649541051406
 20
27.79261109897101
 10
51.35422996654063
 20
27.78392144377102
 10
51.14785065554065
 20
27.75568006437101
 10
50.95016099974066
 20
27.71440420217107
 10
50.76116099914066
 20
27.66009385717103
 10
50.57650582614065
 20
27.58840420177103
 10
50.41009892906038
 20
27.50576558081895
 10
50.25127810097012
 20
27.40931040809892
 10
50.10119906601108
 20
27.29982075257897
 10
49.96663975523915
 20
27.18059868323502
 10
49.84657478934059
 20
27.05181799317097
 10
49.74229892694063
 20
26.91278350997101
 10
49.65757478874059
 20
26.76723178537094
 10
49.58588513334053
 20
26.61299040557088
 10
49.53591961594066
 20
26.45223178437106
 10
49.50333340894065
 20
26.28495592177109
 10
49.49247133994072
 20
26.111162817771
 10
49.50333340894065
 20
25.93736971377098
 10
49.53591961594066
 20
25.770093851171
 10
49.58805754714058
 20
25.60933522997089
 10
49.65974720254076
 20
25.45292143637102
 10
49.74664375454074
 20
25.30519729797101
 10
49.85549037557587
 20
25.16564143545901
 10
49.97534678974943
 20
25.03529660745903
 10
50.11177437638946
 20
24.91398902086701
 10
50.25933341134066
 20
24.80336971017095
 10
50.42009203254065
 20
24.70561108917093
 10
50.59388513654062
 20
24.620886950971
 10
50.77854030954075
 20
24.54702488177111
 10
50.96971272394068
 20
24.49054212297102
 10
51.16957479354073
 20
24.44709384697109
 10
51.37595410454071
 20
24.42319729517095
 10
51.58885065694073
 20
24.41450763997102
 10
52.7988851435407
 20
24.41450763997108
 10
52.7988851435407
 20
25.27261109097106
 10
51.5649541051406
 20
25.272611090971
 10
51.43130720816464
 20
25.28295178065895
 10
51.29905065602077
 20
25.30493660831508
 10
51.17843824184467
 20
25.33926074635502
 10
51.06243134492479
 20
25.38722764305908
 10
50.95276789630066
 20
25.44814212601108
 10
50.85570444771668
 20
25.51574764346697
 10
50.76828651640472
 20
25.59551867820301
 10
50.69381617134069
 20
25.68102488537102
 10
52.7988851435407
 20
25.68102488537107
 10
52.7988851435407
 20
26.5087145431711
 10
50.65688513674058
 20
26.50871454317098
 10
50.72640237834059
 20
26.60647316417101
 10
50.81329893034058
 20
26.69554212997093
 10
50.91444651686868
 20
26.77183730262703
 10
51.02185065514061
 20
26.83892144077101
 97
        0
 92
        7
 72
     0
 73
     1
 93
        6
 10
53.0291610063407
 20
27.77957661617114
 10
53.0291610063407
 20
24.41016281237109
 10
55.26674722034079
 20
24.4101628123712
 10
55.26674722034067
 20
25.27695591857122
 10
54.05236790614072
 20
25.27695591857122
 10
54.0523679061406
 20
27.77957661617114
 97
        0
 92
        7
 72
     0
 73
     1
 93
        8
 10
54.28481618274054
 20
27.77957661617114
 10
54.28481618274054
 20
26.95405937217112
 10
55.51874722114064
 20
26.95405937217123
 10
55.51874722114075
 20
24.40364557097121
 10
56.54412653474071
 20
24.40364557097121
 10
56.5441265347406
 20
26.95405937217117
 10
57.78674722834058
 20
26.95405937217123
 10
57.78674722834058
 20
27.77957661617126
 97
        0
 75
     0
 76
     1
 47
0.0142553043587597
 98
        5
 10
44.17205269521582
 20
27.33712694658169
 10
46.43954990855843
 20
27.194573961576
 10
50.93176164075998
 20
27.25159513412382
 10
53.65561072459161
 20
27.49393535881626
 10
55.06744870681837
 20
27.39414822640288
450
        0
451
        0
460
0.0
461
0.0
452
        0
462
0.0
453
        0
470

  0
LWPOLYLINE
  5
29E2
330
28CE
100
AcDbEntity
  8
LW 3520-06-01
 62
     1
100
AcDbPolyline
 90
        8
 70
     1
 43
0.0
 10
56.5441265347406
 20
26.95405937217117
 10
56.54412653474071
 20
24.40364557097121
 10
55.51874722114075
 20
24.40364557097121
 10
55.51874722114064
 20
26.95405937217123
 10
54.28481618274054
 20
26.95405937217112
 10
54.28481618274054
 20
27.77957661617114
 10
57.78674722834058
 20
27.77957661617126
 10
57.78674722834058
 20
26.95405937217123
  0
LWPOLYLINE
  5
29E3
330
28CE
100
AcDbEntity
  8
LW 3520-06-01
 62
     1
100
AcDbPolyline
 90
       73
 70
     1
 43
0.0
 10
46.84212650394067
 20
25.27695591857088
 10
47.85881616234064
 20
25.27695591857094
 10
48.74516099274069
 20
24.40364557097098
 10
46.84212650394067
 20
24.40364557097081
 10
46.6314023653407
 20
24.41233522617086
 10
46.42285064054067
 20
24.43840419177087
 10
46.22604732957109
 20
24.48211315742685
 10
46.03181615654079
 20
24.53616281277084
 10
45.84933339734073
 20
24.60785246817085
 10
45.6777127071407
 20
24.69257660637083
 10
45.51917863767198
 20
24.79094350323487
 10
45.36705753374064
 20
24.89895591737087
 10
45.23476622297585
 20
25.0182648832668
 10
45.11676070535986
 20
25.14730626298677
 10
45.01138125674947
 20
25.28677522894685
 10
44.91954029094062
 20
25.43554212597082
 10
44.85002304934073
 20
25.58978350577087
 10
44.7978851181407
 20
25.75054212697086
 10
44.76529891114068
 20
25.91781798957084
 10
44.75443684214065
 20
26.08943867977081
 10
44.76529891114068
 20
26.26540419757077
 10
44.79788511814058
 20
26.43268006017081
 10
44.85219546314067
 20
26.5934386813708
 10
44.92388511854062
 20
26.74768006117086
 10
45.0151264981406
 20
26.89540419957081
 10
45.12374718814067
 20
27.03443868277077
 10
45.24873918853745
 20
27.16495730387487
 10
45.3844368441405
 20
27.2842662697708
 10
45.53650581014062
 20
27.39288695977081
 10
45.70206981066621
 20
27.48934213249078
 10
45.87322994914052
 20
27.57536971897077
 10
46.06005753594058
 20
27.64705937437083
 10
46.25340236414058
 20
27.70354213317091
 10
46.45783519237579
 20
27.74334075398684
 10
46.66455339992853
 20
27.76880144372291
 10
46.87254029714051
 20
27.77957661617086
 10
50.31147134254059
 20
27.77957661617103
 10
48.63002306134069
 20
26.14592143857095
 10
50.34405754954059
 20
24.40364557097098
 10
49.02540237294079
 20
24.40364557097098
 10
47.25922995354062
 20
26.12202488677099
 10
48.10647133554062
 20
26.93668006177091
 10
46.83778167634057
 20
26.93668006177086
 10
46.71371946905014
 20
26.93146626865081
 10
46.59085643417734
 20
26.91339178583479
 10
46.47051339931261
 20
26.88280419953088
 10
46.35397643342537
 20
26.83996419939479
 10
46.26995615729652
 20
26.79781937167485
 10
46.19366098464058
 20
26.75350213015486
 10
46.1534191914094
 20
26.72630350937885
 10
46.11590594991105
 20
26.69536833686687
 10
46.0049911909382
 20
26.58692143997081
 10
45.94191298384146
 20
26.50888833627476
 10
45.90038512164063
 20
26.44102212916283
 10
45.85673698357107
 20
26.34230764609083
 10
45.83852346627191
 20
26.28061109417087
 10
45.82636663864707
 20
26.21743730086683
 10
45.82036208690385
 20
26.15530626618687
 10
45.81900650069269
 20
26.09300143840284
 10
45.82652305244062
 20
26.00367178294687
 10
45.84722181112716
 20
25.91651454129084
 10
45.87664498363426
 20
25.83509247206683
 10
45.91600912169019
 20
25.75792833389079
 10
45.9647146390862
 20
25.68536971297084
 10
46.0197809840887
 20
25.61750350585885
 10
46.09338236363259
 20
25.54746488494681
 10
46.22594305370876
 20
25.44814212601091
 10
46.27962774353432
 20
25.41555591901084
 10
46.33576291612633
 20
25.38740143616286
 10
46.43725808886233
 20
25.34647316017077
 10
46.55437726164791
 20
25.31214902213088
 10
46.67451174478787
 20
25.29068557378685
 10
46.77545946924624
 20
25.28070321151023
  0
LWPOLYLINE
  5
29E4
330
28CE
100
AcDbEntity
  8
LW 3520-06-01
 62
     1
100
AcDbPolyline
 90
       76
 70
     1
 43
0.0
 10
45.63196325387446
 20
27.61870662414179
 10
45.4565763005097
 20
27.51652874232008
 10
45.29290750442771
 20
27.39962245940444
 10
45.14688759796626
 20
27.27123789769104
 10
45.0124095227535
 20
27.13081376742849
 10
44.89425139852232
 20
26.97957136841262
 10
44.8623925691495
 20
26.92799040657082
 10
43.77250580454062
 20
26.92799040657082
 10
43.62912649374061
 20
26.92147316517071
 10
43.49226442434053
 20
26.90192144097074
 10
43.36981849291738
 20
26.86985661328271
 10
43.25112649254061
 20
26.82588695797079
 10
43.14852773359428
 20
26.76757937157873
 10
43.05343683674061
 20
26.6977145437707
 10
42.97088511234051
 20
26.61516281937071
 10
42.90136787074061
 20
26.51957661217074
 10
44.67200638835993
 20
26.51957661217074
 10
44.65540768568496
 20
26.47044445225248
 10
44.61910196400959
 20
26.28407508098587
 10
44.60708029158036
 20
26.08932398763097
 10
44.61912394436206
 20
25.89903427368023
 10
44.65523575232658
 20
25.71366032612917
 10
44.66582021959948
 20
25.68102488537079
 10
42.93829890534072
 20
25.68102488537074
 10
43.00998856074068
 20
25.59630074717069
 10
43.1001698024063
 20
25.51835454002674
 10
43.1983194578903
 20
25.45074902257074
 10
43.30326442374075
 20
25.39426626377082
 10
43.41840235514076
 20
25.34864557397077
 10
43.54657476934062
 20
25.31571178076274
 10
43.67732801113516
 20
25.29537798759481
 10
43.80943683914063
 20
25.28781798757075
 10
44.837899906061
 20
25.2878179875708
 10
44.88987113750965
 20
25.20363334546653
 10
45.00357649225304
 20
25.05314510075391
 10
45.13101238573733
 20
24.91379141752537
 10
45.27492475410759
 20
24.78400182098563
 10
45.43775764886823
 20
24.66838358256007
 10
45.60622405503841
 20
24.56385388962849
 10
45.78978819884082
 20
24.47323361610575
 10
45.95033206289326
 20
24.41016281237086
 10
43.83116097714071
 20
24.41016281237069
 10
43.62043683854063
 20
24.41885246757073
 10
43.4118851137407
 20
24.44492143317075
 10
43.21202304414066
 20
24.48836970917074
 10
43.02085062974072
 20
24.54485246797066
 10
42.84020138778783
 20
24.61854074406671
 10
42.66457476654079
 20
24.70343867537082
 10
42.50381614534069
 20
24.80119729637067
 10
42.35647174487303
 20
24.91164281396271
 10
42.22027269616467
 20
25.03277660745067
 10
42.09757476474067
 20
25.1639904009707
 10
41.99112648854065
 20
25.30519729797067
 10
41.90205752274073
 20
25.45292143637073
 10
41.83254028114072
 20
25.60933522997073
 10
41.77822993614063
 20
25.77009385117066
 10
41.74781614294068
 20
25.93736971377075
 10
41.73695407394063
 20
26.11116281777067
 10
41.7456437291405
 20
26.28495592177063
 10
41.77388510854064
 20
26.45005937057073
 10
41.82385062594062
 20
26.61081799177066
 10
41.88685062614058
 20
26.76505937157066
 10
41.96940235054057
 20
26.91061109617073
 10
42.06942028189269
 20
27.04782075177872
 10
42.18068523396993
 20
27.17608006253068
 10
42.30612648954059
 20
27.29512833877067
 10
42.44883408999363
 20
27.40183730462673
 10
42.59940235254066
 20
27.49716282217077
 10
42.76667821514059
 20
27.5797145465707
 10
42.94264373294061
 20
27.64923178817077
 10
43.12729890594062
 20
27.70354213317069
 10
43.32281614794055
 20
27.7448179953708
 10
43.52485063134054
 20
27.77088696097076
 10
43.73774718374057
 20
27.77957661617075
 10
45.99488512194068
 20
27.77957661617092
 10
45.81371618647483
 20
27.71005830372468
  0
LWPOLYLINE
  5
29E5
330
28CE
100
AcDbEntity
  8
LW 3520-06-01
 62
     1
100
AcDbPolyline
 90
        6
 70
     1
 43
0.0
 10
55.26674722034079
 20
24.4101628123712
 10
53.0291610063407
 20
24.41016281237109
 10
53.0291610063407
 20
27.77957661617114
 10
54.0523679061406
 20
27.77957661617114
 10
54.05236790614072
 20
25.27695591857122
 10
55.26674722034067
 20
25.27695591857122
  0
LWPOLYLINE
  5
29E6
330
28CE
100
AcDbEntity
  8
LW 3520-06-01
 62
     1
100
AcDbPolyline
 90
       57
 70
     1
 43
0.0
 10
49.97534678974943
 20
25.03529660745903
 10
49.85549037557587
 20
25.16564143545895
 10
49.74664375454063
 20
25.30519729797095
 10
49.65974720254076
 20
25.45292143637102
 10
49.58805754714058
 20
25.60933522997089
 10
49.53591961594066
 20
25.770093851171
 10
49.50333340894065
 20
25.93736971377098
 10
49.49247133994072
 20
26.111162817771
 10
49.50333340894065
 20
26.28495592177103
 10
49.53591961594066
 20
26.45223178437095
 10
49.58588513334053
 20
26.61299040557088
 10
49.65757478874059
 20
26.767231785371
 10
49.74229892694052
 20
26.9127835099709
 10
49.84657478934059
 20
27.05181799317103
 10
49.96663975523893
 20
27.18059868323496
 10
50.10119906601108
 20
27.29982075257897
 10
50.25127810097024
 20
27.40931040809897
 10
50.41009892906072
 20
27.50576558081906
 10
50.57650582614065
 20
27.58840420177103
 10
50.76116099914054
 20
27.66009385717098
 10
50.95016099974066
 20
27.71440420217107
 10
51.14785065554065
 20
27.75568006437101
 10
51.35422996654063
 20
27.78392144377102
 10
51.5649541051406
 20
27.79261109897101
 10
52.79888514354059
 20
27.79261109897112
 10
52.79888514354059
 20
26.9670938549711
 10
51.55843686374066
 20
26.96709385497104
 10
51.41505755294065
 20
26.95840419977105
 10
51.28036789734062
 20
26.93129247554708
 10
51.14889341416461
 20
26.89132006162703
 10
51.02185065514061
 20
26.83892144077101
 10
50.91444651686868
 20
26.77183730262703
 10
50.81329893034058
 20
26.69554212997105
 10
50.72640237834059
 20
26.60647316417101
 10
50.65688513674058
 20
26.50871454317098
 10
52.7988851435407
 20
26.5087145431711
 10
52.7988851435407
 20
25.68102488537107
 10
50.69381617134069
 20
25.68102488537102
 10
50.76828651640472
 20
25.59551867820301
 10
50.85570444771668
 20
25.51574764346697
 10
50.95276789630066
 20
25.44814212601108
 10
51.06243134492479
 20
25.38722764305908
 10
51.17843824184467
 20
25.33926074635502
 10
51.29905065602077
 20
25.30493660831508
 10
51.43130720816464
 20
25.28295178065895
 10
51.5649541051406
 20
25.272611090971
 10
52.7988851435407
 20
25.27261109097106
 10
52.7988851435407
 20
24.41450763997108
 10
51.58885065694073
 20
24.41450763997102
 10
51.37595410454071
 20
24.42319729517095
 10
51.16957479354073
 20
24.44709384697103
 10
50.96971272394068
 20
24.49054212297102
 10
50.77854030954075
 20
24.54702488177111
 10
50.59388513654062
 20
24.620886950971
 10
50.42009203254065
 20
24.70561108917105
 10
50.25933341134066
 20
24.80336971017095
 10
50.11177437638946
 20
24.91398902086701
  0
ENDBLK
  5
28D0
330
28CE
100
AcDbEntity
  8
0
100
AcDbBlockEnd
  0
BLOCK
  5
29E9
330
29E8
100
AcDbEntity
  8
0
100
AcDbBlockBegin
  2
LW 3520-06-01_c
 70
     0
 10
0.0
 20
0.0
 30
0.0
  3
LW 3520-06-01_c
  1

  0
LINE
  5
29EB
330
29E8
100
AcDbEntity
  8
LW 3520-06-01
100
AcDbLine
 10
14.00000000000978
 20
32.99999999999585
 30
0.0
 11
13.99999999999022
 21
-33.00000000000409
 31
0.0
  0
ARC
  5
29EC
330
29E8
100
AcDbEntity
  8
LW 3520-06-01
100
AcDbCircle
 10
145.0000000000216
 20
-0.0000000000429736
 30
0.0
 40
35.0
100
AcDbArc
 50
269.9999999999804
 51
89.99999999998046
  0
LINE
  5
29ED
330
29E8
100
AcDbEntity
  8
LW 3520-06-01
100
AcDbLine
 10
145.000000000032
 20
34.99999999995703
 30
0.0
 11
16.00000000003206
 21
34.99999999999523
 31
0.0
  0
LINE
  5
29EE
330
29E8
100
AcDbEntity
  8
LW 3520-06-01
100
AcDbLine
 10
16.00000000001125
 20
-35.00000000000478
 30
0.0
 11
145.0000000000112
 21
-35.00000000004297
 31
0.0
  0
LINE
  5
29EF
330
29E8
100
AcDbEntity
  8
LW 3520-06-01
100
AcDbLine
 10
16.00000000003206
 20
34.99999999999523
 30
0.0
 11
12.00000000003081
 21
34.99999999999648
 31
0.0
  0
LINE
  5
29F0
330
29E8
100
AcDbEntity
  8
LW 3520-06-01
100
AcDbLine
 10
12.00000000001012
 20
-35.00000000000353
 30
0.0
 11
16.00000000001125
 21
-35.00000000000478
 31
0.0
  0
ARC
  5
29F1
330
29E8
100
AcDbEntity
  8
LW 3520-06-01
100
AcDbCircle
 10
12.00000000000978
 20
32.99999999999642
 30
0.0
 40
2.00000000000001
100
AcDbArc
 50
0.0
 51
89.99999999998046
  0
ARC
  5
29F2
330
29E8
100
AcDbEntity
  8
LW 3520-06-01
100
AcDbCircle
 10
11.99999999999022
 20
-33.00000000000352
 30
0.0
 40
1.999999999999997
100
AcDbArc
 50
269.9999999999804
 51
0.0
  0
LINE
  5
29F3
330
29E8
100
AcDbEntity
  8
LW 3520-06-01
100
AcDbLine
 10
4.999999999989654
 20
-35.00000000000148
 30
0.0
 11
5.000000000010345
 21
34.99999999999853
 31
0.0
  0
LINE
  5
29F4
330
29E8
100
AcDbEntity
  8
LW 3520-06-01
100
AcDbLine
 10
12.00000000001034
 20
34.99999999999648
 30
0.0
 11
5.000000000010345
 21
34.99999999999853
 31
0.0
  0
LINE
  5
29F5
330
29E8
100
AcDbEntity
  8
LW 3520-06-01
100
AcDbLine
 10
4.999999999989654
 20
-35.00000000000148
 30
0.0
 11
11.99999999998954
 21
-35.00000000000353
 31
0.0
  0
LINE
  5
29F6
330
29E8
100
AcDbEntity
  8
LW 3520-06-01
100
AcDbLine
 10
19.00000000000659
 20
22.49999999999443
 30
0.0
 11
18.99999999999329
 21
-22.50000000000557
 31
0.0
  0
LINE
  5
29F7
330
29E8
100
AcDbEntity
  8
LW 3520-06-01
100
AcDbLine
 10
14.00000000000659
 20
22.49999999999591
 30
0.0
 11
19.00000000000659
 21
22.49999999999443
 31
0.0
  0
LINE
  5
29F8
330
29E8
100
AcDbEntity
  8
LW 3520-06-01
100
AcDbLine
 10
13.99999999999329
 20
-22.50000000000409
 30
0.0
 11
18.99999999999329
 21
-22.50000000000557
 31
0.0
  0
LINE
  5
29F9
330
29E8
100
AcDbEntity
  8
LW 3520-06-01
100
AcDbLine
 10
-0.0000000000067075
 20
-22.5
 30
0.0
 11
0.0000000000067075
 21
22.5
 31
0.0
  0
LINE
  5
29FA
330
29E8
100
AcDbEntity
  8
LW 3520-06-01
100
AcDbLine
 10
4.999999999993292
 20
-22.50000000000148
 30
0.0
 11
-0.0000000000067075
 21
-22.5
 31
0.0
  0
LINE
  5
29FB
330
29E8
100
AcDbEntity
  8
LW 3520-06-01
100
AcDbLine
 10
5.000000000006707
 20
22.49999999999852
 30
0.0
 11
0.0000000000067075
 21
22.5
 31
0.0
  0
CIRCLE
  5
29FC
330
29E8
100
AcDbEntity
  8
LW 3520-06-01
100
AcDbCircle
 10
145.0000000000151
 20
-0.0000000000429736
 30
0.0
 40
17.5
  0
CIRCLE
  5
29FD
330
29E8
100
AcDbEntity
  8
LW 3520-06-01
100
AcDbCircle
 10
145.0000000000143
 20
-0.0000000000429736
 30
0.0
 40
14.5
  0
CIRCLE
  5
29FE
330
29E8
100
AcDbEntity
  8
LW 3520-06-01
100
AcDbCircle
 10
65.00000000001512
 20
-0.0000000000192131
 30
0.0
 40
17.5
  0
CIRCLE
  5
29FF
330
29E8
100
AcDbEntity
  8
LW 3520-06-01
100
AcDbCircle
 10
65.00000000001432
 20
-0.0000000000192131
 30
0.0
 40
14.5
  0
POLYLINE
  5
2A00
330
29E8
100
AcDbEntity
  8
LW 3520-06-01
100
AcDb2dPolyline
 66
     1
 10
0.0
 20
0.0
 30
0.0
 70
   128
  0
VERTEX
  5
2A01
330
2A00
100
AcDbEntity
  8
LW 3520-06-01
100
AcDbVertex
100
AcDb2dVertex
 10
36.99999952315761
 20
-0.0000000000109139
 30
0.0
  0
VERTEX
  5
2A02
330
2A00
100
AcDbEntity
  8
LW 3520-06-01
100
AcDbVertex
100
AcDb2dVertex
 10
36.98318386077358
 20
-0.2554797381271783
 30
0.0
  0
VERTEX
  5
2A03
330
2A00
100
AcDbEntity
  8
LW 3520-06-01
100
AcDbVertex
100
AcDb2dVertex
 10
36.93250799178543
 20
-0.513535626243538
 30
0.0
  0
VERTEX
  5
2A04
330
2A00
100
AcDbEntity
  8
LW 3520-06-01
100
AcDbVertex
100
AcDb2dVertex
 10
36.84763216971806
 20
-0.7656736672033731
 30
0.0
  0
VERTEX
  5
2A05
330
2A00
100
AcDbEntity
  8
LW 3520-06-01
100
AcDbVertex
100
AcDb2dVertex
 10
36.72932291030338
 20
-1.003869771968254
 30
0.0
  0
VERTEX
  5
2A06
330
2A00
100
AcDbEntity
  8
LW 3520-06-01
100
AcDbVertex
100
AcDb2dVertex
 10
36.58275866507927
 20
-1.221954673539471
 30
0.0
  0
VERTEX
  5
2A07
330
2A00
100
AcDbEntity
  8
LW 3520-06-01
100
AcDbVertex
100
AcDb2dVertex
 10
36.4142110347691
 20
-1.414216607819867
 30
0.0
  0
VERTEX
  5
2A08
330
2A00
100
AcDbEntity
  8
LW 3520-06-01
100
AcDbVertex
100
AcDb2dVertex
 10
36.22194790839581
 20
-1.58276334406014
 30
0.0
  0
VERTEX
  5
2A09
330
2A00
100
AcDbEntity
  8
LW 3520-06-01
100
AcDbVertex
100
AcDb2dVertex
 10
36.00386404990582
 20
-1.729326844226022
 30
0.0
  0
VERTEX
  5
2A0A
330
2A00
100
AcDbEntity
  8
LW 3520-06-01
100
AcDbVertex
100
AcDb2dVertex
 10
35.76566958426861
 20
-1.847633719454847
 30
0.0
  0
VERTEX
  5
2A0B
330
2A00
100
AcDbEntity
  8
LW 3520-06-01
100
AcDbVertex
100
AcDb2dVertex
 10
35.51353359221832
 20
-1.932508051405932
 30
0.0
  0
VERTEX
  5
2A0C
330
2A00
100
AcDbEntity
  8
LW 3520-06-01
100
AcDbVertex
100
AcDb2dVertex
 10
35.25547885894196
 20
-1.983183622370688
 30
0.0
  0
VERTEX
  5
2A0D
330
2A00
100
AcDbEntity
  8
LW 3520-06-01
100
AcDbVertex
100
AcDb2dVertex
 10
35.00000023841278
 20
-2.000000029812667
 30
0.0
  0
VERTEX
  5
2A0E
330
2A00
100
AcDbEntity
  8
LW 3520-06-01
100
AcDbVertex
100
AcDb2dVertex
 10
34.74452042579071
 20
-1.983183622370518
 30
0.0
  0
VERTEX
  5
2A0F
330
2A00
100
AcDbEntity
  8
LW 3520-06-01
100
AcDbVertex
100
AcDb2dVertex
 10
34.48646688460724
 20
-1.932508051405648
 30
0.0
  0
VERTEX
  5
2A10
330
2A00
100
AcDbEntity
  8
LW 3520-06-01
100
AcDbVertex
100
AcDb2dVertex
 10
34.23433089255718
 20
-1.847633719454393
 30
0.0
  0
VERTEX
  5
2A11
330
2A00
100
AcDbEntity
  8
LW 3520-06-01
100
AcDbVertex
100
AcDb2dVertex
 10
33.99613642691998
 20
-1.729326844225454
 30
0.0
  0
VERTEX
  5
2A12
330
2A00
100
AcDbEntity
  8
LW 3520-06-01
100
AcDbVertex
100
AcDb2dVertex
 10
33.77805137633709
 20
-1.582763344059458
 30
0.0
  0
VERTEX
  5
2A13
330
2A00
100
AcDbEntity
  8
LW 3520-06-01
100
AcDbVertex
100
AcDb2dVertex
 10
33.5857894420567
 20
-1.414216607819014
 30
0.0
  0
VERTEX
  5
2A14
330
2A00
100
AcDbEntity
  8
LW 3520-06-01
100
AcDbVertex
100
AcDb2dVertex
 10
33.41724181174675
 20
-1.221954673538562
 30
0.0
  0
VERTEX
  5
2A15
330
2A00
100
AcDbEntity
  8
LW 3520-06-01
100
AcDbVertex
100
AcDb2dVertex
 10
33.27067637442997
 20
-1.003869771967288
 30
0.0
  0
VERTEX
  5
2A16
330
2A00
100
AcDbEntity
  8
LW 3520-06-01
100
AcDbVertex
100
AcDb2dVertex
 10
33.15236830710819
 20
-0.7656736672022362
 30
0.0
  0
VERTEX
  5
2A17
330
2A00
100
AcDbEntity
  8
LW 3520-06-01
100
AcDbVertex
100
AcDb2dVertex
 10
33.06749248504104
 20
-0.5135356262424012
 30
0.0
  0
VERTEX
  5
2A18
330
2A00
100
AcDbEntity
  8
LW 3520-06-01
100
AcDbVertex
100
AcDb2dVertex
 10
33.01681661605312
 20
-0.2554797381260414
 30
0.0
  0
VERTEX
  5
2A19
330
2A00
100
AcDbEntity
  8
LW 3520-06-01
100
AcDbVertex
100
AcDb2dVertex
 10
32.99999976157619
 20
-0.0000000000097202
 30
0.0
  0
SEQEND
  5
2A1A
330
2A00
100
AcDbEntity
  8
LW 3520-06-01
  0
POLYLINE
  5
2A1B
330
29E8
100
AcDbEntity
  8
LW 3520-06-01
100
AcDb2dPolyline
 66
     1
 10
0.0
 20
0.0
 30
0.0
 70
   128
  0
VERTEX
  5
2A1C
330
2A1B
100
AcDbEntity
  8
LW 3520-06-01
100
AcDbVertex
100
AcDb2dVertex
 10
32.99999976157619
 20
-0.0000000000097202
 30
0.0
  0
VERTEX
  5
2A1D
330
2A1B
100
AcDbEntity
  8
LW 3520-06-01
100
AcDbVertex
100
AcDb2dVertex
 10
33.01681661605324
 20
0.2554797381064873
 30
0.0
  0
VERTEX
  5
2A1E
330
2A1B
100
AcDbEntity
  8
LW 3520-06-01
100
AcDbVertex
100
AcDb2dVertex
 10
33.06749248504127
 20
0.513535626222847
 30
0.0
  0
VERTEX
  5
2A1F
330
2A1B
100
AcDbEntity
  8
LW 3520-06-01
100
AcDbVertex
100
AcDb2dVertex
 10
33.15236830710865
 20
0.7656736671826821
 30
0.0
  0
VERTEX
  5
2A20
330
2A1B
100
AcDbEntity
  8
LW 3520-06-01
100
AcDbVertex
100
AcDb2dVertex
 10
33.27067637443054
 20
1.003869771947506
 30
0.0
  0
VERTEX
  5
2A21
330
2A1B
100
AcDbEntity
  8
LW 3520-06-01
100
AcDbVertex
100
AcDb2dVertex
 10
33.41724181174743
 20
1.22195467351878
 30
0.0
  0
VERTEX
  5
2A22
330
2A1B
100
AcDbEntity
  8
LW 3520-06-01
100
AcDbVertex
100
AcDb2dVertex
 10
33.5857894420576
 20
1.414216607799119
 30
0.0
  0
VERTEX
  5
2A23
330
2A1B
100
AcDbEntity
  8
LW 3520-06-01
100
AcDbVertex
100
AcDb2dVertex
 10
33.778051376338
 20
1.582763344039449
 30
0.0
  0
VERTEX
  5
2A24
330
2A1B
100
AcDbEntity
  8
LW 3520-06-01
100
AcDbVertex
100
AcDb2dVertex
 10
33.996136426921
 20
1.729326844205331
 30
0.0
  0
VERTEX
  5
2A25
330
2A1B
100
AcDbEntity
  8
LW 3520-06-01
100
AcDbVertex
100
AcDb2dVertex
 10
34.23433089255821
 20
1.847633719434156
 30
0.0
  0
VERTEX
  5
2A26
330
2A1B
100
AcDbEntity
  8
LW 3520-06-01
100
AcDbVertex
100
AcDb2dVertex
 10
34.48646688460849
 20
1.932508051385184
 30
0.0
  0
VERTEX
  5
2A27
330
2A1B
100
AcDbEntity
  8
LW 3520-06-01
100
AcDbVertex
100
AcDb2dVertex
 10
34.74452042579196
 20
1.98318362234994
 30
0.0
  0
VERTEX
  5
2A28
330
2A1B
100
AcDbEntity
  8
LW 3520-06-01
100
AcDbVertex
100
AcDb2dVertex
 10
35.00000023841403
 20
2.000000029791976
 30
0.0
  0
VERTEX
  5
2A29
330
2A1B
100
AcDbEntity
  8
LW 3520-06-01
100
AcDbVertex
100
AcDb2dVertex
 10
35.25547885894321
 20
1.98318362234977
 30
0.0
  0
VERTEX
  5
2A2A
330
2A1B
100
AcDbEntity
  8
LW 3520-06-01
100
AcDbVertex
100
AcDb2dVertex
 10
35.51353359221958
 20
1.9325080513849
 30
0.0
  0
VERTEX
  5
2A2B
330
2A1B
100
AcDbEntity
  8
LW 3520-06-01
100
AcDbVertex
100
AcDb2dVertex
 10
35.76566958426963
 20
1.847633719433702
 30
0.0
  0
VERTEX
  5
2A2C
330
2A1B
100
AcDbEntity
  8
LW 3520-06-01
100
AcDbVertex
100
AcDb2dVertex
 10
36.00386404990684
 20
1.729326844204763
 30
0.0
  0
VERTEX
  5
2A2D
330
2A1B
100
AcDbEntity
  8
LW 3520-06-01
100
AcDbVertex
100
AcDb2dVertex
 10
36.22194790839671
 20
1.582763344038767
 30
0.0
  0
VERTEX
  5
2A2E
330
2A1B
100
AcDbEntity
  8
LW 3520-06-01
100
AcDbVertex
100
AcDb2dVertex
 10
36.41421103477
 20
1.414216607798266
 30
0.0
  0
VERTEX
  5
2A2F
330
2A1B
100
AcDbEntity
  8
LW 3520-06-01
100
AcDbVertex
100
AcDb2dVertex
 10
36.58275866507995
 20
1.221954673517871
 30
0.0
  0
VERTEX
  5
2A30
330
2A1B
100
AcDbEntity
  8
LW 3520-06-01
100
AcDbVertex
100
AcDb2dVertex
 10
36.72932291030395
 20
1.00386977194654
 30
0.0
  0
VERTEX
  5
2A31
330
2A1B
100
AcDbEntity
  8
LW 3520-06-01
100
AcDbVertex
100
AcDb2dVertex
 10
36.84763216971851
 20
0.7656736671815452
 30
0.0
  0
VERTEX
  5
2A32
330
2A1B
100
AcDbEntity
  8
LW 3520-06-01
100
AcDbVertex
100
AcDb2dVertex
 10
36.93250799178566
 20
0.5135356262217102
 30
0.0
  0
VERTEX
  5
2A33
330
2A1B
100
AcDbEntity
  8
LW 3520-06-01
100
AcDbVertex
100
AcDb2dVertex
 10
36.9831838607737
 20
0.2554797381053504
 30
0.0
  0
VERTEX
  5
2A34
330
2A1B
100
AcDbEntity
  8
LW 3520-06-01
100
AcDbVertex
100
AcDb2dVertex
 10
36.99999952315761
 20
-0.0000000000109139
 30
0.0
  0
SEQEND
  5
2A35
330
2A1B
100
AcDbEntity
  8
LW 3520-06-01
  0
LINE
  5
2A36
330
29E8
100
AcDbEntity
  8
LW 3520-06-01
100
AcDbLine
 10
38.99999999999477
 20
-17.50000000001148
 30
0.0
 11
39.00000000000512
 21
17.49999999998852
 31
0.0
  0
LINE
  5
2A37
330
29E8
100
AcDbEntity
  8
LW 3520-06-01
100
AcDbLine
 10
41.99999999999556
 20
-14.50000000001245
 30
0.0
 11
42.00000000000431
 21
14.49999999998761
 31
0.0
  0
LINE
  5
2A38
330
29E8
100
AcDbEntity
  8
LW 3520-06-01
100
AcDbLine
 10
19.00000000000511
 20
17.49999999999443
 30
0.0
 11
39.00000000000512
 21
17.4999999999884
 31
0.0
  0
LINE
  5
2A39
330
29E8
100
AcDbEntity
  8
LW 3520-06-01
100
AcDbLine
 10
18.99999999999477
 20
-17.50000000000557
 30
0.0
 11
38.99999999999477
 21
-17.50000000001159
 31
0.0
  0
LINE
  5
2A3A
330
29E8
100
AcDbEntity
  8
LW 3520-06-01
100
AcDbLine
 10
41.99999999999568
 20
-14.50000000001245
 30
0.0
 11
38.99999999999477
 21
-17.50000000001148
 31
0.0
  0
LINE
  5
2A3B
330
29E8
100
AcDbEntity
  8
LW 3520-06-01
100
AcDbLine
 10
42.00000000000431
 20
14.49999999998761
 30
0.0
 11
39.00000000000512
 21
17.4999999999884
 31
0.0
  0
LINE
  5
2A3C
330
29E8
100
AcDbEntity
  8
LW 3520-06-01
100
AcDbLine
 10
70.00000000001512
 20
-0.0000000000192131
 30
0.0
 11
60.00000000001512
 21
-0.0000000000192131
 31
0.0
  0
LINE
  5
2A3D
330
29E8
100
AcDbEntity
  8
LW 3520-06-01
  6
MITTE2
 62
     3
100
AcDbLine
 10
65.00000000001512
 20
22.49999999998079
 30
0.0
 11
65.00000000001512
 21
-22.50000000001922
 31
0.0
  0
LINE
  5
2A3E
330
29E8
100
AcDbEntity
  8
LW 3520-06-01
  6
MITTE2
 62
     3
100
AcDbLine
 10
145.0000000000151
 20
22.49999999995702
 30
0.0
 11
145.0000000000151
 21
-22.50000000004297
 31
0.0
  0
LINE
  5
2A3F
330
29E8
100
AcDbEntity
  8
LW 3520-06-01
  6
MITTE2
 62
     3
100
AcDbLine
 10
187.3663674569925
 20
-0.000000000055536
 30
0.0
 11
-23.30038640845748
 21
0.0000000000069349
 31
0.0
  0
LINE
  5
2A40
330
29E8
100
AcDbEntity
  8
LW 3520-06-01
100
AcDbLine
 10
-15.99999999999795
 20
7.000000000005059
 30
0.0
 11
-15.99999999999795
 21
-6.99999999999494
 31
0.0
  0
LINE
  5
2A41
330
29E8
100
AcDbEntity
  8
LW 3520-06-01
100
AcDbLine
 10
-16.99999999999795
 20
6.000000000005059
 30
0.0
 11
-16.99999999999795
 21
-5.99999999999494
 31
0.0
  0
LINE
  5
2A42
330
29E8
100
AcDbEntity
  8
LW 3520-06-01
100
AcDbLine
 10
0.0000000000020464
 20
-6.99999999999494
 30
0.0
 11
-15.99999999999795
 21
-6.99999999999494
 31
0.0
  0
LINE
  5
2A43
330
29E8
100
AcDbEntity
  8
LW 3520-06-01
100
AcDbLine
 10
0.0000000000020464
 20
7.000000000005059
 30
0.0
 11
-15.99999999999795
 21
7.000000000005059
 31
0.0
  0
LINE
  5
2A44
330
29E8
100
AcDbEntity
  8
LW 3520-06-01
100
AcDbLine
 10
-16.99999999999795
 20
6.000000000005059
 30
0.0
 11
-15.99999999999795
 21
7.000000000005059
 31
0.0
  0
LINE
  5
2A45
330
29E8
100
AcDbEntity
  8
LW 3520-06-01
100
AcDbLine
 10
-16.99999999999795
 20
-5.99999999999494
 30
0.0
 11
-15.99999999999795
 21
-6.99999999999494
 31
0.0
  0
LINE
  5
2A46
330
29E8
100
AcDbEntity
  8
LW 3520-06-01
 62
     3
100
AcDbLine
 10
-16.99999999999795
 20
-5.794499999994911
 30
0.0
 11
0.0000000000020464
 21
-5.794499999994911
 31
0.0
  0
LINE
  5
2A47
330
29E8
100
AcDbEntity
  8
LW 3520-06-01
 62
     3
100
AcDbLine
 10
0.0000000000020464
 20
5.794500000005029
 30
0.0
 11
-16.99999999999795
 21
5.794500000005029
 31
0.0
  0
LINE
  5
2A48
330
29E8
100
AcDbEntity
  8
LW 3520-06-01
100
AcDbLine
 10
-15.99999999999795
 20
7.000000000005059
 30
0.0
 11
-15.99999999999795
 21
-6.99999999999494
 31
0.0
  0
INSERT
  5
2A49
330
29E8
100
AcDbEntity
  8
LW 3520-06-01
100
AcDbBlockReference
 66
     1
  2
insertpoint-ECKELT
 10
0.0
 20
0.0
 30
0.0
  0
ATTRIB
  5
2A4A
330
2A49
100
AcDbEntity
  8
insertpoint_ECKELT
100
AcDbText
 10
-6.931514324693087
 20
0.0
 30
0.0
 40
0.6
  1
LW 3520/06-01
 72
     2
 11
-1.200000000000045
 21
0.0
 31
0.0
100
AcDbAttribute
  2
LINKS
 70
     0
  0
ATTRIB
  5
2A4B
330
2A49
100
AcDbEntity
  8
insertpoint_ECKELT
100
AcDbText
 10
1.200000000000045
 20
0.0
 30
0.0
 40
0.6
  1

100
AcDbAttribute
  2
RECHTS
 70
     0
  0
SEQEND
  5
2A4C
330
2A49
100
AcDbEntity
  8
LW 3520-06-01
  0
HATCH
  5
2A4D
330
29E8
100
AcDbEntity
  8
LW 3520-06-01
 62
     1
100
AcDbHatch
 10
0.0
 20
0.0
 30
0.0
210
0.0
220
0.0
230
1.0
  2
SOLID
 70
     1
 71
     0
 91
        5
 92
        7
 72
     0
 73
     1
 93
       76
 10
101.6198830459461
 20
19.76920546873941
 10
101.651741875319
 20
19.82078643058111
 10
101.7698999995501
 20
19.97202882959709
 10
101.9043780747629
 20
20.11245295985964
 10
102.0503979812245
 20
20.24083752157299
 10
102.2140667773064
 20
20.35774380448874
 10
102.3894537306711
 20
20.45992168631039
 10
102.5712066632715
 20
20.55127336589328
 10
102.7523755987372
 20
20.62079167833946
 10
100.4952376605372
 20
20.6207916783394
 10
100.2823411081372
 20
20.61210202313936
 10
100.0803066247372
 20
20.5860330575394
 10
99.88478938273715
 20
20.54475719533934
 10
99.70013420973726
 20
20.49044685033937
 10
99.52416869193712
 20
20.42092960873936
 10
99.3568928293372
 20
20.33837788433925
 10
99.20632456679028
 20
20.24305236679544
 10
99.06361696633736
 20
20.13634340093933
 10
98.9381757107666
 20
20.01729512469922
 10
98.82691075868923
 20
19.88903581394732
 10
98.72689282733723
 20
19.75182615833933
 10
98.64434110293723
 20
19.60627443373926
 10
98.58134110273727
 20
19.45203305393915
 10
98.5313755853374
 20
19.29127443273938
 10
98.50313420593728
 20
19.12617098393929
 10
98.49444455073729
 20
18.95237787993932
 10
98.50530661973733
 20
18.77858477593924
 10
98.53572041293729
 20
18.61130891333926
 10
98.59003075793737
 20
18.45055029213932
 10
98.65954799953726
 20
18.29413649853927
 10
98.74861696533741
 20
18.14641236013921
 10
98.85506524153733
 20
18.00520546313936
 10
98.97776317296132
 20
17.87399166961927
 10
99.11396222166956
 20
17.75285787613137
 10
99.26130662213735
 20
17.64241235853927
 10
99.42206524333744
 20
17.54465373753942
 10
99.59769186458458
 20
17.45975580623536
 10
99.77834110653725
 20
17.38606753013937
 10
99.96951352093743
 20
17.32958477133934
 10
100.1693755905373
 20
17.28613649533935
 10
100.3779273153373
 20
17.26006752973933
 10
100.5886514539372
 20
17.25137787453934
 10
102.7078225396899
 20
17.25137787453945
 10
102.5472786756374
 20
17.31444867827434
 10
102.363714531835
 20
17.40506895179709
 10
102.1952481256648
 20
17.50959864472867
 10
102.0324152309041
 20
17.62521688315411
 10
101.888502862534
 20
17.75500647969397
 10
101.7610669690497
 20
17.89436016292251
 10
101.6473616143063
 20
18.04484840763507
 10
101.5953903828576
 20
18.1290330497394
 10
100.5669273159373
 20
18.12903304973935
 10
100.4348184879318
 20
18.1365930497634
 10
100.3040652461372
 20
18.15692684293134
 10
100.1758928319374
 20
18.18986063613931
 10
100.0607549005374
 20
18.23548132593941
 10
99.95580993468696
 20
18.29196408473933
 10
99.85766027920295
 20
18.35956960219533
 10
99.76747903753732
 20
18.43751580933929
 10
99.69578938213738
 20
18.52223994753933
 10
101.4233106963961
 20
18.52223994753939
 10
101.4127262291231
 20
18.55487538829772
 10
101.3766144211587
 20
18.74024933584883
 10
101.364570768377
 20
18.93053904979956
 10
101.3765924408063
 20
19.12529014315459
 10
101.4128981624816
 20
19.31165951442108
 10
101.4294968651566
 20
19.36079167433934
 10
99.65885834753727
 20
19.36079167433934
 10
99.72837558913727
 20
19.45637788153925
 10
99.81092731353726
 20
19.53892960593936
 10
99.90601821039081
 20
19.60879443374728
 10
100.0086169693372
 20
19.66710202013939
 10
100.127308969714
 20
19.71107167545131
 10
100.2497549011373
 20
19.74313650313934
 10
100.3866169705372
 20
19.76268822733931
 10
100.5299962813372
 20
19.76920546873936
 97
        0
 92
        7
 72
     0
 73
     1
 93
       72
 10
103.348346910974
 20
19.75460684800339
 10
103.4712099458468
 20
19.77268133081941
 10
103.5952721531372
 20
19.77789512393946
 10
104.8639618123372
 20
19.77789512393951
 10
104.0167204303372
 20
18.96323994893959
 10
105.7828928497374
 20
17.24486063313958
 10
107.1015480263372
 20
17.24486063313958
 10
105.3875135381373
 20
18.98713650073955
 10
107.0689618193372
 20
20.62079167833963
 10
103.6300307739373
 20
20.62079167833946
 10
103.4220438767252
 20
20.61001650589151
 10
103.2153256691723
 20
20.58455581615539
 10
103.0108928409372
 20
20.54475719533946
 10
102.8175480127372
 20
20.48827443653943
 10
102.6307204259371
 20
20.41658478113942
 10
102.4595602874627
 20
20.33055719465943
 10
102.2939962869372
 20
20.23410202193941
 10
102.1419273209372
 20
20.12548133193945
 10
102.0062296653341
 20
20.00617236604341
 10
101.8812376649373
 20
19.87565374493937
 10
101.7726169749371
 20
19.73661926173935
 10
101.6813755953372
 20
19.58889512333951
 10
101.6096859399372
 20
19.4346537435394
 10
101.5553755949372
 20
19.27389512233941
 10
101.5227893879373
 20
19.10661925973937
 10
101.5119273189373
 20
18.93065374193929
 10
101.5227893879373
 20
18.75903305173943
 10
101.5553755949373
 20
18.59175718913945
 10
101.6075135261374
 20
18.43099856793947
 10
101.6770307677373
 20
18.27675718813941
 10
101.7688717335461
 20
18.12799029111551
 10
101.8742511821565
 20
17.98852132515537
 10
101.9922566997726
 20
17.85947994543551
 10
102.1245480105373
 20
17.74017097953947
 10
102.2766691144685
 20
17.63215856540336
 10
102.4352031839373
 20
17.53379166853938
 10
102.6068238741373
 20
17.44906753033945
 10
102.7893066333374
 20
17.37737787493944
 10
102.9835378063677
 20
17.32332821959545
 10
103.1803411173373
 20
17.27961925393941
 10
103.3888928421373
 20
17.25355028833945
 10
103.5996169807373
 20
17.24486063313946
 10
105.5026514695373
 20
17.24486063313958
 10
104.6163066391373
 20
18.11817098073953
 10
103.5996169807373
 20
18.11817098073948
 10
103.5329499460428
 20
18.12191827367877
 10
103.4320022215845
 20
18.13190063595544
 10
103.3118677384445
 20
18.15336408429948
 10
103.194748565659
 20
18.18768822233937
 10
103.0932533929229
 20
18.22861649833146
 10
103.0371182203308
 20
18.2567709811795
 10
102.9834335305053
 20
18.28935718817956
 10
102.8508728404292
 20
18.3886799471154
 10
102.7772714608853
 20
18.45871856802745
 10
102.7222051158829
 20
18.52658477513933
 10
102.6734995984868
 20
18.59914339605939
 10
102.6341354604308
 20
18.67630753423538
 10
102.6047122879237
 20
18.75772960345938
 10
102.5840135292372
 20
18.84488684511547
 10
102.5764969774892
 20
18.93421650057132
 10
102.5778525637005
 20
18.99652132835541
 10
102.5838571154437
 20
19.05865236303532
 10
102.5960139430685
 20
19.12182615633946
 10
102.6142274603677
 20
19.18352270825943
 10
102.6578755984371
 20
19.28223719133132
 10
102.6994034606381
 20
19.35010339844336
 10
102.7624816677348
 20
19.42813650213941
 10
102.8918836080996
 20
19.55465923919308
 10
102.9511514614373
 20
19.59471719232346
 10
103.0274466340933
 20
19.63903443384339
 10
103.111466910222
 20
19.68117926156344
 10
103.2280038761092
 20
19.72401926169948
 97
        0
 92
        7
 72
     0
 73
     1
 93
       57
 10
107.9063838909613
 20
19.73253512379568
 10
108.0378583741373
 20
19.77250753771568
 10
108.1725480297372
 20
19.79961926193971
 10
108.3159273405372
 20
19.80830891713964
 10
109.5563756203372
 20
19.8083089171397
 10
109.5563756203372
 20
20.63382616113973
 10
108.3224445819372
 20
20.63382616113961
 10
108.1117204433373
 20
20.62513650593962
 10
107.9053411323373
 20
20.59689512653961
 10
107.7076514765373
 20
20.55561926433967
 10
107.5186514759373
 20
20.50130891933964
 10
107.3339963029373
 20
20.42961926393963
 10
107.167589405857
 20
20.34698064298755
 10
107.0087685777667
 20
20.25052547026752
 10
106.8586895428077
 20
20.14103581474757
 10
106.7241302320358
 20
20.02181374540362
 10
106.6040652661372
 20
19.89303305533957
 10
106.4997894037372
 20
19.75399857213961
 10
106.4150652655372
 20
19.60844684753954
 10
106.3433756101372
 20
19.45420546773948
 10
106.2934100927373
 20
19.29344684653966
 10
106.2608238857373
 20
19.12617098393969
 10
106.2499618167373
 20
18.9523778799396
 10
106.2608238857373
 20
18.77858477593958
 10
106.2934100927373
 20
18.6113089133396
 10
106.3455480239372
 20
18.45055029213949
 10
106.4172376793374
 20
18.29413649853961
 10
106.5041342313374
 20
18.14641236013961
 10
106.6129808523725
 20
18.00685649762761
 10
106.732837266546
 20
17.87651166962763
 10
106.8692648531861
 20
17.75520408303561
 10
107.0168238881373
 20
17.64458477233955
 10
107.1775825093373
 20
17.54682615133953
 10
107.3513756133372
 20
17.4621020131396
 10
107.5360307863374
 20
17.38823994393971
 10
107.7272032007373
 20
17.33175718513962
 10
107.9270652703373
 20
17.28830890913968
 10
108.1334445813373
 20
17.26441235733955
 10
108.3463411337374
 20
17.25572270213962
 10
109.5563756203373
 20
17.25572270213968
 10
109.5563756203373
 20
18.11382615313965
 10
108.3224445819372
 20
18.1138261531396
 10
108.1887976849613
 20
18.12416684282755
 10
108.0565411328174
 20
18.14615167048367
 10
107.9359287186413
 20
18.18047580852362
 10
107.8199218217214
 20
18.22844270522768
 10
107.7102583730973
 20
18.28935718817968
 10
107.6131949245133
 20
18.35696270563557
 10
107.5257769932013
 20
18.43673374037161
 10
107.4513066481373
 20
18.52223994753962
 10
109.5563756203373
 20
18.52223994753967
 10
109.5563756203373
 20
19.34992960533969
 10
107.4143756135372
 20
19.34992960533958
 10
107.4838928551372
 20
19.4476882263396
 10
107.5707894071372
 20
19.53675719213953
 10
107.6719369936653
 20
19.61305236479563
 10
107.7793411319372
 20
19.6801365029396
 97
        0
 92
        7
 72
     0
 73
     1
 93
        6
 10
109.7866514831373
 20
20.62079167833974
 10
109.7866514831373
 20
17.25137787453968
 10
112.0242376971374
 20
17.2513778745398
 10
112.0242376971373
 20
18.11817098073982
 10
110.8098583829373
 20
18.11817098073982
 10
110.8098583829372
 20
20.62079167833974
 97
        0
 92
        7
 72
     0
 73
     1
 93
        8
 10
111.0423066595372
 20
20.62079167833974
 10
111.0423066595372
 20
19.79527443433972
 10
112.2762376979373
 20
19.79527443433983
 10
112.2762376979374
 20
17.24486063313981
 10
113.3016170115373
 20
17.24486063313981
 10
113.3016170115372
 20
19.79527443433977
 10
114.5442377051372
 20
19.79527443433983
 10
114.5442377051372
 20
20.62079167833986
 97
        0
 75
     0
 76
     1
 47
0.0142553043587597
 98
        5
 10
100.9295431720125
 20
20.17834200875029
 10
103.1970403853551
 20
20.0357890237446
 10
107.6892521175566
 20
20.09281019629242
 10
110.4131012013882
 20
20.33515042098486
 10
111.824939183615
 20
20.23536328857148
450
        0
451
        0
460
0.0
461
0.0
452
        0
462
0.0
453
        0
470

  0
LWPOLYLINE
  5
2A4E
330
29E8
100
AcDbEntity
  8
LW 3520-06-01
 62
     1
100
AcDbPolyline
 90
        8
 70
     1
 43
0.0
 10
113.3016170115372
 20
19.79527443433977
 10
113.3016170115373
 20
17.24486063313981
 10
112.2762376979374
 20
17.24486063313981
 10
112.2762376979373
 20
19.79527443433983
 10
111.0423066595372
 20
19.79527443433972
 10
111.0423066595372
 20
20.62079167833974
 10
114.5442377051372
 20
20.62079167833986
 10
114.5442377051372
 20
19.79527443433983
  0
LWPOLYLINE
  5
2A4F
330
29E8
100
AcDbEntity
  8
LW 3520-06-01
 62
     1
100
AcDbPolyline
 90
       73
 70
     1
 43
0.0
 10
103.5996169807373
 20
18.11817098073948
 10
104.6163066391373
 20
18.11817098073953
 10
105.5026514695373
 20
17.24486063313958
 10
103.5996169807373
 20
17.24486063313941
 10
103.3888928421373
 20
17.25355028833945
 10
103.1803411173373
 20
17.27961925393947
 10
102.9835378063677
 20
17.32332821959545
 10
102.7893066333374
 20
17.37737787493944
 10
102.6068238741373
 20
17.44906753033945
 10
102.4352031839373
 20
17.53379166853943
 10
102.2766691144686
 20
17.63215856540347
 10
102.1245480105373
 20
17.74017097953947
 10
101.9922566997725
 20
17.85947994543539
 10
101.8742511821565
 20
17.98852132515537
 10
101.7688717335461
 20
18.12799029111545
 10
101.6770307677373
 20
18.27675718813941
 10
101.6075135261374
 20
18.43099856793947
 10
101.5553755949373
 20
18.59175718913945
 10
101.5227893879373
 20
18.75903305173943
 10
101.5119273189373
 20
18.93065374193941
 10
101.5227893879373
 20
19.10661925973937
 10
101.5553755949372
 20
19.27389512233941
 10
101.6096859399373
 20
19.4346537435394
 10
101.6813755953372
 20
19.58889512333945
 10
101.7726169749372
 20
19.7366192617394
 10
101.8812376649373
 20
19.87565374493937
 10
102.0062296653341
 20
20.00617236604347
 10
102.1419273209371
 20
20.1254813319394
 10
102.2939962869372
 20
20.23410202193941
 10
102.4595602874628
 20
20.33055719465938
 10
102.6307204259371
 20
20.41658478113936
 10
102.8175480127372
 20
20.48827443653943
 10
103.0108928409372
 20
20.54475719533952
 10
103.2153256691724
 20
20.58455581615544
 10
103.4220438767252
 20
20.61001650589151
 10
103.6300307739371
 20
20.62079167833946
 10
107.0689618193372
 20
20.62079167833963
 10
105.3875135381373
 20
18.98713650073955
 10
107.1015480263372
 20
17.24486063313958
 10
105.7828928497374
 20
17.24486063313958
 10
104.0167204303372
 20
18.96323994893959
 10
104.8639618123372
 20
19.77789512393951
 10
103.5952721531372
 20
19.77789512393946
 10
103.4712099458468
 20
19.77268133081941
 10
103.348346910974
 20
19.75460684800339
 10
103.2280038761092
 20
19.72401926169948
 10
103.111466910222
 20
19.68117926156338
 10
103.0274466340932
 20
19.63903443384345
 10
102.9511514614372
 20
19.59471719232346
 10
102.910909668206
 20
19.56751857154745
 10
102.8733964267077
 20
19.53658339903546
 10
102.7624816677348
 20
19.42813650213941
 10
102.6994034606381
 20
19.35010339844336
 10
102.6578755984372
 20
19.28223719133143
 10
102.6142274603677
 20
19.18352270825943
 10
102.5960139430685
 20
19.12182615633946
 10
102.5838571154437
 20
19.05865236303543
 10
102.5778525637005
 20
18.99652132835547
 10
102.5764969774893
 20
18.93421650057144
 10
102.5840135292372
 20
18.84488684511547
 10
102.6047122879238
 20
18.75772960345944
 10
102.6341354604309
 20
18.67630753423543
 10
102.6734995984868
 20
18.59914339605939
 10
102.7222051158828
 20
18.52658477513944
 10
102.7772714608853
 20
18.45871856802745
 10
102.8508728404292
 20
18.3886799471154
 10
102.9834335305054
 20
18.28935718817951
 10
103.0371182203309
 20
18.25677098117944
 10
103.0932533929229
 20
18.22861649833146
 10
103.194748565659
 20
18.18768822233937
 10
103.3118677384445
 20
18.15336408429948
 10
103.4320022215845
 20
18.13190063595544
 10
103.5329499460429
 20
18.12191827367883
  0
LWPOLYLINE
  5
2A50
330
29E8
100
AcDbEntity
  8
LW 3520-06-01
 62
     1
100
AcDbPolyline
 90
       76
 70
     1
 43
0.0
 10
102.3894537306711
 20
20.45992168631039
 10
102.2140667773063
 20
20.35774380448868
 10
102.0503979812243
 20
20.24083752157304
 10
101.9043780747629
 20
20.11245295985964
 10
101.7698999995501
 20
19.97202882959709
 10
101.651741875319
 20
19.82078643058122
 10
101.6198830459461
 20
19.76920546873941
 10
100.5299962813372
 20
19.76920546873941
 10
100.3866169705372
 20
19.76268822733931
 10
100.2497549011372
 20
19.74313650313934
 10
100.127308969714
 20
19.71107167545131
 10
100.0086169693372
 20
19.66710202013939
 10
99.90601821039092
 20
19.60879443374733
 10
99.81092731353726
 20
19.5389296059393
 10
99.72837558913717
 20
19.45637788153931
 10
99.65885834753727
 20
19.36079167433934
 10
101.4294968651566
 20
19.36079167433934
 10
101.4128981624816
 20
19.31165951442108
 10
101.3765924408062
 20
19.12529014315447
 10
101.364570768377
 20
18.93053904979956
 10
101.3766144211587
 20
18.74024933584883
 10
101.4127262291232
 20
18.55487538829777
 10
101.4233106963961
 20
18.52223994753939
 10
99.69578938213738
 20
18.52223994753933
 10
99.76747903753732
 20
18.43751580933929
 10
99.85766027920295
 20
18.35956960219533
 10
99.95580993468696
 20
18.29196408473933
 10
100.0607549005374
 20
18.23548132593941
 10
100.1758928319374
 20
18.18986063613937
 10
100.3040652461372
 20
18.15692684293134
 10
100.4348184879318
 20
18.1365930497634
 10
100.5669273159373
 20
18.12903304973935
 10
101.5953903828576
 20
18.1290330497394
 10
101.6473616143063
 20
18.04484840763513
 10
101.7610669690497
 20
17.89436016292251
 10
101.888502862534
 20
17.75500647969397
 10
102.0324152309042
 20
17.62521688315422
 10
102.1952481256648
 20
17.50959864472867
 10
102.363714531835
 20
17.40506895179709
 10
102.5472786756374
 20
17.31444867827434
 10
102.7078225396899
 20
17.25137787453945
 10
100.5886514539373
 20
17.25137787453929
 10
100.3779273153373
 20
17.26006752973933
 10
100.1693755905373
 20
17.28613649533935
 10
99.96951352093731
 20
17.32958477133934
 10
99.77834110653738
 20
17.38606753013925
 10
99.59769186458448
 20
17.45975580623531
 10
99.42206524333744
 20
17.54465373753942
 10
99.26130662213735
 20
17.64241235853927
 10
99.11396222166969
 20
17.75285787613131
 10
98.97776317296132
 20
17.87399166961927
 10
98.85506524153733
 20
18.0052054631393
 10
98.74861696533731
 20
18.14641236013926
 10
98.65954799953739
 20
18.29413649853933
 10
98.59003075793737
 20
18.45055029213932
 10
98.53572041293729
 20
18.61130891333926
 10
98.50530661973733
 20
18.77858477593935
 10
98.49444455073729
 20
18.95237787993926
 10
98.50313420593716
 20
19.12617098393923
 10
98.53137558533729
 20
19.29127443273933
 10
98.58134110273727
 20
19.45203305393926
 10
98.64434110293723
 20
19.60627443373926
 10
98.72689282733723
 20
19.75182615833933
 10
98.82691075868933
 20
19.88903581394732
 10
98.9381757107666
 20
20.01729512469927
 10
99.06361696633723
 20
20.13634340093927
 10
99.20632456679028
 20
20.24305236679532
 10
99.35689282933731
 20
20.33837788433936
 10
99.52416869193724
 20
20.4209296087393
 10
99.70013420973726
 20
20.49044685033937
 10
99.88478938273727
 20
20.54475719533929
 10
100.0803066247372
 20
20.5860330575394
 10
100.2823411081372
 20
20.61210202313936
 10
100.4952376605372
 20
20.62079167833934
 10
102.7523755987373
 20
20.62079167833951
 10
102.5712066632715
 20
20.55127336589328
  0
LWPOLYLINE
  5
2A51
330
29E8
100
AcDbEntity
  8
LW 3520-06-01
 62
     1
100
AcDbPolyline
 90
        6
 70
     1
 43
0.0
 10
112.0242376971374
 20
17.2513778745398
 10
109.7866514831373
 20
17.25137787453968
 10
109.7866514831373
 20
20.62079167833974
 10
110.8098583829372
 20
20.62079167833974
 10
110.8098583829373
 20
18.11817098073982
 10
112.0242376971373
 20
18.11817098073982
  0
LWPOLYLINE
  5
2A52
330
29E8
100
AcDbEntity
  8
LW 3520-06-01
 62
     1
100
AcDbPolyline
 90
       57
 70
     1
 43
0.0
 10
106.732837266546
 20
17.87651166962763
 10
106.6129808523725
 20
18.00685649762755
 10
106.5041342313372
 20
18.14641236013955
 10
106.4172376793374
 20
18.29413649853961
 10
106.3455480239372
 20
18.45055029213949
 10
106.2934100927373
 20
18.6113089133396
 10
106.2608238857373
 20
18.77858477593958
 10
106.2499618167373
 20
18.9523778799396
 10
106.2608238857373
 20
19.12617098393963
 10
106.2934100927373
 20
19.29344684653955
 10
106.3433756101372
 20
19.45420546773948
 10
106.4150652655372
 20
19.6084468475396
 10
106.4997894037371
 20
19.75399857213949
 10
106.6040652661372
 20
19.89303305533963
 10
106.7241302320355
 20
20.02181374540356
 10
106.8586895428077
 20
20.14103581474757
 10
107.0087685777669
 20
20.25052547026758
 10
107.1675894058573
 20
20.34698064298766
 10
107.3339963029373
 20
20.42961926393963
 10
107.5186514759372
 20
20.50130891933958
 10
107.7076514765373
 20
20.55561926433967
 10
107.9053411323373
 20
20.59689512653961
 10
108.1117204433373
 20
20.62513650593962
 10
108.3224445819372
 20
20.63382616113961
 10
109.5563756203372
 20
20.63382616113973
 10
109.5563756203372
 20
19.8083089171397
 10
108.3159273405373
 20
19.80830891713964
 10
108.1725480297373
 20
19.79961926193965
 10
108.0378583741373
 20
19.77250753771568
 10
107.9063838909612
 20
19.73253512379563
 10
107.7793411319372
 20
19.6801365029396
 10
107.6719369936653
 20
19.61305236479563
 10
107.5707894071372
 20
19.53675719213964
 10
107.4838928551372
 20
19.4476882263396
 10
107.4143756135372
 20
19.34992960533958
 10
109.5563756203373
 20
19.34992960533969
 10
109.5563756203373
 20
18.52223994753967
 10
107.4513066481373
 20
18.52223994753962
 10
107.5257769932013
 20
18.43673374037161
 10
107.6131949245133
 20
18.35696270563557
 10
107.7102583730973
 20
18.28935718817968
 10
107.8199218217214
 20
18.22844270522768
 10
107.9359287186413
 20
18.18047580852362
 10
108.0565411328174
 20
18.14615167048367
 10
108.1887976849613
 20
18.12416684282755
 10
108.3224445819372
 20
18.1138261531396
 10
109.5563756203373
 20
18.11382615313965
 10
109.5563756203373
 20
17.25572270213968
 10
108.3463411337374
 20
17.25572270213962
 10
108.1334445813373
 20
17.26441235733955
 10
107.9270652703373
 20
17.28830890913963
 10
107.7272032007373
 20
17.33175718513962
 10
107.5360307863374
 20
17.38823994393971
 10
107.3513756133372
 20
17.4621020131396
 10
107.1775825093373
 20
17.54682615133964
 10
107.0168238881373
 20
17.64458477233955
 10
106.8692648531861
 20
17.75520408303561
  0
ENDBLK
  5
29EA
330
29E8
100
AcDbEntity
  8
0
100
AcDbBlockEnd
  0
BLOCK
  5
2A55
330
2A54
100
AcDbEntity
  8
0
100
AcDbBlockBegin
  2
LW 3520-06-01_d
 70
     0
 10
0.0
 20
0.0
 30
0.0
  3
LW 3520-06-01_d
  1

  0
LINE
  5
2A57
330
2A54
100
AcDbEntity
  8
LW 3520-06-01
100
AcDbLine
 10
-14.00000000000978
 20
32.99999999999585
 30
0.0
 11
-13.99999999999022
 21
-33.00000000000409
 31
0.0
  0
ARC
  5
2A58
330
2A54
100
AcDbEntity
  8
LW 3520-06-01
100
AcDbCircle
 10
-145.0000000000216
 20
-0.0000000000429736
 30
0.0
 40
35.0
100
AcDbArc
 50
90.00000000001953
 51
270.0000000000196
  0
LINE
  5
2A59
330
2A54
100
AcDbEntity
  8
LW 3520-06-01
100
AcDbLine
 10
-145.000000000032
 20
34.99999999995703
 30
0.0
 11
-16.00000000003206
 21
34.99999999999523
 31
0.0
  0
LINE
  5
2A5A
330
2A54
100
AcDbEntity
  8
LW 3520-06-01
100
AcDbLine
 10
-16.00000000001125
 20
-35.00000000000478
 30
0.0
 11
-145.0000000000112
 21
-35.00000000004297
 31
0.0
  0
LINE
  5
2A5B
330
2A54
100
AcDbEntity
  8
LW 3520-06-01
100
AcDbLine
 10
-16.00000000003206
 20
34.99999999999523
 30
0.0
 11
-12.00000000003081
 21
34.99999999999648
 31
0.0
  0
LINE
  5
2A5C
330
2A54
100
AcDbEntity
  8
LW 3520-06-01
100
AcDbLine
 10
-12.00000000001012
 20
-35.00000000000353
 30
0.0
 11
-16.00000000001125
 21
-35.00000000000478
 31
0.0
  0
ARC
  5
2A5D
330
2A54
100
AcDbEntity
  8
LW 3520-06-01
100
AcDbCircle
 10
-12.00000000000978
 20
32.99999999999642
 30
0.0
 40
2.00000000000001
100
AcDbArc
 50
90.00000000001953
 51
180.0
  0
ARC
  5
2A5E
330
2A54
100
AcDbEntity
  8
LW 3520-06-01
100
AcDbCircle
 10
-11.99999999999022
 20
-33.00000000000352
 30
0.0
 40
1.999999999999996
100
AcDbArc
 50
180.0
 51
270.0000000000196
  0
LINE
  5
2A5F
330
2A54
100
AcDbEntity
  8
LW 3520-06-01
100
AcDbLine
 10
-4.999999999989654
 20
-35.00000000000148
 30
0.0
 11
-5.000000000010345
 21
34.99999999999853
 31
0.0
  0
LINE
  5
2A60
330
2A54
100
AcDbEntity
  8
LW 3520-06-01
100
AcDbLine
 10
-12.00000000001034
 20
34.99999999999648
 30
0.0
 11
-5.000000000010345
 21
34.99999999999853
 31
0.0
  0
LINE
  5
2A61
330
2A54
100
AcDbEntity
  8
LW 3520-06-01
100
AcDbLine
 10
-4.999999999989654
 20
-35.00000000000148
 30
0.0
 11
-11.99999999998954
 21
-35.00000000000353
 31
0.0
  0
LINE
  5
2A62
330
2A54
100
AcDbEntity
  8
LW 3520-06-01
100
AcDbLine
 10
-19.00000000000659
 20
22.49999999999443
 30
0.0
 11
-18.99999999999329
 21
-22.50000000000557
 31
0.0
  0
LINE
  5
2A63
330
2A54
100
AcDbEntity
  8
LW 3520-06-01
100
AcDbLine
 10
-14.00000000000659
 20
22.49999999999591
 30
0.0
 11
-19.00000000000659
 21
22.49999999999443
 31
0.0
  0
LINE
  5
2A64
330
2A54
100
AcDbEntity
  8
LW 3520-06-01
100
AcDbLine
 10
-13.99999999999329
 20
-22.50000000000409
 30
0.0
 11
-18.99999999999329
 21
-22.50000000000557
 31
0.0
  0
LINE
  5
2A65
330
2A54
100
AcDbEntity
  8
LW 3520-06-01
100
AcDbLine
 10
0.0000000000067075
 20
-22.5
 30
0.0
 11
-0.0000000000067075
 21
22.5
 31
0.0
  0
LINE
  5
2A66
330
2A54
100
AcDbEntity
  8
LW 3520-06-01
100
AcDbLine
 10
-4.999999999993292
 20
-22.50000000000148
 30
0.0
 11
0.0000000000067075
 21
-22.5
 31
0.0
  0
LINE
  5
2A67
330
2A54
100
AcDbEntity
  8
LW 3520-06-01
100
AcDbLine
 10
-5.000000000006707
 20
22.49999999999852
 30
0.0
 11
-0.0000000000067075
 21
22.5
 31
0.0
  0
CIRCLE
  5
2A68
330
2A54
100
AcDbEntity
  8
LW 3520-06-01
100
AcDbCircle
 10
-145.0000000000151
 20
-0.0000000000429736
 30
0.0
 40
17.49999999999999
  0
CIRCLE
  5
2A69
330
2A54
100
AcDbEntity
  8
LW 3520-06-01
100
AcDbCircle
 10
-145.0000000000143
 20
-0.0000000000429736
 30
0.0
 40
14.49999999999999
  0
CIRCLE
  5
2A6A
330
2A54
100
AcDbEntity
  8
LW 3520-06-01
100
AcDbCircle
 10
-65.00000000001512
 20
-0.0000000000192131
 30
0.0
 40
17.49999999999999
  0
CIRCLE
  5
2A6B
330
2A54
100
AcDbEntity
  8
LW 3520-06-01
100
AcDbCircle
 10
-65.00000000001432
 20
-0.0000000000192131
 30
0.0
 40
14.49999999999999
  0
POLYLINE
  5
2A6C
330
2A54
100
AcDbEntity
  8
LW 3520-06-01
100
AcDb2dPolyline
 66
     1
 10
0.0
 20
0.0
 30
0.0
 70
   128
  0
VERTEX
  5
2A6D
330
2A6C
100
AcDbEntity
  8
LW 3520-06-01
100
AcDbVertex
100
AcDb2dVertex
 10
-36.99999952315761
 20
-0.0000000000109139
 30
0.0
  0
VERTEX
  5
2A6E
330
2A6C
100
AcDbEntity
  8
LW 3520-06-01
100
AcDbVertex
100
AcDb2dVertex
 10
-36.98318386077358
 20
-0.2554797381271783
 30
0.0
  0
VERTEX
  5
2A6F
330
2A6C
100
AcDbEntity
  8
LW 3520-06-01
100
AcDbVertex
100
AcDb2dVertex
 10
-36.93250799178543
 20
-0.513535626243538
 30
0.0
  0
VERTEX
  5
2A70
330
2A6C
100
AcDbEntity
  8
LW 3520-06-01
100
AcDbVertex
100
AcDb2dVertex
 10
-36.84763216971806
 20
-0.7656736672033731
 30
0.0
  0
VERTEX
  5
2A71
330
2A6C
100
AcDbEntity
  8
LW 3520-06-01
100
AcDbVertex
100
AcDb2dVertex
 10
-36.72932291030338
 20
-1.003869771968254
 30
0.0
  0
VERTEX
  5
2A72
330
2A6C
100
AcDbEntity
  8
LW 3520-06-01
100
AcDbVertex
100
AcDb2dVertex
 10
-36.58275866507927
 20
-1.221954673539471
 30
0.0
  0
VERTEX
  5
2A73
330
2A6C
100
AcDbEntity
  8
LW 3520-06-01
100
AcDbVertex
100
AcDb2dVertex
 10
-36.4142110347691
 20
-1.414216607819867
 30
0.0
  0
VERTEX
  5
2A74
330
2A6C
100
AcDbEntity
  8
LW 3520-06-01
100
AcDbVertex
100
AcDb2dVertex
 10
-36.22194790839581
 20
-1.58276334406014
 30
0.0
  0
VERTEX
  5
2A75
330
2A6C
100
AcDbEntity
  8
LW 3520-06-01
100
AcDbVertex
100
AcDb2dVertex
 10
-36.00386404990582
 20
-1.729326844226022
 30
0.0
  0
VERTEX
  5
2A76
330
2A6C
100
AcDbEntity
  8
LW 3520-06-01
100
AcDbVertex
100
AcDb2dVertex
 10
-35.76566958426861
 20
-1.847633719454847
 30
0.0
  0
VERTEX
  5
2A77
330
2A6C
100
AcDbEntity
  8
LW 3520-06-01
100
AcDbVertex
100
AcDb2dVertex
 10
-35.51353359221832
 20
-1.932508051405932
 30
0.0
  0
VERTEX
  5
2A78
330
2A6C
100
AcDbEntity
  8
LW 3520-06-01
100
AcDbVertex
100
AcDb2dVertex
 10
-35.25547885894196
 20
-1.983183622370688
 30
0.0
  0
VERTEX
  5
2A79
330
2A6C
100
AcDbEntity
  8
LW 3520-06-01
100
AcDbVertex
100
AcDb2dVertex
 10
-35.00000023841278
 20
-2.000000029812667
 30
0.0
  0
VERTEX
  5
2A7A
330
2A6C
100
AcDbEntity
  8
LW 3520-06-01
100
AcDbVertex
100
AcDb2dVertex
 10
-34.74452042579071
 20
-1.983183622370518
 30
0.0
  0
VERTEX
  5
2A7B
330
2A6C
100
AcDbEntity
  8
LW 3520-06-01
100
AcDbVertex
100
AcDb2dVertex
 10
-34.48646688460724
 20
-1.932508051405648
 30
0.0
  0
VERTEX
  5
2A7C
330
2A6C
100
AcDbEntity
  8
LW 3520-06-01
100
AcDbVertex
100
AcDb2dVertex
 10
-34.23433089255718
 20
-1.847633719454393
 30
0.0
  0
VERTEX
  5
2A7D
330
2A6C
100
AcDbEntity
  8
LW 3520-06-01
100
AcDbVertex
100
AcDb2dVertex
 10
-33.99613642691998
 20
-1.729326844225454
 30
0.0
  0
VERTEX
  5
2A7E
330
2A6C
100
AcDbEntity
  8
LW 3520-06-01
100
AcDbVertex
100
AcDb2dVertex
 10
-33.77805137633709
 20
-1.582763344059458
 30
0.0
  0
VERTEX
  5
2A7F
330
2A6C
100
AcDbEntity
  8
LW 3520-06-01
100
AcDbVertex
100
AcDb2dVertex
 10
-33.5857894420567
 20
-1.414216607819014
 30
0.0
  0
VERTEX
  5
2A80
330
2A6C
100
AcDbEntity
  8
LW 3520-06-01
100
AcDbVertex
100
AcDb2dVertex
 10
-33.41724181174675
 20
-1.221954673538562
 30
0.0
  0
VERTEX
  5
2A81
330
2A6C
100
AcDbEntity
  8
LW 3520-06-01
100
AcDbVertex
100
AcDb2dVertex
 10
-33.27067637442997
 20
-1.003869771967288
 30
0.0
  0
VERTEX
  5
2A82
330
2A6C
100
AcDbEntity
  8
LW 3520-06-01
100
AcDbVertex
100
AcDb2dVertex
 10
-33.15236830710819
 20
-0.7656736672022362
 30
0.0
  0
VERTEX
  5
2A83
330
2A6C
100
AcDbEntity
  8
LW 3520-06-01
100
AcDbVertex
100
AcDb2dVertex
 10
-33.06749248504104
 20
-0.5135356262424012
 30
0.0
  0
VERTEX
  5
2A84
330
2A6C
100
AcDbEntity
  8
LW 3520-06-01
100
AcDbVertex
100
AcDb2dVertex
 10
-33.01681661605312
 20
-0.2554797381260414
 30
0.0
  0
VERTEX
  5
2A85
330
2A6C
100
AcDbEntity
  8
LW 3520-06-01
100
AcDbVertex
100
AcDb2dVertex
 10
-32.99999976157619
 20
-0.0000000000097202
 30
0.0
  0
SEQEND
  5
2A86
330
2A6C
100
AcDbEntity
  8
LW 3520-06-01
  0
POLYLINE
  5
2A87
330
2A54
100
AcDbEntity
  8
LW 3520-06-01
100
AcDb2dPolyline
 66
     1
 10
0.0
 20
0.0
 30
0.0
 70
   128
  0
VERTEX
  5
2A88
330
2A87
100
AcDbEntity
  8
LW 3520-06-01
100
AcDbVertex
100
AcDb2dVertex
 10
-32.99999976157619
 20
-0.0000000000097202
 30
0.0
  0
VERTEX
  5
2A89
330
2A87
100
AcDbEntity
  8
LW 3520-06-01
100
AcDbVertex
100
AcDb2dVertex
 10
-33.01681661605324
 20
0.2554797381064873
 30
0.0
  0
VERTEX
  5
2A8A
330
2A87
100
AcDbEntity
  8
LW 3520-06-01
100
AcDbVertex
100
AcDb2dVertex
 10
-33.06749248504127
 20
0.513535626222847
 30
0.0
  0
VERTEX
  5
2A8B
330
2A87
100
AcDbEntity
  8
LW 3520-06-01
100
AcDbVertex
100
AcDb2dVertex
 10
-33.15236830710865
 20
0.7656736671826821
 30
0.0
  0
VERTEX
  5
2A8C
330
2A87
100
AcDbEntity
  8
LW 3520-06-01
100
AcDbVertex
100
AcDb2dVertex
 10
-33.27067637443054
 20
1.003869771947506
 30
0.0
  0
VERTEX
  5
2A8D
330
2A87
100
AcDbEntity
  8
LW 3520-06-01
100
AcDbVertex
100
AcDb2dVertex
 10
-33.41724181174743
 20
1.22195467351878
 30
0.0
  0
VERTEX
  5
2A8E
330
2A87
100
AcDbEntity
  8
LW 3520-06-01
100
AcDbVertex
100
AcDb2dVertex
 10
-33.5857894420576
 20
1.414216607799119
 30
0.0
  0
VERTEX
  5
2A8F
330
2A87
100
AcDbEntity
  8
LW 3520-06-01
100
AcDbVertex
100
AcDb2dVertex
 10
-33.778051376338
 20
1.582763344039449
 30
0.0
  0
VERTEX
  5
2A90
330
2A87
100
AcDbEntity
  8
LW 3520-06-01
100
AcDbVertex
100
AcDb2dVertex
 10
-33.996136426921
 20
1.729326844205331
 30
0.0
  0
VERTEX
  5
2A91
330
2A87
100
AcDbEntity
  8
LW 3520-06-01
100
AcDbVertex
100
AcDb2dVertex
 10
-34.23433089255821
 20
1.847633719434156
 30
0.0
  0
VERTEX
  5
2A92
330
2A87
100
AcDbEntity
  8
LW 3520-06-01
100
AcDbVertex
100
AcDb2dVertex
 10
-34.48646688460849
 20
1.932508051385184
 30
0.0
  0
VERTEX
  5
2A93
330
2A87
100
AcDbEntity
  8
LW 3520-06-01
100
AcDbVertex
100
AcDb2dVertex
 10
-34.74452042579196
 20
1.98318362234994
 30
0.0
  0
VERTEX
  5
2A94
330
2A87
100
AcDbEntity
  8
LW 3520-06-01
100
AcDbVertex
100
AcDb2dVertex
 10
-35.00000023841403
 20
2.000000029791976
 30
0.0
  0
VERTEX
  5
2A95
330
2A87
100
AcDbEntity
  8
LW 3520-06-01
100
AcDbVertex
100
AcDb2dVertex
 10
-35.25547885894321
 20
1.98318362234977
 30
0.0
  0
VERTEX
  5
2A96
330
2A87
100
AcDbEntity
  8
LW 3520-06-01
100
AcDbVertex
100
AcDb2dVertex
 10
-35.51353359221958
 20
1.9325080513849
 30
0.0
  0
VERTEX
  5
2A97
330
2A87
100
AcDbEntity
  8
LW 3520-06-01
100
AcDbVertex
100
AcDb2dVertex
 10
-35.76566958426963
 20
1.847633719433702
 30
0.0
  0
VERTEX
  5
2A98
330
2A87
100
AcDbEntity
  8
LW 3520-06-01
100
AcDbVertex
100
AcDb2dVertex
 10
-36.00386404990684
 20
1.729326844204763
 30
0.0
  0
VERTEX
  5
2A99
330
2A87
100
AcDbEntity
  8
LW 3520-06-01
100
AcDbVertex
100
AcDb2dVertex
 10
-36.22194790839671
 20
1.582763344038767
 30
0.0
  0
VERTEX
  5
2A9A
330
2A87
100
AcDbEntity
  8
LW 3520-06-01
100
AcDbVertex
100
AcDb2dVertex
 10
-36.41421103477
 20
1.414216607798266
 30
0.0
  0
VERTEX
  5
2A9B
330
2A87
100
AcDbEntity
  8
LW 3520-06-01
100
AcDbVertex
100
AcDb2dVertex
 10
-36.58275866507995
 20
1.221954673517871
 30
0.0
  0
VERTEX
  5
2A9C
330
2A87
100
AcDbEntity
  8
LW 3520-06-01
100
AcDbVertex
100
AcDb2dVertex
 10
-36.72932291030395
 20
1.00386977194654
 30
0.0
  0
VERTEX
  5
2A9D
330
2A87
100
AcDbEntity
  8
LW 3520-06-01
100
AcDbVertex
100
AcDb2dVertex
 10
-36.84763216971851
 20
0.7656736671815452
 30
0.0
  0
VERTEX
  5
2A9E
330
2A87
100
AcDbEntity
  8
LW 3520-06-01
100
AcDbVertex
100
AcDb2dVertex
 10
-36.93250799178566
 20
0.5135356262217102
 30
0.0
  0
VERTEX
  5
2A9F
330
2A87
100
AcDbEntity
  8
LW 3520-06-01
100
AcDbVertex
100
AcDb2dVertex
 10
-36.9831838607737
 20
0.2554797381053504
 30
0.0
  0
VERTEX
  5
2AA0
330
2A87
100
AcDbEntity
  8
LW 3520-06-01
100
AcDbVertex
100
AcDb2dVertex
 10
-36.99999952315761
 20
-0.0000000000109139
 30
0.0
  0
SEQEND
  5
2AA1
330
2A87
100
AcDbEntity
  8
LW 3520-06-01
  0
LINE
  5
2AA2
330
2A54
100
AcDbEntity
  8
LW 3520-06-01
100
AcDbLine
 10
-38.99999999999477
 20
-17.50000000001148
 30
0.0
 11
-39.00000000000512
 21
17.49999999998852
 31
0.0
  0
LINE
  5
2AA3
330
2A54
100
AcDbEntity
  8
LW 3520-06-01
100
AcDbLine
 10
-41.99999999999556
 20
-14.50000000001245
 30
0.0
 11
-42.00000000000431
 21
14.49999999998761
 31
0.0
  0
LINE
  5
2AA4
330
2A54
100
AcDbEntity
  8
LW 3520-06-01
100
AcDbLine
 10
-19.00000000000511
 20
17.49999999999443
 30
0.0
 11
-39.00000000000512
 21
17.4999999999884
 31
0.0
  0
LINE
  5
2AA5
330
2A54
100
AcDbEntity
  8
LW 3520-06-01
100
AcDbLine
 10
-18.99999999999477
 20
-17.50000000000557
 30
0.0
 11
-38.99999999999477
 21
-17.50000000001159
 31
0.0
  0
LINE
  5
2AA6
330
2A54
100
AcDbEntity
  8
LW 3520-06-01
100
AcDbLine
 10
-41.99999999999568
 20
-14.50000000001245
 30
0.0
 11
-38.99999999999477
 21
-17.50000000001148
 31
0.0
  0
LINE
  5
2AA7
330
2A54
100
AcDbEntity
  8
LW 3520-06-01
100
AcDbLine
 10
-42.00000000000431
 20
14.49999999998761
 30
0.0
 11
-39.00000000000512
 21
17.4999999999884
 31
0.0
  0
LINE
  5
2AA8
330
2A54
100
AcDbEntity
  8
LW 3520-06-01
100
AcDbLine
 10
-70.00000000001512
 20
-0.0000000000192131
 30
0.0
 11
-60.00000000001512
 21
-0.0000000000192131
 31
0.0
  0
LINE
  5
2AA9
330
2A54
100
AcDbEntity
  8
LW 3520-06-01
  6
MITTE2
 62
     3
100
AcDbLine
 10
-65.00000000001512
 20
22.49999999998079
 30
0.0
 11
-65.00000000001512
 21
-22.50000000001922
 31
0.0
  0
LINE
  5
2AAA
330
2A54
100
AcDbEntity
  8
LW 3520-06-01
  6
MITTE2
 62
     3
100
AcDbLine
 10
-145.0000000000151
 20
22.49999999995702
 30
0.0
 11
-145.0000000000151
 21
-22.50000000004297
 31
0.0
  0
LINE
  5
2AAB
330
2A54
100
AcDbEntity
  8
LW 3520-06-01
  6
MITTE2
 62
     3
100
AcDbLine
 10
-187.3663674569925
 20
-0.000000000055536
 30
0.0
 11
23.30038640845748
 21
0.0000000000069349
 31
0.0
  0
LINE
  5
2AAC
330
2A54
100
AcDbEntity
  8
LW 3520-06-01
100
AcDbLine
 10
15.99999999999795
 20
7.000000000005059
 30
0.0
 11
15.99999999999795
 21
-6.99999999999494
 31
0.0
  0
LINE
  5
2AAD
330
2A54
100
AcDbEntity
  8
LW 3520-06-01
100
AcDbLine
 10
16.99999999999795
 20
6.000000000005059
 30
0.0
 11
16.99999999999795
 21
-5.99999999999494
 31
0.0
  0
LINE
  5
2AAE
330
2A54
100
AcDbEntity
  8
LW 3520-06-01
100
AcDbLine
 10
-0.0000000000020464
 20
-6.99999999999494
 30
0.0
 11
15.99999999999795
 21
-6.99999999999494
 31
0.0
  0
LINE
  5
2AAF
330
2A54
100
AcDbEntity
  8
LW 3520-06-01
100
AcDbLine
 10
-0.0000000000020464
 20
7.000000000005059
 30
0.0
 11
15.99999999999795
 21
7.000000000005059
 31
0.0
  0
LINE
  5
2AB0
330
2A54
100
AcDbEntity
  8
LW 3520-06-01
100
AcDbLine
 10
16.99999999999795
 20
6.000000000005059
 30
0.0
 11
15.99999999999795
 21
7.000000000005059
 31
0.0
  0
LINE
  5
2AB1
330
2A54
100
AcDbEntity
  8
LW 3520-06-01
100
AcDbLine
 10
16.99999999999795
 20
-5.99999999999494
 30
0.0
 11
15.99999999999795
 21
-6.99999999999494
 31
0.0
  0
LINE
  5
2AB2
330
2A54
100
AcDbEntity
  8
LW 3520-06-01
 62
     3
100
AcDbLine
 10
16.99999999999795
 20
-5.794499999994911
 30
0.0
 11
-0.0000000000020464
 21
-5.794499999994911
 31
0.0
  0
LINE
  5
2AB3
330
2A54
100
AcDbEntity
  8
LW 3520-06-01
 62
     3
100
AcDbLine
 10
-0.0000000000020464
 20
5.794500000005029
 30
0.0
 11
16.99999999999795
 21
5.794500000005029
 31
0.0
  0
LINE
  5
2AB4
330
2A54
100
AcDbEntity
  8
LW 3520-06-01
100
AcDbLine
 10
15.99999999999795
 20
7.000000000005059
 30
0.0
 11
15.99999999999795
 21
-6.99999999999494
 31
0.0
  0
INSERT
  5
2AB5
330
2A54
100
AcDbEntity
  8
LW 3520-06-01
100
AcDbBlockReference
 66
     1
  2
insertpoint-ECKELT
 10
0.0
 20
0.0
 30
0.0
  0
ATTRIB
  5
2AB6
330
2AB5
100
AcDbEntity
  8
insertpoint_ECKELT
100
AcDbText
 10
-1.200000000000045
 20
0.0
 30
0.0
 40
0.6
  1

 72
     2
 11
-1.200000000000045
 21
0.0
 31
0.0
100
AcDbAttribute
  2
LINKS
 70
     0
  0
ATTRIB
  5
2AB7
330
2AB5
100
AcDbEntity
  8
insertpoint_ECKELT
100
AcDbText
 10
1.200000000000045
 20
0.0
 30
0.0
 40
0.6
  1
LW 3520/06-01
100
AcDbAttribute
  2
RECHTS
 70
     0
  0
SEQEND
  5
2AB8
330
2AB5
100
AcDbEntity
  8
LW 3520-06-01
  0
HATCH
  5
2AB9
330
2A54
100
AcDbEntity
  8
LW 3520-06-01
 62
     1
100
AcDbHatch
 10
0.0
 20
0.0
 30
0.0
210
0.0
220
0.0
230
1.0
  2
SOLID
 70
     1
 71
     0
 91
        5
 92
        7
 72
     0
 73
     1
 93
       76
 10
-108.3801169540833
 20
19.76920546871565
 10
-108.3482581247104
 20
19.82078643055735
 10
-108.2301000004793
 20
19.97202882957333
 10
-108.0956219252665
 20
20.11245295983588
 10
-107.9496020188049
 20
20.24083752154922
 10
-107.785933222723
 20
20.35774380446497
 10
-107.6105462693583
 20
20.45992168628663
 10
-107.4287933367579
 20
20.55127336586952
 10
-107.2476244012922
 20
20.6207916783157
 10
-109.5047623394922
 20
20.62079167831564
 10
-109.7176588918922
 20
20.6121020231156
 10
-109.9196933752922
 20
20.58603305751564
 10
-110.1152106172923
 20
20.54475719531558
 10
-110.2998657902922
 20
20.49044685031561
 10
-110.4758313080923
 20
20.4209296087156
 10
-110.6431071706922
 20
20.33837788431549
 10
-110.7936754332391
 20
20.24305236677168
 10
-110.9363830336921
 20
20.13634340091556
 10
-111.0618242892628
 20
20.01729512467546
 10
-111.1730892413402
 20
19.88903581392355
 10
-111.2731071726922
 20
19.75182615831556
 10
-111.3556588970922
 20
19.60627443371549
 10
-111.4186588972922
 20
19.45203305391538
 10
-111.468624414692
 20
19.29127443271562
 10
-111.4968657940921
 20
19.12617098391553
 10
-111.5055554492921
 20
18.95237787991556
 10
-111.4946933802921
 20
18.77858477591547
 10
-111.4642795870921
 20
18.6113089133155
 10
-111.409969242092
 20
18.45055029211556
 10
-111.3404520004922
 20
18.29413649851551
 10
-111.251383034692
 20
18.14641236011545
 10
-111.1449347584921
 20
18.0052054631156
 10
-111.0222368270681
 20
17.87399166959551
 10
-110.8860377783599
 20
17.75285787610761
 10
-110.7386933778921
 20
17.64241235851551
 10
-110.577934756692
 20
17.54465373751566
 10
-110.4023081354448
 20
17.4597558062116
 10
-110.2216588934922
 20
17.38606753011561
 10
-110.030486479092
 20
17.32958477131558
 10
-109.8306244094921
 20
17.28613649531559
 10
-109.6220726846921
 20
17.26006752971557
 10
-109.4113485460922
 20
17.25137787451558
 10
-107.2921774603395
 20
17.2513778745157
 10
-107.452721324392
 20
17.31444867825058
 10
-107.6362854681944
 20
17.40506895177333
 10
-107.8047518743646
 20
17.50959864470491
 10
-107.9675847691253
 20
17.62521688313035
 10
-108.1114971374954
 20
17.75500647967021
 10
-108.2389330309797
 20
17.89436016289875
 10
-108.3526383857231
 20
18.04484840761131
 10
-108.4046096171718
 20
18.12903304971564
 10
-109.4330726840921
 20
18.12903304971559
 10
-109.5651815120976
 20
18.13659304973964
 10
-109.6959347538922
 20
18.15692684290758
 10
-109.824107168092
 20
18.18986063611555
 10
-109.939245099492
 20
18.23548132591566
 10
-110.0441900653425
 20
18.29196408471557
 10
-110.1423397208265
 20
18.35956960217157
 10
-110.2325209624921
 20
18.43751580931552
 10
-110.304210617892
 20
18.52223994751557
 10
-108.5766893036333
 20
18.52223994751563
 10
-108.5872737709063
 20
18.55487538827395
 10
-108.6233855788707
 20
18.74024933582507
 10
-108.6354292316524
 20
18.9305390497758
 10
-108.6234075592231
 20
19.12529014313082
 10
-108.5871018375478
 20
19.31165951439732
 10
-108.5705031348728
 20
19.36079167431558
 10
-110.3411416524922
 20
19.36079167431558
 10
-110.2716244108921
 20
19.45637788151549
 10
-110.1890726864922
 20
19.53892960591559
 10
-110.0939817896386
 20
19.60879443372352
 10
-109.9913830306922
 20
19.66710202011563
 10
-109.8726910303154
 20
19.71107167542754
 10
-109.7502450988921
 20
19.74313650311558
 10
-109.6133830294922
 20
19.76268822731555
 10
-109.4700037186921
 20
19.7692054687156
 97
        0
 92
        7
 72
     0
 73
     1
 93
       72
 10
-106.6516530890554
 20
19.75460684797963
 10
-106.5287900541826
 20
19.77268133079565
 10
-106.4047278468922
 20
19.7778951239157
 10
-105.1360381876921
 20
19.77789512391575
 10
-105.9832795696922
 20
18.96323994891583
 10
-104.217107150292
 20
17.24486063311582
 10
-102.8984519736922
 20
17.24486063311582
 10
-104.6124864618921
 20
18.98713650071579
 10
-102.9310381806922
 20
20.62079167831587
 10
-106.3699692260921
 20
20.6207916783157
 10
-106.5779561233042
 20
20.61001650586775
 10
-106.7846743308571
 20
20.58455581613163
 10
-106.9891071590922
 20
20.5447571953157
 10
-107.1824519872922
 20
20.48827443651567
 10
-107.3692795740923
 20
20.41658478111566
 10
-107.5404397125667
 20
20.33055719463567
 10
-107.7060037130922
 20
20.23410202191564
 10
-107.8580726790921
 20
20.12548133191569
 10
-107.9937703346953
 20
20.00617236601966
 10
-108.1187623350921
 20
19.87565374491561
 10
-108.2273830250923
 20
19.73661926171559
 10
-108.3186244046921
 20
19.58889512331575
 10
-108.3903140600922
 20
19.43465374351564
 10
-108.4446244050922
 20
19.27389512231565
 10
-108.4772106120921
 20
19.10661925971561
 10
-108.4880726810921
 20
18.93065374191553
 10
-108.4772106120921
 20
18.75903305171567
 10
-108.4446244050921
 20
18.5917571891157
 10
-108.392486473892
 20
18.43099856791571
 10
-108.3229692322921
 20
18.27675718811565
 10
-108.2311282664833
 20
18.12799029109175
 10
-108.1257488178729
 20
17.98852132513161
 10
-108.0077433002568
 20
17.85947994541175
 10
-107.8754519894921
 20
17.74017097951571
 10
-107.7233308855609
 20
17.6321585653796
 10
-107.5647968160921
 20
17.53379166851562
 10
-107.393176125892
 20
17.44906753031569
 10
-107.210693366692
 20
17.37737787491568
 10
-107.0164621936617
 20
17.32332821957169
 10
-106.8196588826921
 20
17.27961925391565
 10
-106.6111071578921
 20
17.25355028831569
 10
-106.4003830192921
 20
17.24486063311571
 10
-104.4973485304921
 20
17.24486063311582
 10
-105.3836933608921
 20
18.11817098071577
 10
-106.4003830192921
 20
18.11817098071571
 10
-106.4670500539866
 20
18.12191827365501
 10
-106.5679977784449
 20
18.13190063593168
 10
-106.6881322615849
 20
18.15336408427572
 10
-106.8052514343704
 20
18.18768822231561
 10
-106.9067466071064
 20
18.2286164983077
 10
-106.9628817796986
 20
18.25677098115574
 10
-107.0165664695241
 20
18.2893571881558
 10
-107.1491271596002
 20
18.38867994709164
 10
-107.2227285391441
 20
18.45871856800369
 10
-107.2777948841465
 20
18.52658477511556
 10
-107.3265004015426
 20
18.59914339603563
 10
-107.3658645395986
 20
18.67630753421162
 10
-107.3952877121057
 20
18.75772960343562
 10
-107.4159864707922
 20
18.84488684509171
 10
-107.4235030225402
 20
18.93421650054756
 10
-107.4221474363289
 20
18.99652132833165
 10
-107.4161428845857
 20
19.05865236301156
 10
-107.4039860569609
 20
19.1218261563157
 10
-107.3857725396617
 20
19.18352270823567
 10
-107.3421244015923
 20
19.28223719130756
 10
-107.3005965393913
 20
19.3501033984196
 10
-107.2375183322946
 20
19.42813650211565
 10
-107.1081163919298
 20
19.55465923916932
 10
-107.0488485385921
 20
19.5947171922997
 10
-106.9725533659361
 20
19.63903443381963
 10
-106.8885330898074
 20
19.68117926153968
 10
-106.7719961239202
 20
19.72401926167572
 97
        0
 92
        7
 72
     0
 73
     1
 93
       57
 10
-102.0936161090681
 20
19.73253512377192
 10
-101.9621416258921
 20
19.77250753769192
 10
-101.8274519702922
 20
19.79961926191595
 10
-101.6840726594922
 20
19.80830891711588
 10
-100.4436243796922
 20
19.80830891711594
 10
-100.4436243796922
 20
20.63382616111596
 10
-101.6775554180922
 20
20.63382616111585
 10
-101.8882795566921
 20
20.62513650591586
 10
-102.0946588676921
 20
20.59689512651585
 10
-102.2923485234921
 20
20.55561926431591
 10
-102.4813485240921
 20
20.50130891931587
 10
-102.6660036970921
 20
20.42961926391587
 10
-102.8324105941724
 20
20.34698064296379
 10
-102.9912314222626
 20
20.25052547024376
 10
-103.1413104572217
 20
20.14103581472381
 10
-103.2758697679936
 20
20.02181374537986
 10
-103.3959347338922
 20
19.89303305531581
 10
-103.5002105962921
 20
19.75399857211584
 10
-103.5849347344922
 20
19.60844684751578
 10
-103.6566243898922
 20
19.45420546771572
 10
-103.7065899072921
 20
19.2934468465159
 10
-103.7391761142921
 20
19.12617098391592
 10
-103.750038183292
 20
18.95237787991584
 10
-103.7391761142921
 20
18.77858477591582
 10
-103.7065899072921
 20
18.61130891331584
 10
-103.6544519760922
 20
18.45055029211573
 10
-103.582762320692
 20
18.29413649851585
 10
-103.495865768692
 20
18.14641236011584
 10
-103.3870191476569
 20
18.00685649760385
 10
-103.2671627334833
 20
17.87651166960387
 10
-103.1307351468433
 20
17.75520408301185
 10
-102.9831761118921
 20
17.64458477231579
 10
-102.8224174906921
 20
17.54682615131577
 10
-102.6486243866921
 20
17.46210201311584
 10
-102.463969213692
 20
17.38823994391595
 10
-102.2727967992921
 20
17.33175718511586
 10
-102.072934729692
 20
17.28830890911592
 10
-101.8665554186921
 20
17.26441235731579
 10
-101.653658866292
 20
17.25572270211586
 10
-100.4436243796921
 20
17.25572270211592
 10
-100.4436243796921
 20
18.11382615311589
 10
-101.6775554180922
 20
18.11382615311584
 10
-101.8112023150681
 20
18.12416684280379
 10
-101.943458867212
 20
18.14615167045991
 10
-102.0640712813881
 20
18.18047580849986
 10
-102.180078178308
 20
18.22844270520391
 10
-102.2897416269321
 20
18.28935718815592
 10
-102.3868050755161
 20
18.35696270561181
 10
-102.4742230068281
 20
18.43673374034785
 10
-102.5486933518921
 20
18.52223994751586
 10
-100.4436243796921
 20
18.52223994751591
 10
-100.4436243796921
 20
19.34992960531593
 10
-102.5856243864922
 20
19.34992960531582
 10
-102.5161071448922
 20
19.44768822631585
 10
-102.4292105928922
 20
19.53675719211577
 10
-102.3280630063641
 20
19.61305236477187
 10
-102.2206588680922
 20
19.68013650291584
 97
        0
 92
        7
 72
     0
 73
     1
 93
        6
 10
-100.2133485168921
 20
20.62079167831598
 10
-100.2133485168921
 20
17.25137787451592
 10
-97.97576230289202
 20
17.25137787451604
 10
-97.97576230289212
 20
18.11817098071606
 10
-99.19014161709208
 20
18.11817098071606
 10
-99.1901416170922
 20
20.62079167831598
 97
        0
 92
        7
 72
     0
 73
     1
 93
        8
 10
-98.95769334049226
 20
20.62079167831598
 10
-98.95769334049226
 20
19.79527443431596
 10
-97.72376230209216
 20
19.79527443431607
 10
-97.72376230209204
 20
17.24486063311605
 10
-96.69838298849208
 20
17.24486063311605
 10
-96.69838298849221
 20
19.79527443431601
 10
-95.45576229489222
 20
19.79527443431607
 10
-95.45576229489222
 20
20.6207916783161
 97
        0
 75
     0
 76
     1
 47
0.0142553043587597
 98
        5
 10
-109.0704568280169
 20
20.17834200872653
 10
-106.8029596146743
 20
20.03578902372084
 10
-102.3107478824728
 20
20.09281019626866
 10
-99.58689879864119
 20
20.3351504209611
 10
-98.17506081641443
 20
20.23536328854772
450
        0
451
        0
460
0.0
461
0.0
452
        0
462
0.0
453
        0
470

  0
LWPOLYLINE
  5
2ABA
330
2A54
100
AcDbEntity
  8
LW 3520-06-01
 62
     1
100
AcDbPolyline
 90
        8
 70
     1
 43
0.0
 10
-96.69838298849221
 20
19.79527443431601
 10
-96.69838298849208
 20
17.24486063311605
 10
-97.72376230209204
 20
17.24486063311605
 10
-97.72376230209216
 20
19.79527443431607
 10
-98.95769334049226
 20
19.79527443431596
 10
-98.95769334049226
 20
20.62079167831598
 10
-95.45576229489222
 20
20.6207916783161
 10
-95.45576229489222
 20
19.79527443431607
  0
LWPOLYLINE
  5
2ABB
330
2A54
100
AcDbEntity
  8
LW 3520-06-01
 62
     1
100
AcDbPolyline
 90
       73
 70
     1
 43
0.0
 10
-106.4003830192921
 20
18.11817098071571
 10
-105.3836933608921
 20
18.11817098071577
 10
-104.4973485304921
 20
17.24486063311582
 10
-106.4003830192921
 20
17.24486063311565
 10
-106.6111071578921
 20
17.25355028831569
 10
-106.8196588826921
 20
17.27961925391571
 10
-107.0164621936617
 20
17.32332821957169
 10
-107.210693366692
 20
17.37737787491568
 10
-107.393176125892
 20
17.44906753031569
 10
-107.5647968160921
 20
17.53379166851567
 10
-107.7233308855608
 20
17.63215856537971
 10
-107.8754519894921
 20
17.74017097951571
 10
-108.0077433002569
 20
17.85947994541163
 10
-108.1257488178729
 20
17.98852132513161
 10
-108.2311282664833
 20
18.12799029109169
 10
-108.3229692322921
 20
18.27675718811565
 10
-108.392486473892
 20
18.43099856791571
 10
-108.4446244050921
 20
18.5917571891157
 10
-108.4772106120921
 20
18.75903305171567
 10
-108.4880726810921
 20
18.93065374191565
 10
-108.4772106120921
 20
19.10661925971561
 10
-108.4446244050922
 20
19.27389512231565
 10
-108.3903140600921
 20
19.43465374351564
 10
-108.3186244046921
 20
19.58889512331569
 10
-108.2273830250922
 20
19.73661926171564
 10
-108.1187623350921
 20
19.87565374491561
 10
-107.9937703346953
 20
20.00617236601971
 10
-107.8580726790923
 20
20.12548133191564
 10
-107.7060037130922
 20
20.23410202191564
 10
-107.5404397125666
 20
20.33055719463562
 10
-107.3692795740923
 20
20.4165847811156
 10
-107.1824519872922
 20
20.48827443651567
 10
-106.9891071590922
 20
20.54475719531575
 10
-106.784674330857
 20
20.58455581613168
 10
-106.5779561233042
 20
20.61001650586775
 10
-106.3699692260922
 20
20.6207916783157
 10
-102.9310381806922
 20
20.62079167831587
 10
-104.6124864618921
 20
18.98713650071579
 10
-102.8984519736922
 20
17.24486063311582
 10
-104.217107150292
 20
17.24486063311582
 10
-105.9832795696922
 20
18.96323994891583
 10
-105.1360381876921
 20
19.77789512391575
 10
-106.4047278468922
 20
19.7778951239157
 10
-106.5287900541826
 20
19.77268133079565
 10
-106.6516530890554
 20
19.75460684797963
 10
-106.7719961239202
 20
19.72401926167572
 10
-106.8885330898074
 20
19.68117926153962
 10
-106.9725533659362
 20
19.63903443381969
 10
-107.0488485385922
 20
19.5947171922997
 10
-107.0890903318234
 20
19.56751857152369
 10
-107.1266035733217
 20
19.5365833990117
 10
-107.2375183322946
 20
19.42813650211565
 10
-107.3005965393913
 20
19.3501033984196
 10
-107.3421244015921
 20
19.28223719130767
 10
-107.3857725396617
 20
19.18352270823567
 10
-107.4039860569609
 20
19.1218261563157
 10
-107.4161428845857
 20
19.05865236301167
 10
-107.4221474363289
 20
18.99652132833171
 10
-107.4235030225401
 20
18.93421650054768
 10
-107.4159864707922
 20
18.84488684509171
 10
-107.3952877121056
 20
18.75772960343567
 10
-107.3658645395985
 20
18.67630753421167
 10
-107.3265004015426
 20
18.59914339603563
 10
-107.2777948841466
 20
18.52658477511568
 10
-107.2227285391441
 20
18.45871856800369
 10
-107.1491271596002
 20
18.38867994709164
 10
-107.016566469524
 20
18.28935718815575
 10
-106.9628817796985
 20
18.25677098115568
 10
-106.9067466071064
 20
18.2286164983077
 10
-106.8052514343704
 20
18.18768822231561
 10
-106.6881322615849
 20
18.15336408427572
 10
-106.5679977784449
 20
18.13190063593168
 10
-106.4670500539865
 20
18.12191827365507
  0
LWPOLYLINE
  5
2ABC
330
2A54
100
AcDbEntity
  8
LW 3520-06-01
 62
     1
100
AcDbPolyline
 90
       76
 70
     1
 43
0.0
 10
-107.6105462693583
 20
20.45992168628663
 10
-107.7859332227231
 20
20.35774380446492
 10
-107.9496020188051
 20
20.24083752154928
 10
-108.0956219252665
 20
20.11245295983588
 10
-108.2301000004793
 20
19.97202882957333
 10
-108.3482581247104
 20
19.82078643055746
 10
-108.3801169540833
 20
19.76920546871565
 10
-109.4700037186921
 20
19.76920546871565
 10
-109.6133830294922
 20
19.76268822731555
 10
-109.7502450988922
 20
19.74313650311558
 10
-109.8726910303154
 20
19.71107167542754
 10
-109.9913830306922
 20
19.66710202011563
 10
-110.0939817896385
 20
19.60879443372357
 10
-110.1890726864922
 20
19.53892960591554
 10
-110.2716244108923
 20
19.45637788151555
 10
-110.3411416524922
 20
19.36079167431558
 10
-108.5705031348728
 20
19.36079167431558
 10
-108.5871018375478
 20
19.31165951439732
 10
-108.6234075592232
 20
19.12529014313071
 10
-108.6354292316524
 20
18.9305390497758
 10
-108.6233855788707
 20
18.74024933582507
 10
-108.5872737709062
 20
18.55487538827401
 10
-108.5766893036333
 20
18.52223994751563
 10
-110.304210617892
 20
18.52223994751557
 10
-110.2325209624921
 20
18.43751580931552
 10
-110.1423397208265
 20
18.35956960217157
 10
-110.0441900653425
 20
18.29196408471557
 10
-109.939245099492
 20
18.23548132591566
 10
-109.824107168092
 20
18.18986063611561
 10
-109.6959347538922
 20
18.15692684290758
 10
-109.5651815120976
 20
18.13659304973964
 10
-109.4330726840921
 20
18.12903304971559
 10
-108.4046096171718
 20
18.12903304971564
 10
-108.3526383857231
 20
18.04484840761137
 10
-108.2389330309797
 20
17.89436016289875
 10
-108.1114971374954
 20
17.75500647967021
 10
-107.9675847691252
 20
17.62521688313046
 10
-107.8047518743646
 20
17.50959864470491
 10
-107.6362854681944
 20
17.40506895177333
 10
-107.452721324392
 20
17.31444867825058
 10
-107.2921774603395
 20
17.2513778745157
 10
-109.4113485460921
 20
17.25137787451552
 10
-109.6220726846921
 20
17.26006752971557
 10
-109.8306244094921
 20
17.28613649531559
 10
-110.0304864790921
 20
17.32958477131558
 10
-110.221658893492
 20
17.3860675301155
 10
-110.402308135445
 20
17.45975580621155
 10
-110.577934756692
 20
17.54465373751566
 10
-110.7386933778921
 20
17.64241235851551
 10
-110.8860377783597
 20
17.75285787610755
 10
-111.0222368270681
 20
17.87399166959551
 10
-111.1449347584921
 20
18.00520546311554
 10
-111.2513830346921
 20
18.1464123601155
 10
-111.340452000492
 20
18.29413649851557
 10
-111.409969242092
 20
18.45055029211556
 10
-111.4642795870921
 20
18.6113089133155
 10
-111.4946933802921
 20
18.77858477591559
 10
-111.5055554492921
 20
18.9523778799155
 10
-111.4968657940923
 20
19.12617098391547
 10
-111.4686244146921
 20
19.29127443271557
 10
-111.4186588972922
 20
19.4520330539155
 10
-111.3556588970922
 20
19.60627443371549
 10
-111.2731071726922
 20
19.75182615831556
 10
-111.1730892413401
 20
19.88903581392355
 10
-111.0618242892628
 20
20.01729512467552
 10
-110.9363830336922
 20
20.13634340091551
 10
-110.7936754332391
 20
20.24305236677157
 10
-110.6431071706921
 20
20.33837788431561
 10
-110.4758313080922
 20
20.42092960871554
 10
-110.2998657902922
 20
20.49044685031561
 10
-110.1152106172921
 20
20.54475719531553
 10
-109.9196933752922
 20
20.58603305751564
 10
-109.7176588918922
 20
20.6121020231156
 10
-109.5047623394922
 20
20.62079167831559
 10
-107.2476244012921
 20
20.62079167831575
 10
-107.4287933367579
 20
20.55127336586952
  0
LWPOLYLINE
  5
2ABD
330
2A54
100
AcDbEntity
  8
LW 3520-06-01
 62
     1
100
AcDbPolyline
 90
        6
 70
     1
 43
0.0
 10
-97.97576230289202
 20
17.25137787451604
 10
-100.2133485168921
 20
17.25137787451592
 10
-100.2133485168921
 20
20.62079167831598
 10
-99.1901416170922
 20
20.62079167831598
 10
-99.19014161709208
 20
18.11817098071606
 10
-97.97576230289212
 20
18.11817098071606
  0
LWPOLYLINE
  5
2ABE
330
2A54
100
AcDbEntity
  8
LW 3520-06-01
 62
     1
100
AcDbPolyline
 90
       57
 70
     1
 43
0.0
 10
-103.2671627334833
 20
17.87651166960387
 10
-103.3870191476569
 20
18.00685649760379
 10
-103.4958657686921
 20
18.14641236011579
 10
-103.582762320692
 20
18.29413649851585
 10
-103.6544519760922
 20
18.45055029211573
 10
-103.7065899072921
 20
18.61130891331584
 10
-103.7391761142921
 20
18.77858477591582
 10
-103.750038183292
 20
18.95237787991584
 10
-103.7391761142921
 20
19.12617098391587
 10
-103.7065899072921
 20
19.29344684651579
 10
-103.6566243898922
 20
19.45420546771572
 10
-103.5849347344922
 20
19.60844684751583
 10
-103.5002105962923
 20
19.75399857211573
 10
-103.3959347338922
 20
19.89303305531587
 10
-103.2758697679938
 20
20.0218137453798
 10
-103.1413104572217
 20
20.14103581472381
 10
-102.9912314222625
 20
20.25052547024381
 10
-102.832410594172
 20
20.3469806429639
 10
-102.6660036970921
 20
20.42961926391587
 10
-102.4813485240922
 20
20.50130891931582
 10
-102.2923485234921
 20
20.55561926431591
 10
-102.0946588676921
 20
20.59689512651585
 10
-101.8882795566921
 20
20.62513650591586
 10
-101.6775554180922
 20
20.63382616111585
 10
-100.4436243796922
 20
20.63382616111596
 10
-100.4436243796922
 20
19.80830891711594
 10
-101.6840726594921
 20
19.80830891711588
 10
-101.8274519702921
 20
19.79961926191589
 10
-101.9621416258921
 20
19.77250753769192
 10
-102.0936161090682
 20
19.73253512377187
 10
-102.2206588680922
 20
19.68013650291584
 10
-102.3280630063641
 20
19.61305236477187
 10
-102.4292105928922
 20
19.53675719211588
 10
-102.5161071448922
 20
19.44768822631585
 10
-102.5856243864922
 20
19.34992960531582
 10
-100.4436243796921
 20
19.34992960531593
 10
-100.4436243796921
 20
18.52223994751591
 10
-102.5486933518921
 20
18.52223994751586
 10
-102.4742230068281
 20
18.43673374034785
 10
-102.3868050755161
 20
18.35696270561181
 10
-102.2897416269321
 20
18.28935718815592
 10
-102.180078178308
 20
18.22844270520391
 10
-102.0640712813881
 20
18.18047580849986
 10
-101.943458867212
 20
18.14615167045991
 10
-101.8112023150681
 20
18.12416684280379
 10
-101.6775554180922
 20
18.11382615311584
 10
-100.4436243796921
 20
18.11382615311589
 10
-100.4436243796921
 20
17.25572270211592
 10
-101.653658866292
 20
17.25572270211586
 10
-101.8665554186921
 20
17.26441235731579
 10
-102.072934729692
 20
17.28830890911587
 10
-102.2727967992921
 20
17.33175718511586
 10
-102.463969213692
 20
17.38823994391595
 10
-102.6486243866921
 20
17.46210201311584
 10
-102.8224174906921
 20
17.54682615131588
 10
-102.9831761118921
 20
17.64458477231579
 10
-103.1307351468433
 20
17.75520408301185
  0
ENDBLK
  5
2A56
330
2A54
100
AcDbEntity
  8
0
100
AcDbBlockEnd
  0
ENDSEC
  0
SECTION
  2
ENTITIES
  0
INSERT
  5
28CD
330
23
100
AcDbEntity
  8
0
100
AcDbBlockReference
  2
LW 3520-06-01_a
 10
270.1401696236951
 20
335.1866254961618
 30
0.0
  0
INSERT
  5
29E7
330
23
100
AcDbEntity
  8
0
100
AcDbBlockReference
  2
LW 3520-06-01_b
 10
270.1401696238897
 20
465.3278722640318
 30
0.0
  0
INSERT
  5
2A53
330
23
100
AcDbEntity
  8
0
100
AcDbBlockReference
  2
LW 3520-06-01_c
 10
515.667533200067
 20
465.3278722639973
 30
0.0
  0
INSERT
  5
2ABF
330
23
100
AcDbEntity
  8
0
100
AcDbBlockReference
  2
LW 3520-06-01_d
 10
24.6128060477098
 20
465.3278722639973
 30
0.0
  0
ENDSEC
  0
SECTION
  2
OBJECTS
  0
DICTIONARY
  5
C
330
0
100
AcDbDictionary
281
     1
  3
ACAD_COLOR
350
1C
  3
ACAD_GROUP
350
D
  3
ACAD_LAYOUT
350
1A
  3
ACAD_MATERIAL
350
1B
  3
ACAD_MLINESTYLE
350
17
  3
ACAD_PLOTSETTINGS
350
19
  3
ACAD_PLOTSTYLENAME
350
E
  3
ACAD_TABLESTYLE
350
1D
  3
AcDbVariableDictionary
350
61C
  0
DICTIONARY
  5
9C6
330
2
100
AcDbDictionary
280
     1
281
     1
  3
ACAD_LAYERFILTERS
360
265D
  3
ACLYDICTIONARY
360
265C
  0
DICTIONARY
  5
9A6
330
23
100
AcDbDictionary
280
     1
281
     1
  3
ACAD_SORTENTS
360
9A7
  0
DICTIONARY
  5
627
330
626
100
AcDbDictionary
280
     1
281
     1
  3
ACAD_SORTENTS
360
628
  0
DICTIONARY
  5
1C
102
{ACAD_REACTORS
330
C
102
}
330
C
100
AcDbDictionary
281
     1
  0
DICTIONARY
  5
D
102
{ACAD_REACTORS
330
C
102
}
330
C
100
AcDbDictionary
281
     1
  0
DICTIONARY
  5
1A
102
{ACAD_REACTORS
330
C
102
}
330
C
100
AcDbDictionary
281
     1
  3
Layout1
350
22
  3
Layout2
350
2A
  3
Model
350
26
  0
DICTIONARY
  5
1B
102
{ACAD_REACTORS
330
C
102
}
330
C
100
AcDbDictionary
281
     1
  0
DICTIONARY
  5
17
102
{ACAD_REACTORS
330
C
102
}
330
C
100
AcDbDictionary
281
     1
  3
Standard
350
18
  0
DICTIONARY
  5
19
102
{ACAD_REACTORS
330
C
102
}
330
C
100
AcDbDictionary
281
     1
  0
ACDBDICTIONARYWDFLT
  5
E
102
{ACAD_REACTORS
330
C
102
}
330
C
100
AcDbDictionary
281
     1
  3
Normal
350
F
100
AcDbDictionaryWithDefault
340
F
  0
DICTIONARY
  5
1D
102
{ACAD_REACTORS
330
C
102
}
330
C
100
AcDbDictionary
281
     1
  3
Standard
350
1E
  0
DICTIONARY
  5
61C
102
{ACAD_REACTORS
330
C
102
}
330
C
100
AcDbDictionary
281
     1
  3
CTABLESTYLE
350
61D
  0
DICTIONARY
  5
265D
102
{ACAD_REACTORS
330
9C6
102
}
330
9C6
100
AcDbDictionary
281
     1
  0
DICTIONARY
  5
265C
102
{ACAD_REACTORS
330
9C6
102
}
330
9C6
100
AcDbDictionary
281
     1
1001
ACAD
1000
<All
  0
SORTENTSTABLE
  5
9A7
102
{ACAD_REACTORS
330
9A6
102
}
330
9A6
100
AcDbSortentsTable
330
23
  0
SORTENTSTABLE
  5
628
102
{ACAD_REACTORS
330
627
102
}
330
627
100
AcDbSortentsTable
330
626
  0
LAYOUT
  5
22
102
{ACAD_REACTORS
330
1A
102
}
330
1A
100
AcDbPlotSettings
  1

  2

  4

  6

 40
0.0
 41
0.0
 42
0.0
 43
0.0
 44
0.0
 45
0.0
 46
0.0
 47
0.0
 48
0.0
 49
0.0
140
0.0
141
0.0
142
1.0
143
1.0
 70
   688
 72
     0
 73
     0
 74
     5
  7

 75
    16
147
1.0
 76
     0
 77
     2
 78
   300
148
0.0
149
0.0
100
AcDbLayout
  1
Layout1
 70
     1
 71
     1
 10
0.0
 20
0.0
 11
840.0
 21
594.0
 12
0.0
 22
0.0
 32
0.0
 14
0.0
 24
0.0
 34
0.0
 15
840.0
 25
594.0
 35
0.0
146
0.0
 13
0.0
 23
0.0
 33
0.0
 16
1.0
 26
0.0
 36
0.0
 17
0.0
 27
1.0
 37
0.0
 76
     0
330
1F
  0
LAYOUT
  5
2A
102
{ACAD_REACTORS
330
1A
102
}
330
1A
100
AcDbPlotSettings
  1

  2

  4

  6

 40
0.0
 41
0.0
 42
0.0
 43
0.0
 44
0.0
 45
0.0
 46
0.0
 47
0.0
 48
0.0
 49
0.0
140
0.0
141
0.0
142
1.0
143
1.0
 70
   688
 72
     0
 73
     0
 74
     5
  7

 75
    16
147
1.0
 76
     0
 77
     2
 78
   300
148
0.0
149
0.0
100
AcDbLayout
  1
Layout2
 70
     1
 71
     2
 10
0.0
 20
0.0
 11
12.0
 21
9.0
 12
0.0
 22
0.0
 32
0.0
 14
0.0
 24
0.0
 34
0.0
 15
0.0
 25
0.0
 35
0.0
146
0.0
 13
0.0
 23
0.0
 33
0.0
 16
1.0
 26
0.0
 36
0.0
 17
0.0
 27
1.0
 37
0.0
 76
     0
330
27
  0
LAYOUT
  5
26
102
{ACAD_REACTORS
330
1A
102
}
330
1A
100
AcDbPlotSettings
  1

  2

  4

  6

 40
0.0
 41
0.0
 42
0.0
 43
0.0
 44
0.0
 45
0.0
 46
0.0
 47
0.0
 48
0.0
 49
0.0
140
0.0
141
0.0
142
1.0
143
1.0
 70
  1712
 72
     0
 73
     0
 74
     0
  7

 75
     0
147
1.0
 76
     0
 77
     2
 78
   300
148
0.0
149
0.0
100
AcDbLayout
  1
Model
 70
     1
 71
     0
 10
0.0
 20
0.0
 11
12.0
 21
9.0
 12
0.0
 22
0.0
 32
0.0
 14
0.0
 24
0.0
 34
0.0
 15
0.0
 25
0.0
 35
0.0
146
0.0
 13
0.0
 23
0.0
 33
0.0
 16
1.0
 26
0.0
 36
0.0
 17
0.0
 27
1.0
 37
0.0
 76
     0
330
23
  0
MLINESTYLE
  5
18
102
{ACAD_REACTORS
330
17
102
}
330
17
100
AcDbMlineStyle
  2
STANDARD
 70
     0
  3

 62
   256
 51
90.0
 52
90.0
 71
     2
 49
0.5
 62
   256
  6
BYLAYER
 49
-0.5
 62
   256
  6
BYLAYER
  0
ACDBPLACEHOLDER
  5
F
102
{ACAD_REACTORS
330
E
102
}
330
E
  0
TABLESTYLE
  5
1E
102
{ACAD_REACTORS
330
1D
102
}
330
1D
100
AcDbTableStyle
  3
Standard
 70
     0
 71
     0
 40
0.06
 41
0.06
280
     0
281
     0
  7
Standard
140
0.18
170
     2
 62
     0
 63
     7
283
     0
274
    -2
284
     1
 64
     0
275
    -2
285
     1
 65
     0
276
    -2
286
     1
 66
     0
277
    -2
287
     1
 67
     0
278
    -2
288
     1
 68
     0
279
    -2
289
     1
 69
     0
  7
Standard
140
0.25
170
     5
 62
     0
 63
     7
283
     0
274
    -2
284
     1
 64
     0
275
    -2
285
     1
 65
     0
276
    -2
286
     1
 66
     0
277
    -2
287
     1
 67
     0
278
    -2
288
     1
 68
     0
279
    -2
289
     1
 69
     0
  7
Standard
140
0.18
170
     5
 62
     0
 63
     7
283
     0
274
    -2
284
     1
 64
     0
275
    -2
285
     1
 65
     0
276
    -2
286
     1
 66
     0
277
    -2
287
     1
 67
     0
278
    -2
288
     1
 68
     0
279
    -2
289
     1
 69
     0
  0
DICTIONARYVAR
  5
61D
102
{ACAD_REACTORS
330
61C
102
}
330
61C
100
DictionaryVariables
280
     0
  1
STANDARD
  0
ENDSEC
  0
EOF
