  0
SECTION
  2
HEADER
  9
$ACADVER
  1
AC1018
  9
$ACADMAINTVER
 70
    76
  9
$DWGCODEPAGE
  3
ANSI_1252
  9
$AUTHOR
  1
Grandl
  9
$CUSTOMPROPERTYTAG
  1
Manager
  9
$CUSTOMPROPERTY
  1

  9
$CUSTOMPROPERTYTAG
  1
Firma
  9
$CUSTOMPROPERTY
  1

  9
$CUSTOMPROPERTYTAG
  1
Kategorie
  9
$CUSTOMPROPERTY
  1

  9
$CUSTOMPROPERTYTAG
  1
Bauteilnummer
  9
$CUSTOMPROPERTY
  1
3500-19-01
  9
$CUSTOMPROPERTYTAG
  1
Bezeichnung
  9
$CUSTOMPROPERTY
  1

  9
$CUSTOMPROPERTYTAG
  1
Projekt
  9
$CUSTOMPROPERTY
  1

  9
$CUSTOMPROPERTYTAG
  1
Konstrukteur
  9
$CUSTOMPROPERTY
  1
Grandl
  9
$CUSTOMPROPERTYTAG
  1
Ingenieur
  9
$CUSTOMPROPERTY
  1

  9
$CUSTOMPROPERTYTAG
  1
Bevollmächtigter
  9
$CUSTOMPROPERTY
  1

  9
$CUSTOMPROPERTYTAG
  1
Kostenstelle
  9
$CUSTOMPROPERTY
  1

  9
$CUSTOMPROPERTYTAG
  1
Händler
  9
$CUSTOMPROPERTY
  1

  9
$CUSTOMPROPERTYTAG
  1
Benutzerstatus
  9
$CUSTOMPROPERTY
  1

  9
$CUSTOMPROPERTYTAG
  1
Konstruktionsstatus
  9
$CUSTOMPROPERTY
  1
InBearbeitung
  9
$CUSTOMPROPERTYTAG
  1
Überprüft von
  9
$CUSTOMPROPERTY
  1

  9
$CUSTOMPROPERTYTAG
  1
Konstruktion genehmigt von
  9
$CUSTOMPROPERTY
  1

  9
$CUSTOMPROPERTYTAG
  1
Fertigung genehmigt von
  9
$CUSTOMPROPERTY
  1

  9
$INSBASE
 10
0.0
 20
0.0
 30
0.0
  9
$EXTMIN
 10
-162.7535614092827
 20
134.9540042318398
 30
0.0
  9
$EXTMAX
 10
703.0339006570596
 20
510.0253038409424
 30
0.0
  9
$LIMMIN
 10
0.0
 20
0.0
  9
$LIMMAX
 10
840.0
 20
594.0
  9
$ORTHOMODE
 70
     0
  9
$REGENMODE
 70
     1
  9
$FILLMODE
 70
     1
  9
$QTEXTMODE
 70
     0
  9
$MIRRTEXT
 70
     0
  9
$LTSCALE
 40
2.0
  9
$ATTMODE
 70
     1
  9
$TEXTSIZE
 40
0.2
  9
$TRACEWID
 40
0.05
  9
$TEXTSTYLE
  7
Standard
  9
$CLAYER
  8
0
  9
$CELTYPE
  6
ByLayer
  9
$CECOLOR
 62
   256
  9
$CELTSCALE
 40
1.0
  9
$DISPSILH
 70
     0
  9
$DIMSCALE
 40
1.0
  9
$DIMASZ
 40
1.799999999999999
  9
$DIMEXO
 40
0.0625
  9
$DIMDLI
 40
0.38
  9
$DIMRND
 40
0.0
  9
$DIMDLE
 40
0.0
  9
$DIMEXE
 40
0.18
  9
$DIMTP
 40
0.0
  9
$DIMTM
 40
0.0
  9
$DIMTXT
 40
0.3000000119209289
  9
$DIMCEN
 40
0.09
  9
$DIMTSZ
 40
0.0
  9
$DIMTOL
 70
     0
  9
$DIMLIM
 70
     0
  9
$DIMTIH
 70
     1
  9
$DIMTOH
 70
     1
  9
$DIMSE1
 70
     0
  9
$DIMSE2
 70
     0
  9
$DIMTAD
 70
     0
  9
$DIMZIN
 70
     0
  9
$DIMBLK
  1

  9
$DIMASO
 70
     1
  9
$DIMSHO
 70
     1
  9
$DIMPOST
  1

  9
$DIMAPOST
  1

  9
$DIMALT
 70
     0
  9
$DIMALTD
 70
     2
  9
$DIMALTF
 40
25.4
  9
$DIMLFAC
 40
1.0
  9
$DIMTOFL
 70
     0
  9
$DIMTVP
 40
0.0
  9
$DIMTIX
 70
     0
  9
$DIMSOXD
 70
     0
  9
$DIMSAH
 70
     0
  9
$DIMBLK1
  1

  9
$DIMBLK2
  1

  9
$DIMSTYLE
  2
Standard
  9
$DIMCLRD
 70
     0
  9
$DIMCLRE
 70
     0
  9
$DIMCLRT
 70
     0
  9
$DIMTFAC
 40
1.0
  9
$DIMGAP
 40
0.09
  9
$DIMJUST
 70
     0
  9
$DIMSD1
 70
     0
  9
$DIMSD2
 70
     0
  9
$DIMTOLJ
 70
     1
  9
$DIMTZIN
 70
     0
  9
$DIMALTZ
 70
     0
  9
$DIMALTTZ
 70
     0
  9
$DIMUPT
 70
     0
  9
$DIMDEC
 70
     4
  9
$DIMTDEC
 70
     4
  9
$DIMALTU
 70
     2
  9
$DIMALTTD
 70
     2
  9
$DIMTXSTY
  7
Standard
  9
$DIMAUNIT
 70
     0
  9
$DIMADEC
 70
     0
  9
$DIMALTRND
 40
0.0
  9
$DIMAZIN
 70
     0
  9
$DIMDSEP
 70
    46
  9
$DIMATFIT
 70
     3
  9
$DIMFRAC
 70
     0
  9
$DIMLDRBLK
  1

  9
$DIMLUNIT
 70
     2
  9
$DIMLWD
 70
    -2
  9
$DIMLWE
 70
    -2
  9
$DIMTMOVE
 70
     0
  9
$LUNITS
 70
     2
  9
$LUPREC
 70
     4
  9
$SKETCHINC
 40
0.1
  9
$FILLETRAD
 40
0.0
  9
$AUNITS
 70
     0
  9
$AUPREC
 70
     0
  9
$MENU
  1
.
  9
$ELEVATION
 40
0.0
  9
$PELEVATION
 40
0.0
  9
$THICKNESS
 40
0.0
  9
$LIMCHECK
 70
     0
  9
$CHAMFERA
 40
0.0
  9
$CHAMFERB
 40
0.0
  9
$CHAMFERC
 40
0.0
  9
$CHAMFERD
 40
0.0
  9
$SKPOLY
 70
     0
  9
$TDCREATE
 40
2453706.351795776
  9
$TDUCREATE
 40
2453706.310129109
  9
$TDUPDATE
 40
2453710.479498507
  9
$TDUUPDATE
 40
2453710.437831841
  9
$TDINDWG
 40
0.1425142361
  9
$TDUSRTIMER
 40
0.1425142361
  9
$USRTIMER
 70
     1
  9
$ANGBASE
 50
0.0
  9
$ANGDIR
 70
     0
  9
$PDMODE
 70
     0
  9
$PDSIZE
 40
0.0
  9
$PLINEWID
 40
0.0
  9
$SPLFRAME
 70
     0
  9
$SPLINETYPE
 70
     6
  9
$SPLINESEGS
 70
     8
  9
$HANDSEED
  5
191D
  9
$SURFTAB1
 70
     6
  9
$SURFTAB2
 70
     6
  9
$SURFTYPE
 70
     6
  9
$SURFU
 70
     6
  9
$SURFV
 70
     6
  9
$UCSBASE
  2

  9
$UCSNAME
  2

  9
$UCSORG
 10
0.0
 20
0.0
 30
0.0
  9
$UCSXDIR
 10
1.0
 20
0.0
 30
0.0
  9
$UCSYDIR
 10
0.0
 20
1.0
 30
0.0
  9
$UCSORTHOREF
  2

  9
$UCSORTHOVIEW
 70
     0
  9
$UCSORGTOP
 10
0.0
 20
0.0
 30
0.0
  9
$UCSORGBOTTOM
 10
0.0
 20
0.0
 30
0.0
  9
$UCSORGLEFT
 10
0.0
 20
0.0
 30
0.0
  9
$UCSORGRIGHT
 10
0.0
 20
0.0
 30
0.0
  9
$UCSORGFRONT
 10
0.0
 20
0.0
 30
0.0
  9
$UCSORGBACK
 10
0.0
 20
0.0
 30
0.0
  9
$PUCSBASE
  2

  9
$PUCSNAME
  2

  9
$PUCSORG
 10
0.0
 20
0.0
 30
0.0
  9
$PUCSXDIR
 10
1.0
 20
0.0
 30
0.0
  9
$PUCSYDIR
 10
0.0
 20
1.0
 30
0.0
  9
$PUCSORTHOREF
  2

  9
$PUCSORTHOVIEW
 70
     0
  9
$PUCSORGTOP
 10
0.0
 20
0.0
 30
0.0
  9
$PUCSORGBOTTOM
 10
0.0
 20
0.0
 30
0.0
  9
$PUCSORGLEFT
 10
0.0
 20
0.0
 30
0.0
  9
$PUCSORGRIGHT
 10
0.0
 20
0.0
 30
0.0
  9
$PUCSORGFRONT
 10
0.0
 20
0.0
 30
0.0
  9
$PUCSORGBACK
 10
0.0
 20
0.0
 30
0.0
  9
$USERI1
 70
     0
  9
$USERI2
 70
     0
  9
$USERI3
 70
     0
  9
$USERI4
 70
     0
  9
$USERI5
 70
     0
  9
$USERR1
 40
0.0
  9
$USERR2
 40
0.0
  9
$USERR3
 40
0.0
  9
$USERR4
 40
0.0
  9
$USERR5
 40
0.0
  9
$WORLDVIEW
 70
     1
  9
$SHADEDGE
 70
     3
  9
$SHADEDIF
 70
    70
  9
$TILEMODE
 70
     1
  9
$MAXACTVP
 70
    64
  9
$PINSBASE
 10
0.0
 20
0.0
 30
0.0
  9
$PLIMCHECK
 70
     0
  9
$PEXTMIN
 10
0.0
 20
0.0
 30
0.0
  9
$PEXTMAX
 10
840.0
 20
594.0
 30
0.0
  9
$PLIMMIN
 10
0.0
 20
0.0
  9
$PLIMMAX
 10
840.0
 20
594.0
  9
$UNITMODE
 70
     0
  9
$VISRETAIN
 70
     1
  9
$PLINEGEN
 70
     0
  9
$PSLTSCALE
 70
     1
  9
$TREEDEPTH
 70
  3020
  9
$CMLSTYLE
  2
Standard
  9
$CMLJUST
 70
     0
  9
$CMLSCALE
 40
1.0
  9
$PROXYGRAPHICS
 70
     1
  9
$MEASUREMENT
 70
     1
  9
$CELWEIGHT
370
    -1
  9
$ENDCAPS
280
     0
  9
$JOINSTYLE
280
     0
  9
$LWDISPLAY
290
     0
  9
$INSUNITS
 70
     0
  9
$HYPERLINKBASE
  1

  9
$STYLESHEET
  1

  9
$XEDIT
290
     1
  9
$CEPSNTYPE
380
     0
  9
$PSTYLEMODE
290
     1
  9
$FINGERPRINTGUID
  2
{CD339A04-B85F-4A73-AC85-5D4F30B09856}
  9
$VERSIONGUID
  2
{2CF380AB-7D92-40A8-A9F2-B38CB36C0E64}
  9
$EXTNAMES
290
     1
  9
$PSVPSCALE
 40
0.0
  9
$OLESTARTUP
290
     0
  9
$SORTENTS
280
   127
  9
$INDEXCTL
280
     0
  9
$HIDETEXT
280
     1
  9
$XCLIPFRAME
290
     0
  9
$HALOGAP
280
     0
  9
$OBSCOLOR
 70
   257
  9
$OBSLTYPE
280
     0
  9
$INTERSECTIONDISPLAY
280
     0
  9
$INTERSECTIONCOLOR
 70
   257
  9
$DIMASSOC
280
     1
  9
$PROJECTNAME
  1

  0
ENDSEC
  0
SECTION
  2
CLASSES
  0
CLASS
  1
ACDBDICTIONARYWDFLT
  2
AcDbDictionaryWithDefault
  3
ObjectDBX Classes
 90
        0
 91
        1
280
     0
281
     0
  0
CLASS
  1
TABLESTYLE
  2
AcDbTableStyle
  3
ObjectDBX Classes
 90
     2047
 91
        1
280
     0
281
     0
  0
CLASS
  1
DICTIONARYVAR
  2
AcDbDictionaryVar
  3
ObjectDBX Classes
 90
        0
 91
        4
280
     0
281
     0
  0
CLASS
  1
SORTENTSTABLE
  2
AcDbSortentsTable
  3
ObjectDBX Classes
 90
        0
 91
        2
280
     0
281
     0
  0
ENDSEC
  0
SECTION
  2
TABLES
  0
TABLE
  2
VPORT
  5
8
330
0
100
AcDbSymbolTable
 70
     3
  0
VPORT
  5
191C
330
8
100
AcDbSymbolTableRecord
100
AcDbViewportTableRecord
  2
*Active
 70
     0
 10
0.0
 20
0.0
 11
1.0
 21
1.0
 12
270.1521188387785
 22
322.4917158902294
 13
0.0
 23
0.0
 14
1.0
 24
1.0
 15
0.0
 25
0.0
 16
0.0
 26
0.0
 36
1.0
 17
0.0
 27
0.0
 37
0.0
 40
490.9979087351604
 41
1.773333333333333
 42
50.0
 43
0.0
 44
0.0
 50
0.0
 51
0.0
 71
     0
 72
   100
 73
     1
 74
     1
 75
     0
 76
     0
 77
     0
 78
     0
281
     0
 65
     1
110
0.0
120
0.0
130
0.0
111
1.0
121
0.0
131
0.0
112
0.0
122
1.0
132
0.0
 79
     0
146
0.0
  0
ENDTAB
  0
TABLE
  2
LTYPE
  5
5
330
0
100
AcDbSymbolTable
 70
     2
  0
LTYPE
  5
14
330
5
100
AcDbSymbolTableRecord
100
AcDbLinetypeTableRecord
  2
ByBlock
 70
     0
  3

 72
    65
 73
     0
 40
0.0
  0
LTYPE
  5
15
330
5
100
AcDbSymbolTableRecord
100
AcDbLinetypeTableRecord
  2
ByLayer
 70
     0
  3

 72
    65
 73
     0
 40
0.0
  0
LTYPE
  5
16
330
5
100
AcDbSymbolTableRecord
100
AcDbLinetypeTableRecord
  2
Continuous
 70
     0
  3
Solid line
 72
    65
 73
     0
 40
0.0
  0
LTYPE
  5
7E7
330
5
100
AcDbSymbolTableRecord
100
AcDbLinetypeTableRecord
  2
MITTE2
 70
     0
  3
Mitte (.5x) ___ _ ___ _ ___ _ ___ _ ___ _ ___
 72
    65
 73
     4
 40
28.575
 49
19.05
 74
     0
 49
-3.174999999999999
 74
     0
 49
3.174999999999999
 74
     0
 49
-3.174999999999999
 74
     0
  0
ENDTAB
  0
TABLE
  2
LAYER
  5
2
102
{ACAD_XDICTIONARY
360
9C6
102
}
330
0
100
AcDbSymbolTable
 70
     3
  0
LAYER
  5
10
330
2
100
AcDbSymbolTableRecord
100
AcDbLayerTableRecord
  2
0
 70
     0
 62
     7
  6
Continuous
370
    -3
390
F
  0
LAYER
  5
7E9
330
2
100
AcDbSymbolTableRecord
100
AcDbLayerTableRecord
  2
LW 3520-19-01
 70
     0
 62
     7
  6
Continuous
370
    -3
390
F
  0
LAYER
  5
7EA
330
2
100
AcDbSymbolTableRecord
100
AcDbLayerTableRecord
  2
insertpoint_ECKELT
 70
     0
 62
   141
  6
Continuous
370
    -3
390
F
  0
ENDTAB
  0
TABLE
  2
STYLE
  5
3
330
0
100
AcDbSymbolTable
 70
     1
  0
STYLE
  5
11
330
3
100
AcDbSymbolTableRecord
100
AcDbTextStyleTableRecord
  2
Standard
 70
     0
 40
0.0
 41
1.0
 50
0.0
 71
     0
 42
0.2
  3
ARIAL.TTF
  4

1001
ACAD
1000
Arial
1071
      256
  0
ENDTAB
  0
TABLE
  2
VIEW
  5
6
330
0
100
AcDbSymbolTable
 70
     0
  0
ENDTAB
  0
TABLE
  2
UCS
  5
7
330
0
100
AcDbSymbolTable
 70
     0
  0
ENDTAB
  0
TABLE
  2
APPID
  5
9
330
0
100
AcDbSymbolTable
 70
     2
  0
APPID
  5
12
330
9
100
AcDbSymbolTableRecord
100
AcDbRegAppTableRecord
  2
ACAD
 70
     0
  0
APPID
  5
A3E
330
9
100
AcDbSymbolTableRecord
100
AcDbRegAppTableRecord
  2
ACAD_PSEXT
 70
     0
  0
ENDTAB
  0
TABLE
  2
DIMSTYLE
  5
A
330
0
100
AcDbSymbolTable
 70
     1
100
AcDbDimStyleTable
 71
     0
  0
DIMSTYLE
105
2B
330
A
100
AcDbSymbolTableRecord
100
AcDbDimStyleTableRecord
  2
Standard
 70
     0
340
11
  0
ENDTAB
  0
TABLE
  2
BLOCK_RECORD
  5
1
330
0
100
AcDbSymbolTable
 70
     6
  0
BLOCK_RECORD
  5
23
102
{ACAD_XDICTIONARY
360
9A6
102
}
330
1
100
AcDbSymbolTableRecord
100
AcDbBlockTableRecord
  2
*Model_Space
340
26
  0
BLOCK_RECORD
  5
1F
330
1
100
AcDbSymbolTableRecord
100
AcDbBlockTableRecord
  2
*Paper_Space
340
22
  0
BLOCK_RECORD
  5
27
330
1
100
AcDbSymbolTableRecord
100
AcDbBlockTableRecord
  2
*Paper_Space0
340
2A
  0
BLOCK_RECORD
  5
626
102
{ACAD_XDICTIONARY
360
627
102
}
330
1
100
AcDbSymbolTableRecord
100
AcDbBlockTableRecord
  2
insertpoint-ECKELT
340
0
102
{BLKREFS
331
16FC
331
1825
331
1891
331
18FD
102
}
  0
BLOCK_RECORD
  5
1476
330
1
100
AcDbSymbolTableRecord
100
AcDbBlockTableRecord
  2
LW 3520-19-01_a
340
0
310
2800000020000000200000000100080000000000000400000000000000000000000000000000000000000000000080000080000000808000800000008000800080800000C0C0C000C0DCC000F0CAA6000020400000206000002080000020A0000020C0000020E00000400000004020000040400000406000004080000040A0
310
000040C0000040E00000600000006020000060400000606000006080000060A0000060C0000060E00000800000008020000080400000806000008080000080A0000080C0000080E00000A0000000A0200000A0400000A0600000A0800000A0A00000A0C00000A0E00000C0000000C0200000C0400000C0600000C0800000C0
310
A00000C0C00000C0E00000E0000000E0200000E0400000E0600000E0800000E0A00000E0C00000E0E00040000000400020004000400040006000400080004000A0004000C0004000E00040200000402020004020400040206000402080004020A0004020C0004020E000404000004040200040404000404060004040800040
310
40A0004040C0004040E00040600000406020004060400040606000406080004060A0004060C0004060E00040800000408020004080400040806000408080004080A0004080C0004080E00040A0000040A0200040A0400040A0600040A0800040A0A00040A0C00040A0E00040C0000040C0200040C0400040C0600040C08000
310
40C0A00040C0C00040C0E00040E0000040E0200040E0400040E0600040E0800040E0A00040E0C00040E0E00080000000800020008000400080006000800080008000A0008000C0008000E00080200000802020008020400080206000802080008020A0008020C0008020E00080400000804020008040400080406000804080
310
008040A0008040C0008040E00080600000806020008060400080606000806080008060A0008060C0008060E00080800000808020008080400080806000808080008080A0008080C0008080E00080A0000080A0200080A0400080A0600080A0800080A0A00080A0C00080A0E00080C0000080C0200080C0400080C0600080C0
310
800080C0A00080C0C00080C0E00080E0000080E0200080E0400080E0600080E0800080E0A00080E0C00080E0E000C0000000C0002000C0004000C0006000C0008000C000A000C000C000C000E000C0200000C0202000C0204000C0206000C0208000C020A000C020C000C020E000C0400000C0402000C0404000C0406000C0
310
408000C040A000C040C000C040E000C0600000C0602000C0604000C0606000C0608000C060A000C060C000C060E000C0800000C0802000C0804000C0806000C0808000C080A000C080C000C080E000C0A00000C0A02000C0A04000C0A06000C0A08000C0A0A000C0A0C000C0A0E000C0C00000C0C02000C0C04000C0C06000
310
C0C08000C0C0A000F0FBFF00A4A0A000808080000000FF0000FF000000FFFF00FF000000FF00FF00FFFF0000FFFFFF0000000000000000000000000000000000000000000000000000000000000000000000000000000000000000000000000000000000000000000000000000000000000000000000000000000000000000
310
000000000000000000000000000000000000000000000000000000000000000000FA00000000000000000000000000000000000000000000000000000000000000FA00000000000000000000000000000000000000000000000000000000000000FA00000000000000000000000000000000000000000000000000000000FF
310
FF00FAFFFF0000000000000000000000000000000000000000000000000000FFFF00FAFFFF000000000000000000000000000000000000000000000000FFFFFFFFA4FAFFFFFFFF00000000000000000000000000000000000000000000FFFFFFFAA4FAFAFFFFFF000000000000000000000000000000000000000000FAFAFA
310
FAFAFAFAFAFAFAFAFA000000000000000000000000000000000000000000FFFFFFFFA4FAFFFFFFFF000000000000000000000000000000000000000000000000FFFF00FAFFFF0000000000000000000000000000000000000000000000000000FFFF00FAFFFF00000000000000000000000000000000000000000000000000
310
00FFFF00FAFFFF0000000000000000000000000000000000000000000000000000FFFF00FAFFFF000000000000000000000000000000000000000000000000FFFFFFFF00FAFFFFFFFF00000000000000000000000000000000000000000000FFFFFFFFA4FAFFFFFFFF000000000000000000000000000000000000000000FA
310
FAFAFAFAFAFAFAFAFAFAFA000000000000000000000000000000000000000000FF00FFFAA4FAFAFF00FF00000000000000000000000000000000FA0000000000FFFFFFFFA4FAFFFFFFFF0000000000FA0000000000000000FFFFFAFFFF0000000000FFFF00FAFFFF0000000000FFFFFAFFFF000000000000FF00FAFFFF0000
310
00FFF9FFFF00FAFFFFFFFF000000FF00FAFFFF000000000000FF00FA00FF0000FFF9F9FFFF00FAFFFF0000FF0000FF00FA00FF00000000FFFFFFFFFAFFFFFFFFFFFFFFFFFF00FAFFFFFFFFFFFFFFFFFFFAFFFFFFFF0000FFFFFFFFFAFFFFFFFFFFFFFFFFFF0909FFFFFFFFFFFFFFFFFFFAFFFFFFFF00000000FFFFFAFAFFFF
310
00000000000000FA000000000000FFFFFAFAFFFF0000000000000000FAFF000000000000000000FA0000000000000000FFFA00000000000000000000FAFA000000000000000000FA0000000000000000FAFA000000000000000000000000000000000000000000000000000000000000000000000000000000000000000000
310
0000000000000000000000000000000000000000000000000000000000000000000000000000000000000000000000000000000000000000
102
{BLKREFS
331
1706
102
}
  0
BLOCK_RECORD
  5
1707
330
1
100
AcDbSymbolTableRecord
100
AcDbBlockTableRecord
  2
LW 3520-19-01_b
340
0
310
2800000020000000200000000100080000000000000400000000000000000000000000000000000000000000000080000080000000808000800000008000800080800000C0C0C000C0DCC000F0CAA6000020400000206000002080000020A0000020C0000020E00000400000004020000040400000406000004080000040A0
310
000040C0000040E00000600000006020000060400000606000006080000060A0000060C0000060E00000800000008020000080400000806000008080000080A0000080C0000080E00000A0000000A0200000A0400000A0600000A0800000A0A00000A0C00000A0E00000C0000000C0200000C0400000C0600000C0800000C0
310
A00000C0C00000C0E00000E0000000E0200000E0400000E0600000E0800000E0A00000E0C00000E0E00040000000400020004000400040006000400080004000A0004000C0004000E00040200000402020004020400040206000402080004020A0004020C0004020E000404000004040200040404000404060004040800040
310
40A0004040C0004040E00040600000406020004060400040606000406080004060A0004060C0004060E00040800000408020004080400040806000408080004080A0004080C0004080E00040A0000040A0200040A0400040A0600040A0800040A0A00040A0C00040A0E00040C0000040C0200040C0400040C0600040C08000
310
40C0A00040C0C00040C0E00040E0000040E0200040E0400040E0600040E0800040E0A00040E0C00040E0E00080000000800020008000400080006000800080008000A0008000C0008000E00080200000802020008020400080206000802080008020A0008020C0008020E00080400000804020008040400080406000804080
310
008040A0008040C0008040E00080600000806020008060400080606000806080008060A0008060C0008060E00080800000808020008080400080806000808080008080A0008080C0008080E00080A0000080A0200080A0400080A0600080A0800080A0A00080A0C00080A0E00080C0000080C0200080C0400080C0600080C0
310
800080C0A00080C0C00080C0E00080E0000080E0200080E0400080E0600080E0800080E0A00080E0C00080E0E000C0000000C0002000C0004000C0006000C0008000C000A000C000C000C000E000C0200000C0202000C0204000C0206000C0208000C020A000C020C000C020E000C0400000C0402000C0404000C0406000C0
310
408000C040A000C040C000C040E000C0600000C0602000C0604000C0606000C0608000C060A000C060C000C060E000C0800000C0802000C0804000C0806000C0808000C080A000C080C000C080E000C0A00000C0A02000C0A04000C0A06000C0A08000C0A0A000C0A0C000C0A0E000C0C00000C0C02000C0C04000C0C06000
310
C0C08000C0C0A000F0FBFF00A4A0A000808080000000FF0000FF000000FFFF00FF000000FF00FF00FFFF0000FFFFFF0000000000000000000000000000000000000000000000000000000000000000000000000000000000000000000000000000000000000000000000000000000000000000000000000000000000000000
310
00000000000000000000000000000000000000000000000000000000000000000000000000000000000000000000000000000000000000000000000000000000000000000000000000000000000000000000000000000000000000000000000000000000000000000000000000000000000000000000000000000000000000
310
00000000000000000000000000000000000000000000000000000000000000000000000000000000000000000000000000000000000000000000000000000000000000000000000000000000000000000000000000000000000000000000000000000000000000000000000000000000000000000000000000000000000000
310
00000000000000000000000000000000000000000000000000000000000000000000FA00000000000000000000000000000000000000FFFFFFFFFFFFFFFFFFFFFFFFFAFFFFFFFFFFFFFFFFFFFFFFFF00000000000000FFFFFFFA000000000000FFFFFAFFFFFF0000000000FFFA0000FF0000000000FF00FFFFFAFF000000FF
310
FFFFFFA4A4FFFFFFFF000000FFFAFFFF00FF000000FAFAFAFAFAFAFAFAFAFAFAFAFAFA0909FAFAFAFAFAFAFAFAFAFAFAFAFAFA000000FFFFFF00FAFFFF00FFFF00FFFA09A4FFFF00FFFF00FFFFFA00FF00FF00000000FF00FFFFFAFF000000FFFFFFFFA4A4FFFFFFFF000000FFFAFFFF00FF0000000000FFFFFFFA00000000
310
0000FFFFFAFFFFFF0000F9F900FFFAFF00FF000000000000FFFFFFFFFFFFFFFFFFFFFFFFFAFFFFFFFFFFFFFFFFFFFFFFFF00000000000000000000000000000000000000FA00000000000000000000000000000000000000000000000000000000000000000000000000000000000000000000000000000000000000000000
310
00000000000000000000000000000000000000000000000000000000000000000000000000000000000000000000000000000000000000000000000000000000000000000000000000000000000000000000000000000000000000000000000000000000000000000000000000000000000000000000000000000000000000
310
00000000000000000000000000000000000000000000000000000000000000000000000000000000000000000000000000000000000000000000000000000000000000000000000000000000000000000000000000000000000000000000000000000000000000000000000000000000000000000000000000000000000000
310
0000000000000000000000000000000000000000000000000000000000000000000000000000000000000000000000000000000000000000
102
{BLKREFS
331
182F
102
}
  0
BLOCK_RECORD
  5
1830
330
1
100
AcDbSymbolTableRecord
100
AcDbBlockTableRecord
  2
LW 3520-19-01_c
340
0
310
2800000020000000200000000100080000000000000400000000000000000000000000000000000000000000000080000080000000808000800000008000800080800000C0C0C000C0DCC000F0CAA6000020400000206000002080000020A0000020C0000020E00000400000004020000040400000406000004080000040A0
310
000040C0000040E00000600000006020000060400000606000006080000060A0000060C0000060E00000800000008020000080400000806000008080000080A0000080C0000080E00000A0000000A0200000A0400000A0600000A0800000A0A00000A0C00000A0E00000C0000000C0200000C0400000C0600000C0800000C0
310
A00000C0C00000C0E00000E0000000E0200000E0400000E0600000E0800000E0A00000E0C00000E0E00040000000400020004000400040006000400080004000A0004000C0004000E00040200000402020004020400040206000402080004020A0004020C0004020E000404000004040200040404000404060004040800040
310
40A0004040C0004040E00040600000406020004060400040606000406080004060A0004060C0004060E00040800000408020004080400040806000408080004080A0004080C0004080E00040A0000040A0200040A0400040A0600040A0800040A0A00040A0C00040A0E00040C0000040C0200040C0400040C0600040C08000
310
40C0A00040C0C00040C0E00040E0000040E0200040E0400040E0600040E0800040E0A00040E0C00040E0E00080000000800020008000400080006000800080008000A0008000C0008000E00080200000802020008020400080206000802080008020A0008020C0008020E00080400000804020008040400080406000804080
310
008040A0008040C0008040E00080600000806020008060400080606000806080008060A0008060C0008060E00080800000808020008080400080806000808080008080A0008080C0008080E00080A0000080A0200080A0400080A0600080A0800080A0A00080A0C00080A0E00080C0000080C0200080C0400080C0600080C0
310
800080C0A00080C0C00080C0E00080E0000080E0200080E0400080E0600080E0800080E0A00080E0C00080E0E000C0000000C0002000C0004000C0006000C0008000C000A000C000C000C000E000C0200000C0202000C0204000C0206000C0208000C020A000C020C000C020E000C0400000C0402000C0404000C0406000C0
310
408000C040A000C040C000C040E000C0600000C0602000C0604000C0606000C0608000C060A000C060C000C060E000C0800000C0802000C0804000C0806000C0808000C080A000C080C000C080E000C0A00000C0A02000C0A04000C0A06000C0A08000C0A0A000C0A0C000C0A0E000C0C00000C0C02000C0C04000C0C06000
310
C0C08000C0C0A000F0FBFF00A4A0A000808080000000FF0000FF000000FFFF00FF000000FF00FF00FFFF0000FFFFFF0000000000000000000000000000000000000000000000000000000000000000000000000000000000000000000000000000000000000000000000000000000000000000000000000000000000000000
310
00000000000000000000000000000000000000000000000000000000000000000000000000000000000000000000000000000000000000000000000000000000000000000000000000000000000000000000000000000000000000000000000000000000000000000000000000000000000000000000000000000000000000
310
00000000000000000000000000000000000000000000000000000000000000000000000000000000000000000000000000000000000000000000000000000000000000000000000000000000000000000000000000000000000000000000000000000000000000000000000000000000000000000000000000000000000000
310
000000000000000000000000000000000000000000000000FFFFFFFFFFFFFFFFFFFFFFFFFFFFFFFFFFFFFFFFFF0000000000000000000000FFFFFF0000000000FA00000000000000000000FA00FFFF000000000000000000FFFFFFFFFFFF0000FA00000000000000000000FA000000FF0000000000000000FFFFFF0000FF00
310
FFFAFFFF000000000000FFFFFAFFFF00FF0000000000FFFAFA09FFFF00FFFFFFFFFA00FFFAFAFAFAFAFAFAFAFAFAFAFAFAFAFA0000FAFFFA0909FAFAFAFAFAFAFAFAFAFAFF0000000000FF00FA00FF00FF0000000000000000FFFFFF0000FF00FFFAFFFF000000000000FFFFFAFFFF00FF0000000000000000FFFFFFFFFFFF
310
0000FAFF000000F9F9F90000FFFAFF0000FF0000000000000000FFFFFF0000000000FA00000000000000000000FA00FFFF000000000000000000FFFFFFFFFFFFFFFFFFFFFFFFFFFFFFFFFFFFFFFFFF000000000000000000000000000000000000000000000000000000000000000000000000000000000000000000000000
310
00000000000000000000000000000000000000000000000000000000000000000000000000000000000000000000000000000000000000000000000000000000000000000000000000000000000000000000000000000000000000000000000000000000000000000000000000000000000000000000000000000000000000
310
00000000000000000000000000000000000000000000000000000000000000000000000000000000000000000000000000000000000000000000000000000000000000000000000000000000000000000000000000000000000000000000000000000000000000000000000000000000000000000000000000000000000000
310
0000000000000000000000000000000000000000000000000000000000000000000000000000000000000000000000000000000000000000
102
{BLKREFS
331
189B
102
}
  0
BLOCK_RECORD
  5
189C
330
1
100
AcDbSymbolTableRecord
100
AcDbBlockTableRecord
  2
LW 3520-19-01_d
340
0
310
2800000020000000200000000100080000000000000400000000000000000000000000000000000000000000000080000080000000808000800000008000800080800000C0C0C000C0DCC000F0CAA6000020400000206000002080000020A0000020C0000020E00000400000004020000040400000406000004080000040A0
310
000040C0000040E00000600000006020000060400000606000006080000060A0000060C0000060E00000800000008020000080400000806000008080000080A0000080C0000080E00000A0000000A0200000A0400000A0600000A0800000A0A00000A0C00000A0E00000C0000000C0200000C0400000C0600000C0800000C0
310
A00000C0C00000C0E00000E0000000E0200000E0400000E0600000E0800000E0A00000E0C00000E0E00040000000400020004000400040006000400080004000A0004000C0004000E00040200000402020004020400040206000402080004020A0004020C0004020E000404000004040200040404000404060004040800040
310
40A0004040C0004040E00040600000406020004060400040606000406080004060A0004060C0004060E00040800000408020004080400040806000408080004080A0004080C0004080E00040A0000040A0200040A0400040A0600040A0800040A0A00040A0C00040A0E00040C0000040C0200040C0400040C0600040C08000
310
40C0A00040C0C00040C0E00040E0000040E0200040E0400040E0600040E0800040E0A00040E0C00040E0E00080000000800020008000400080006000800080008000A0008000C0008000E00080200000802020008020400080206000802080008020A0008020C0008020E00080400000804020008040400080406000804080
310
008040A0008040C0008040E00080600000806020008060400080606000806080008060A0008060C0008060E00080800000808020008080400080806000808080008080A0008080C0008080E00080A0000080A0200080A0400080A0600080A0800080A0A00080A0C00080A0E00080C0000080C0200080C0400080C0600080C0
310
800080C0A00080C0C00080C0E00080E0000080E0200080E0400080E0600080E0800080E0A00080E0C00080E0E000C0000000C0002000C0004000C0006000C0008000C000A000C000C000C000E000C0200000C0202000C0204000C0206000C0208000C020A000C020C000C020E000C0400000C0402000C0404000C0406000C0
310
408000C040A000C040C000C040E000C0600000C0602000C0604000C0606000C0608000C060A000C060C000C060E000C0800000C0802000C0804000C0806000C0808000C080A000C080C000C080E000C0A00000C0A02000C0A04000C0A06000C0A08000C0A0A000C0A0C000C0A0E000C0C00000C0C02000C0C04000C0C06000
310
C0C08000C0C0A000F0FBFF00A4A0A000808080000000FF0000FF000000FFFF00FF000000FF00FF00FFFF0000FFFFFF0000000000000000000000000000000000000000000000000000000000000000000000000000000000000000000000000000000000000000000000000000000000000000000000000000000000000000
310
00000000000000000000000000000000000000000000000000000000000000000000000000000000000000000000000000000000000000000000000000000000000000000000000000000000000000000000000000000000000000000000000000000000000000000000000000000000000000000000000000000000000000
310
00000000000000000000000000000000000000000000000000000000000000000000000000000000000000000000000000000000000000000000000000000000000000000000000000000000000000000000000000000000000000000000000000000000000000000000000000000000000000000000000000000000000000
310
00000000000000000000000000000000000000000000000000FFFFFFFFFFFFFFFFFFFFFFFFFFFFFFFFFFFFFFFFFF000000000000000000FFFF00FA00000000000000000000FA0000000000FFFFFF000000000000000000FF0000FA00000000000000000000FA0000FFFFFFFFFFFF0000000000000000FF00FFFFFAFFFF0000
310
00000000FFFFFAFF00FF0000FFFFFF000000000000FAFAFAFAFAFAFAFAFAFAFAFAFAFAFAFF00FA00FFFFFF00FFFF0909FAFF0000000000FF00FF00FA00FF0000000000FFFAFAFAFAFAFAFAFAFAFA0909FAFFFA00000000FF00FFFFFAFFFF000000000000FFFFFAFF00FF0000FFFFFF000000000000000000FF00FFFAFF0000
310
00F9F9F90000FFFA0000FFFFFFFFFFFF000000000000000000FFFF00FA00000000000000000000FA0000000000FFFFFF0000000000000000000000FFFFFFFFFFFFFFFFFFFFFFFFFFFFFFFFFFFFFFFFFF0000000000000000000000000000000000000000000000000000000000000000000000000000000000000000000000
310
00000000000000000000000000000000000000000000000000000000000000000000000000000000000000000000000000000000000000000000000000000000000000000000000000000000000000000000000000000000000000000000000000000000000000000000000000000000000000000000000000000000000000
310
00000000000000000000000000000000000000000000000000000000000000000000000000000000000000000000000000000000000000000000000000000000000000000000000000000000000000000000000000000000000000000000000000000000000000000000000000000000000000000000000000000000000000
310
0000000000000000000000000000000000000000000000000000000000000000000000000000000000000000000000000000000000000000
102
{BLKREFS
331
1907
102
}
  0
ENDTAB
  0
ENDSEC
  0
SECTION
  2
BLOCKS
  0
BLOCK
  5
24
330
23
100
AcDbEntity
  8
0
100
AcDbBlockBegin
  2
*Model_Space
 70
     0
 10
0.0
 20
0.0
 30
0.0
  3
*Model_Space
  1

  0
ENDBLK
  5
25
330
23
100
AcDbEntity
  8
0
100
AcDbBlockEnd
  0
BLOCK
  5
20
330
1F
100
AcDbEntity
 67
     1
  8
0
100
AcDbBlockBegin
  2
*Paper_Space
 70
     0
 10
0.0
 20
0.0
 30
0.0
  3
*Paper_Space
  1

  0
ENDBLK
  5
21
330
1F
100
AcDbEntity
 67
     1
  8
0
100
AcDbBlockEnd
  0
BLOCK
  5
28
330
27
100
AcDbEntity
 67
     1
  8
0
100
AcDbBlockBegin
  2
*Paper_Space0
 70
     0
 10
0.0
 20
0.0
 30
0.0
  3
*Paper_Space0
  1

  0
ENDBLK
  5
29
330
27
100
AcDbEntity
 67
     1
  8
0
100
AcDbBlockEnd
  0
BLOCK
  5
629
330
626
100
AcDbEntity
  8
0
100
AcDbBlockBegin
  2
insertpoint-ECKELT
 70
     2
 10
0.0
 20
0.0
 30
0.0
  3
insertpoint-ECKELT
  1

  0
ATTDEF
  5
62A
330
626
100
AcDbEntity
  8
insertpoint_ECKELT
100
AcDbText
 10
-2.457298772169167
 20
-0.0000000000000284
 30
0.0
 40
0.6
  1
LW
 72
     2
 11
-1.199999999999999
 21
-0.0000000000000284
 31
0.0
100
AcDbAttributeDefinition
  3
Nr. links
  2
LINKS
 70
     0
  0
ATTDEF
  5
62B
330
626
100
AcDbEntity
  8
insertpoint_ECKELT
100
AcDbText
 10
1.199999999999999
 20
-0.0000000000000284
 30
0.0
 40
0.6
  1
LW
100
AcDbAttributeDefinition
  3
Nr. rechts
  2
RECHTS
 70
     0
  0
LINE
  5
62C
102
{ACAD_REACTORS
330
62F
102
}
330
626
100
AcDbEntity
  8
insertpoint_ECKELT
100
AcDbLine
 10
0.0
 20
1.799999999999997
 30
0.0
 11
0.0
 21
-1.799999999999997
 31
0.0
  0
LINE
  5
62D
102
{ACAD_REACTORS
330
62F
102
}
330
626
100
AcDbEntity
  8
insertpoint_ECKELT
100
AcDbLine
 10
-1.8
 20
-0.0000000000000284
 30
0.0
 11
1.8
 21
-0.0000000000000284
 31
0.0
  0
CIRCLE
  5
62E
102
{ACAD_REACTORS
330
62F
102
}
330
626
100
AcDbEntity
  8
insertpoint_ECKELT
100
AcDbCircle
 10
0.0
 20
0.0
 30
0.0
 40
1.199999999999999
  0
HATCH
  5
62F
330
626
100
AcDbEntity
  8
insertpoint_ECKELT
100
AcDbHatch
 10
0.0
 20
0.0
 30
0.0
210
0.0
220
0.0
230
1.0
  2
SOLID
 70
     1
 71
     1
 91
        2
 92
        7
 72
     1
 73
     1
 93
        3
 10
0.0
 20
-0.0000000000000284
 42
0.0
 10
0.0
 20
1.200000000000002
 42
0.4142135623731013
 10
-1.199999999999999
 20
-0.0000000000000284
 42
0.0
 97
        3
330
62E
330
62D
330
62C
 92
        7
 72
     1
 73
     1
 93
        3
 10
1.199999999999999
 20
-0.0000000000000284
 42
0.0
 10
0.0
 20
-0.0000000000000284
 42
0.0
 10
0.0
 20
-1.200000000000002
 42
0.4142135623730888
 97
        3
330
62D
330
62C
330
62E
 75
     0
 76
     1
 47
0.0223086566480813
 98
        2
 10
-0.3163651093721391
 20
0.271413292077348
 10
0.7415965996738798
 20
-0.4513871917946233
450
        0
451
        0
460
0.0
461
0.0
452
        0
462
0.0
453
        0
470

  0
ENDBLK
  5
630
330
626
100
AcDbEntity
  8
0
100
AcDbBlockEnd
  0
BLOCK
  5
1477
330
1476
100
AcDbEntity
  8
0
100
AcDbBlockBegin
  2
LW 3520-19-01_a
 70
     0
 10
0.0
 20
0.0
 30
0.0
  3
LW 3520-19-01_a
  1

  0
LINE
  5
1479
330
1476
100
AcDbEntity
  8
LW 3520-19-01
100
AcDbLine
 10
-20.5
 20
-172.9999999999999
 30
0.0
 11
-20.5
 21
-139.9999999999999
 31
0.0
  0
LINE
  5
147A
330
1476
100
AcDbEntity
  8
LW 3520-19-01
100
AcDbLine
 10
-20.50000000000006
 20
-11.0
 30
0.0
 11
-20.5
 21
-139.9999999999999
 31
0.0
  0
LINE
  5
147B
330
1476
100
AcDbEntity
  8
LW 3520-19-01
100
AcDbLine
 10
-91.50000000000003
 20
-9.0
 30
0.0
 11
-22.50000000000003
 21
-9.0
 31
0.0
  0
LINE
  5
147C
330
1476
100
AcDbEntity
  8
LW 3520-19-01
100
AcDbLine
 10
-91.50000000000003
 20
-9.0
 30
0.0
 11
-124.5
 21
-9.0
 31
0.0
  0
ARC
  5
147D
330
1476
100
AcDbEntity
  8
LW 3520-19-01
100
AcDbCircle
 10
-22.50000000000003
 20
-11.0
 30
0.0
 40
1.999999999999988
100
AcDbArc
 50
0.0
 51
90.0
  0
ARC
  5
147E
330
1476
100
AcDbEntity
  8
LW 3520-19-01
100
AcDbCircle
 10
-18.49999999999997
 20
-172.9999999999999
 30
0.0
 40
2.0
100
AcDbArc
 50
180.0
 51
270.0
  0
ARC
  5
147F
330
1476
100
AcDbEntity
  8
LW 3520-19-01
100
AcDbCircle
 10
-124.5
 20
-7.0
 30
0.0
 40
2.0
100
AcDbArc
 50
180.0
 51
270.0
  0
LINE
  5
1480
330
1476
100
AcDbEntity
  8
LW 3520-19-01
100
AcDbLine
 10
-126.5
 20
0.0
 30
0.0
 11
-91.50000000000005
 21
0.0
 31
0.0
  0
LINE
  5
1481
330
1476
100
AcDbEntity
  8
LW 3520-19-01
100
AcDbLine
 10
-11.5
 20
-139.9999999999999
 30
0.0
 11
-11.5
 21
-175.0
 31
0.0
  0
LINE
  5
1482
330
1476
100
AcDbEntity
  8
LW 3520-19-01
100
AcDbLine
 10
-11.5
 20
-175.0
 30
0.0
 11
-18.5
 21
-175.0
 31
0.0
  0
LINE
  5
1483
330
1476
100
AcDbEntity
  8
LW 3520-19-01
100
AcDbLine
 10
-126.5
 20
-7.0
 30
0.0
 11
-126.5
 21
0.0
 31
0.0
  0
LINE
  5
1484
330
1476
100
AcDbEntity
  8
LW 3520-19-01
100
AcDbLine
 10
-91.50000000000003
 20
0.0
 30
0.0
 11
-11.5
 21
0.0
 31
0.0
  0
LINE
  5
1485
330
1476
100
AcDbEntity
  8
LW 3520-19-01
100
AcDbLine
 10
-11.5
 20
0.0
 30
0.0
 11
-11.5
 21
-139.9999999999999
 31
0.0
  0
ARC
  5
1486
330
1476
100
AcDbEntity
  8
LW 3520-19-01
100
AcDbCircle
 10
-22.50000000000003
 20
-40.0
 30
0.0
 40
1.99999999999998
100
AcDbArc
 50
0.0
 51
53.13010235415793
  0
ARC
  5
1487
330
1476
100
AcDbEntity
  8
LW 3520-19-01
100
AcDbCircle
 10
-61.16666666666671
 20
-11.00000000000005
 30
0.0
 40
2.000000000000055
100
AcDbArc
 50
53.13010235415793
 51
90.0
  0
LINE
  5
1488
330
1476
100
AcDbEntity
  8
LW 3520-19-01
100
AcDbLine
 10
-59.96666666666669
 20
-9.399999999999977
 30
0.0
 11
-21.30000000000001
 21
-38.39999999999998
 31
0.0
  0
LINE
  5
1489
330
1476
100
AcDbEntity
  8
LW 3520-19-01
100
AcDbLine
 10
20.5
 20
-139.9999999999999
 30
0.0
 11
20.5
 21
-11.0
 31
0.0
  0
LINE
  5
148A
330
1476
100
AcDbEntity
  8
LW 3520-19-01
100
AcDbLine
 10
20.5
 20
-139.9999999999999
 30
0.0
 11
20.5
 21
-172.9999999999999
 31
0.0
  0
ARC
  5
148B
330
1476
100
AcDbEntity
  8
LW 3520-19-01
100
AcDbCircle
 10
22.5
 20
-11.0
 30
0.0
 40
1.999999999999988
100
AcDbArc
 50
90.0
 51
180.0
  0
LINE
  5
148C
330
1476
100
AcDbEntity
  8
LW 3520-19-01
100
AcDbLine
 10
124.5
 20
-9.0
 30
0.0
 11
91.5
 21
-9.0
 31
0.0
  0
LINE
  5
148D
330
1476
100
AcDbEntity
  8
LW 3520-19-01
100
AcDbLine
 10
22.5
 20
-9.0
 30
0.0
 11
91.5
 21
-9.0
 31
0.0
  0
ARC
  5
148E
330
1476
100
AcDbEntity
  8
LW 3520-19-01
100
AcDbCircle
 10
18.5
 20
-172.9999999999999
 30
0.0
 40
2.0
100
AcDbArc
 50
270.0
 51
0.0
  0
ARC
  5
148F
330
1476
100
AcDbEntity
  8
LW 3520-19-01
100
AcDbCircle
 10
124.5
 20
-6.999999999999943
 30
0.0
 40
2.0
100
AcDbArc
 50
270.0
 51
0.0
  0
LINE
  5
1490
330
1476
100
AcDbEntity
  8
LW 3520-19-01
100
AcDbLine
 10
91.5
 20
0.0
 30
0.0
 11
126.5
 21
0.0
 31
0.0
  0
LINE
  5
1491
330
1476
100
AcDbEntity
  8
LW 3520-19-01
100
AcDbLine
 10
11.5
 20
-175.0
 30
0.0
 11
11.5
 21
-139.9999999999999
 31
0.0
  0
LINE
  5
1492
330
1476
100
AcDbEntity
  8
LW 3520-19-01
100
AcDbLine
 10
11.5
 20
-175.0
 30
0.0
 11
18.5
 21
-175.0
 31
0.0
  0
LINE
  5
1493
330
1476
100
AcDbEntity
  8
LW 3520-19-01
100
AcDbLine
 10
126.5
 20
-6.999999999999943
 30
0.0
 11
126.5
 21
0.0
 31
0.0
  0
LINE
  5
1494
330
1476
100
AcDbEntity
  8
LW 3520-19-01
100
AcDbLine
 10
91.5
 20
0.0
 30
0.0
 11
11.5
 21
0.0
 31
0.0
  0
LINE
  5
1495
330
1476
100
AcDbEntity
  8
LW 3520-19-01
100
AcDbLine
 10
11.5
 20
0.0
 30
0.0
 11
11.5
 21
-139.9999999999999
 31
0.0
  0
ARC
  5
1496
330
1476
100
AcDbEntity
  8
LW 3520-19-01
100
AcDbCircle
 10
22.49999999999994
 20
-40.0
 30
0.0
 40
1.999999999999928
100
AcDbArc
 50
126.869897645842
 51
180.0
  0
ARC
  5
1497
330
1476
100
AcDbEntity
  8
LW 3520-19-01
100
AcDbCircle
 10
61.16665613093267
 20
-10.99997498133973
 30
0.0
 40
1.999972927955441
100
AcDbArc
 50
89.99969816967691
 51
126.8700862261824
  0
LINE
  5
1498
330
1476
100
AcDbEntity
  8
LW 3520-19-01
100
AcDbLine
 10
59.96666666666669
 20
-9.399999999999977
 30
0.0
 11
21.30000000000001
 21
-38.39999999999998
 31
0.0
  0
LINE
  5
1499
330
1476
100
AcDbEntity
  8
LW 3520-19-01
100
AcDbLine
 10
-69.00000000000003
 20
-14.0
 30
0.0
 11
-114.0
 21
-14.0
 31
0.0
  0
LINE
  5
149A
330
1476
100
AcDbEntity
  8
LW 3520-19-01
100
AcDbLine
 10
-69.00000000000003
 20
-9.0
 30
0.0
 11
-69.00000000000003
 21
-14.0
 31
0.0
  0
LINE
  5
149B
330
1476
100
AcDbEntity
  8
LW 3520-19-01
100
AcDbLine
 10
-114.0
 20
-9.0
 30
0.0
 11
-114.0
 21
-14.0
 31
0.0
  0
LINE
  5
149C
330
1476
100
AcDbEntity
  8
LW 3520-19-01
100
AcDbLine
 10
-114.0
 20
5.0
 30
0.0
 11
-69.00000000000003
 21
5.0
 31
0.0
  0
LINE
  5
149D
330
1476
100
AcDbEntity
  8
LW 3520-19-01
100
AcDbLine
 10
-114.0
 20
0.0
 30
0.0
 11
-114.0
 21
5.0
 31
0.0
  0
LINE
  5
149E
330
1476
100
AcDbEntity
  8
LW 3520-19-01
100
AcDbLine
 10
-69.00000000000003
 20
0.0
 30
0.0
 11
-69.00000000000003
 21
5.0
 31
0.0
  0
LINE
  5
149F
330
1476
100
AcDbEntity
  8
LW 3520-19-01
100
AcDbLine
 10
114.0
 20
-14.0
 30
0.0
 11
69.0
 21
-14.0
 31
0.0
  0
LINE
  5
14A0
330
1476
100
AcDbEntity
  8
LW 3520-19-01
100
AcDbLine
 10
114.0
 20
-9.0
 30
0.0
 11
114.0
 21
-14.0
 31
0.0
  0
LINE
  5
14A1
330
1476
100
AcDbEntity
  8
LW 3520-19-01
100
AcDbLine
 10
69.0
 20
-9.0
 30
0.0
 11
69.0
 21
-14.0
 31
0.0
  0
LINE
  5
14A2
330
1476
100
AcDbEntity
  8
LW 3520-19-01
100
AcDbLine
 10
69.0
 20
5.0
 30
0.0
 11
114.0
 21
5.0
 31
0.0
  0
LINE
  5
14A3
330
1476
100
AcDbEntity
  8
LW 3520-19-01
100
AcDbLine
 10
69.0
 20
0.0
 30
0.0
 11
69.0
 21
5.0
 31
0.0
  0
LINE
  5
14A4
330
1476
100
AcDbEntity
  8
LW 3520-19-01
100
AcDbLine
 10
114.0
 20
0.0
 30
0.0
 11
114.0
 21
5.0
 31
0.0
  0
LINE
  5
14A5
330
1476
100
AcDbEntity
  8
LW 3520-19-01
100
AcDbLine
 10
98.49999999999994
 20
21.0
 30
0.0
 11
84.49999999999988
 21
21.0
 31
0.0
  0
LINE
  5
14A6
330
1476
100
AcDbEntity
  8
LW 3520-19-01
100
AcDbLine
 10
97.49999999999994
 20
22.0
 30
0.0
 11
85.49999999999988
 21
22.0
 31
0.0
  0
LINE
  5
14A7
330
1476
100
AcDbEntity
  8
LW 3520-19-01
100
AcDbLine
 10
84.49999999999993
 20
5.000000000000056
 30
0.0
 11
84.49999999999988
 21
21.0
 31
0.0
  0
LINE
  5
14A8
330
1476
100
AcDbEntity
  8
LW 3520-19-01
100
AcDbLine
 10
98.49999999999994
 20
5.000000000000056
 30
0.0
 11
98.49999999999994
 21
21.0
 31
0.0
  0
LINE
  5
14A9
330
1476
100
AcDbEntity
  8
LW 3520-19-01
100
AcDbLine
 10
97.49999999999994
 20
22.0
 30
0.0
 11
98.49999999999994
 21
21.00000000000006
 31
0.0
  0
LINE
  5
14AA
330
1476
100
AcDbEntity
  8
LW 3520-19-01
100
AcDbLine
 10
85.49999999999988
 20
22.0
 30
0.0
 11
84.49999999999993
 21
21.0
 31
0.0
  0
LINE
  5
14AB
330
1476
100
AcDbEntity
  8
LW 3520-19-01
 62
     3
100
AcDbLine
 10
85.70549999999991
 20
21.99999999999994
 30
0.0
 11
85.70549999999991
 21
5.000000000000056
 31
0.0
  0
LINE
  5
14AC
330
1476
100
AcDbEntity
  8
LW 3520-19-01
 62
     3
100
AcDbLine
 10
97.29449999999992
 20
5.000000000000056
 30
0.0
 11
97.29449999999992
 21
21.99999999999994
 31
0.0
  0
LINE
  5
14AD
330
1476
100
AcDbEntity
  8
LW 3520-19-01
100
AcDbLine
 10
98.49999999999994
 20
21.0
 30
0.0
 11
84.49999999999988
 21
21.0
 31
0.0
  0
LINE
  5
14AE
330
1476
100
AcDbEntity
  8
LW 3520-19-01
100
AcDbLine
 10
-84.50000000000001
 20
21.0
 30
0.0
 11
-98.49999999999997
 21
21.0
 31
0.0
  0
LINE
  5
14AF
330
1476
100
AcDbEntity
  8
LW 3520-19-01
100
AcDbLine
 10
-85.49999999999997
 20
22.0
 30
0.0
 11
-97.5
 21
22.0
 31
0.0
  0
LINE
  5
14B0
330
1476
100
AcDbEntity
  8
LW 3520-19-01
100
AcDbLine
 10
-98.49999999999997
 20
5.0
 30
0.0
 11
-98.49999999999997
 21
21.0
 31
0.0
  0
LINE
  5
14B1
330
1476
100
AcDbEntity
  8
LW 3520-19-01
100
AcDbLine
 10
-84.50000000000001
 20
5.0
 30
0.0
 11
-84.50000000000001
 21
21.0
 31
0.0
  0
LINE
  5
14B2
330
1476
100
AcDbEntity
  8
LW 3520-19-01
100
AcDbLine
 10
-85.5
 20
22.0
 30
0.0
 11
-84.50000000000001
 21
21.0
 31
0.0
  0
LINE
  5
14B3
330
1476
100
AcDbEntity
  8
LW 3520-19-01
100
AcDbLine
 10
-97.5
 20
22.0
 30
0.0
 11
-98.50000000000001
 21
21.0
 31
0.0
  0
LINE
  5
14B4
330
1476
100
AcDbEntity
  8
LW 3520-19-01
 62
     3
100
AcDbLine
 10
-97.29449999999999
 20
22.0
 30
0.0
 11
-97.29449999999999
 21
5.0
 31
0.0
  0
LINE
  5
14B5
330
1476
100
AcDbEntity
  8
LW 3520-19-01
 62
     3
100
AcDbLine
 10
-85.7055
 20
5.0
 30
0.0
 11
-85.7055
 21
22.0
 31
0.0
  0
LINE
  5
14B6
330
1476
100
AcDbEntity
  8
LW 3520-19-01
100
AcDbLine
 10
-84.50000000000002
 20
21.0
 30
0.0
 11
-98.50000000000001
 21
21.0
 31
0.0
  0
ELLIPSE
  5
14B7
330
1476
100
AcDbEntity
  8
LW 3520-19-01
100
AcDbEllipse
 10
97.75000000000005
 20
-30.0
 30
0.0
 11
-0.0000000000001792
 21
-2.000000000000001
 31
0.0
210
0.0
220
0.0
230
1.0
 40
0.866025403784438
 41
0.7941688477848424
 42
2.347423805805178
  0
POLYLINE
  5
14B8
330
1476
100
AcDbEntity
  8
LW 3520-19-01
100
AcDb2dPolyline
 66
     1
 10
0.0
 20
0.0
 30
0.0
 70
   128
  0
VERTEX
  5
14B9
330
14B8
100
AcDbEntity
  8
LW 3520-19-01
100
AcDbVertex
100
AcDb2dVertex
 10
100.25
 20
-31.99999952316284
 30
0.0
  0
VERTEX
  5
14BA
330
14B8
100
AcDbEntity
  8
LW 3520-19-01
100
AcDbVertex
100
AcDb2dVertex
 10
100.0277742147446
 20
-31.98318386077881
 30
0.0
  0
VERTEX
  5
14BB
330
14B8
100
AcDbEntity
  8
LW 3520-19-01
100
AcDbVertex
100
AcDb2dVertex
 10
99.80145597457891
 20
-31.93250799179077
 30
0.0
  0
VERTEX
  5
14BC
330
14B8
100
AcDbEntity
  8
LW 3520-19-01
100
AcDbVertex
100
AcDb2dVertex
 10
99.57852804660802
 20
-31.84763216972351
 30
0.0
  0
VERTEX
  5
14BD
330
14B8
100
AcDbEntity
  8
LW 3520-19-01
100
AcDbVertex
100
AcDb2dVertex
 10
99.3661978244782
 20
-31.72932291030884
 30
0.0
  0
VERTEX
  5
14BE
330
14B8
100
AcDbEntity
  8
LW 3520-19-01
100
AcDbVertex
100
AcDb2dVertex
 10
99.17038345336919
 20
-31.58275866508484
 30
0.0
  0
VERTEX
  5
14BF
330
14B8
100
AcDbEntity
  8
LW 3520-19-01
100
AcDbVertex
100
AcDb2dVertex
 10
98.99663412570959
 20
-31.41421103477478
 30
0.0
  0
VERTEX
  5
14C0
330
14B8
100
AcDbEntity
  8
LW 3520-19-01
100
AcDbVertex
100
AcDb2dVertex
 10
98.84341621398931
 20
-31.22194790840149
 30
0.0
  0
VERTEX
  5
14C1
330
14B8
100
AcDbEntity
  8
LW 3520-19-01
100
AcDbVertex
100
AcDb2dVertex
 10
98.70952391624456
 20
-31.0038640499115
 30
0.0
  0
VERTEX
  5
14C2
330
14B8
100
AcDbEntity
  8
LW 3520-19-01
100
AcDbVertex
100
AcDb2dVertex
 10
98.60099756717687
 20
-30.76566958427429
 30
0.0
  0
VERTEX
  5
14C3
330
14B8
100
AcDbEntity
  8
LW 3520-19-01
100
AcDbVertex
100
AcDb2dVertex
 10
98.52290117740636
 20
-30.51353359222412
 30
0.0
  0
VERTEX
  5
14C4
330
14B8
100
AcDbEntity
  8
LW 3520-19-01
100
AcDbVertex
100
AcDb2dVertex
 10
98.47616219520574
 20
-30.25547885894776
 30
0.0
  0
VERTEX
  5
14C5
330
14B8
100
AcDbEntity
  8
LW 3520-19-01
100
AcDbVertex
100
AcDb2dVertex
 10
98.46061849594121
 20
-30.00000023841858
 30
0.0
  0
VERTEX
  5
14C6
330
14B8
100
AcDbEntity
  8
LW 3520-19-01
100
AcDbVertex
100
AcDb2dVertex
 10
98.47616219520574
 20
-29.74452042579651
 30
0.0
  0
VERTEX
  5
14C7
330
14B8
100
AcDbEntity
  8
LW 3520-19-01
100
AcDbVertex
100
AcDb2dVertex
 10
98.52290117740636
 20
-29.48646688461304
 30
0.0
  0
VERTEX
  5
14C8
330
14B8
100
AcDbEntity
  8
LW 3520-19-01
100
AcDbVertex
100
AcDb2dVertex
 10
98.60099756717687
 20
-29.23433089256287
 30
0.0
  0
VERTEX
  5
14C9
330
14B8
100
AcDbEntity
  8
LW 3520-19-01
100
AcDbVertex
100
AcDb2dVertex
 10
98.70952391624456
 20
-28.99613642692566
 30
0.0
  0
VERTEX
  5
14CA
330
14B8
100
AcDbEntity
  8
LW 3520-19-01
100
AcDbVertex
100
AcDb2dVertex
 10
98.84341621398931
 20
-28.77805137634278
 30
0.0
  0
VERTEX
  5
14CB
330
14B8
100
AcDbEntity
  8
LW 3520-19-01
100
AcDbVertex
100
AcDb2dVertex
 10
98.99663412570959
 20
-28.58578944206238
 30
0.0
  0
VERTEX
  5
14CC
330
14B8
100
AcDbEntity
  8
LW 3520-19-01
100
AcDbVertex
100
AcDb2dVertex
 10
99.17038345336919
 20
-28.41724181175232
 30
0.0
  0
VERTEX
  5
14CD
330
14B8
100
AcDbEntity
  8
LW 3520-19-01
100
AcDbVertex
100
AcDb2dVertex
 10
99.3661978244782
 20
-28.27067637443543
 30
0.0
  0
VERTEX
  5
14CE
330
14B8
100
AcDbEntity
  8
LW 3520-19-01
100
AcDbVertex
100
AcDb2dVertex
 10
99.57852804660802
 20
-28.15236830711365
 30
0.0
  0
VERTEX
  5
14CF
330
14B8
100
AcDbEntity
  8
LW 3520-19-01
100
AcDbVertex
100
AcDb2dVertex
 10
99.80145597457891
 20
-28.06749248504639
 30
0.0
  0
VERTEX
  5
14D0
330
14B8
100
AcDbEntity
  8
LW 3520-19-01
100
AcDbVertex
100
AcDb2dVertex
 10
100.0277742147446
 20
-28.01681661605835
 30
0.0
  0
VERTEX
  5
14D1
330
14B8
100
AcDbEntity
  8
LW 3520-19-01
100
AcDbVertex
100
AcDb2dVertex
 10
100.25
 20
-27.99999976158142
 30
0.0
  0
SEQEND
  5
14D2
330
14B8
100
AcDbEntity
  8
LW 3520-19-01
  0
POLYLINE
  5
14D3
330
1476
100
AcDbEntity
  8
LW 3520-19-01
100
AcDb2dPolyline
 66
     1
 10
0.0
 20
0.0
 30
0.0
 70
   128
  0
VERTEX
  5
14D4
330
14D3
100
AcDbEntity
  8
LW 3520-19-01
100
AcDbVertex
100
AcDb2dVertex
 10
100.25
 20
-27.99999976158142
 30
0.0
  0
VERTEX
  5
14D5
330
14D3
100
AcDbEntity
  8
LW 3520-19-01
100
AcDbVertex
100
AcDb2dVertex
 10
100.4702785015106
 20
-28.01681661605835
 30
0.0
  0
VERTEX
  5
14D6
330
14D3
100
AcDbEntity
  8
LW 3520-19-01
100
AcDbVertex
100
AcDb2dVertex
 10
100.6909259557724
 20
-28.06749248504639
 30
0.0
  0
VERTEX
  5
14D7
330
14D3
100
AcDbEntity
  8
LW 3520-19-01
100
AcDbVertex
100
AcDb2dVertex
 10
100.904713511467
 20
-28.15236830711365
 30
0.0
  0
VERTEX
  5
14D8
330
14D3
100
AcDbEntity
  8
LW 3520-19-01
100
AcDbVertex
100
AcDb2dVertex
 10
101.1049517393112
 20
-28.27067637443543
 30
0.0
  0
VERTEX
  5
14D9
330
14D3
100
AcDbEntity
  8
LW 3520-19-01
100
AcDbVertex
100
AcDb2dVertex
 10
101.2868710756302
 20
-28.41724181175232
 30
0.0
  0
VERTEX
  5
14DA
330
14D3
100
AcDbEntity
  8
LW 3520-19-01
100
AcDbVertex
100
AcDb2dVertex
 10
101.446129322052
 20
-28.58578944206238
 30
0.0
  0
VERTEX
  5
14DB
330
14D3
100
AcDbEntity
  8
LW 3520-19-01
100
AcDbVertex
100
AcDb2dVertex
 10
101.5848424434662
 20
-28.77805137634278
 30
0.0
  0
VERTEX
  5
14DC
330
14D3
100
AcDbEntity
  8
LW 3520-19-01
100
AcDbVertex
100
AcDb2dVertex
 10
101.7048063278199
 20
-28.99613642692566
 30
0.0
  0
VERTEX
  5
14DD
330
14D3
100
AcDbEntity
  8
LW 3520-19-01
100
AcDbVertex
100
AcDb2dVertex
 10
101.8011929988861
 20
-29.23433089256287
 30
0.0
  0
VERTEX
  5
14DE
330
14D3
100
AcDbEntity
  8
LW 3520-19-01
100
AcDbVertex
100
AcDb2dVertex
 10
101.8701031208039
 20
-29.48646688461304
 30
0.0
  0
VERTEX
  5
14DF
330
14D3
100
AcDbEntity
  8
LW 3520-19-01
100
AcDbVertex
100
AcDb2dVertex
 10
101.911137342453
 20
-29.74452042579651
 30
0.0
  0
VERTEX
  5
14E0
330
14D3
100
AcDbEntity
  8
LW 3520-19-01
100
AcDbVertex
100
AcDb2dVertex
 10
101.9247200489044
 20
-30.00000023841858
 30
0.0
  0
VERTEX
  5
14E1
330
14D3
100
AcDbEntity
  8
LW 3520-19-01
100
AcDbVertex
100
AcDb2dVertex
 10
101.911137342453
 20
-30.25547885894776
 30
0.0
  0
VERTEX
  5
14E2
330
14D3
100
AcDbEntity
  8
LW 3520-19-01
100
AcDbVertex
100
AcDb2dVertex
 10
101.8701031208039
 20
-30.51353359222412
 30
0.0
  0
VERTEX
  5
14E3
330
14D3
100
AcDbEntity
  8
LW 3520-19-01
100
AcDbVertex
100
AcDb2dVertex
 10
101.8011929988861
 20
-30.76566958427429
 30
0.0
  0
VERTEX
  5
14E4
330
14D3
100
AcDbEntity
  8
LW 3520-19-01
100
AcDbVertex
100
AcDb2dVertex
 10
101.7048063278199
 20
-31.0038640499115
 30
0.0
  0
VERTEX
  5
14E5
330
14D3
100
AcDbEntity
  8
LW 3520-19-01
100
AcDbVertex
100
AcDb2dVertex
 10
101.5848424434662
 20
-31.22194790840149
 30
0.0
  0
VERTEX
  5
14E6
330
14D3
100
AcDbEntity
  8
LW 3520-19-01
100
AcDbVertex
100
AcDb2dVertex
 10
101.446129322052
 20
-31.41421103477478
 30
0.0
  0
VERTEX
  5
14E7
330
14D3
100
AcDbEntity
  8
LW 3520-19-01
100
AcDbVertex
100
AcDb2dVertex
 10
101.2868710756302
 20
-31.58275866508484
 30
0.0
  0
VERTEX
  5
14E8
330
14D3
100
AcDbEntity
  8
LW 3520-19-01
100
AcDbVertex
100
AcDb2dVertex
 10
101.1049517393112
 20
-31.72932291030884
 30
0.0
  0
VERTEX
  5
14E9
330
14D3
100
AcDbEntity
  8
LW 3520-19-01
100
AcDbVertex
100
AcDb2dVertex
 10
100.904713511467
 20
-31.84763216972351
 30
0.0
  0
VERTEX
  5
14EA
330
14D3
100
AcDbEntity
  8
LW 3520-19-01
100
AcDbVertex
100
AcDb2dVertex
 10
100.6909259557724
 20
-31.93250799179077
 30
0.0
  0
VERTEX
  5
14EB
330
14D3
100
AcDbEntity
  8
LW 3520-19-01
100
AcDbVertex
100
AcDb2dVertex
 10
100.4702785015106
 20
-31.98318386077881
 30
0.0
  0
VERTEX
  5
14EC
330
14D3
100
AcDbEntity
  8
LW 3520-19-01
100
AcDbVertex
100
AcDb2dVertex
 10
100.25
 20
-31.99999952316284
 30
0.0
  0
SEQEND
  5
14ED
330
14D3
100
AcDbEntity
  8
LW 3520-19-01
  0
POLYLINE
  5
14EE
330
1476
100
AcDbEntity
  8
LW 3520-19-01
100
AcDb2dPolyline
 66
     1
 10
0.0
 20
0.0
 30
0.0
 70
   128
  0
VERTEX
  5
14EF
330
14EE
100
AcDbEntity
  8
LW 3520-19-01
100
AcDbVertex
100
AcDb2dVertex
 10
74.00000000000005
 20
-27.99999976158142
 30
0.0
  0
VERTEX
  5
14F0
330
14EE
100
AcDbEntity
  8
LW 3520-19-01
100
AcDbVertex
100
AcDb2dVertex
 10
74.00194668769842
 20
-28.01681661605835
 30
0.0
  0
VERTEX
  5
14F1
330
14EE
100
AcDbEntity
  8
LW 3520-19-01
100
AcDbVertex
100
AcDb2dVertex
 10
74.00761866569524
 20
-28.06749248504639
 30
0.0
  0
VERTEX
  5
14F2
330
14EE
100
AcDbEntity
  8
LW 3520-19-01
100
AcDbVertex
100
AcDb2dVertex
 10
74.0167584419251
 20
-28.15236830711365
 30
0.0
  0
VERTEX
  5
14F3
330
14EE
100
AcDbEntity
  8
LW 3520-19-01
100
AcDbVertex
100
AcDb2dVertex
 10
74.02885103225713
 20
-28.27067637443543
 30
0.0
  0
VERTEX
  5
14F4
330
14EE
100
AcDbEntity
  8
LW 3520-19-01
100
AcDbVertex
100
AcDb2dVertex
 10
74.04274606704717
 20
-28.41724181175232
 30
0.0
  0
VERTEX
  5
14F5
330
14EE
100
AcDbEntity
  8
LW 3520-19-01
100
AcDbVertex
100
AcDb2dVertex
 10
74.05723714828496
 20
-28.58578944206238
 30
0.0
  0
VERTEX
  5
14F6
330
14EE
100
AcDbEntity
  8
LW 3520-19-01
100
AcDbVertex
100
AcDb2dVertex
 10
74.07174134254461
 20
-28.77805137634278
 30
0.0
  0
VERTEX
  5
14F7
330
14EE
100
AcDbEntity
  8
LW 3520-19-01
100
AcDbVertex
100
AcDb2dVertex
 10
74.08566975593572
 20
-28.99613642692566
 30
0.0
  0
VERTEX
  5
14F8
330
14EE
100
AcDbEntity
  8
LW 3520-19-01
100
AcDbVertex
100
AcDb2dVertex
 10
74.09780883789068
 20
-29.23433089256287
 30
0.0
  0
VERTEX
  5
14F9
330
14EE
100
AcDbEntity
  8
LW 3520-19-01
100
AcDbVertex
100
AcDb2dVertex
 10
74.10699510574346
 20
-29.48646688461304
 30
0.0
  0
VERTEX
  5
14FA
330
14EE
100
AcDbEntity
  8
LW 3520-19-01
100
AcDbVertex
100
AcDb2dVertex
 10
74.11270046234136
 20
-29.74452042579651
 30
0.0
  0
VERTEX
  5
14FB
330
14EE
100
AcDbEntity
  8
LW 3520-19-01
100
AcDbVertex
100
AcDb2dVertex
 10
74.11466145515447
 20
-30.00000023841858
 30
0.0
  0
VERTEX
  5
14FC
330
14EE
100
AcDbEntity
  8
LW 3520-19-01
100
AcDbVertex
100
AcDb2dVertex
 10
74.11270046234136
 20
-30.25547885894776
 30
0.0
  0
VERTEX
  5
14FD
330
14EE
100
AcDbEntity
  8
LW 3520-19-01
100
AcDbVertex
100
AcDb2dVertex
 10
74.10699510574346
 20
-30.51353359222412
 30
0.0
  0
VERTEX
  5
14FE
330
14EE
100
AcDbEntity
  8
LW 3520-19-01
100
AcDbVertex
100
AcDb2dVertex
 10
74.09780883789068
 20
-30.76566958427429
 30
0.0
  0
VERTEX
  5
14FF
330
14EE
100
AcDbEntity
  8
LW 3520-19-01
100
AcDbVertex
100
AcDb2dVertex
 10
74.08566975593572
 20
-31.0038640499115
 30
0.0
  0
VERTEX
  5
1500
330
14EE
100
AcDbEntity
  8
LW 3520-19-01
100
AcDbVertex
100
AcDb2dVertex
 10
74.07174134254461
 20
-31.22194790840149
 30
0.0
  0
VERTEX
  5
1501
330
14EE
100
AcDbEntity
  8
LW 3520-19-01
100
AcDbVertex
100
AcDb2dVertex
 10
74.05723714828496
 20
-31.41421103477478
 30
0.0
  0
VERTEX
  5
1502
330
14EE
100
AcDbEntity
  8
LW 3520-19-01
100
AcDbVertex
100
AcDb2dVertex
 10
74.04274606704717
 20
-31.58275866508484
 30
0.0
  0
VERTEX
  5
1503
330
14EE
100
AcDbEntity
  8
LW 3520-19-01
100
AcDbVertex
100
AcDb2dVertex
 10
74.02885103225713
 20
-31.72932291030884
 30
0.0
  0
VERTEX
  5
1504
330
14EE
100
AcDbEntity
  8
LW 3520-19-01
100
AcDbVertex
100
AcDb2dVertex
 10
74.0167584419251
 20
-31.84763216972351
 30
0.0
  0
VERTEX
  5
1505
330
14EE
100
AcDbEntity
  8
LW 3520-19-01
100
AcDbVertex
100
AcDb2dVertex
 10
74.00761866569524
 20
-31.93250799179077
 30
0.0
  0
VERTEX
  5
1506
330
14EE
100
AcDbEntity
  8
LW 3520-19-01
100
AcDbVertex
100
AcDb2dVertex
 10
74.00194668769842
 20
-31.98318386077881
 30
0.0
  0
VERTEX
  5
1507
330
14EE
100
AcDbEntity
  8
LW 3520-19-01
100
AcDbVertex
100
AcDb2dVertex
 10
74.00000000000005
 20
-31.99999952316284
 30
0.0
  0
SEQEND
  5
1508
330
14EE
100
AcDbEntity
  8
LW 3520-19-01
  0
LINE
  5
1509
330
1476
100
AcDbEntity
  8
LW 3520-19-01
100
AcDbLine
 10
74.00000000000005
 20
-34.0
 30
0.0
 11
109.0
 21
-34.0
 31
0.0
  0
LINE
  5
150A
330
1476
100
AcDbEntity
  8
LW 3520-19-01
100
AcDbLine
 10
77.0
 20
-37.0
 30
0.0
 11
106.0000000000001
 21
-37.0
 31
0.0
  0
LINE
  5
150B
330
1476
100
AcDbEntity
  8
LW 3520-19-01
100
AcDbLine
 10
109.0
 20
-14.0
 30
0.0
 11
109.0
 21
-34.0
 31
0.0
  0
LINE
  5
150C
330
1476
100
AcDbEntity
  8
LW 3520-19-01
100
AcDbLine
 10
74.00000000000005
 20
-14.0
 30
0.0
 11
74.00000000000005
 21
-28.0
 31
0.0
  0
LINE
  5
150D
330
1476
100
AcDbEntity
  8
LW 3520-19-01
100
AcDbLine
 10
74.00000000000005
 20
-32.0
 30
0.0
 11
74.00000000000005
 21
-34.0
 31
0.0
  0
LINE
  5
150E
330
1476
100
AcDbEntity
  8
LW 3520-19-01
100
AcDbLine
 10
77.0
 20
-37.0
 30
0.0
 11
74.00000000000005
 21
-34.0
 31
0.0
  0
LINE
  5
150F
330
1476
100
AcDbEntity
  8
LW 3520-19-01
100
AcDbLine
 10
106.0
 20
-37.0
 30
0.0
 11
109.0
 21
-34.0
 31
0.0
  0
ELLIPSE
  5
1510
330
1476
100
AcDbEntity
  8
LW 3520-19-01
100
AcDbEllipse
 10
36.5
 20
-66.25
 30
0.0
 11
-1.999999999999999
 21
0.0000000000001786
 31
0.0
210
0.0
220
0.0
230
1.0
 40
0.866025403784438
 41
0.7941688477848415
 42
2.347423805805178
  0
POLYLINE
  5
1511
330
1476
100
AcDbEntity
  8
LW 3520-19-01
100
AcDb2dPolyline
 66
     1
 10
0.0
 20
0.0
 30
0.0
 70
   128
  0
VERTEX
  5
1512
330
1511
100
AcDbEntity
  8
LW 3520-19-01
100
AcDbVertex
100
AcDb2dVertex
 10
38.49999952316284
 20
-68.75
 30
0.0
  0
VERTEX
  5
1513
330
1511
100
AcDbEntity
  8
LW 3520-19-01
100
AcDbVertex
100
AcDb2dVertex
 10
38.48318386077881
 20
-68.97027850151062
 30
0.0
  0
VERTEX
  5
1514
330
1511
100
AcDbEntity
  8
LW 3520-19-01
100
AcDbVertex
100
AcDb2dVertex
 10
38.43250799179077
 20
-69.19092595577239
 30
0.0
  0
VERTEX
  5
1515
330
1511
100
AcDbEntity
  8
LW 3520-19-01
100
AcDbVertex
100
AcDb2dVertex
 10
38.34763216972351
 20
-69.40471351146697
 30
0.0
  0
VERTEX
  5
1516
330
1511
100
AcDbEntity
  8
LW 3520-19-01
100
AcDbVertex
100
AcDb2dVertex
 10
38.22932291030884
 20
-69.60495173931121
 30
0.0
  0
VERTEX
  5
1517
330
1511
100
AcDbEntity
  8
LW 3520-19-01
100
AcDbVertex
100
AcDb2dVertex
 10
38.08275866508484
 20
-69.78687107563018
 30
0.0
  0
VERTEX
  5
1518
330
1511
100
AcDbEntity
  8
LW 3520-19-01
100
AcDbVertex
100
AcDb2dVertex
 10
37.91421103477478
 20
-69.946129322052
 30
0.0
  0
VERTEX
  5
1519
330
1511
100
AcDbEntity
  8
LW 3520-19-01
100
AcDbVertex
100
AcDb2dVertex
 10
37.72194790840149
 20
-70.08484244346618
 30
0.0
  0
VERTEX
  5
151A
330
1511
100
AcDbEntity
  8
LW 3520-19-01
100
AcDbVertex
100
AcDb2dVertex
 10
37.5038640499115
 20
-70.20480632781982
 30
0.0
  0
VERTEX
  5
151B
330
1511
100
AcDbEntity
  8
LW 3520-19-01
100
AcDbVertex
100
AcDb2dVertex
 10
37.26566958427429
 20
-70.3011929988861
 30
0.0
  0
VERTEX
  5
151C
330
1511
100
AcDbEntity
  8
LW 3520-19-01
100
AcDbVertex
100
AcDb2dVertex
 10
37.01353359222412
 20
-70.37010312080383
 30
0.0
  0
VERTEX
  5
151D
330
1511
100
AcDbEntity
  8
LW 3520-19-01
100
AcDbVertex
100
AcDb2dVertex
 10
36.75547885894776
 20
-70.411137342453
 30
0.0
  0
VERTEX
  5
151E
330
1511
100
AcDbEntity
  8
LW 3520-19-01
100
AcDbVertex
100
AcDb2dVertex
 10
36.50000023841858
 20
-70.42472004890441
 30
0.0
  0
VERTEX
  5
151F
330
1511
100
AcDbEntity
  8
LW 3520-19-01
100
AcDbVertex
100
AcDb2dVertex
 10
36.24452042579651
 20
-70.411137342453
 30
0.0
  0
VERTEX
  5
1520
330
1511
100
AcDbEntity
  8
LW 3520-19-01
100
AcDbVertex
100
AcDb2dVertex
 10
35.98646688461304
 20
-70.37010312080383
 30
0.0
  0
VERTEX
  5
1521
330
1511
100
AcDbEntity
  8
LW 3520-19-01
100
AcDbVertex
100
AcDb2dVertex
 10
35.73433089256287
 20
-70.3011929988861
 30
0.0
  0
VERTEX
  5
1522
330
1511
100
AcDbEntity
  8
LW 3520-19-01
100
AcDbVertex
100
AcDb2dVertex
 10
35.49613642692566
 20
-70.20480632781982
 30
0.0
  0
VERTEX
  5
1523
330
1511
100
AcDbEntity
  8
LW 3520-19-01
100
AcDbVertex
100
AcDb2dVertex
 10
35.27805137634278
 20
-70.08484244346618
 30
0.0
  0
VERTEX
  5
1524
330
1511
100
AcDbEntity
  8
LW 3520-19-01
100
AcDbVertex
100
AcDb2dVertex
 10
35.08578944206238
 20
-69.946129322052
 30
0.0
  0
VERTEX
  5
1525
330
1511
100
AcDbEntity
  8
LW 3520-19-01
100
AcDbVertex
100
AcDb2dVertex
 10
34.91724181175232
 20
-69.78687107563018
 30
0.0
  0
VERTEX
  5
1526
330
1511
100
AcDbEntity
  8
LW 3520-19-01
100
AcDbVertex
100
AcDb2dVertex
 10
34.77067637443543
 20
-69.60495173931121
 30
0.0
  0
VERTEX
  5
1527
330
1511
100
AcDbEntity
  8
LW 3520-19-01
100
AcDbVertex
100
AcDb2dVertex
 10
34.65236830711365
 20
-69.40471351146697
 30
0.0
  0
VERTEX
  5
1528
330
1511
100
AcDbEntity
  8
LW 3520-19-01
100
AcDbVertex
100
AcDb2dVertex
 10
34.56749248504639
 20
-69.19092595577239
 30
0.0
  0
VERTEX
  5
1529
330
1511
100
AcDbEntity
  8
LW 3520-19-01
100
AcDbVertex
100
AcDb2dVertex
 10
34.51681661605835
 20
-68.97027850151062
 30
0.0
  0
VERTEX
  5
152A
330
1511
100
AcDbEntity
  8
LW 3520-19-01
100
AcDbVertex
100
AcDb2dVertex
 10
34.49999976158142
 20
-68.75
 30
0.0
  0
SEQEND
  5
152B
330
1511
100
AcDbEntity
  8
LW 3520-19-01
  0
POLYLINE
  5
152C
330
1476
100
AcDbEntity
  8
LW 3520-19-01
100
AcDb2dPolyline
 66
     1
 10
0.0
 20
0.0
 30
0.0
 70
   128
  0
VERTEX
  5
152D
330
152C
100
AcDbEntity
  8
LW 3520-19-01
100
AcDbVertex
100
AcDb2dVertex
 10
34.49999976158142
 20
-68.75
 30
0.0
  0
VERTEX
  5
152E
330
152C
100
AcDbEntity
  8
LW 3520-19-01
100
AcDbVertex
100
AcDb2dVertex
 10
34.51681661605835
 20
-68.52777421474456
 30
0.0
  0
VERTEX
  5
152F
330
152C
100
AcDbEntity
  8
LW 3520-19-01
100
AcDbVertex
100
AcDb2dVertex
 10
34.56749248504639
 20
-68.30145597457885
 30
0.0
  0
VERTEX
  5
1530
330
152C
100
AcDbEntity
  8
LW 3520-19-01
100
AcDbVertex
100
AcDb2dVertex
 10
34.65236830711365
 20
-68.07852804660797
 30
0.0
  0
VERTEX
  5
1531
330
152C
100
AcDbEntity
  8
LW 3520-19-01
100
AcDbVertex
100
AcDb2dVertex
 10
34.77067637443543
 20
-67.86619782447814
 30
0.0
  0
VERTEX
  5
1532
330
152C
100
AcDbEntity
  8
LW 3520-19-01
100
AcDbVertex
100
AcDb2dVertex
 10
34.91724181175232
 20
-67.67038345336914
 30
0.0
  0
VERTEX
  5
1533
330
152C
100
AcDbEntity
  8
LW 3520-19-01
100
AcDbVertex
100
AcDb2dVertex
 10
35.08578944206238
 20
-67.49663412570953
 30
0.0
  0
VERTEX
  5
1534
330
152C
100
AcDbEntity
  8
LW 3520-19-01
100
AcDbVertex
100
AcDb2dVertex
 10
35.27805137634278
 20
-67.34341621398925
 30
0.0
  0
VERTEX
  5
1535
330
152C
100
AcDbEntity
  8
LW 3520-19-01
100
AcDbVertex
100
AcDb2dVertex
 10
35.49613642692566
 20
-67.2095239162445
 30
0.0
  0
VERTEX
  5
1536
330
152C
100
AcDbEntity
  8
LW 3520-19-01
100
AcDbVertex
100
AcDb2dVertex
 10
35.73433089256287
 20
-67.10099756717681
 30
0.0
  0
VERTEX
  5
1537
330
152C
100
AcDbEntity
  8
LW 3520-19-01
100
AcDbVertex
100
AcDb2dVertex
 10
35.98646688461304
 20
-67.02290117740631
 30
0.0
  0
VERTEX
  5
1538
330
152C
100
AcDbEntity
  8
LW 3520-19-01
100
AcDbVertex
100
AcDb2dVertex
 10
36.24452042579651
 20
-66.97616219520568
 30
0.0
  0
VERTEX
  5
1539
330
152C
100
AcDbEntity
  8
LW 3520-19-01
100
AcDbVertex
100
AcDb2dVertex
 10
36.50000023841858
 20
-66.96061849594116
 30
0.0
  0
VERTEX
  5
153A
330
152C
100
AcDbEntity
  8
LW 3520-19-01
100
AcDbVertex
100
AcDb2dVertex
 10
36.75547885894776
 20
-66.97616219520568
 30
0.0
  0
VERTEX
  5
153B
330
152C
100
AcDbEntity
  8
LW 3520-19-01
100
AcDbVertex
100
AcDb2dVertex
 10
37.01353359222412
 20
-67.02290117740631
 30
0.0
  0
VERTEX
  5
153C
330
152C
100
AcDbEntity
  8
LW 3520-19-01
100
AcDbVertex
100
AcDb2dVertex
 10
37.26566958427429
 20
-67.10099756717681
 30
0.0
  0
VERTEX
  5
153D
330
152C
100
AcDbEntity
  8
LW 3520-19-01
100
AcDbVertex
100
AcDb2dVertex
 10
37.5038640499115
 20
-67.2095239162445
 30
0.0
  0
VERTEX
  5
153E
330
152C
100
AcDbEntity
  8
LW 3520-19-01
100
AcDbVertex
100
AcDb2dVertex
 10
37.72194790840149
 20
-67.34341621398925
 30
0.0
  0
VERTEX
  5
153F
330
152C
100
AcDbEntity
  8
LW 3520-19-01
100
AcDbVertex
100
AcDb2dVertex
 10
37.91421103477478
 20
-67.49663412570953
 30
0.0
  0
VERTEX
  5
1540
330
152C
100
AcDbEntity
  8
LW 3520-19-01
100
AcDbVertex
100
AcDb2dVertex
 10
38.08275866508484
 20
-67.67038345336914
 30
0.0
  0
VERTEX
  5
1541
330
152C
100
AcDbEntity
  8
LW 3520-19-01
100
AcDbVertex
100
AcDb2dVertex
 10
38.22932291030884
 20
-67.86619782447814
 30
0.0
  0
VERTEX
  5
1542
330
152C
100
AcDbEntity
  8
LW 3520-19-01
100
AcDbVertex
100
AcDb2dVertex
 10
38.34763216972351
 20
-68.07852804660797
 30
0.0
  0
VERTEX
  5
1543
330
152C
100
AcDbEntity
  8
LW 3520-19-01
100
AcDbVertex
100
AcDb2dVertex
 10
38.43250799179077
 20
-68.30145597457885
 30
0.0
  0
VERTEX
  5
1544
330
152C
100
AcDbEntity
  8
LW 3520-19-01
100
AcDbVertex
100
AcDb2dVertex
 10
38.48318386077881
 20
-68.52777421474456
 30
0.0
  0
VERTEX
  5
1545
330
152C
100
AcDbEntity
  8
LW 3520-19-01
100
AcDbVertex
100
AcDb2dVertex
 10
38.49999952316284
 20
-68.75
 30
0.0
  0
SEQEND
  5
1546
330
152C
100
AcDbEntity
  8
LW 3520-19-01
  0
POLYLINE
  5
1547
330
1476
100
AcDbEntity
  8
LW 3520-19-01
100
AcDb2dPolyline
 66
     1
 10
0.0
 20
0.0
 30
0.0
 70
   128
  0
VERTEX
  5
1548
330
1547
100
AcDbEntity
  8
LW 3520-19-01
100
AcDbVertex
100
AcDb2dVertex
 10
38.49999952316284
 20
-42.5
 30
0.0
  0
VERTEX
  5
1549
330
1547
100
AcDbEntity
  8
LW 3520-19-01
100
AcDbVertex
100
AcDb2dVertex
 10
38.48318386077881
 20
-42.50194668769836
 30
0.0
  0
VERTEX
  5
154A
330
1547
100
AcDbEntity
  8
LW 3520-19-01
100
AcDbVertex
100
AcDb2dVertex
 10
38.43250799179077
 20
-42.50761866569519
 30
0.0
  0
VERTEX
  5
154B
330
1547
100
AcDbEntity
  8
LW 3520-19-01
100
AcDbVertex
100
AcDb2dVertex
 10
38.34763216972351
 20
-42.51675844192504
 30
0.0
  0
VERTEX
  5
154C
330
1547
100
AcDbEntity
  8
LW 3520-19-01
100
AcDbVertex
100
AcDb2dVertex
 10
38.22932291030884
 20
-42.52885103225708
 30
0.0
  0
VERTEX
  5
154D
330
1547
100
AcDbEntity
  8
LW 3520-19-01
100
AcDbVertex
100
AcDb2dVertex
 10
38.08275866508484
 20
-42.54274606704711
 30
0.0
  0
VERTEX
  5
154E
330
1547
100
AcDbEntity
  8
LW 3520-19-01
100
AcDbVertex
100
AcDb2dVertex
 10
37.91421103477478
 20
-42.55723714828491
 30
0.0
  0
VERTEX
  5
154F
330
1547
100
AcDbEntity
  8
LW 3520-19-01
100
AcDbVertex
100
AcDb2dVertex
 10
37.72194790840149
 20
-42.57174134254455
 30
0.0
  0
VERTEX
  5
1550
330
1547
100
AcDbEntity
  8
LW 3520-19-01
100
AcDbVertex
100
AcDb2dVertex
 10
37.5038640499115
 20
-42.58566975593566
 30
0.0
  0
VERTEX
  5
1551
330
1547
100
AcDbEntity
  8
LW 3520-19-01
100
AcDbVertex
100
AcDb2dVertex
 10
37.26566958427429
 20
-42.59780883789062
 30
0.0
  0
VERTEX
  5
1552
330
1547
100
AcDbEntity
  8
LW 3520-19-01
100
AcDbVertex
100
AcDb2dVertex
 10
37.01353359222412
 20
-42.6069951057434
 30
0.0
  0
VERTEX
  5
1553
330
1547
100
AcDbEntity
  8
LW 3520-19-01
100
AcDbVertex
100
AcDb2dVertex
 10
36.75547885894776
 20
-42.6127004623413
 30
0.0
  0
VERTEX
  5
1554
330
1547
100
AcDbEntity
  8
LW 3520-19-01
100
AcDbVertex
100
AcDb2dVertex
 10
36.50000023841858
 20
-42.61466145515441
 30
0.0
  0
VERTEX
  5
1555
330
1547
100
AcDbEntity
  8
LW 3520-19-01
100
AcDbVertex
100
AcDb2dVertex
 10
36.24452042579651
 20
-42.6127004623413
 30
0.0
  0
VERTEX
  5
1556
330
1547
100
AcDbEntity
  8
LW 3520-19-01
100
AcDbVertex
100
AcDb2dVertex
 10
35.98646688461304
 20
-42.6069951057434
 30
0.0
  0
VERTEX
  5
1557
330
1547
100
AcDbEntity
  8
LW 3520-19-01
100
AcDbVertex
100
AcDb2dVertex
 10
35.73433089256287
 20
-42.59780883789062
 30
0.0
  0
VERTEX
  5
1558
330
1547
100
AcDbEntity
  8
LW 3520-19-01
100
AcDbVertex
100
AcDb2dVertex
 10
35.49613642692566
 20
-42.58566975593566
 30
0.0
  0
VERTEX
  5
1559
330
1547
100
AcDbEntity
  8
LW 3520-19-01
100
AcDbVertex
100
AcDb2dVertex
 10
35.27805137634278
 20
-42.57174134254455
 30
0.0
  0
VERTEX
  5
155A
330
1547
100
AcDbEntity
  8
LW 3520-19-01
100
AcDbVertex
100
AcDb2dVertex
 10
35.08578944206238
 20
-42.55723714828491
 30
0.0
  0
VERTEX
  5
155B
330
1547
100
AcDbEntity
  8
LW 3520-19-01
100
AcDbVertex
100
AcDb2dVertex
 10
34.91724181175232
 20
-42.54274606704711
 30
0.0
  0
VERTEX
  5
155C
330
1547
100
AcDbEntity
  8
LW 3520-19-01
100
AcDbVertex
100
AcDb2dVertex
 10
34.77067637443543
 20
-42.52885103225708
 30
0.0
  0
VERTEX
  5
155D
330
1547
100
AcDbEntity
  8
LW 3520-19-01
100
AcDbVertex
100
AcDb2dVertex
 10
34.65236830711365
 20
-42.51675844192504
 30
0.0
  0
VERTEX
  5
155E
330
1547
100
AcDbEntity
  8
LW 3520-19-01
100
AcDbVertex
100
AcDb2dVertex
 10
34.56749248504639
 20
-42.50761866569519
 30
0.0
  0
VERTEX
  5
155F
330
1547
100
AcDbEntity
  8
LW 3520-19-01
100
AcDbVertex
100
AcDb2dVertex
 10
34.51681661605835
 20
-42.50194668769836
 30
0.0
  0
VERTEX
  5
1560
330
1547
100
AcDbEntity
  8
LW 3520-19-01
100
AcDbVertex
100
AcDb2dVertex
 10
34.49999976158142
 20
-42.5
 30
0.0
  0
SEQEND
  5
1561
330
1547
100
AcDbEntity
  8
LW 3520-19-01
  0
LINE
  5
1562
330
1476
100
AcDbEntity
  8
LW 3520-19-01
100
AcDbLine
 10
40.49999999999999
 20
-77.5
 30
0.0
 11
40.49999999999999
 21
-42.5
 31
0.0
  0
LINE
  5
1563
330
1476
100
AcDbEntity
  8
LW 3520-19-01
100
AcDbLine
 10
43.5
 20
-74.49999999999994
 30
0.0
 11
43.5
 21
-45.49999999999999
 31
0.0
  0
LINE
  5
1564
330
1476
100
AcDbEntity
  8
LW 3520-19-01
100
AcDbLine
 10
20.5
 20
-42.5
 30
0.0
 11
34.5
 21
-42.5
 31
0.0
  0
LINE
  5
1565
330
1476
100
AcDbEntity
  8
LW 3520-19-01
100
AcDbLine
 10
38.5
 20
-42.5
 30
0.0
 11
40.49999999999999
 21
-42.5
 31
0.0
  0
LINE
  5
1566
330
1476
100
AcDbEntity
  8
LW 3520-19-01
100
AcDbLine
 10
20.5
 20
-77.5
 30
0.0
 11
40.49999999999999
 21
-77.5
 31
0.0
  0
LINE
  5
1567
330
1476
100
AcDbEntity
  8
LW 3520-19-01
100
AcDbLine
 10
43.5
 20
-74.49999999999994
 30
0.0
 11
40.49999999999999
 21
-77.5
 31
0.0
  0
LINE
  5
1568
330
1476
100
AcDbEntity
  8
LW 3520-19-01
100
AcDbLine
 10
43.5
 20
-45.49999999999999
 30
0.0
 11
40.49999999999999
 21
-42.5
 31
0.0
  0
ELLIPSE
  5
1569
330
1476
100
AcDbEntity
  8
LW 3520-19-01
100
AcDbEllipse
 10
36.5
 20
-146.25
 30
0.0
 11
-1.999999999999999
 21
0.0000000000001799
 31
0.0
210
0.0
220
0.0
230
1.0
 40
0.8660254037844387
 41
0.7941688477848424
 42
2.347423805805185
  0
POLYLINE
  5
156A
330
1476
100
AcDbEntity
  8
LW 3520-19-01
100
AcDb2dPolyline
 66
     1
 10
0.0
 20
0.0
 30
0.0
 70
   128
  0
VERTEX
  5
156B
330
156A
100
AcDbEntity
  8
LW 3520-19-01
100
AcDbVertex
100
AcDb2dVertex
 10
38.49999952316284
 20
-148.75
 30
0.0
  0
VERTEX
  5
156C
330
156A
100
AcDbEntity
  8
LW 3520-19-01
100
AcDbVertex
100
AcDb2dVertex
 10
38.48318386077881
 20
-148.9702785015106
 30
0.0
  0
VERTEX
  5
156D
330
156A
100
AcDbEntity
  8
LW 3520-19-01
100
AcDbVertex
100
AcDb2dVertex
 10
38.43250799179077
 20
-149.1909259557724
 30
0.0
  0
VERTEX
  5
156E
330
156A
100
AcDbEntity
  8
LW 3520-19-01
100
AcDbVertex
100
AcDb2dVertex
 10
38.34763216972351
 20
-149.4047135114669
 30
0.0
  0
VERTEX
  5
156F
330
156A
100
AcDbEntity
  8
LW 3520-19-01
100
AcDbVertex
100
AcDb2dVertex
 10
38.22932291030884
 20
-149.6049517393112
 30
0.0
  0
VERTEX
  5
1570
330
156A
100
AcDbEntity
  8
LW 3520-19-01
100
AcDbVertex
100
AcDb2dVertex
 10
38.08275866508484
 20
-149.7868710756302
 30
0.0
  0
VERTEX
  5
1571
330
156A
100
AcDbEntity
  8
LW 3520-19-01
100
AcDbVertex
100
AcDb2dVertex
 10
37.91421103477478
 20
-149.946129322052
 30
0.0
  0
VERTEX
  5
1572
330
156A
100
AcDbEntity
  8
LW 3520-19-01
100
AcDbVertex
100
AcDb2dVertex
 10
37.72194790840149
 20
-150.0848424434662
 30
0.0
  0
VERTEX
  5
1573
330
156A
100
AcDbEntity
  8
LW 3520-19-01
100
AcDbVertex
100
AcDb2dVertex
 10
37.5038640499115
 20
-150.2048063278198
 30
0.0
  0
VERTEX
  5
1574
330
156A
100
AcDbEntity
  8
LW 3520-19-01
100
AcDbVertex
100
AcDb2dVertex
 10
37.26566958427429
 20
-150.3011929988861
 30
0.0
  0
VERTEX
  5
1575
330
156A
100
AcDbEntity
  8
LW 3520-19-01
100
AcDbVertex
100
AcDb2dVertex
 10
37.01353359222412
 20
-150.3701031208038
 30
0.0
  0
VERTEX
  5
1576
330
156A
100
AcDbEntity
  8
LW 3520-19-01
100
AcDbVertex
100
AcDb2dVertex
 10
36.75547885894776
 20
-150.411137342453
 30
0.0
  0
VERTEX
  5
1577
330
156A
100
AcDbEntity
  8
LW 3520-19-01
100
AcDbVertex
100
AcDb2dVertex
 10
36.50000023841858
 20
-150.4247200489044
 30
0.0
  0
VERTEX
  5
1578
330
156A
100
AcDbEntity
  8
LW 3520-19-01
100
AcDbVertex
100
AcDb2dVertex
 10
36.24452042579651
 20
-150.411137342453
 30
0.0
  0
VERTEX
  5
1579
330
156A
100
AcDbEntity
  8
LW 3520-19-01
100
AcDbVertex
100
AcDb2dVertex
 10
35.98646688461304
 20
-150.3701031208038
 30
0.0
  0
VERTEX
  5
157A
330
156A
100
AcDbEntity
  8
LW 3520-19-01
100
AcDbVertex
100
AcDb2dVertex
 10
35.73433089256287
 20
-150.3011929988861
 30
0.0
  0
VERTEX
  5
157B
330
156A
100
AcDbEntity
  8
LW 3520-19-01
100
AcDbVertex
100
AcDb2dVertex
 10
35.49613642692566
 20
-150.2048063278198
 30
0.0
  0
VERTEX
  5
157C
330
156A
100
AcDbEntity
  8
LW 3520-19-01
100
AcDbVertex
100
AcDb2dVertex
 10
35.27805137634278
 20
-150.0848424434662
 30
0.0
  0
VERTEX
  5
157D
330
156A
100
AcDbEntity
  8
LW 3520-19-01
100
AcDbVertex
100
AcDb2dVertex
 10
35.08578944206238
 20
-149.946129322052
 30
0.0
  0
VERTEX
  5
157E
330
156A
100
AcDbEntity
  8
LW 3520-19-01
100
AcDbVertex
100
AcDb2dVertex
 10
34.91724181175232
 20
-149.7868710756302
 30
0.0
  0
VERTEX
  5
157F
330
156A
100
AcDbEntity
  8
LW 3520-19-01
100
AcDbVertex
100
AcDb2dVertex
 10
34.77067637443543
 20
-149.6049517393112
 30
0.0
  0
VERTEX
  5
1580
330
156A
100
AcDbEntity
  8
LW 3520-19-01
100
AcDbVertex
100
AcDb2dVertex
 10
34.65236830711365
 20
-149.4047135114669
 30
0.0
  0
VERTEX
  5
1581
330
156A
100
AcDbEntity
  8
LW 3520-19-01
100
AcDbVertex
100
AcDb2dVertex
 10
34.56749248504639
 20
-149.1909259557724
 30
0.0
  0
VERTEX
  5
1582
330
156A
100
AcDbEntity
  8
LW 3520-19-01
100
AcDbVertex
100
AcDb2dVertex
 10
34.51681661605835
 20
-148.9702785015106
 30
0.0
  0
VERTEX
  5
1583
330
156A
100
AcDbEntity
  8
LW 3520-19-01
100
AcDbVertex
100
AcDb2dVertex
 10
34.49999976158142
 20
-148.75
 30
0.0
  0
SEQEND
  5
1584
330
156A
100
AcDbEntity
  8
LW 3520-19-01
  0
POLYLINE
  5
1585
330
1476
100
AcDbEntity
  8
LW 3520-19-01
100
AcDb2dPolyline
 66
     1
 10
0.0
 20
0.0
 30
0.0
 70
   128
  0
VERTEX
  5
1586
330
1585
100
AcDbEntity
  8
LW 3520-19-01
100
AcDbVertex
100
AcDb2dVertex
 10
34.49999976158142
 20
-148.75
 30
0.0
  0
VERTEX
  5
1587
330
1585
100
AcDbEntity
  8
LW 3520-19-01
100
AcDbVertex
100
AcDb2dVertex
 10
34.51681661605835
 20
-148.5277742147445
 30
0.0
  0
VERTEX
  5
1588
330
1585
100
AcDbEntity
  8
LW 3520-19-01
100
AcDbVertex
100
AcDb2dVertex
 10
34.56749248504639
 20
-148.3014559745788
 30
0.0
  0
VERTEX
  5
1589
330
1585
100
AcDbEntity
  8
LW 3520-19-01
100
AcDbVertex
100
AcDb2dVertex
 10
34.65236830711365
 20
-148.0785280466079
 30
0.0
  0
VERTEX
  5
158A
330
1585
100
AcDbEntity
  8
LW 3520-19-01
100
AcDbVertex
100
AcDb2dVertex
 10
34.77067637443543
 20
-147.8661978244781
 30
0.0
  0
VERTEX
  5
158B
330
1585
100
AcDbEntity
  8
LW 3520-19-01
100
AcDbVertex
100
AcDb2dVertex
 10
34.91724181175232
 20
-147.6703834533691
 30
0.0
  0
VERTEX
  5
158C
330
1585
100
AcDbEntity
  8
LW 3520-19-01
100
AcDbVertex
100
AcDb2dVertex
 10
35.08578944206238
 20
-147.4966341257095
 30
0.0
  0
VERTEX
  5
158D
330
1585
100
AcDbEntity
  8
LW 3520-19-01
100
AcDbVertex
100
AcDb2dVertex
 10
35.27805137634278
 20
-147.3434162139892
 30
0.0
  0
VERTEX
  5
158E
330
1585
100
AcDbEntity
  8
LW 3520-19-01
100
AcDbVertex
100
AcDb2dVertex
 10
35.49613642692566
 20
-147.2095239162445
 30
0.0
  0
VERTEX
  5
158F
330
1585
100
AcDbEntity
  8
LW 3520-19-01
100
AcDbVertex
100
AcDb2dVertex
 10
35.73433089256287
 20
-147.1009975671768
 30
0.0
  0
VERTEX
  5
1590
330
1585
100
AcDbEntity
  8
LW 3520-19-01
100
AcDbVertex
100
AcDb2dVertex
 10
35.98646688461304
 20
-147.0229011774063
 30
0.0
  0
VERTEX
  5
1591
330
1585
100
AcDbEntity
  8
LW 3520-19-01
100
AcDbVertex
100
AcDb2dVertex
 10
36.24452042579651
 20
-146.9761621952057
 30
0.0
  0
VERTEX
  5
1592
330
1585
100
AcDbEntity
  8
LW 3520-19-01
100
AcDbVertex
100
AcDb2dVertex
 10
36.50000023841858
 20
-146.9606184959411
 30
0.0
  0
VERTEX
  5
1593
330
1585
100
AcDbEntity
  8
LW 3520-19-01
100
AcDbVertex
100
AcDb2dVertex
 10
36.75547885894776
 20
-146.9761621952057
 30
0.0
  0
VERTEX
  5
1594
330
1585
100
AcDbEntity
  8
LW 3520-19-01
100
AcDbVertex
100
AcDb2dVertex
 10
37.01353359222412
 20
-147.0229011774063
 30
0.0
  0
VERTEX
  5
1595
330
1585
100
AcDbEntity
  8
LW 3520-19-01
100
AcDbVertex
100
AcDb2dVertex
 10
37.26566958427429
 20
-147.1009975671768
 30
0.0
  0
VERTEX
  5
1596
330
1585
100
AcDbEntity
  8
LW 3520-19-01
100
AcDbVertex
100
AcDb2dVertex
 10
37.5038640499115
 20
-147.2095239162445
 30
0.0
  0
VERTEX
  5
1597
330
1585
100
AcDbEntity
  8
LW 3520-19-01
100
AcDbVertex
100
AcDb2dVertex
 10
37.72194790840149
 20
-147.3434162139892
 30
0.0
  0
VERTEX
  5
1598
330
1585
100
AcDbEntity
  8
LW 3520-19-01
100
AcDbVertex
100
AcDb2dVertex
 10
37.91421103477478
 20
-147.4966341257095
 30
0.0
  0
VERTEX
  5
1599
330
1585
100
AcDbEntity
  8
LW 3520-19-01
100
AcDbVertex
100
AcDb2dVertex
 10
38.08275866508484
 20
-147.6703834533691
 30
0.0
  0
VERTEX
  5
159A
330
1585
100
AcDbEntity
  8
LW 3520-19-01
100
AcDbVertex
100
AcDb2dVertex
 10
38.22932291030884
 20
-147.8661978244781
 30
0.0
  0
VERTEX
  5
159B
330
1585
100
AcDbEntity
  8
LW 3520-19-01
100
AcDbVertex
100
AcDb2dVertex
 10
38.34763216972351
 20
-148.0785280466079
 30
0.0
  0
VERTEX
  5
159C
330
1585
100
AcDbEntity
  8
LW 3520-19-01
100
AcDbVertex
100
AcDb2dVertex
 10
38.43250799179077
 20
-148.3014559745788
 30
0.0
  0
VERTEX
  5
159D
330
1585
100
AcDbEntity
  8
LW 3520-19-01
100
AcDbVertex
100
AcDb2dVertex
 10
38.48318386077881
 20
-148.5277742147445
 30
0.0
  0
VERTEX
  5
159E
330
1585
100
AcDbEntity
  8
LW 3520-19-01
100
AcDbVertex
100
AcDb2dVertex
 10
38.49999952316284
 20
-148.75
 30
0.0
  0
SEQEND
  5
159F
330
1585
100
AcDbEntity
  8
LW 3520-19-01
  0
POLYLINE
  5
15A0
330
1476
100
AcDbEntity
  8
LW 3520-19-01
100
AcDb2dPolyline
 66
     1
 10
0.0
 20
0.0
 30
0.0
 70
   128
  0
VERTEX
  5
15A1
330
15A0
100
AcDbEntity
  8
LW 3520-19-01
100
AcDbVertex
100
AcDb2dVertex
 10
38.49999952316284
 20
-122.4999999999999
 30
0.0
  0
VERTEX
  5
15A2
330
15A0
100
AcDbEntity
  8
LW 3520-19-01
100
AcDbVertex
100
AcDb2dVertex
 10
38.48318386077881
 20
-122.5019466876983
 30
0.0
  0
VERTEX
  5
15A3
330
15A0
100
AcDbEntity
  8
LW 3520-19-01
100
AcDbVertex
100
AcDb2dVertex
 10
38.43250799179077
 20
-122.5076186656951
 30
0.0
  0
VERTEX
  5
15A4
330
15A0
100
AcDbEntity
  8
LW 3520-19-01
100
AcDbVertex
100
AcDb2dVertex
 10
38.34763216972351
 20
-122.516758441925
 30
0.0
  0
VERTEX
  5
15A5
330
15A0
100
AcDbEntity
  8
LW 3520-19-01
100
AcDbVertex
100
AcDb2dVertex
 10
38.22932291030884
 20
-122.528851032257
 30
0.0
  0
VERTEX
  5
15A6
330
15A0
100
AcDbEntity
  8
LW 3520-19-01
100
AcDbVertex
100
AcDb2dVertex
 10
38.08275866508484
 20
-122.5427460670471
 30
0.0
  0
VERTEX
  5
15A7
330
15A0
100
AcDbEntity
  8
LW 3520-19-01
100
AcDbVertex
100
AcDb2dVertex
 10
37.91421103477478
 20
-122.5572371482849
 30
0.0
  0
VERTEX
  5
15A8
330
15A0
100
AcDbEntity
  8
LW 3520-19-01
100
AcDbVertex
100
AcDb2dVertex
 10
37.72194790840149
 20
-122.5717413425445
 30
0.0
  0
VERTEX
  5
15A9
330
15A0
100
AcDbEntity
  8
LW 3520-19-01
100
AcDbVertex
100
AcDb2dVertex
 10
37.5038640499115
 20
-122.5856697559356
 30
0.0
  0
VERTEX
  5
15AA
330
15A0
100
AcDbEntity
  8
LW 3520-19-01
100
AcDbVertex
100
AcDb2dVertex
 10
37.26566958427429
 20
-122.5978088378906
 30
0.0
  0
VERTEX
  5
15AB
330
15A0
100
AcDbEntity
  8
LW 3520-19-01
100
AcDbVertex
100
AcDb2dVertex
 10
37.01353359222412
 20
-122.6069951057433
 30
0.0
  0
VERTEX
  5
15AC
330
15A0
100
AcDbEntity
  8
LW 3520-19-01
100
AcDbVertex
100
AcDb2dVertex
 10
36.75547885894776
 20
-122.6127004623412
 30
0.0
  0
VERTEX
  5
15AD
330
15A0
100
AcDbEntity
  8
LW 3520-19-01
100
AcDbVertex
100
AcDb2dVertex
 10
36.50000023841858
 20
-122.6146614551544
 30
0.0
  0
VERTEX
  5
15AE
330
15A0
100
AcDbEntity
  8
LW 3520-19-01
100
AcDbVertex
100
AcDb2dVertex
 10
36.24452042579651
 20
-122.6127004623412
 30
0.0
  0
VERTEX
  5
15AF
330
15A0
100
AcDbEntity
  8
LW 3520-19-01
100
AcDbVertex
100
AcDb2dVertex
 10
35.98646688461304
 20
-122.6069951057433
 30
0.0
  0
VERTEX
  5
15B0
330
15A0
100
AcDbEntity
  8
LW 3520-19-01
100
AcDbVertex
100
AcDb2dVertex
 10
35.73433089256287
 20
-122.5978088378906
 30
0.0
  0
VERTEX
  5
15B1
330
15A0
100
AcDbEntity
  8
LW 3520-19-01
100
AcDbVertex
100
AcDb2dVertex
 10
35.49613642692566
 20
-122.5856697559356
 30
0.0
  0
VERTEX
  5
15B2
330
15A0
100
AcDbEntity
  8
LW 3520-19-01
100
AcDbVertex
100
AcDb2dVertex
 10
35.27805137634278
 20
-122.5717413425445
 30
0.0
  0
VERTEX
  5
15B3
330
15A0
100
AcDbEntity
  8
LW 3520-19-01
100
AcDbVertex
100
AcDb2dVertex
 10
35.08578944206238
 20
-122.5572371482849
 30
0.0
  0
VERTEX
  5
15B4
330
15A0
100
AcDbEntity
  8
LW 3520-19-01
100
AcDbVertex
100
AcDb2dVertex
 10
34.91724181175232
 20
-122.5427460670471
 30
0.0
  0
VERTEX
  5
15B5
330
15A0
100
AcDbEntity
  8
LW 3520-19-01
100
AcDbVertex
100
AcDb2dVertex
 10
34.77067637443543
 20
-122.528851032257
 30
0.0
  0
VERTEX
  5
15B6
330
15A0
100
AcDbEntity
  8
LW 3520-19-01
100
AcDbVertex
100
AcDb2dVertex
 10
34.65236830711365
 20
-122.516758441925
 30
0.0
  0
VERTEX
  5
15B7
330
15A0
100
AcDbEntity
  8
LW 3520-19-01
100
AcDbVertex
100
AcDb2dVertex
 10
34.56749248504639
 20
-122.5076186656951
 30
0.0
  0
VERTEX
  5
15B8
330
15A0
100
AcDbEntity
  8
LW 3520-19-01
100
AcDbVertex
100
AcDb2dVertex
 10
34.51681661605835
 20
-122.5019466876983
 30
0.0
  0
VERTEX
  5
15B9
330
15A0
100
AcDbEntity
  8
LW 3520-19-01
100
AcDbVertex
100
AcDb2dVertex
 10
34.49999976158142
 20
-122.4999999999999
 30
0.0
  0
SEQEND
  5
15BA
330
15A0
100
AcDbEntity
  8
LW 3520-19-01
  0
LINE
  5
15BB
330
1476
100
AcDbEntity
  8
LW 3520-19-01
100
AcDbLine
 10
40.49999999999999
 20
-157.5
 30
0.0
 11
40.49999999999999
 21
-122.4999999999999
 31
0.0
  0
LINE
  5
15BC
330
1476
100
AcDbEntity
  8
LW 3520-19-01
100
AcDbLine
 10
43.5
 20
-154.4999999999999
 30
0.0
 11
43.5
 21
-125.5
 31
0.0
  0
LINE
  5
15BD
330
1476
100
AcDbEntity
  8
LW 3520-19-01
100
AcDbLine
 10
20.5
 20
-122.4999999999999
 30
0.0
 11
34.5
 21
-122.4999999999999
 31
0.0
  0
LINE
  5
15BE
330
1476
100
AcDbEntity
  8
LW 3520-19-01
100
AcDbLine
 10
38.5
 20
-122.4999999999999
 30
0.0
 11
40.49999999999999
 21
-122.4999999999999
 31
0.0
  0
LINE
  5
15BF
330
1476
100
AcDbEntity
  8
LW 3520-19-01
100
AcDbLine
 10
20.5
 20
-157.5
 30
0.0
 11
40.49999999999999
 21
-157.5
 31
0.0
  0
LINE
  5
15C0
330
1476
100
AcDbEntity
  8
LW 3520-19-01
100
AcDbLine
 10
43.5
 20
-154.4999999999999
 30
0.0
 11
40.49999999999999
 21
-157.5
 31
0.0
  0
LINE
  5
15C1
330
1476
100
AcDbEntity
  8
LW 3520-19-01
100
AcDbLine
 10
43.5
 20
-125.5
 30
0.0
 11
40.49999999999999
 21
-122.4999999999999
 31
0.0
  0
ELLIPSE
  5
15C2
330
1476
100
AcDbEntity
  8
LW 3520-19-01
100
AcDbEllipse
 10
-36.5
 20
-146.25
 30
0.0
 11
-2.000000000000001
 21
0.0000000000001781
 31
0.0
210
0.0
220
0.0
230
1.0
 40
0.8660254037844381
 41
0.7941688477848415
 42
2.347423805805185
  0
POLYLINE
  5
15C3
330
1476
100
AcDbEntity
  8
LW 3520-19-01
100
AcDb2dPolyline
 66
     1
 10
0.0
 20
0.0
 30
0.0
 70
   128
  0
VERTEX
  5
15C4
330
15C3
100
AcDbEntity
  8
LW 3520-19-01
100
AcDbVertex
100
AcDb2dVertex
 10
-38.49999952316281
 20
-148.75
 30
0.0
  0
VERTEX
  5
15C5
330
15C3
100
AcDbEntity
  8
LW 3520-19-01
100
AcDbVertex
100
AcDb2dVertex
 10
-38.48318386077878
 20
-148.5277742147445
 30
0.0
  0
VERTEX
  5
15C6
330
15C3
100
AcDbEntity
  8
LW 3520-19-01
100
AcDbVertex
100
AcDb2dVertex
 10
-38.43250799179074
 20
-148.3014559745788
 30
0.0
  0
VERTEX
  5
15C7
330
15C3
100
AcDbEntity
  8
LW 3520-19-01
100
AcDbVertex
100
AcDb2dVertex
 10
-38.34763216972348
 20
-148.0785280466079
 30
0.0
  0
VERTEX
  5
15C8
330
15C3
100
AcDbEntity
  8
LW 3520-19-01
100
AcDbVertex
100
AcDb2dVertex
 10
-38.22932291030881
 20
-147.8661978244781
 30
0.0
  0
VERTEX
  5
15C9
330
15C3
100
AcDbEntity
  8
LW 3520-19-01
100
AcDbVertex
100
AcDb2dVertex
 10
-38.08275866508481
 20
-147.6703834533691
 30
0.0
  0
VERTEX
  5
15CA
330
15C3
100
AcDbEntity
  8
LW 3520-19-01
100
AcDbVertex
100
AcDb2dVertex
 10
-37.91421103477475
 20
-147.4966341257095
 30
0.0
  0
VERTEX
  5
15CB
330
15C3
100
AcDbEntity
  8
LW 3520-19-01
100
AcDbVertex
100
AcDb2dVertex
 10
-37.72194790840146
 20
-147.3434162139892
 30
0.0
  0
VERTEX
  5
15CC
330
15C3
100
AcDbEntity
  8
LW 3520-19-01
100
AcDbVertex
100
AcDb2dVertex
 10
-37.50386404991147
 20
-147.2095239162445
 30
0.0
  0
VERTEX
  5
15CD
330
15C3
100
AcDbEntity
  8
LW 3520-19-01
100
AcDbVertex
100
AcDb2dVertex
 10
-37.26566958427426
 20
-147.1009975671768
 30
0.0
  0
VERTEX
  5
15CE
330
15C3
100
AcDbEntity
  8
LW 3520-19-01
100
AcDbVertex
100
AcDb2dVertex
 10
-37.01353359222409
 20
-147.0229011774063
 30
0.0
  0
VERTEX
  5
15CF
330
15C3
100
AcDbEntity
  8
LW 3520-19-01
100
AcDbVertex
100
AcDb2dVertex
 10
-36.75547885894772
 20
-146.9761621952057
 30
0.0
  0
VERTEX
  5
15D0
330
15C3
100
AcDbEntity
  8
LW 3520-19-01
100
AcDbVertex
100
AcDb2dVertex
 10
-36.50000023841855
 20
-146.9606184959411
 30
0.0
  0
VERTEX
  5
15D1
330
15C3
100
AcDbEntity
  8
LW 3520-19-01
100
AcDbVertex
100
AcDb2dVertex
 10
-36.24452042579648
 20
-146.9761621952057
 30
0.0
  0
VERTEX
  5
15D2
330
15C3
100
AcDbEntity
  8
LW 3520-19-01
100
AcDbVertex
100
AcDb2dVertex
 10
-35.98646688461301
 20
-147.0229011774063
 30
0.0
  0
VERTEX
  5
15D3
330
15C3
100
AcDbEntity
  8
LW 3520-19-01
100
AcDbVertex
100
AcDb2dVertex
 10
-35.73433089256284
 20
-147.1009975671768
 30
0.0
  0
VERTEX
  5
15D4
330
15C3
100
AcDbEntity
  8
LW 3520-19-01
100
AcDbVertex
100
AcDb2dVertex
 10
-35.49613642692563
 20
-147.2095239162445
 30
0.0
  0
VERTEX
  5
15D5
330
15C3
100
AcDbEntity
  8
LW 3520-19-01
100
AcDbVertex
100
AcDb2dVertex
 10
-35.27805137634274
 20
-147.3434162139892
 30
0.0
  0
VERTEX
  5
15D6
330
15C3
100
AcDbEntity
  8
LW 3520-19-01
100
AcDbVertex
100
AcDb2dVertex
 10
-35.08578944206235
 20
-147.4966341257095
 30
0.0
  0
VERTEX
  5
15D7
330
15C3
100
AcDbEntity
  8
LW 3520-19-01
100
AcDbVertex
100
AcDb2dVertex
 10
-34.91724181175229
 20
-147.6703834533691
 30
0.0
  0
VERTEX
  5
15D8
330
15C3
100
AcDbEntity
  8
LW 3520-19-01
100
AcDbVertex
100
AcDb2dVertex
 10
-34.7706763744354
 20
-147.8661978244781
 30
0.0
  0
VERTEX
  5
15D9
330
15C3
100
AcDbEntity
  8
LW 3520-19-01
100
AcDbVertex
100
AcDb2dVertex
 10
-34.65236830711362
 20
-148.0785280466079
 30
0.0
  0
VERTEX
  5
15DA
330
15C3
100
AcDbEntity
  8
LW 3520-19-01
100
AcDbVertex
100
AcDb2dVertex
 10
-34.56749248504636
 20
-148.3014559745788
 30
0.0
  0
VERTEX
  5
15DB
330
15C3
100
AcDbEntity
  8
LW 3520-19-01
100
AcDbVertex
100
AcDb2dVertex
 10
-34.51681661605832
 20
-148.5277742147445
 30
0.0
  0
VERTEX
  5
15DC
330
15C3
100
AcDbEntity
  8
LW 3520-19-01
100
AcDbVertex
100
AcDb2dVertex
 10
-34.49999976158139
 20
-148.75
 30
0.0
  0
SEQEND
  5
15DD
330
15C3
100
AcDbEntity
  8
LW 3520-19-01
  0
POLYLINE
  5
15DE
330
1476
100
AcDbEntity
  8
LW 3520-19-01
100
AcDb2dPolyline
 66
     1
 10
0.0
 20
0.0
 30
0.0
 70
   128
  0
VERTEX
  5
15DF
330
15DE
100
AcDbEntity
  8
LW 3520-19-01
100
AcDbVertex
100
AcDb2dVertex
 10
-34.49999976158139
 20
-148.75
 30
0.0
  0
VERTEX
  5
15E0
330
15DE
100
AcDbEntity
  8
LW 3520-19-01
100
AcDbVertex
100
AcDb2dVertex
 10
-34.51681661605832
 20
-148.9702785015106
 30
0.0
  0
VERTEX
  5
15E1
330
15DE
100
AcDbEntity
  8
LW 3520-19-01
100
AcDbVertex
100
AcDb2dVertex
 10
-34.56749248504636
 20
-149.1909259557724
 30
0.0
  0
VERTEX
  5
15E2
330
15DE
100
AcDbEntity
  8
LW 3520-19-01
100
AcDbVertex
100
AcDb2dVertex
 10
-34.65236830711362
 20
-149.4047135114669
 30
0.0
  0
VERTEX
  5
15E3
330
15DE
100
AcDbEntity
  8
LW 3520-19-01
100
AcDbVertex
100
AcDb2dVertex
 10
-34.7706763744354
 20
-149.6049517393112
 30
0.0
  0
VERTEX
  5
15E4
330
15DE
100
AcDbEntity
  8
LW 3520-19-01
100
AcDbVertex
100
AcDb2dVertex
 10
-34.91724181175229
 20
-149.7868710756302
 30
0.0
  0
VERTEX
  5
15E5
330
15DE
100
AcDbEntity
  8
LW 3520-19-01
100
AcDbVertex
100
AcDb2dVertex
 10
-35.08578944206235
 20
-149.946129322052
 30
0.0
  0
VERTEX
  5
15E6
330
15DE
100
AcDbEntity
  8
LW 3520-19-01
100
AcDbVertex
100
AcDb2dVertex
 10
-35.27805137634274
 20
-150.0848424434662
 30
0.0
  0
VERTEX
  5
15E7
330
15DE
100
AcDbEntity
  8
LW 3520-19-01
100
AcDbVertex
100
AcDb2dVertex
 10
-35.49613642692563
 20
-150.2048063278198
 30
0.0
  0
VERTEX
  5
15E8
330
15DE
100
AcDbEntity
  8
LW 3520-19-01
100
AcDbVertex
100
AcDb2dVertex
 10
-35.73433089256284
 20
-150.3011929988861
 30
0.0
  0
VERTEX
  5
15E9
330
15DE
100
AcDbEntity
  8
LW 3520-19-01
100
AcDbVertex
100
AcDb2dVertex
 10
-35.98646688461301
 20
-150.3701031208038
 30
0.0
  0
VERTEX
  5
15EA
330
15DE
100
AcDbEntity
  8
LW 3520-19-01
100
AcDbVertex
100
AcDb2dVertex
 10
-36.24452042579648
 20
-150.411137342453
 30
0.0
  0
VERTEX
  5
15EB
330
15DE
100
AcDbEntity
  8
LW 3520-19-01
100
AcDbVertex
100
AcDb2dVertex
 10
-36.50000023841855
 20
-150.4247200489044
 30
0.0
  0
VERTEX
  5
15EC
330
15DE
100
AcDbEntity
  8
LW 3520-19-01
100
AcDbVertex
100
AcDb2dVertex
 10
-36.75547885894772
 20
-150.411137342453
 30
0.0
  0
VERTEX
  5
15ED
330
15DE
100
AcDbEntity
  8
LW 3520-19-01
100
AcDbVertex
100
AcDb2dVertex
 10
-37.01353359222409
 20
-150.3701031208038
 30
0.0
  0
VERTEX
  5
15EE
330
15DE
100
AcDbEntity
  8
LW 3520-19-01
100
AcDbVertex
100
AcDb2dVertex
 10
-37.26566958427426
 20
-150.3011929988861
 30
0.0
  0
VERTEX
  5
15EF
330
15DE
100
AcDbEntity
  8
LW 3520-19-01
100
AcDbVertex
100
AcDb2dVertex
 10
-37.50386404991147
 20
-150.2048063278198
 30
0.0
  0
VERTEX
  5
15F0
330
15DE
100
AcDbEntity
  8
LW 3520-19-01
100
AcDbVertex
100
AcDb2dVertex
 10
-37.72194790840146
 20
-150.0848424434662
 30
0.0
  0
VERTEX
  5
15F1
330
15DE
100
AcDbEntity
  8
LW 3520-19-01
100
AcDbVertex
100
AcDb2dVertex
 10
-37.91421103477475
 20
-149.946129322052
 30
0.0
  0
VERTEX
  5
15F2
330
15DE
100
AcDbEntity
  8
LW 3520-19-01
100
AcDbVertex
100
AcDb2dVertex
 10
-38.08275866508481
 20
-149.7868710756302
 30
0.0
  0
VERTEX
  5
15F3
330
15DE
100
AcDbEntity
  8
LW 3520-19-01
100
AcDbVertex
100
AcDb2dVertex
 10
-38.22932291030881
 20
-149.6049517393112
 30
0.0
  0
VERTEX
  5
15F4
330
15DE
100
AcDbEntity
  8
LW 3520-19-01
100
AcDbVertex
100
AcDb2dVertex
 10
-38.34763216972348
 20
-149.4047135114669
 30
0.0
  0
VERTEX
  5
15F5
330
15DE
100
AcDbEntity
  8
LW 3520-19-01
100
AcDbVertex
100
AcDb2dVertex
 10
-38.43250799179074
 20
-149.1909259557724
 30
0.0
  0
VERTEX
  5
15F6
330
15DE
100
AcDbEntity
  8
LW 3520-19-01
100
AcDbVertex
100
AcDb2dVertex
 10
-38.48318386077878
 20
-148.9702785015106
 30
0.0
  0
VERTEX
  5
15F7
330
15DE
100
AcDbEntity
  8
LW 3520-19-01
100
AcDbVertex
100
AcDb2dVertex
 10
-38.49999952316281
 20
-148.75
 30
0.0
  0
SEQEND
  5
15F8
330
15DE
100
AcDbEntity
  8
LW 3520-19-01
  0
POLYLINE
  5
15F9
330
1476
100
AcDbEntity
  8
LW 3520-19-01
100
AcDb2dPolyline
 66
     1
 10
0.0
 20
0.0
 30
0.0
 70
   128
  0
VERTEX
  5
15FA
330
15F9
100
AcDbEntity
  8
LW 3520-19-01
100
AcDbVertex
100
AcDb2dVertex
 10
-34.49999976158139
 20
-122.4999999999999
 30
0.0
  0
VERTEX
  5
15FB
330
15F9
100
AcDbEntity
  8
LW 3520-19-01
100
AcDbVertex
100
AcDb2dVertex
 10
-34.51681661605832
 20
-122.5019466876983
 30
0.0
  0
VERTEX
  5
15FC
330
15F9
100
AcDbEntity
  8
LW 3520-19-01
100
AcDbVertex
100
AcDb2dVertex
 10
-34.56749248504636
 20
-122.5076186656951
 30
0.0
  0
VERTEX
  5
15FD
330
15F9
100
AcDbEntity
  8
LW 3520-19-01
100
AcDbVertex
100
AcDb2dVertex
 10
-34.65236830711362
 20
-122.516758441925
 30
0.0
  0
VERTEX
  5
15FE
330
15F9
100
AcDbEntity
  8
LW 3520-19-01
100
AcDbVertex
100
AcDb2dVertex
 10
-34.7706763744354
 20
-122.528851032257
 30
0.0
  0
VERTEX
  5
15FF
330
15F9
100
AcDbEntity
  8
LW 3520-19-01
100
AcDbVertex
100
AcDb2dVertex
 10
-34.91724181175229
 20
-122.5427460670471
 30
0.0
  0
VERTEX
  5
1600
330
15F9
100
AcDbEntity
  8
LW 3520-19-01
100
AcDbVertex
100
AcDb2dVertex
 10
-35.08578944206235
 20
-122.5572371482849
 30
0.0
  0
VERTEX
  5
1601
330
15F9
100
AcDbEntity
  8
LW 3520-19-01
100
AcDbVertex
100
AcDb2dVertex
 10
-35.27805137634274
 20
-122.5717413425445
 30
0.0
  0
VERTEX
  5
1602
330
15F9
100
AcDbEntity
  8
LW 3520-19-01
100
AcDbVertex
100
AcDb2dVertex
 10
-35.49613642692563
 20
-122.5856697559356
 30
0.0
  0
VERTEX
  5
1603
330
15F9
100
AcDbEntity
  8
LW 3520-19-01
100
AcDbVertex
100
AcDb2dVertex
 10
-35.73433089256284
 20
-122.5978088378906
 30
0.0
  0
VERTEX
  5
1604
330
15F9
100
AcDbEntity
  8
LW 3520-19-01
100
AcDbVertex
100
AcDb2dVertex
 10
-35.98646688461301
 20
-122.6069951057433
 30
0.0
  0
VERTEX
  5
1605
330
15F9
100
AcDbEntity
  8
LW 3520-19-01
100
AcDbVertex
100
AcDb2dVertex
 10
-36.24452042579648
 20
-122.6127004623412
 30
0.0
  0
VERTEX
  5
1606
330
15F9
100
AcDbEntity
  8
LW 3520-19-01
100
AcDbVertex
100
AcDb2dVertex
 10
-36.50000023841855
 20
-122.6146614551544
 30
0.0
  0
VERTEX
  5
1607
330
15F9
100
AcDbEntity
  8
LW 3520-19-01
100
AcDbVertex
100
AcDb2dVertex
 10
-36.75547885894772
 20
-122.6127004623412
 30
0.0
  0
VERTEX
  5
1608
330
15F9
100
AcDbEntity
  8
LW 3520-19-01
100
AcDbVertex
100
AcDb2dVertex
 10
-37.01353359222409
 20
-122.6069951057433
 30
0.0
  0
VERTEX
  5
1609
330
15F9
100
AcDbEntity
  8
LW 3520-19-01
100
AcDbVertex
100
AcDb2dVertex
 10
-37.26566958427426
 20
-122.5978088378906
 30
0.0
  0
VERTEX
  5
160A
330
15F9
100
AcDbEntity
  8
LW 3520-19-01
100
AcDbVertex
100
AcDb2dVertex
 10
-37.50386404991147
 20
-122.5856697559356
 30
0.0
  0
VERTEX
  5
160B
330
15F9
100
AcDbEntity
  8
LW 3520-19-01
100
AcDbVertex
100
AcDb2dVertex
 10
-37.72194790840146
 20
-122.5717413425445
 30
0.0
  0
VERTEX
  5
160C
330
15F9
100
AcDbEntity
  8
LW 3520-19-01
100
AcDbVertex
100
AcDb2dVertex
 10
-37.91421103477475
 20
-122.5572371482849
 30
0.0
  0
VERTEX
  5
160D
330
15F9
100
AcDbEntity
  8
LW 3520-19-01
100
AcDbVertex
100
AcDb2dVertex
 10
-38.08275866508481
 20
-122.5427460670471
 30
0.0
  0
VERTEX
  5
160E
330
15F9
100
AcDbEntity
  8
LW 3520-19-01
100
AcDbVertex
100
AcDb2dVertex
 10
-38.22932291030881
 20
-122.528851032257
 30
0.0
  0
VERTEX
  5
160F
330
15F9
100
AcDbEntity
  8
LW 3520-19-01
100
AcDbVertex
100
AcDb2dVertex
 10
-38.34763216972348
 20
-122.516758441925
 30
0.0
  0
VERTEX
  5
1610
330
15F9
100
AcDbEntity
  8
LW 3520-19-01
100
AcDbVertex
100
AcDb2dVertex
 10
-38.43250799179074
 20
-122.5076186656951
 30
0.0
  0
VERTEX
  5
1611
330
15F9
100
AcDbEntity
  8
LW 3520-19-01
100
AcDbVertex
100
AcDb2dVertex
 10
-38.48318386077878
 20
-122.5019466876983
 30
0.0
  0
VERTEX
  5
1612
330
15F9
100
AcDbEntity
  8
LW 3520-19-01
100
AcDbVertex
100
AcDb2dVertex
 10
-38.49999952316281
 20
-122.4999999999999
 30
0.0
  0
SEQEND
  5
1613
330
15F9
100
AcDbEntity
  8
LW 3520-19-01
  0
LINE
  5
1614
330
1476
100
AcDbEntity
  8
LW 3520-19-01
100
AcDbLine
 10
-40.49999999999997
 20
-122.4999999999999
 30
0.0
 11
-40.49999999999997
 21
-157.5
 31
0.0
  0
LINE
  5
1615
330
1476
100
AcDbEntity
  8
LW 3520-19-01
100
AcDbLine
 10
-43.49999999999996
 20
-125.5
 30
0.0
 11
-43.49999999999996
 21
-154.4999999999999
 31
0.0
  0
LINE
  5
1616
330
1476
100
AcDbEntity
  8
LW 3520-19-01
100
AcDbLine
 10
-20.49999999999997
 20
-157.5
 30
0.0
 11
-40.49999999999997
 21
-157.5
 31
0.0
  0
LINE
  5
1617
330
1476
100
AcDbEntity
  8
LW 3520-19-01
100
AcDbLine
 10
-20.49999999999997
 20
-122.4999999999999
 30
0.0
 11
-34.5
 21
-122.4999999999999
 31
0.0
  0
LINE
  5
1618
330
1476
100
AcDbEntity
  8
LW 3520-19-01
100
AcDbLine
 10
-38.49999999999997
 20
-122.4999999999999
 30
0.0
 11
-40.49999999999997
 21
-122.4999999999999
 31
0.0
  0
LINE
  5
1619
330
1476
100
AcDbEntity
  8
LW 3520-19-01
100
AcDbLine
 10
-43.49999999999996
 20
-125.5
 30
0.0
 11
-40.49999999999997
 21
-122.4999999999999
 31
0.0
  0
LINE
  5
161A
330
1476
100
AcDbEntity
  8
LW 3520-19-01
100
AcDbLine
 10
-43.49999999999996
 20
-154.4999999999999
 30
0.0
 11
-40.49999999999997
 21
-157.5
 31
0.0
  0
ELLIPSE
  5
161B
330
1476
100
AcDbEntity
  8
LW 3520-19-01
100
AcDbEllipse
 10
-36.5
 20
-66.25
 30
0.0
 11
-1.999999999999997
 21
0.0000000000001768
 31
0.0
210
0.0
220
0.0
230
1.0
 40
0.8660254037844378
 41
0.7941688477848557
 42
2.347423805805192
  0
POLYLINE
  5
161C
330
1476
100
AcDbEntity
  8
LW 3520-19-01
100
AcDb2dPolyline
 66
     1
 10
0.0
 20
0.0
 30
0.0
 70
   128
  0
VERTEX
  5
161D
330
161C
100
AcDbEntity
  8
LW 3520-19-01
100
AcDbVertex
100
AcDb2dVertex
 10
-38.49999952316281
 20
-68.75
 30
0.0
  0
VERTEX
  5
161E
330
161C
100
AcDbEntity
  8
LW 3520-19-01
100
AcDbVertex
100
AcDb2dVertex
 10
-38.48318386077878
 20
-68.52777421474456
 30
0.0
  0
VERTEX
  5
161F
330
161C
100
AcDbEntity
  8
LW 3520-19-01
100
AcDbVertex
100
AcDb2dVertex
 10
-38.43250799179074
 20
-68.30145597457885
 30
0.0
  0
VERTEX
  5
1620
330
161C
100
AcDbEntity
  8
LW 3520-19-01
100
AcDbVertex
100
AcDb2dVertex
 10
-38.34763216972348
 20
-68.07852804660797
 30
0.0
  0
VERTEX
  5
1621
330
161C
100
AcDbEntity
  8
LW 3520-19-01
100
AcDbVertex
100
AcDb2dVertex
 10
-38.22932291030881
 20
-67.86619782447814
 30
0.0
  0
VERTEX
  5
1622
330
161C
100
AcDbEntity
  8
LW 3520-19-01
100
AcDbVertex
100
AcDb2dVertex
 10
-38.08275866508481
 20
-67.67038345336914
 30
0.0
  0
VERTEX
  5
1623
330
161C
100
AcDbEntity
  8
LW 3520-19-01
100
AcDbVertex
100
AcDb2dVertex
 10
-37.91421103477475
 20
-67.49663412570953
 30
0.0
  0
VERTEX
  5
1624
330
161C
100
AcDbEntity
  8
LW 3520-19-01
100
AcDbVertex
100
AcDb2dVertex
 10
-37.72194790840146
 20
-67.34341621398925
 30
0.0
  0
VERTEX
  5
1625
330
161C
100
AcDbEntity
  8
LW 3520-19-01
100
AcDbVertex
100
AcDb2dVertex
 10
-37.50386404991147
 20
-67.2095239162445
 30
0.0
  0
VERTEX
  5
1626
330
161C
100
AcDbEntity
  8
LW 3520-19-01
100
AcDbVertex
100
AcDb2dVertex
 10
-37.26566958427426
 20
-67.10099756717681
 30
0.0
  0
VERTEX
  5
1627
330
161C
100
AcDbEntity
  8
LW 3520-19-01
100
AcDbVertex
100
AcDb2dVertex
 10
-37.01353359222409
 20
-67.02290117740631
 30
0.0
  0
VERTEX
  5
1628
330
161C
100
AcDbEntity
  8
LW 3520-19-01
100
AcDbVertex
100
AcDb2dVertex
 10
-36.75547885894772
 20
-66.97616219520568
 30
0.0
  0
VERTEX
  5
1629
330
161C
100
AcDbEntity
  8
LW 3520-19-01
100
AcDbVertex
100
AcDb2dVertex
 10
-36.50000023841855
 20
-66.96061849594116
 30
0.0
  0
VERTEX
  5
162A
330
161C
100
AcDbEntity
  8
LW 3520-19-01
100
AcDbVertex
100
AcDb2dVertex
 10
-36.24452042579648
 20
-66.97616219520568
 30
0.0
  0
VERTEX
  5
162B
330
161C
100
AcDbEntity
  8
LW 3520-19-01
100
AcDbVertex
100
AcDb2dVertex
 10
-35.98646688461301
 20
-67.02290117740631
 30
0.0
  0
VERTEX
  5
162C
330
161C
100
AcDbEntity
  8
LW 3520-19-01
100
AcDbVertex
100
AcDb2dVertex
 10
-35.73433089256284
 20
-67.10099756717681
 30
0.0
  0
VERTEX
  5
162D
330
161C
100
AcDbEntity
  8
LW 3520-19-01
100
AcDbVertex
100
AcDb2dVertex
 10
-35.49613642692563
 20
-67.2095239162445
 30
0.0
  0
VERTEX
  5
162E
330
161C
100
AcDbEntity
  8
LW 3520-19-01
100
AcDbVertex
100
AcDb2dVertex
 10
-35.27805137634274
 20
-67.34341621398925
 30
0.0
  0
VERTEX
  5
162F
330
161C
100
AcDbEntity
  8
LW 3520-19-01
100
AcDbVertex
100
AcDb2dVertex
 10
-35.08578944206235
 20
-67.49663412570953
 30
0.0
  0
VERTEX
  5
1630
330
161C
100
AcDbEntity
  8
LW 3520-19-01
100
AcDbVertex
100
AcDb2dVertex
 10
-34.91724181175229
 20
-67.67038345336914
 30
0.0
  0
VERTEX
  5
1631
330
161C
100
AcDbEntity
  8
LW 3520-19-01
100
AcDbVertex
100
AcDb2dVertex
 10
-34.7706763744354
 20
-67.86619782447814
 30
0.0
  0
VERTEX
  5
1632
330
161C
100
AcDbEntity
  8
LW 3520-19-01
100
AcDbVertex
100
AcDb2dVertex
 10
-34.65236830711362
 20
-68.07852804660797
 30
0.0
  0
VERTEX
  5
1633
330
161C
100
AcDbEntity
  8
LW 3520-19-01
100
AcDbVertex
100
AcDb2dVertex
 10
-34.56749248504636
 20
-68.30145597457885
 30
0.0
  0
VERTEX
  5
1634
330
161C
100
AcDbEntity
  8
LW 3520-19-01
100
AcDbVertex
100
AcDb2dVertex
 10
-34.51681661605832
 20
-68.52777421474456
 30
0.0
  0
VERTEX
  5
1635
330
161C
100
AcDbEntity
  8
LW 3520-19-01
100
AcDbVertex
100
AcDb2dVertex
 10
-34.49999976158139
 20
-68.75
 30
0.0
  0
SEQEND
  5
1636
330
161C
100
AcDbEntity
  8
LW 3520-19-01
  0
POLYLINE
  5
1637
330
1476
100
AcDbEntity
  8
LW 3520-19-01
100
AcDb2dPolyline
 66
     1
 10
0.0
 20
0.0
 30
0.0
 70
   128
  0
VERTEX
  5
1638
330
1637
100
AcDbEntity
  8
LW 3520-19-01
100
AcDbVertex
100
AcDb2dVertex
 10
-34.49999976158139
 20
-68.75
 30
0.0
  0
VERTEX
  5
1639
330
1637
100
AcDbEntity
  8
LW 3520-19-01
100
AcDbVertex
100
AcDb2dVertex
 10
-34.51681661605832
 20
-68.97027850151062
 30
0.0
  0
VERTEX
  5
163A
330
1637
100
AcDbEntity
  8
LW 3520-19-01
100
AcDbVertex
100
AcDb2dVertex
 10
-34.56749248504636
 20
-69.19092595577239
 30
0.0
  0
VERTEX
  5
163B
330
1637
100
AcDbEntity
  8
LW 3520-19-01
100
AcDbVertex
100
AcDb2dVertex
 10
-34.65236830711362
 20
-69.40471351146697
 30
0.0
  0
VERTEX
  5
163C
330
1637
100
AcDbEntity
  8
LW 3520-19-01
100
AcDbVertex
100
AcDb2dVertex
 10
-34.7706763744354
 20
-69.60495173931121
 30
0.0
  0
VERTEX
  5
163D
330
1637
100
AcDbEntity
  8
LW 3520-19-01
100
AcDbVertex
100
AcDb2dVertex
 10
-34.91724181175229
 20
-69.78687107563018
 30
0.0
  0
VERTEX
  5
163E
330
1637
100
AcDbEntity
  8
LW 3520-19-01
100
AcDbVertex
100
AcDb2dVertex
 10
-35.08578944206235
 20
-69.946129322052
 30
0.0
  0
VERTEX
  5
163F
330
1637
100
AcDbEntity
  8
LW 3520-19-01
100
AcDbVertex
100
AcDb2dVertex
 10
-35.27805137634274
 20
-70.08484244346618
 30
0.0
  0
VERTEX
  5
1640
330
1637
100
AcDbEntity
  8
LW 3520-19-01
100
AcDbVertex
100
AcDb2dVertex
 10
-35.49613642692563
 20
-70.20480632781982
 30
0.0
  0
VERTEX
  5
1641
330
1637
100
AcDbEntity
  8
LW 3520-19-01
100
AcDbVertex
100
AcDb2dVertex
 10
-35.73433089256284
 20
-70.3011929988861
 30
0.0
  0
VERTEX
  5
1642
330
1637
100
AcDbEntity
  8
LW 3520-19-01
100
AcDbVertex
100
AcDb2dVertex
 10
-35.98646688461301
 20
-70.37010312080383
 30
0.0
  0
VERTEX
  5
1643
330
1637
100
AcDbEntity
  8
LW 3520-19-01
100
AcDbVertex
100
AcDb2dVertex
 10
-36.24452042579648
 20
-70.411137342453
 30
0.0
  0
VERTEX
  5
1644
330
1637
100
AcDbEntity
  8
LW 3520-19-01
100
AcDbVertex
100
AcDb2dVertex
 10
-36.50000023841855
 20
-70.42472004890441
 30
0.0
  0
VERTEX
  5
1645
330
1637
100
AcDbEntity
  8
LW 3520-19-01
100
AcDbVertex
100
AcDb2dVertex
 10
-36.75547885894772
 20
-70.411137342453
 30
0.0
  0
VERTEX
  5
1646
330
1637
100
AcDbEntity
  8
LW 3520-19-01
100
AcDbVertex
100
AcDb2dVertex
 10
-37.01353359222409
 20
-70.37010312080383
 30
0.0
  0
VERTEX
  5
1647
330
1637
100
AcDbEntity
  8
LW 3520-19-01
100
AcDbVertex
100
AcDb2dVertex
 10
-37.26566958427426
 20
-70.3011929988861
 30
0.0
  0
VERTEX
  5
1648
330
1637
100
AcDbEntity
  8
LW 3520-19-01
100
AcDbVertex
100
AcDb2dVertex
 10
-37.50386404991147
 20
-70.20480632781982
 30
0.0
  0
VERTEX
  5
1649
330
1637
100
AcDbEntity
  8
LW 3520-19-01
100
AcDbVertex
100
AcDb2dVertex
 10
-37.72194790840146
 20
-70.08484244346618
 30
0.0
  0
VERTEX
  5
164A
330
1637
100
AcDbEntity
  8
LW 3520-19-01
100
AcDbVertex
100
AcDb2dVertex
 10
-37.91421103477475
 20
-69.946129322052
 30
0.0
  0
VERTEX
  5
164B
330
1637
100
AcDbEntity
  8
LW 3520-19-01
100
AcDbVertex
100
AcDb2dVertex
 10
-38.08275866508481
 20
-69.78687107563018
 30
0.0
  0
VERTEX
  5
164C
330
1637
100
AcDbEntity
  8
LW 3520-19-01
100
AcDbVertex
100
AcDb2dVertex
 10
-38.22932291030881
 20
-69.60495173931121
 30
0.0
  0
VERTEX
  5
164D
330
1637
100
AcDbEntity
  8
LW 3520-19-01
100
AcDbVertex
100
AcDb2dVertex
 10
-38.34763216972348
 20
-69.40471351146697
 30
0.0
  0
VERTEX
  5
164E
330
1637
100
AcDbEntity
  8
LW 3520-19-01
100
AcDbVertex
100
AcDb2dVertex
 10
-38.43250799179074
 20
-69.19092595577239
 30
0.0
  0
VERTEX
  5
164F
330
1637
100
AcDbEntity
  8
LW 3520-19-01
100
AcDbVertex
100
AcDb2dVertex
 10
-38.48318386077878
 20
-68.97027850151062
 30
0.0
  0
VERTEX
  5
1650
330
1637
100
AcDbEntity
  8
LW 3520-19-01
100
AcDbVertex
100
AcDb2dVertex
 10
-38.49999952316281
 20
-68.75
 30
0.0
  0
SEQEND
  5
1651
330
1637
100
AcDbEntity
  8
LW 3520-19-01
  0
POLYLINE
  5
1652
330
1476
100
AcDbEntity
  8
LW 3520-19-01
100
AcDb2dPolyline
 66
     1
 10
0.0
 20
0.0
 30
0.0
 70
   128
  0
VERTEX
  5
1653
330
1652
100
AcDbEntity
  8
LW 3520-19-01
100
AcDbVertex
100
AcDb2dVertex
 10
-34.49999976158139
 20
-42.5
 30
0.0
  0
VERTEX
  5
1654
330
1652
100
AcDbEntity
  8
LW 3520-19-01
100
AcDbVertex
100
AcDb2dVertex
 10
-34.51681661605832
 20
-42.50194668769836
 30
0.0
  0
VERTEX
  5
1655
330
1652
100
AcDbEntity
  8
LW 3520-19-01
100
AcDbVertex
100
AcDb2dVertex
 10
-34.56749248504636
 20
-42.50761866569519
 30
0.0
  0
VERTEX
  5
1656
330
1652
100
AcDbEntity
  8
LW 3520-19-01
100
AcDbVertex
100
AcDb2dVertex
 10
-34.65236830711362
 20
-42.51675844192504
 30
0.0
  0
VERTEX
  5
1657
330
1652
100
AcDbEntity
  8
LW 3520-19-01
100
AcDbVertex
100
AcDb2dVertex
 10
-34.7706763744354
 20
-42.52885103225708
 30
0.0
  0
VERTEX
  5
1658
330
1652
100
AcDbEntity
  8
LW 3520-19-01
100
AcDbVertex
100
AcDb2dVertex
 10
-34.91724181175229
 20
-42.54274606704711
 30
0.0
  0
VERTEX
  5
1659
330
1652
100
AcDbEntity
  8
LW 3520-19-01
100
AcDbVertex
100
AcDb2dVertex
 10
-35.08578944206235
 20
-42.55723714828491
 30
0.0
  0
VERTEX
  5
165A
330
1652
100
AcDbEntity
  8
LW 3520-19-01
100
AcDbVertex
100
AcDb2dVertex
 10
-35.27805137634274
 20
-42.57174134254455
 30
0.0
  0
VERTEX
  5
165B
330
1652
100
AcDbEntity
  8
LW 3520-19-01
100
AcDbVertex
100
AcDb2dVertex
 10
-35.49613642692563
 20
-42.58566975593566
 30
0.0
  0
VERTEX
  5
165C
330
1652
100
AcDbEntity
  8
LW 3520-19-01
100
AcDbVertex
100
AcDb2dVertex
 10
-35.73433089256284
 20
-42.59780883789062
 30
0.0
  0
VERTEX
  5
165D
330
1652
100
AcDbEntity
  8
LW 3520-19-01
100
AcDbVertex
100
AcDb2dVertex
 10
-35.98646688461301
 20
-42.6069951057434
 30
0.0
  0
VERTEX
  5
165E
330
1652
100
AcDbEntity
  8
LW 3520-19-01
100
AcDbVertex
100
AcDb2dVertex
 10
-36.24452042579648
 20
-42.6127004623413
 30
0.0
  0
VERTEX
  5
165F
330
1652
100
AcDbEntity
  8
LW 3520-19-01
100
AcDbVertex
100
AcDb2dVertex
 10
-36.50000023841855
 20
-42.61466145515441
 30
0.0
  0
VERTEX
  5
1660
330
1652
100
AcDbEntity
  8
LW 3520-19-01
100
AcDbVertex
100
AcDb2dVertex
 10
-36.75547885894772
 20
-42.6127004623413
 30
0.0
  0
VERTEX
  5
1661
330
1652
100
AcDbEntity
  8
LW 3520-19-01
100
AcDbVertex
100
AcDb2dVertex
 10
-37.01353359222409
 20
-42.6069951057434
 30
0.0
  0
VERTEX
  5
1662
330
1652
100
AcDbEntity
  8
LW 3520-19-01
100
AcDbVertex
100
AcDb2dVertex
 10
-37.26566958427426
 20
-42.59780883789062
 30
0.0
  0
VERTEX
  5
1663
330
1652
100
AcDbEntity
  8
LW 3520-19-01
100
AcDbVertex
100
AcDb2dVertex
 10
-37.50386404991147
 20
-42.58566975593566
 30
0.0
  0
VERTEX
  5
1664
330
1652
100
AcDbEntity
  8
LW 3520-19-01
100
AcDbVertex
100
AcDb2dVertex
 10
-37.72194790840146
 20
-42.57174134254455
 30
0.0
  0
VERTEX
  5
1665
330
1652
100
AcDbEntity
  8
LW 3520-19-01
100
AcDbVertex
100
AcDb2dVertex
 10
-37.91421103477475
 20
-42.55723714828491
 30
0.0
  0
VERTEX
  5
1666
330
1652
100
AcDbEntity
  8
LW 3520-19-01
100
AcDbVertex
100
AcDb2dVertex
 10
-38.08275866508481
 20
-42.54274606704711
 30
0.0
  0
VERTEX
  5
1667
330
1652
100
AcDbEntity
  8
LW 3520-19-01
100
AcDbVertex
100
AcDb2dVertex
 10
-38.22932291030881
 20
-42.52885103225708
 30
0.0
  0
VERTEX
  5
1668
330
1652
100
AcDbEntity
  8
LW 3520-19-01
100
AcDbVertex
100
AcDb2dVertex
 10
-38.34763216972348
 20
-42.51675844192504
 30
0.0
  0
VERTEX
  5
1669
330
1652
100
AcDbEntity
  8
LW 3520-19-01
100
AcDbVertex
100
AcDb2dVertex
 10
-38.43250799179074
 20
-42.50761866569519
 30
0.0
  0
VERTEX
  5
166A
330
1652
100
AcDbEntity
  8
LW 3520-19-01
100
AcDbVertex
100
AcDb2dVertex
 10
-38.48318386077878
 20
-42.50194668769836
 30
0.0
  0
VERTEX
  5
166B
330
1652
100
AcDbEntity
  8
LW 3520-19-01
100
AcDbVertex
100
AcDb2dVertex
 10
-38.49999952316281
 20
-42.5
 30
0.0
  0
SEQEND
  5
166C
330
1652
100
AcDbEntity
  8
LW 3520-19-01
  0
LINE
  5
166D
330
1476
100
AcDbEntity
  8
LW 3520-19-01
100
AcDbLine
 10
-40.49999999999997
 20
-42.5
 30
0.0
 11
-40.49999999999997
 21
-77.5
 31
0.0
  0
LINE
  5
166E
330
1476
100
AcDbEntity
  8
LW 3520-19-01
100
AcDbLine
 10
-43.49999999999996
 20
-45.49999999999999
 30
0.0
 11
-43.49999999999996
 21
-74.49999999999994
 31
0.0
  0
LINE
  5
166F
330
1476
100
AcDbEntity
  8
LW 3520-19-01
100
AcDbLine
 10
-20.49999999999997
 20
-77.5
 30
0.0
 11
-40.49999999999997
 21
-77.5
 31
0.0
  0
LINE
  5
1670
330
1476
100
AcDbEntity
  8
LW 3520-19-01
100
AcDbLine
 10
-20.49999999999997
 20
-42.5
 30
0.0
 11
-34.5
 21
-42.5
 31
0.0
  0
LINE
  5
1671
330
1476
100
AcDbEntity
  8
LW 3520-19-01
100
AcDbLine
 10
-38.49999999999997
 20
-42.5
 30
0.0
 11
-40.49999999999997
 21
-42.5
 31
0.0
  0
LINE
  5
1672
330
1476
100
AcDbEntity
  8
LW 3520-19-01
100
AcDbLine
 10
-43.49999999999996
 20
-45.49999999999999
 30
0.0
 11
-40.49999999999997
 21
-42.5
 31
0.0
  0
LINE
  5
1673
330
1476
100
AcDbEntity
  8
LW 3520-19-01
100
AcDbLine
 10
-43.49999999999996
 20
-74.49999999999994
 30
0.0
 11
-40.49999999999997
 21
-77.5
 31
0.0
  0
ELLIPSE
  5
1674
330
1476
100
AcDbEntity
  8
LW 3520-19-01
100
AcDbEllipse
 10
-85.25000000000003
 20
-30.0
 30
0.0
 11
-0.0000000000001786
 21
-2.000000000000001
 31
0.0
210
0.0
220
0.0
230
1.0
 40
0.8660254037844378
 41
0.7941688477848424
 42
2.347423805805178
  0
POLYLINE
  5
1675
330
1476
100
AcDbEntity
  8
LW 3520-19-01
100
AcDb2dPolyline
 66
     1
 10
0.0
 20
0.0
 30
0.0
 70
   128
  0
VERTEX
  5
1676
330
1675
100
AcDbEntity
  8
LW 3520-19-01
100
AcDbVertex
100
AcDb2dVertex
 10
-82.75000000000003
 20
-31.99999952316284
 30
0.0
  0
VERTEX
  5
1677
330
1675
100
AcDbEntity
  8
LW 3520-19-01
100
AcDbVertex
100
AcDb2dVertex
 10
-82.97222578525547
 20
-31.98318386077881
 30
0.0
  0
VERTEX
  5
1678
330
1675
100
AcDbEntity
  8
LW 3520-19-01
100
AcDbVertex
100
AcDb2dVertex
 10
-83.19854402542118
 20
-31.93250799179077
 30
0.0
  0
VERTEX
  5
1679
330
1675
100
AcDbEntity
  8
LW 3520-19-01
100
AcDbVertex
100
AcDb2dVertex
 10
-83.42147195339206
 20
-31.84763216972351
 30
0.0
  0
VERTEX
  5
167A
330
1675
100
AcDbEntity
  8
LW 3520-19-01
100
AcDbVertex
100
AcDb2dVertex
 10
-83.63380217552188
 20
-31.72932291030884
 30
0.0
  0
VERTEX
  5
167B
330
1675
100
AcDbEntity
  8
LW 3520-19-01
100
AcDbVertex
100
AcDb2dVertex
 10
-83.82961654663089
 20
-31.58275866508484
 30
0.0
  0
VERTEX
  5
167C
330
1675
100
AcDbEntity
  8
LW 3520-19-01
100
AcDbVertex
100
AcDb2dVertex
 10
-84.0033658742905
 20
-31.41421103477478
 30
0.0
  0
VERTEX
  5
167D
330
1675
100
AcDbEntity
  8
LW 3520-19-01
100
AcDbVertex
100
AcDb2dVertex
 10
-84.15658378601078
 20
-31.22194790840149
 30
0.0
  0
VERTEX
  5
167E
330
1675
100
AcDbEntity
  8
LW 3520-19-01
100
AcDbVertex
100
AcDb2dVertex
 10
-84.29047608375553
 20
-31.0038640499115
 30
0.0
  0
VERTEX
  5
167F
330
1675
100
AcDbEntity
  8
LW 3520-19-01
100
AcDbVertex
100
AcDb2dVertex
 10
-84.39900243282322
 20
-30.76566958427429
 30
0.0
  0
VERTEX
  5
1680
330
1675
100
AcDbEntity
  8
LW 3520-19-01
100
AcDbVertex
100
AcDb2dVertex
 10
-84.47709882259372
 20
-30.51353359222412
 30
0.0
  0
VERTEX
  5
1681
330
1675
100
AcDbEntity
  8
LW 3520-19-01
100
AcDbVertex
100
AcDb2dVertex
 10
-84.52383780479435
 20
-30.25547885894776
 30
0.0
  0
VERTEX
  5
1682
330
1675
100
AcDbEntity
  8
LW 3520-19-01
100
AcDbVertex
100
AcDb2dVertex
 10
-84.53938150405887
 20
-30.00000023841858
 30
0.0
  0
VERTEX
  5
1683
330
1675
100
AcDbEntity
  8
LW 3520-19-01
100
AcDbVertex
100
AcDb2dVertex
 10
-84.52383780479435
 20
-29.74452042579651
 30
0.0
  0
VERTEX
  5
1684
330
1675
100
AcDbEntity
  8
LW 3520-19-01
100
AcDbVertex
100
AcDb2dVertex
 10
-84.47709882259372
 20
-29.48646688461304
 30
0.0
  0
VERTEX
  5
1685
330
1675
100
AcDbEntity
  8
LW 3520-19-01
100
AcDbVertex
100
AcDb2dVertex
 10
-84.39900243282322
 20
-29.23433089256287
 30
0.0
  0
VERTEX
  5
1686
330
1675
100
AcDbEntity
  8
LW 3520-19-01
100
AcDbVertex
100
AcDb2dVertex
 10
-84.29047608375553
 20
-28.99613642692566
 30
0.0
  0
VERTEX
  5
1687
330
1675
100
AcDbEntity
  8
LW 3520-19-01
100
AcDbVertex
100
AcDb2dVertex
 10
-84.15658378601078
 20
-28.77805137634278
 30
0.0
  0
VERTEX
  5
1688
330
1675
100
AcDbEntity
  8
LW 3520-19-01
100
AcDbVertex
100
AcDb2dVertex
 10
-84.0033658742905
 20
-28.58578944206238
 30
0.0
  0
VERTEX
  5
1689
330
1675
100
AcDbEntity
  8
LW 3520-19-01
100
AcDbVertex
100
AcDb2dVertex
 10
-83.82961654663089
 20
-28.41724181175232
 30
0.0
  0
VERTEX
  5
168A
330
1675
100
AcDbEntity
  8
LW 3520-19-01
100
AcDbVertex
100
AcDb2dVertex
 10
-83.63380217552188
 20
-28.27067637443543
 30
0.0
  0
VERTEX
  5
168B
330
1675
100
AcDbEntity
  8
LW 3520-19-01
100
AcDbVertex
100
AcDb2dVertex
 10
-83.42147195339206
 20
-28.15236830711365
 30
0.0
  0
VERTEX
  5
168C
330
1675
100
AcDbEntity
  8
LW 3520-19-01
100
AcDbVertex
100
AcDb2dVertex
 10
-83.19854402542118
 20
-28.06749248504639
 30
0.0
  0
VERTEX
  5
168D
330
1675
100
AcDbEntity
  8
LW 3520-19-01
100
AcDbVertex
100
AcDb2dVertex
 10
-82.97222578525547
 20
-28.01681661605835
 30
0.0
  0
VERTEX
  5
168E
330
1675
100
AcDbEntity
  8
LW 3520-19-01
100
AcDbVertex
100
AcDb2dVertex
 10
-82.75000000000003
 20
-27.99999976158142
 30
0.0
  0
SEQEND
  5
168F
330
1675
100
AcDbEntity
  8
LW 3520-19-01
  0
POLYLINE
  5
1690
330
1476
100
AcDbEntity
  8
LW 3520-19-01
100
AcDb2dPolyline
 66
     1
 10
0.0
 20
0.0
 30
0.0
 70
   128
  0
VERTEX
  5
1691
330
1690
100
AcDbEntity
  8
LW 3520-19-01
100
AcDbVertex
100
AcDb2dVertex
 10
-82.75000000000003
 20
-27.99999976158142
 30
0.0
  0
VERTEX
  5
1692
330
1690
100
AcDbEntity
  8
LW 3520-19-01
100
AcDbVertex
100
AcDb2dVertex
 10
-82.52972149848941
 20
-28.01681661605835
 30
0.0
  0
VERTEX
  5
1693
330
1690
100
AcDbEntity
  8
LW 3520-19-01
100
AcDbVertex
100
AcDb2dVertex
 10
-82.30907404422763
 20
-28.06749248504639
 30
0.0
  0
VERTEX
  5
1694
330
1690
100
AcDbEntity
  8
LW 3520-19-01
100
AcDbVertex
100
AcDb2dVertex
 10
-82.09528648853305
 20
-28.15236830711365
 30
0.0
  0
VERTEX
  5
1695
330
1690
100
AcDbEntity
  8
LW 3520-19-01
100
AcDbVertex
100
AcDb2dVertex
 10
-81.89504826068882
 20
-28.27067637443543
 30
0.0
  0
VERTEX
  5
1696
330
1690
100
AcDbEntity
  8
LW 3520-19-01
100
AcDbVertex
100
AcDb2dVertex
 10
-81.71312892436985
 20
-28.41724181175232
 30
0.0
  0
VERTEX
  5
1697
330
1690
100
AcDbEntity
  8
LW 3520-19-01
100
AcDbVertex
100
AcDb2dVertex
 10
-81.55387067794803
 20
-28.58578944206238
 30
0.0
  0
VERTEX
  5
1698
330
1690
100
AcDbEntity
  8
LW 3520-19-01
100
AcDbVertex
100
AcDb2dVertex
 10
-81.41515755653385
 20
-28.77805137634278
 30
0.0
  0
VERTEX
  5
1699
330
1690
100
AcDbEntity
  8
LW 3520-19-01
100
AcDbVertex
100
AcDb2dVertex
 10
-81.29519367218021
 20
-28.99613642692566
 30
0.0
  0
VERTEX
  5
169A
330
1690
100
AcDbEntity
  8
LW 3520-19-01
100
AcDbVertex
100
AcDb2dVertex
 10
-81.19880700111393
 20
-29.23433089256287
 30
0.0
  0
VERTEX
  5
169B
330
1690
100
AcDbEntity
  8
LW 3520-19-01
100
AcDbVertex
100
AcDb2dVertex
 10
-81.1298968791962
 20
-29.48646688461304
 30
0.0
  0
VERTEX
  5
169C
330
1690
100
AcDbEntity
  8
LW 3520-19-01
100
AcDbVertex
100
AcDb2dVertex
 10
-81.08886265754703
 20
-29.74452042579651
 30
0.0
  0
VERTEX
  5
169D
330
1690
100
AcDbEntity
  8
LW 3520-19-01
100
AcDbVertex
100
AcDb2dVertex
 10
-81.07527995109562
 20
-30.00000023841858
 30
0.0
  0
VERTEX
  5
169E
330
1690
100
AcDbEntity
  8
LW 3520-19-01
100
AcDbVertex
100
AcDb2dVertex
 10
-81.08886265754703
 20
-30.25547885894776
 30
0.0
  0
VERTEX
  5
169F
330
1690
100
AcDbEntity
  8
LW 3520-19-01
100
AcDbVertex
100
AcDb2dVertex
 10
-81.1298968791962
 20
-30.51353359222412
 30
0.0
  0
VERTEX
  5
16A0
330
1690
100
AcDbEntity
  8
LW 3520-19-01
100
AcDbVertex
100
AcDb2dVertex
 10
-81.19880700111393
 20
-30.76566958427429
 30
0.0
  0
VERTEX
  5
16A1
330
1690
100
AcDbEntity
  8
LW 3520-19-01
100
AcDbVertex
100
AcDb2dVertex
 10
-81.29519367218021
 20
-31.0038640499115
 30
0.0
  0
VERTEX
  5
16A2
330
1690
100
AcDbEntity
  8
LW 3520-19-01
100
AcDbVertex
100
AcDb2dVertex
 10
-81.41515755653385
 20
-31.22194790840149
 30
0.0
  0
VERTEX
  5
16A3
330
1690
100
AcDbEntity
  8
LW 3520-19-01
100
AcDbVertex
100
AcDb2dVertex
 10
-81.55387067794803
 20
-31.41421103477478
 30
0.0
  0
VERTEX
  5
16A4
330
1690
100
AcDbEntity
  8
LW 3520-19-01
100
AcDbVertex
100
AcDb2dVertex
 10
-81.71312892436985
 20
-31.58275866508484
 30
0.0
  0
VERTEX
  5
16A5
330
1690
100
AcDbEntity
  8
LW 3520-19-01
100
AcDbVertex
100
AcDb2dVertex
 10
-81.89504826068882
 20
-31.72932291030884
 30
0.0
  0
VERTEX
  5
16A6
330
1690
100
AcDbEntity
  8
LW 3520-19-01
100
AcDbVertex
100
AcDb2dVertex
 10
-82.09528648853305
 20
-31.84763216972351
 30
0.0
  0
VERTEX
  5
16A7
330
1690
100
AcDbEntity
  8
LW 3520-19-01
100
AcDbVertex
100
AcDb2dVertex
 10
-82.30907404422763
 20
-31.93250799179077
 30
0.0
  0
VERTEX
  5
16A8
330
1690
100
AcDbEntity
  8
LW 3520-19-01
100
AcDbVertex
100
AcDb2dVertex
 10
-82.52972149848941
 20
-31.98318386077881
 30
0.0
  0
VERTEX
  5
16A9
330
1690
100
AcDbEntity
  8
LW 3520-19-01
100
AcDbVertex
100
AcDb2dVertex
 10
-82.75000000000003
 20
-31.99999952316284
 30
0.0
  0
SEQEND
  5
16AA
330
1690
100
AcDbEntity
  8
LW 3520-19-01
  0
POLYLINE
  5
16AB
330
1476
100
AcDbEntity
  8
LW 3520-19-01
100
AcDb2dPolyline
 66
     1
 10
0.0
 20
0.0
 30
0.0
 70
   128
  0
VERTEX
  5
16AC
330
16AB
100
AcDbEntity
  8
LW 3520-19-01
100
AcDbVertex
100
AcDb2dVertex
 10
-109.0
 20
-27.99999976158142
 30
0.0
  0
VERTEX
  5
16AD
330
16AB
100
AcDbEntity
  8
LW 3520-19-01
100
AcDbVertex
100
AcDb2dVertex
 10
-108.9980533123016
 20
-28.01681661605835
 30
0.0
  0
VERTEX
  5
16AE
330
16AB
100
AcDbEntity
  8
LW 3520-19-01
100
AcDbVertex
100
AcDb2dVertex
 10
-108.9923813343048
 20
-28.06749248504639
 30
0.0
  0
VERTEX
  5
16AF
330
16AB
100
AcDbEntity
  8
LW 3520-19-01
100
AcDbVertex
100
AcDb2dVertex
 10
-108.9832415580749
 20
-28.15236830711365
 30
0.0
  0
VERTEX
  5
16B0
330
16AB
100
AcDbEntity
  8
LW 3520-19-01
100
AcDbVertex
100
AcDb2dVertex
 10
-108.9711489677429
 20
-28.27067637443543
 30
0.0
  0
VERTEX
  5
16B1
330
16AB
100
AcDbEntity
  8
LW 3520-19-01
100
AcDbVertex
100
AcDb2dVertex
 10
-108.9572539329529
 20
-28.41724181175232
 30
0.0
  0
VERTEX
  5
16B2
330
16AB
100
AcDbEntity
  8
LW 3520-19-01
100
AcDbVertex
100
AcDb2dVertex
 10
-108.9427628517151
 20
-28.58578944206238
 30
0.0
  0
VERTEX
  5
16B3
330
16AB
100
AcDbEntity
  8
LW 3520-19-01
100
AcDbVertex
100
AcDb2dVertex
 10
-108.9282586574555
 20
-28.77805137634278
 30
0.0
  0
VERTEX
  5
16B4
330
16AB
100
AcDbEntity
  8
LW 3520-19-01
100
AcDbVertex
100
AcDb2dVertex
 10
-108.9143302440643
 20
-28.99613642692566
 30
0.0
  0
VERTEX
  5
16B5
330
16AB
100
AcDbEntity
  8
LW 3520-19-01
100
AcDbVertex
100
AcDb2dVertex
 10
-108.9021911621094
 20
-29.23433089256287
 30
0.0
  0
VERTEX
  5
16B6
330
16AB
100
AcDbEntity
  8
LW 3520-19-01
100
AcDbVertex
100
AcDb2dVertex
 10
-108.8930048942566
 20
-29.48646688461304
 30
0.0
  0
VERTEX
  5
16B7
330
16AB
100
AcDbEntity
  8
LW 3520-19-01
100
AcDbVertex
100
AcDb2dVertex
 10
-108.8872995376587
 20
-29.74452042579651
 30
0.0
  0
VERTEX
  5
16B8
330
16AB
100
AcDbEntity
  8
LW 3520-19-01
100
AcDbVertex
100
AcDb2dVertex
 10
-108.8853385448456
 20
-30.00000023841858
 30
0.0
  0
VERTEX
  5
16B9
330
16AB
100
AcDbEntity
  8
LW 3520-19-01
100
AcDbVertex
100
AcDb2dVertex
 10
-108.8872995376587
 20
-30.25547885894776
 30
0.0
  0
VERTEX
  5
16BA
330
16AB
100
AcDbEntity
  8
LW 3520-19-01
100
AcDbVertex
100
AcDb2dVertex
 10
-108.8930048942566
 20
-30.51353359222412
 30
0.0
  0
VERTEX
  5
16BB
330
16AB
100
AcDbEntity
  8
LW 3520-19-01
100
AcDbVertex
100
AcDb2dVertex
 10
-108.9021911621094
 20
-30.76566958427429
 30
0.0
  0
VERTEX
  5
16BC
330
16AB
100
AcDbEntity
  8
LW 3520-19-01
100
AcDbVertex
100
AcDb2dVertex
 10
-108.9143302440643
 20
-31.0038640499115
 30
0.0
  0
VERTEX
  5
16BD
330
16AB
100
AcDbEntity
  8
LW 3520-19-01
100
AcDbVertex
100
AcDb2dVertex
 10
-108.9282586574555
 20
-31.22194790840149
 30
0.0
  0
VERTEX
  5
16BE
330
16AB
100
AcDbEntity
  8
LW 3520-19-01
100
AcDbVertex
100
AcDb2dVertex
 10
-108.9427628517151
 20
-31.41421103477478
 30
0.0
  0
VERTEX
  5
16BF
330
16AB
100
AcDbEntity
  8
LW 3520-19-01
100
AcDbVertex
100
AcDb2dVertex
 10
-108.9572539329529
 20
-31.58275866508484
 30
0.0
  0
VERTEX
  5
16C0
330
16AB
100
AcDbEntity
  8
LW 3520-19-01
100
AcDbVertex
100
AcDb2dVertex
 10
-108.9711489677429
 20
-31.72932291030884
 30
0.0
  0
VERTEX
  5
16C1
330
16AB
100
AcDbEntity
  8
LW 3520-19-01
100
AcDbVertex
100
AcDb2dVertex
 10
-108.9832415580749
 20
-31.84763216972351
 30
0.0
  0
VERTEX
  5
16C2
330
16AB
100
AcDbEntity
  8
LW 3520-19-01
100
AcDbVertex
100
AcDb2dVertex
 10
-108.9923813343048
 20
-31.93250799179077
 30
0.0
  0
VERTEX
  5
16C3
330
16AB
100
AcDbEntity
  8
LW 3520-19-01
100
AcDbVertex
100
AcDb2dVertex
 10
-108.9980533123016
 20
-31.98318386077881
 30
0.0
  0
VERTEX
  5
16C4
330
16AB
100
AcDbEntity
  8
LW 3520-19-01
100
AcDbVertex
100
AcDb2dVertex
 10
-109.0
 20
-31.99999952316284
 30
0.0
  0
SEQEND
  5
16C5
330
16AB
100
AcDbEntity
  8
LW 3520-19-01
  0
LINE
  5
16C6
330
1476
100
AcDbEntity
  8
LW 3520-19-01
100
AcDbLine
 10
-109.0
 20
-34.0
 30
0.0
 11
-74.00000000000003
 21
-34.0
 31
0.0
  0
LINE
  5
16C7
330
1476
100
AcDbEntity
  8
LW 3520-19-01
100
AcDbLine
 10
-106.0
 20
-37.0
 30
0.0
 11
-77.00000000000002
 21
-37.0
 31
0.0
  0
LINE
  5
16C8
330
1476
100
AcDbEntity
  8
LW 3520-19-01
100
AcDbLine
 10
-74.00000000000003
 20
-14.0
 30
0.0
 11
-74.00000000000003
 21
-34.0
 31
0.0
  0
LINE
  5
16C9
330
1476
100
AcDbEntity
  8
LW 3520-19-01
100
AcDbLine
 10
-109.0
 20
-14.0
 30
0.0
 11
-109.0
 21
-28.0
 31
0.0
  0
LINE
  5
16CA
330
1476
100
AcDbEntity
  8
LW 3520-19-01
100
AcDbLine
 10
-109.0
 20
-32.0
 30
0.0
 11
-109.0
 21
-34.0
 31
0.0
  0
LINE
  5
16CB
330
1476
100
AcDbEntity
  8
LW 3520-19-01
100
AcDbLine
 10
-106.0
 20
-37.0
 30
0.0
 11
-109.0
 21
-34.0
 31
0.0
  0
LINE
  5
16CC
330
1476
100
AcDbEntity
  8
LW 3520-19-01
100
AcDbLine
 10
-77.00000000000002
 20
-37.0
 30
0.0
 11
-74.00000000000003
 21
-34.0
 31
0.0
  0
LINE
  5
16CD
330
1476
100
AcDbEntity
  8
LW 3520-19-01
100
AcDbLine
 10
-9.5
 20
-139.9999999999999
 30
0.0
 11
-9.5
 21
-172.9999999999999
 31
0.0
  0
LINE
  5
16CE
330
1476
100
AcDbEntity
  8
LW 3520-19-01
100
AcDbLine
 10
-9.5
 20
-139.9999999999999
 30
0.0
 11
-9.5
 21
-1.999999999999943
 31
0.0
  0
LINE
  5
16CF
330
1476
100
AcDbEntity
  8
LW 3520-19-01
100
AcDbLine
 10
-11.5
 20
-1.999999999999943
 30
0.0
 11
-9.5
 21
-1.999999999999943
 31
0.0
  0
LINE
  5
16D0
330
1476
100
AcDbEntity
  8
LW 3520-19-01
100
AcDbLine
 10
-11.5
 20
-172.9999999999999
 30
0.0
 11
-9.5
 21
-172.9999999999999
 31
0.0
  0
LINE
  5
16D1
330
1476
100
AcDbEntity
  8
LW 3520-19-01
100
AcDbLine
 10
9.5
 20
-172.9999999999999
 30
0.0
 11
9.5
 21
-139.9999999999999
 31
0.0
  0
LINE
  5
16D2
330
1476
100
AcDbEntity
  8
LW 3520-19-01
100
AcDbLine
 10
9.5
 20
-1.999999999999943
 30
0.0
 11
11.5
 21
-1.999999999999943
 31
0.0
  0
LINE
  5
16D3
330
1476
100
AcDbEntity
  8
LW 3520-19-01
100
AcDbLine
 10
9.5
 20
-1.999999999999943
 30
0.0
 11
9.5
 21
-139.9999999999999
 31
0.0
  0
LINE
  5
16D4
330
1476
100
AcDbEntity
  8
LW 3520-19-01
100
AcDbLine
 10
9.5
 20
-172.9999999999999
 30
0.0
 11
11.5
 21
-172.9999999999999
 31
0.0
  0
LINE
  5
16D5
330
1476
100
AcDbEntity
  8
LW 3520-19-01
100
AcDbLine
 10
6.5
 20
-71.99999999999994
 30
0.0
 11
-6.5
 21
-71.99999999999994
 31
0.0
  0
LINE
  5
16D6
330
1476
100
AcDbEntity
  8
LW 3520-19-01
100
AcDbLine
 10
6.5
 20
-67.24999999999994
 30
0.0
 11
6.5
 21
-71.99999999999994
 31
0.0
  0
LINE
  5
16D7
330
1476
100
AcDbEntity
  8
LW 3520-19-01
100
AcDbLine
 10
-6.5
 20
-67.24999999999994
 30
0.0
 11
6.5
 21
-67.24999999999994
 31
0.0
  0
LINE
  5
16D8
330
1476
100
AcDbEntity
  8
LW 3520-19-01
100
AcDbLine
 10
-6.5
 20
-71.99999999999994
 30
0.0
 11
-6.5
 21
-67.24999999999994
 31
0.0
  0
LINE
  5
16D9
330
1476
100
AcDbEntity
  8
LW 3520-19-01
100
AcDbLine
 10
-6.5
 20
-47.99999999999994
 30
0.0
 11
6.5
 21
-47.99999999999994
 31
0.0
  0
LINE
  5
16DA
330
1476
100
AcDbEntity
  8
LW 3520-19-01
100
AcDbLine
 10
-6.5
 20
-52.74999999999995
 30
0.0
 11
-6.5
 21
-47.99999999999994
 31
0.0
  0
LINE
  5
16DB
330
1476
100
AcDbEntity
  8
LW 3520-19-01
100
AcDbLine
 10
6.5
 20
-52.74999999999995
 30
0.0
 11
-6.5
 21
-52.74999999999995
 31
0.0
  0
LINE
  5
16DC
330
1476
100
AcDbEntity
  8
LW 3520-19-01
100
AcDbLine
 10
6.5
 20
-47.99999999999994
 30
0.0
 11
6.5
 21
-52.74999999999995
 31
0.0
  0
LINE
  5
16DD
330
1476
100
AcDbEntity
  8
LW 3520-19-01
100
AcDbLine
 10
-6.5
 20
-67.24999999999994
 30
0.0
 11
-6.5
 21
-66.99999999999994
 31
0.0
  0
LINE
  5
16DE
330
1476
100
AcDbEntity
  8
LW 3520-19-01
100
AcDbLine
 10
-6.5
 20
-53.0
 30
0.0
 11
-6.5
 21
-52.74999999999995
 31
0.0
  0
LINE
  5
16DF
330
1476
100
AcDbEntity
  8
LW 3520-19-01
100
AcDbLine
 10
6.5
 20
-52.74999999999988
 30
0.0
 11
6.5
 21
-52.99999999999994
 31
0.0
  0
LINE
  5
16E0
330
1476
100
AcDbEntity
  8
LW 3520-19-01
100
AcDbLine
 10
6.5
 20
-67.0
 30
0.0
 11
6.5
 21
-67.24999999999994
 31
0.0
  0
LINE
  5
16E1
330
1476
100
AcDbEntity
  8
LW 3520-19-01
100
AcDbLine
 10
6.500000000000056
 20
-151.9999999999997
 30
0.0
 11
-6.499999999999886
 21
-151.9999999999997
 31
0.0
  0
LINE
  5
16E2
330
1476
100
AcDbEntity
  8
LW 3520-19-01
100
AcDbLine
 10
6.500000000000056
 20
-147.2499999999997
 30
0.0
 11
6.500000000000056
 21
-151.9999999999997
 31
0.0
  0
LINE
  5
16E3
330
1476
100
AcDbEntity
  8
LW 3520-19-01
100
AcDbLine
 10
-6.499999999999943
 20
-147.2499999999997
 30
0.0
 11
6.500000000000056
 21
-147.2499999999998
 31
0.0
  0
LINE
  5
16E4
330
1476
100
AcDbEntity
  8
LW 3520-19-01
100
AcDbLine
 10
-6.499999999999886
 20
-151.9999999999997
 30
0.0
 11
-6.499999999999943
 21
-147.2499999999997
 31
0.0
  0
LINE
  5
16E5
330
1476
100
AcDbEntity
  8
LW 3520-19-01
100
AcDbLine
 10
-6.499999999999943
 20
-127.9999999999998
 30
0.0
 11
6.500000000000056
 21
-127.9999999999998
 31
0.0
  0
LINE
  5
16E6
330
1476
100
AcDbEntity
  8
LW 3520-19-01
100
AcDbLine
 10
-6.499999999999943
 20
-132.7499999999998
 30
0.0
 11
-6.499999999999943
 21
-127.9999999999998
 31
0.0
  0
LINE
  5
16E7
330
1476
100
AcDbEntity
  8
LW 3520-19-01
100
AcDbLine
 10
6.500000000000056
 20
-132.7499999999998
 30
0.0
 11
-6.499999999999943
 21
-132.7499999999998
 31
0.0
  0
LINE
  5
16E8
330
1476
100
AcDbEntity
  8
LW 3520-19-01
100
AcDbLine
 10
6.500000000000056
 20
-127.9999999999998
 30
0.0
 11
6.500000000000056
 21
-132.7499999999998
 31
0.0
  0
LINE
  5
16E9
330
1476
100
AcDbEntity
  8
LW 3520-19-01
100
AcDbLine
 10
-6.499999999999943
 20
-147.2499999999997
 30
0.0
 11
-6.499999999999943
 21
-146.9999999999999
 31
0.0
  0
LINE
  5
16EA
330
1476
100
AcDbEntity
  8
LW 3520-19-01
100
AcDbLine
 10
-6.499999999999943
 20
-133.0
 30
0.0
 11
-6.499999999999943
 21
-132.7499999999997
 31
0.0
  0
LINE
  5
16EB
330
1476
100
AcDbEntity
  8
LW 3520-19-01
100
AcDbLine
 10
6.500000000000056
 20
-132.7499999999997
 30
0.0
 11
6.500000000000056
 21
-133.0
 31
0.0
  0
LINE
  5
16EC
330
1476
100
AcDbEntity
  8
LW 3520-19-01
100
AcDbLine
 10
6.500000000000056
 20
-146.9999999999999
 30
0.0
 11
6.500000000000056
 21
-147.2499999999997
 31
0.0
  0
LINE
  5
16ED
330
1476
100
AcDbEntity
  8
LW 3520-19-01
100
AcDbLine
 10
9.5
 20
-146.9999999999999
 30
0.0
 11
-9.5
 21
-146.9999999999999
 31
0.0
  0
LINE
  5
16EE
330
1476
100
AcDbEntity
  8
LW 3520-19-01
100
AcDbLine
 10
9.5
 20
-133.0
 30
0.0
 11
-9.5
 21
-133.0
 31
0.0
  0
LINE
  5
16EF
330
1476
100
AcDbEntity
  8
LW 3520-19-01
 62
     3
100
AcDbLine
 10
-9.5
 20
-145.7945
 30
0.0
 11
9.5
 21
-145.7945
 31
0.0
  0
LINE
  5
16F0
330
1476
100
AcDbEntity
  8
LW 3520-19-01
 62
     3
100
AcDbLine
 10
9.5
 20
-134.2054999999999
 30
0.0
 11
-9.5
 21
-134.2054999999999
 31
0.0
  0
LINE
  5
16F1
330
1476
100
AcDbEntity
  8
LW 3520-19-01
100
AcDbLine
 10
9.5
 20
-66.99999999999994
 30
0.0
 11
-9.5
 21
-66.99999999999994
 31
0.0
  0
LINE
  5
16F2
330
1476
100
AcDbEntity
  8
LW 3520-19-01
100
AcDbLine
 10
9.5
 20
-53.0
 30
0.0
 11
-9.5
 21
-53.0
 31
0.0
  0
LINE
  5
16F3
330
1476
100
AcDbEntity
  8
LW 3520-19-01
 62
     3
100
AcDbLine
 10
-9.5
 20
-65.79449999999997
 30
0.0
 11
9.5
 21
-65.79449999999997
 31
0.0
  0
LINE
  5
16F4
330
1476
100
AcDbEntity
  8
LW 3520-19-01
 62
     3
100
AcDbLine
 10
9.5
 20
-54.20549999999991
 30
0.0
 11
-9.5
 21
-54.20549999999991
 31
0.0
  0
HATCH
  5
16F5
330
1476
100
AcDbEntity
  8
LW 3520-19-01
 62
     8
100
AcDbHatch
 10
0.0
 20
0.0
 30
0.0
210
0.0
220
0.0
230
1.0
  2
ANSI37
 70
     0
 71
     0
 91
        2
 92
        1
 93
        4
 72
     1
 10
6.5
 20
-48.0
 11
6.5
 21
-52.75
 72
     1
 10
6.5
 20
-52.74999999999995
 11
-6.5
 21
-52.74999999999995
 72
     1
 10
-6.5
 20
-52.74999999999995
 11
-6.5
 21
-48.0
 72
     1
 10
-6.5
 20
-48.0
 11
6.5
 21
-48.0
 97
        0
 92
        1
 93
        4
 72
     1
 10
-6.5
 20
-71.99999999999994
 11
-6.5
 21
-67.24999999999994
 72
     1
 10
-6.5
 20
-67.24999999999994
 11
6.5
 21
-67.24999999999994
 72
     1
 10
6.5
 20
-67.24999999999994
 11
6.5
 21
-71.99999999999994
 72
     1
 10
6.5
 20
-71.99999999999994
 11
-6.5
 21
-71.99999999999994
 97
        0
 75
     0
 76
     1
 52
0.0
 41
0.5
 77
     0
 78
     2
 53
45.0
 43
-270.1401696236951
 44
-335.1866254961618
 45
-1.122532015133643
 46
1.122532015133644
 79
     0
 53
135.0
 43
-270.1401696236951
 44
-335.1866254961618
 45
-1.122532015133644
 46
-1.122532015133643
 79
     0
 98
        1
 10
-270.1401696236951
 20
-251.0768559496324
1001
ACAD
1010
0.0
1020
0.0
1030
0.0
  0
HATCH
  5
16F6
330
1476
100
AcDbEntity
  8
LW 3520-19-01
 62
     8
100
AcDbHatch
 10
0.0
 20
0.0
 30
0.0
210
0.0
220
0.0
230
1.0
  2
ANSI37
 70
     0
 71
     0
 91
        2
 92
        1
 93
        4
 72
     1
 10
6.500000000000056
 20
-127.9999999999998
 11
6.500000000000056
 21
-132.7499999999998
 72
     1
 10
6.500000000000056
 20
-132.7499999999997
 11
-6.499999999999943
 21
-132.7499999999997
 72
     1
 10
-6.499999999999943
 20
-132.7499999999997
 11
-6.499999999999943
 21
-127.9999999999998
 72
     1
 10
-6.499999999999943
 20
-127.9999999999998
 11
6.500000000000056
 21
-127.9999999999998
 97
        0
 92
        1
 93
        4
 72
     1
 10
-6.499999999999943
 20
-151.9999999999997
 11
-6.499999999999943
 21
-147.2499999999997
 72
     1
 10
-6.499999999999943
 20
-147.2499999999997
 11
6.500000000000056
 21
-147.2499999999997
 72
     1
 10
6.500000000000056
 20
-147.2499999999997
 11
6.500000000000056
 21
-151.9999999999997
 72
     1
 10
6.500000000000056
 20
-151.9999999999997
 11
-6.499999999999943
 21
-151.9999999999997
 97
        0
 75
     0
 76
     1
 52
0.0
 41
0.5
 77
     0
 78
     2
 53
45.0
 43
-270.1401696236951
 44
-335.1866254961618
 45
-1.122532015133643
 46
1.122532015133644
 79
     0
 53
135.0
 43
-270.1401696236951
 44
-335.1866254961618
 45
-1.122532015133644
 46
-1.122532015133643
 79
     0
 98
        1
 10
-270.1401696236951
 20
-251.0768559496324
1001
ACAD
1010
0.0
1020
0.0
1030
0.0
  0
LINE
  5
16F7
330
1476
100
AcDbEntity
  8
LW 3520-19-01
  6
MITTE2
 62
     3
100
AcDbLine
 10
91.5
 20
27.30489739875702
 30
0.0
 11
91.5
 21
-41.6303604871004
 31
0.0
  0
LINE
  5
16F8
330
1476
100
AcDbEntity
  8
LW 3520-19-01
  6
MITTE2
 62
     3
100
AcDbLine
 10
0.0
 20
-200.232621264322
 30
0.0
 11
0.0
 21
21.38032543962169
 31
0.0
  0
LINE
  5
16F9
330
1476
100
AcDbEntity
  8
LW 3520-19-01
  6
MITTE2
 62
     3
100
AcDbLine
 10
47.59802267868479
 20
-140.0
 30
0.0
 11
-47.59802267868479
 21
-140.0
 31
0.0
  0
LINE
  5
16FA
330
1476
100
AcDbEntity
  8
LW 3520-19-01
  6
MITTE2
 62
     3
100
AcDbLine
 10
47.83902532515907
 20
-60.0
 30
0.0
 11
-47.83902532515909
 21
-60.0
 31
0.0
  0
LINE
  5
16FB
330
1476
100
AcDbEntity
  8
LW 3520-19-01
  6
MITTE2
 62
     3
100
AcDbLine
 10
-91.49999999999989
 20
27.30489739875702
 30
0.0
 11
-91.49999999999989
 21
-41.6303604871004
 31
0.0
  0
INSERT
  5
16FC
330
1476
100
AcDbEntity
  8
LW 3520-19-01
100
AcDbBlockReference
 66
     1
  2
insertpoint-ECKELT
 10
0.0
 20
0.0
 30
0.0
  0
ATTRIB
  5
16FD
330
16FC
100
AcDbEntity
  8
insertpoint_ECKELT
100
AcDbText
 10
-6.931514324693087
 20
0.0
 30
0.0
 40
0.6
  1
LW 3520/19-01
 72
     2
 11
-1.200000000000045
 21
0.0
 31
0.0
100
AcDbAttribute
  2
LINKS
 70
     0
  0
ATTRIB
  5
16FE
330
16FC
100
AcDbEntity
  8
insertpoint_ECKELT
100
AcDbText
 10
1.200000000000045
 20
0.0
 30
0.0
 40
0.6
  1

100
AcDbAttribute
  2
RECHTS
 70
     0
  0
SEQEND
  5
16FF
330
16FC
100
AcDbEntity
  8
LW 3520-19-01
  0
HATCH
  5
1700
330
1476
100
AcDbEntity
  8
LW 3520-19-01
 62
     1
100
AcDbHatch
 10
0.0
 20
0.0
 30
0.0
210
0.0
220
0.0
230
1.0
  2
SOLID
 70
     1
 71
     0
 91
        5
 92
        7
 72
     0
 73
     1
 93
       76
 10
-38.32432087502358
 20
-17.73042025943835
 10
-38.26788523442028
 20
-17.70827078758862
 10
-38.08261329562575
 20
-17.65817174291453
 10
-37.890776357298
 20
-17.62651928383218
 10
-37.69692969510075
 20
-17.61142357833842
 10
-37.49585088848571
 20
-17.61609982965501
 10
-37.29423459670099
 20
-17.63958969621649
 10
-37.09402124287098
 20
-17.67556011211041
 10
-36.90737510703068
 20
-17.72864682343288
 10
-38.71308545759072
 20
-16.3743640605129
 10
-38.88861649263075
 20
-16.25357785323297
 10
-39.06588545871071
 20
-16.15321233567295
 10
-39.24706476963078
 20
-16.06892268023296
 10
-39.42737511503068
 20
-16.001577852433
 10
-39.60985787423081
 20
-15.9516123350329
 10
-39.79320959895082
 20
-15.91728819699301
 10
-39.97085951951462
 20
-15.90320765349997
 10
-40.14905097939069
 20
-15.90295026591309
 10
-40.32083294959133
 20
-15.92292413356273
 10
-40.48680049770436
 20
-15.95877261091778
 10
-40.64914063615074
 20
-16.00852957659299
 10
-40.8025130504308
 20
-16.07543992163312
 10
-40.94545787847081
 20
-16.16103302535316
 10
-41.08188546511061
 20
-16.25966061187307
 10
-41.20354063791071
 20
-16.37479854327307
 10
-41.31476822447072
 20
-16.50861923335304
 10
-41.41035443167069
 20
-16.65417095795317
 10
-41.48638891467075
 20
-16.80623992395306
 10
-41.53939581139067
 20
-16.9674330279131
 10
-41.57763029427073
 20
-17.13427440775308
 10
-41.5950096046707
 20
-17.30589509795322
 10
-41.59457512191065
 20
-17.48272958127302
 10
-41.57514505288353
 20
-17.6613193749435
 10
-41.53886609000969
 20
-17.83994583895878
 10
-41.4872578801907
 20
-18.01670889331308
 10
-41.41730615583051
 20
-18.19137096283305
 10
-41.32774361761526
 20
-18.36466528062465
 10
-41.22743718971068
 20
-18.532005446673
 10
-41.10838891347063
 20
-18.6918951023531
 10
-40.97456822339061
 20
-18.8465709649131
 10
-40.82336822291071
 20
-18.99255717227305
 10
-40.66000270515073
 20
-19.12594337959302
 10
-38.96466583654851
 20
-20.39744603104452
 10
-39.05525844554958
 20
-20.25066306962515
 10
-39.14773759647787
 20
-20.0680283645255
 10
-39.219792905655
 20
-19.88332476647815
 10
-39.28068827840841
 20
-19.69313043888132
 10
-39.31794441518056
 20
-19.50295134062736
 10
-39.33628092003088
 20
-19.3150068579539
 10
-39.33695225699805
 20
-19.12639304933788
 10
-39.32801845689434
 20
-19.02786259678521
 10
-40.15078891043069
 20
-18.41078475663301
 10
-40.25193997282062
 20
-18.3254714598105
 10
-40.34434229035551
 20
-18.23075248019938
 10
-40.42711994579062
 20
-18.12750199711308
 10
-40.49185787703058
 20
-18.02192268643307
 10
-40.54192419443094
 20
-17.91376949988285
 10
-40.5798806083446
 20
-17.80079529262764
 10
-40.60525787739069
 20
-17.68432958191312
 10
-40.61177511879063
 20
-17.57353647811311
 10
-39.22975806738359
 20
-18.61004926666828
 10
-39.21864437674705
 20
-18.57759023369783
 10
-39.13630945458786
 20
-18.40762399087828
 10
-39.03177054844278
 20
-18.24816602804867
 10
-38.90530255448627
 20
-18.0995781568223
 10
-38.76443635438622
 20
-17.97226609281426
 10
-38.72167809629528
 20
-17.94291958648466
 10
-40.13818891039071
 20
-16.880536475913
 10
-40.02522339279076
 20
-16.84577785511305
 10
-39.90965097863071
 20
-16.82926751023302
 10
-39.79165936446313
 20
-16.83043018609879
 10
-39.67459580547071
 20
-16.845343372353
 10
-39.55326041198211
 20
-16.88138284832951
 10
-39.43606477023067
 20
-16.92919854503304
 10
-39.31484408019074
 20
-16.99567440731306
 10
-39.19623028671069
 20
-17.076488200673
 97
        0
 92
        7
 72
     0
 73
     1
 93
       72
 10
-36.95030895544292
 20
-18.77917747504386
 10
-36.84117383785505
 20
-18.8384357097147
 10
-36.7387957961507
 20
-18.90870199959289
 10
-35.72384406879062
 20
-19.66991579511284
 10
-36.89043027939053
 20
-19.81329510591286
 10
-36.50851993335047
 20
-22.24770201019294
 10
-35.45359579207056
 20
-23.03889511615285
 10
-35.77945786207053
 20
-20.61665372915286
 10
-33.45410613055057
 20
-20.31859855579279
 10
-36.20525096687064
 20
-18.25523992855295
 10
-36.37810558810909
 20
-18.13906792818409
 10
-36.55875656799302
 20
-18.03540555544123
 10
-36.74618200307063
 20
-17.9445847551529
 10
-36.93474752091069
 20
-17.87376406527289
 10
-37.12722338359075
 20
-17.81901923751286
 10
-37.31576804625829
 20
-17.78514522361223
 10
-37.5060923503107
 20
-17.762970961473
 10
-37.69291993711064
 20
-17.75862613387295
 10
-37.87306344113082
 20
-17.77265471322789
 10
-38.05136821411063
 20
-17.80207440987306
 10
-38.22168545603083
 20
-17.84812958243299
 10
-38.38331304275058
 20
-17.91156406539289
 10
-38.53320959495071
 20
-17.99194337599294
 10
-38.67311304367067
 20
-18.08796406595297
 10
-38.79954752683065
 20
-18.20223303183303
 10
-38.91381649271071
 20
-18.33648820467306
 10
-39.00809925163057
 20
-18.48030199823302
 10
-39.08239580359063
 20
-18.63367441251296
 10
-39.13714063135055
 20
-18.79356406819301
 10
-39.17407166595067
 20
-18.95866751699299
 10
-39.1898590315179
 20
-19.13278561409743
 10
-39.18923685220571
 20
-19.30758845603179
 10
-39.17225726594475
 20
-19.48162487037734
 10
-39.13800959687061
 20
-19.65644682955292
 10
-39.08112016220727
 20
-19.83412942322059
 10
-39.01331304475062
 20
-20.00794338239302
 10
-38.92685097551058
 20
-20.17869510707305
 10
-38.8238785613905
 20
-20.34553648691304
 10
-38.70092341617269
 20
-20.50531491500647
 10
-38.56970614679065
 20
-20.65836407411302
 10
-38.41850614631059
 20
-20.80435028147304
 10
-38.25514062855061
 20
-20.93773648879301
 10
-36.73271303751048
 20
-22.07955718207291
 10
-36.91780269327054
 20
-20.84910200575291
 10
-37.73115441999059
 20
-20.23908821071296
 10
-37.78223967198264
 20
-20.19609015554477
 10
-37.85700843418326
 20
-20.12753563104855
 10
-37.94023795168877
 20
-20.03828418248929
 10
-38.01333880709334
 20
-19.94055336838608
 10
-38.06997797968686
 20
-19.84691364395075
 10
-38.09799342805175
 20
-19.79070895411706
 10
-38.12138945571215
 20
-19.73242917462164
 10
-38.16784435241149
 20
-19.57343455342737
 10
-38.18470228349938
 20
-19.47324282897136
 10
-38.18803563523417
 20
-19.38591005628046
 10
-38.183464876599
 20
-19.29863984910673
 10
-38.16865770413827
 20
-19.21329005573227
 10
-38.14334300060952
 20
-19.13049849684887
 10
-38.10760766256507
 20
-19.04835344831212
 10
-38.06002311068991
 20
-18.97237979289861
 10
-38.0215557450505
 20
-18.92334928239813
 10
-37.97947348284797
 20
-18.87724718570012
 10
-37.93184374476559
 20
-18.8340022476317
 10
-37.88025499977434
 20
-18.79557311647522
 10
-37.78610779947562
 20
-18.74279041285939
 10
-37.71216578544758
 20
-18.7134141644903
 10
-37.6148833575526
 20
-18.6888346057915
 10
-37.43544816302855
 20
-18.66525758036743
 10
-37.36399910848016
 20
-18.66877192986578
 10
-37.27637262544349
 20
-18.67909524024344
 10
-37.18386950790844
 20
-18.69579154374457
 10
-37.06493593511706
 20
-18.73144172316813
 97
        0
 92
        7
 72
     0
 73
     1
 93
       57
 10
-33.31712240597764
 20
-21.5316570424024
 10
-33.18795937108493
 20
-21.57856380117198
 10
-33.06394061207058
 20
-21.63768821515271
 10
-32.94402337031059
 20
-21.71676407747276
 10
-31.95166474647053
 20
-22.46103304535274
 10
-31.45635440007052
 20
-21.80061925015275
 10
-32.4434992307906
 20
-21.06026062711283
 10
-32.61729233479056
 20
-20.94077786811283
 10
-32.79934061123058
 20
-20.83954338503281
 10
-32.98225785319047
 20
-20.75395028131277
 10
-33.16604406067049
 20
-20.68399855695282
 10
-33.35678199231049
 20
-20.63055717747284
 10
-33.53949068254596
 20
-20.59682393598632
 10
-33.7244204486502
 20
-20.57869557730817
 10
-33.91017746992944
 20
-20.57623988074874
 10
-34.0893581601533
 20
-20.59088194976073
 10
-34.26267854691057
 20
-20.62186752227285
 10
-34.42951992675054
 20
-20.67052959139283
 10
-34.5846302720706
 20
-20.73613648815285
 10
-34.73452682427072
 20
-20.8165157987529
 10
-34.87095441091046
 20
-20.91514338527281
 10
-34.9973888940705
 20
-21.02941235115281
 10
-35.1103544116705
 20
-21.1619295929529
 10
-35.20594061887059
 20
-21.30748131755286
 10
-35.28023717083053
 20
-21.46085373183286
 10
-35.33498199859068
 20
-21.6207433875129
 10
-35.37147855043045
 20
-21.78888821563294
 10
-35.39059579187048
 20
-21.95920545755291
 10
-35.38725201254951
 20
-22.13615812018361
 10
-35.36957377801068
 20
-22.31234783108766
 10
-35.33321626065387
 20
-22.4912504523453
 10
-35.28154061911059
 20
-22.66828132187288
 10
-35.21158889475058
 20
-22.84294339139291
 10
-35.1233888944706
 20
-23.01499856435282
 10
-35.01998199759041
 20
-23.18488132351285
 10
-34.90093372135047
 20
-23.34477097919284
 10
-34.76711303127044
 20
-23.49944684175284
 10
-34.61634751355049
 20
-23.64239166979292
 10
-34.45124406475045
 20
-23.77708132539289
 10
-33.48321647547047
 20
-24.50310201735283
 10
-32.96835440487044
 20
-23.81661925655283
 10
-33.95549923559062
 20
-23.07626063351279
 10
-34.05621233935856
 20
-22.98779994357687
 10
-34.14882668447999
 20
-22.89085815016563
 10
-34.2247221329969
 20
-22.79103139122799
 10
-34.28874751251041
 20
-22.68305373571286
 10
-34.33992958163853
 20
-22.56852408017676
 10
-34.37701703003213
 20
-22.45620159706164
 10
-34.39908875424007
 20
-22.33993401048565
 10
-34.40736130599046
 20
-22.22684683771285
 10
-32.7233061282304
 20
-23.4898882210328
 10
-32.2266923335504
 20
-22.82773649479282
 10
-33.94029233899059
 20
-21.54253649071279
 10
-33.82602337311059
 20
-21.50603993887285
 10
-33.7030647520306
 20
-21.48692269743287
 10
-33.57636957921452
 20
-21.48657511122485
 10
-33.45019578571052
 20
-21.49735028367286
 97
        0
 92
        7
 72
     0
 73
     1
 93
        6
 10
-31.27995439951039
 20
-21.94921235407276
 10
-33.30160268179046
 20
-24.64474339711279
 10
-31.51153371059033
 20
-25.98729512551279
 10
-30.99145784687036
 20
-25.29386064055268
 10
-31.9629612982304
 20
-24.56523305203268
 10
-30.46138887967047
 20
-22.5631364939527
 97
        0
 92
        7
 72
     0
 73
     1
 93
        8
 10
-30.27543025839051
 20
-22.70260545991266
 10
-30.77074060479058
 20
-23.3630192551127
 10
-29.78359577407039
 20
-24.10337787815263
 10
-31.31384405479034
 20
-26.14370891911278
 10
-30.49354060391036
 20
-26.75893650727272
 10
-28.96329232319047
 20
-24.71860546631262
 10
-27.96919576831047
 20
-25.46417788247266
 10
-27.47388542191047
 20
-24.80376408727261
 97
        0
 75
     0
 76
     1
 47
0.0142553043587597
 98
        5
 10
-38.63111085016399
 20
-16.98890710306943
 10
-36.90264487049328
 20
-18.46344781907953
 10
-33.27466278120338
 20
-21.1131579203622
 10
-30.95017937932264
 20
-22.55359519090723
 10
-29.88058127298925
 20
-23.48052768617401
450
        0
451
        0
460
0.0
461
0.0
452
        0
462
0.0
453
        0
470

  0
LWPOLYLINE
  5
1701
330
1476
100
AcDbEntity
  8
LW 3520-19-01
 62
     1
100
AcDbPolyline
 90
        8
 70
     1
 43
0.0
 10
-28.96329232319047
 20
-24.71860546631262
 10
-30.49354060391036
 20
-26.75893650727272
 10
-31.31384405479034
 20
-26.14370891911278
 10
-29.78359577407039
 20
-24.10337787815263
 10
-30.77074060479058
 20
-23.3630192551127
 10
-30.27543025839051
 20
-22.70260545991266
 10
-27.47388542191047
 20
-24.80376408727261
 10
-27.96919576831047
 20
-25.46417788247266
  0
LWPOLYLINE
  5
1702
330
1476
100
AcDbEntity
  8
LW 3520-19-01
 62
     1
100
AcDbPolyline
 90
       73
 70
     1
 43
0.0
 10
-37.73115441999059
 20
-20.23908821071296
 10
-36.91780269327054
 20
-20.84910200575291
 10
-36.73271303751048
 20
-22.07955718207291
 10
-38.25514062855061
 20
-20.93773648879301
 10
-38.41850614631059
 20
-20.80435028147304
 10
-38.5697061467906
 20
-20.65836407411297
 10
-38.70092341617269
 20
-20.50531491500647
 10
-38.8238785613905
 20
-20.34553648691304
 10
-38.92685097551058
 20
-20.17869510707305
 10
-39.01331304475056
 20
-20.00794338239302
 10
-39.08112016220716
 20
-19.83412942322053
 10
-39.13800959687061
 20
-19.65644682955292
 10
-39.17225726594492
 20
-19.48162487037734
 10
-39.18923685220571
 20
-19.30758845603179
 10
-39.18985903151801
 20
-19.13278561409743
 10
-39.17407166595067
 20
-18.95866751699299
 10
-39.13714063135055
 20
-18.79356406819301
 10
-39.08239580359063
 20
-18.63367441251296
 10
-39.00809925163057
 20
-18.48030199823302
 10
-38.91381649271065
 20
-18.336488204673
 10
-38.79954752683065
 20
-18.20223303183303
 10
-38.67311304367067
 20
-18.08796406595297
 10
-38.53320959495065
 20
-17.991943375993
 10
-38.38331304275064
 20
-17.91156406539295
 10
-38.22168545603071
 20
-17.84812958243299
 10
-38.05136821411063
 20
-17.80207440987306
 10
-37.87306344113077
 20
-17.77265471322784
 10
-37.69291993711076
 20
-17.75862613387289
 10
-37.5060923503107
 20
-17.762970961473
 10
-37.31576804625823
 20
-17.7851452236124
 10
-37.12722338359081
 20
-17.81901923751297
 10
-36.93474752091069
 20
-17.87376406527289
 10
-36.74618200307063
 20
-17.94458475515284
 10
-36.5587565679929
 20
-18.03540555544123
 10
-36.37810558810909
 20
-18.13906792818409
 10
-36.2052509668707
 20
-18.25523992855289
 10
-33.45410613055057
 20
-20.31859855579279
 10
-35.77945786207053
 20
-20.61665372915286
 10
-35.45359579207056
 20
-23.03889511615285
 10
-36.50851993335047
 20
-22.24770201019294
 10
-36.89043027939053
 20
-19.81329510591286
 10
-35.72384406879062
 20
-19.66991579511284
 10
-36.7387957961507
 20
-18.90870199959289
 10
-36.84117383785505
 20
-18.8384357097147
 10
-36.95030895544292
 20
-18.77917747504386
 10
-37.06493593511706
 20
-18.73144172316813
 10
-37.1838695079085
 20
-18.69579154374469
 10
-37.27637262544349
 20
-18.67909524024327
 10
-37.36399910848027
 20
-18.66877192986573
 10
-37.41251171553083
 20
-18.66638575054782
 10
-37.46108341223666
 20
-18.66862594365841
 10
-37.6148833575526
 20
-18.6888346057915
 10
-37.71216578544758
 20
-18.7134141644903
 10
-37.78610779947551
 20
-18.74279041285933
 10
-37.88025499977434
 20
-18.79557311647522
 10
-37.93184374476559
 20
-18.8340022476317
 10
-37.97947348284791
 20
-18.87724718570007
 10
-38.02155574505045
 20
-18.92334928239808
 10
-38.0600231106898
 20
-18.97237979289855
 10
-38.10760766256507
 20
-19.04835344831212
 10
-38.14334300060941
 20
-19.13049849684887
 10
-38.16865770413816
 20
-19.21329005573239
 10
-38.183464876599
 20
-19.29863984910673
 10
-38.18803563523417
 20
-19.38591005628029
 10
-38.18470228349938
 20
-19.47324282897136
 10
-38.16784435241149
 20
-19.57343455342737
 10
-38.12138945571209
 20
-19.73242917462176
 10
-38.09799342805169
 20
-19.79070895411712
 10
-38.06997797968686
 20
-19.84691364395075
 10
-38.01333880709334
 20
-19.94055336838608
 10
-37.94023795168877
 20
-20.03828418248929
 10
-37.85700843418326
 20
-20.12753563104855
 10
-37.78223967198253
 20
-20.19609015554483
  0
LWPOLYLINE
  5
1703
330
1476
100
AcDbEntity
  8
LW 3520-19-01
 62
     1
100
AcDbPolyline
 90
       76
 70
     1
 43
0.0
 10
-37.29423459670099
 20
-17.63958969621649
 10
-37.49585088848582
 20
-17.61609982965501
 10
-37.69692969510081
 20
-17.6114235783383
 10
-37.890776357298
 20
-17.62651928383218
 10
-38.08261329562575
 20
-17.65817174291453
 10
-38.26788523442022
 20
-17.70827078758856
 10
-38.32432087502358
 20
-17.73042025943835
 10
-39.19623028671069
 20
-17.076488200673
 10
-39.31484408019074
 20
-16.99567440731306
 10
-39.43606477023079
 20
-16.92919854503299
 10
-39.55326041198211
 20
-16.88138284832951
 10
-39.67459580547071
 20
-16.845343372353
 10
-39.79165936446302
 20
-16.83043018609885
 10
-39.90965097863077
 20
-16.82926751023308
 10
-40.02522339279082
 20
-16.845777855113
 10
-40.13818891039071
 20
-16.880536475913
 10
-38.72167809629528
 20
-17.94291958648466
 10
-38.76443635438622
 20
-17.97226609281426
 10
-38.9053025544865
 20
-18.0995781568223
 10
-39.03177054844278
 20
-18.24816602804867
 10
-39.13630945458786
 20
-18.40762399087828
 10
-39.21864437674694
 20
-18.57759023369783
 10
-39.22975806738359
 20
-18.61004926666828
 10
-40.61177511879063
 20
-17.57353647811311
 10
-40.60525787739069
 20
-17.68432958191312
 10
-40.5798806083446
 20
-17.80079529262764
 10
-40.54192419443094
 20
-17.91376949988285
 10
-40.49185787703058
 20
-18.02192268643307
 10
-40.42711994579062
 20
-18.12750199711308
 10
-40.34434229035551
 20
-18.23075248019938
 10
-40.25193997282062
 20
-18.3254714598105
 10
-40.15078891043069
 20
-18.41078475663301
 10
-39.32801845689434
 20
-19.02786259678521
 10
-39.33695225699799
 20
-19.12639304933782
 10
-39.33628092003088
 20
-19.3150068579539
 10
-39.31794441518056
 20
-19.50295134062736
 10
-39.28068827840818
 20
-19.69313043888132
 10
-39.219792905655
 20
-19.88332476647815
 10
-39.14773759647787
 20
-20.0680283645255
 10
-39.05525844554958
 20
-20.25066306962515
 10
-38.96466583654851
 20
-20.39744603104452
 10
-40.66000270515067
 20
-19.12594337959308
 10
-40.82336822291071
 20
-18.99255717227305
 10
-40.97456822339061
 20
-18.8465709649131
 10
-41.10838891347069
 20
-18.6918951023531
 10
-41.22743718971068
 20
-18.53200544667316
 10
-41.32774361761536
 20
-18.36466528062453
 10
-41.41730615583051
 20
-18.19137096283305
 10
-41.4872578801907
 20
-18.01670889331308
 10
-41.53886609000958
 20
-17.83994583895889
 10
-41.57514505288353
 20
-17.6613193749435
 10
-41.59457512191065
 20
-17.48272958127308
 10
-41.5950096046707
 20
-17.30589509795311
 10
-41.57763029427061
 20
-17.13427440775308
 10
-41.53939581139067
 20
-16.9674330279131
 10
-41.48638891467075
 20
-16.80623992395306
 10
-41.41035443167069
 20
-16.65417095795305
 10
-41.31476822447072
 20
-16.5086192333531
 10
-41.20354063791089
 20
-16.37479854327307
 10
-41.08188546511073
 20
-16.25966061187307
 10
-40.94545787847076
 20
-16.16103302535305
 10
-40.8025130504308
 20
-16.07543992163312
 10
-40.64914063615074
 20
-16.00852957659299
 10
-40.48680049770425
 20
-15.95877261091789
 10
-40.32083294959128
 20
-15.92292413356267
 10
-40.1490509793908
 20
-15.90295026591309
 10
-39.97085951951473
 20
-15.90320765350003
 10
-39.79320959895071
 20
-15.91728819699301
 10
-39.60985787423076
 20
-15.95161233503302
 10
-39.42737511503068
 20
-16.001577852433
 10
-39.24706476963078
 20
-16.06892268023307
 10
-39.06588545871071
 20
-16.15321233567295
 10
-38.88861649263075
 20
-16.25357785323297
 10
-38.71308545759072
 20
-16.37436406051302
 10
-36.90737510703056
 20
-17.72864682343288
 10
-37.09402124287098
 20
-17.67556011211041
  0
LWPOLYLINE
  5
1704
330
1476
100
AcDbEntity
  8
LW 3520-19-01
 62
     1
100
AcDbPolyline
 90
        6
 70
     1
 43
0.0
 10
-31.51153371059033
 20
-25.98729512551279
 10
-33.30160268179046
 20
-24.64474339711279
 10
-31.27995439951039
 20
-21.94921235407276
 10
-30.46138887967047
 20
-22.5631364939527
 10
-31.9629612982304
 20
-24.56523305203268
 10
-30.99145784687036
 20
-25.29386064055268
  0
LWPOLYLINE
  5
1705
330
1476
100
AcDbEntity
  8
LW 3520-19-01
 62
     1
100
AcDbPolyline
 90
       57
 70
     1
 43
0.0
 10
-35.36957377801068
 20
-22.31234783108766
 10
-35.38725201254962
 20
-22.13615812018361
 10
-35.3905957918706
 20
-21.95920545755291
 10
-35.37147855043045
 20
-21.78888821563294
 10
-35.33498199859068
 20
-21.6207433875129
 10
-35.28023717083053
 20
-21.46085373183286
 10
-35.20594061887059
 20
-21.30748131755286
 10
-35.1103544116705
 20
-21.1619295929529
 10
-34.99738889407055
 20
-21.02941235115281
 10
-34.87095441091057
 20
-20.91514338527293
 10
-34.73452682427072
 20
-20.8165157987529
 10
-34.5846302720706
 20
-20.7361364881528
 10
-34.42951992675066
 20
-20.67052959139289
 10
-34.26267854691057
 20
-20.62186752227274
 10
-34.08935816015353
 20
-20.59088194976061
 10
-33.91017746992944
 20
-20.57623988074874
 10
-33.72442044865008
 20
-20.57869557730817
 10
-33.53949068254562
 20
-20.59682393598643
 10
-33.35678199231049
 20
-20.63055717747284
 10
-33.1660440606706
 20
-20.68399855695282
 10
-32.98225785319047
 20
-20.75395028131277
 10
-32.79934061123058
 20
-20.83954338503281
 10
-32.61729233479056
 20
-20.94077786811283
 10
-32.4434992307906
 20
-21.06026062711283
 10
-31.45635440007052
 20
-21.80061925015275
 10
-31.95166474647053
 20
-22.46103304535274
 10
-32.94402337031054
 20
-21.71676407747282
 10
-33.06394061207053
 20
-21.63768821515282
 10
-33.18795937108493
 20
-21.57856380117198
 10
-33.31712240597776
 20
-21.5316570424024
 10
-33.45019578571052
 20
-21.49735028367286
 10
-33.57636957921452
 20
-21.48657511122485
 10
-33.7030647520306
 20
-21.48692269743276
 10
-33.82602337311059
 20
-21.50603993887285
 10
-33.94029233899059
 20
-21.54253649071279
 10
-32.2266923335504
 20
-22.82773649479282
 10
-32.7233061282304
 20
-23.4898882210328
 10
-34.40736130599046
 20
-22.22684683771285
 10
-34.39908875424007
 20
-22.33993401048565
 10
-34.37701703003213
 20
-22.45620159706164
 10
-34.33992958163853
 20
-22.56852408017676
 10
-34.28874751251041
 20
-22.68305373571286
 10
-34.2247221329969
 20
-22.79103139122799
 10
-34.14882668447999
 20
-22.89085815016563
 10
-34.05621233935856
 20
-22.98779994357687
 10
-33.95549923559062
 20
-23.07626063351279
 10
-32.96835440487044
 20
-23.81661925655283
 10
-33.48321647547047
 20
-24.50310201735283
 10
-34.45124406475045
 20
-23.77708132539289
 10
-34.61634751355049
 20
-23.64239166979292
 10
-34.76711303127044
 20
-23.49944684175284
 10
-34.90093372135047
 20
-23.34477097919284
 10
-35.01998199759041
 20
-23.18488132351285
 10
-35.1233888944706
 20
-23.01499856435282
 10
-35.21158889475052
 20
-22.84294339139285
 10
-35.28154061911059
 20
-22.66828132187288
 10
-35.33321626065387
 20
-22.4912504523453
  0
ENDBLK
  5
1478
330
1476
100
AcDbEntity
  8
0
100
AcDbBlockEnd
  0
BLOCK
  5
1708
330
1707
100
AcDbEntity
  8
0
100
AcDbBlockBegin
  2
LW 3520-19-01_b
 70
     0
 10
0.0
 20
0.0
 30
0.0
  3
LW 3520-19-01_b
  1

  0
LINE
  5
170A
330
1707
100
AcDbEntity
  8
LW 3520-19-01
100
AcDbLine
 10
-54.50000000000006
 20
-1.999999999961744
 30
0.0
 11
-43.50000000000003
 21
-1.999999999964245
 31
0.0
  0
LINE
  5
170B
330
1707
100
AcDbEntity
  8
LW 3520-19-01
100
AcDbLine
 10
-43.50000000000003
 20
2.000000000035868
 30
0.0
 11
-54.50000000000009
 21
2.000000000038255
 31
0.0
  0
LINE
  5
170C
330
1707
100
AcDbEntity
  8
LW 3520-19-01
100
AcDbLine
 10
-20.50000000000003
 20
-32.99999999999994
 30
0.0
 11
-20.50000000000003
 21
32.99999999999994
 31
0.0
  0
ARC
  5
170D
330
1707
100
AcDbEntity
  8
LW 3520-19-01
100
AcDbCircle
 10
-18.5
 20
32.99999999999994
 30
0.0
 40
2.00000000000001
100
AcDbArc
 50
90.0
 51
180.0
  0
ARC
  5
170E
330
1707
100
AcDbEntity
  8
LW 3520-19-01
100
AcDbCircle
 10
-18.50000000000003
 20
-33.00000000000006
 30
0.0
 40
2.000000000000003
100
AcDbArc
 50
180.0
 51
270.0
  0
LINE
  5
170F
330
1707
100
AcDbEntity
  8
LW 3520-19-01
100
AcDbLine
 10
-18.50000000000006
 20
35.00000000003826
 30
0.0
 11
-22.50000000000006
 21
35.00000000003945
 31
0.0
  0
LINE
  5
1710
330
1707
100
AcDbEntity
  8
LW 3520-19-01
100
AcDbLine
 10
-22.50000000000006
 20
-34.99999999996055
 30
0.0
 11
-18.50000000000006
 21
-34.99999999996175
 31
0.0
  0
LINE
  5
1711
330
1707
100
AcDbEntity
  8
LW 3520-19-01
100
AcDbLine
 10
-22.50000000000006
 20
35.00000000003945
 30
0.0
 11
-91.50000000000005
 21
35.00000000003945
 31
0.0
  0
LINE
  5
1712
330
1707
100
AcDbEntity
  8
LW 3520-19-01
100
AcDbLine
 10
-91.50000000000005
 20
-34.99999999996055
 30
0.0
 11
-22.50000000000006
 21
-34.99999999996055
 31
0.0
  0
ARC
  5
1713
330
1707
100
AcDbEntity
  8
LW 3520-19-01
100
AcDbCircle
 10
-91.50000000000005
 20
0.0000000000394493
 30
0.0
 40
35.0
100
AcDbArc
 50
90.0
 51
270.0
  0
LINE
  5
1714
330
1707
100
AcDbEntity
  8
LW 3520-19-01
100
AcDbLine
 10
-11.50000000000005
 20
35.0
 30
0.0
 11
-18.50000000000003
 21
35.0
 31
0.0
  0
LINE
  5
1715
330
1707
100
AcDbEntity
  8
LW 3520-19-01
100
AcDbLine
 10
-18.50000000000003
 20
-35.0
 30
0.0
 11
-11.50000000000005
 21
-35.0
 31
0.0
  0
LINE
  5
1716
330
1707
100
AcDbEntity
  8
LW 3520-19-01
100
AcDbLine
 10
-11.50000000000005
 20
35.0
 30
0.0
 11
-11.50000000000005
 21
-35.0
 31
0.0
  0
LINE
  5
1717
330
1707
100
AcDbEntity
  8
LW 3520-19-01
100
AcDbLine
 10
54.49999999999994
 20
2.000000000038255
 30
0.0
 11
43.49999999999994
 21
2.000000000035868
 31
0.0
  0
LINE
  5
1718
330
1707
100
AcDbEntity
  8
LW 3520-19-01
100
AcDbLine
 10
43.49999999999994
 20
-1.999999999964245
 30
0.0
 11
54.49999999999994
 21
-1.999999999961744
 31
0.0
  0
LINE
  5
1719
330
1707
100
AcDbEntity
  8
LW 3520-19-01
100
AcDbLine
 10
20.5
 20
32.99999999999994
 30
0.0
 11
20.5
 21
-32.99999999999994
 31
0.0
  0
ARC
  5
171A
330
1707
100
AcDbEntity
  8
LW 3520-19-01
100
AcDbCircle
 10
18.5
 20
-33.00000000000006
 30
0.0
 40
1.999999999999992
100
AcDbArc
 50
270.0
 51
0.0
  0
ARC
  5
171B
330
1707
100
AcDbEntity
  8
LW 3520-19-01
100
AcDbCircle
 10
18.5
 20
32.99999999999994
 30
0.0
 40
2.000000000000005
100
AcDbArc
 50
0.0
 51
90.0
  0
LINE
  5
171C
330
1707
100
AcDbEntity
  8
LW 3520-19-01
100
AcDbLine
 10
18.5
 20
-34.99999999996175
 30
0.0
 11
22.5
 21
-34.99999999996055
 31
0.0
  0
LINE
  5
171D
330
1707
100
AcDbEntity
  8
LW 3520-19-01
100
AcDbLine
 10
22.5
 20
35.00000000003945
 30
0.0
 11
18.5
 21
35.00000000003826
 31
0.0
  0
LINE
  5
171E
330
1707
100
AcDbEntity
  8
LW 3520-19-01
100
AcDbLine
 10
22.5
 20
-34.99999999996055
 30
0.0
 11
91.5
 21
-34.99999999996055
 31
0.0
  0
LINE
  5
171F
330
1707
100
AcDbEntity
  8
LW 3520-19-01
100
AcDbLine
 10
91.5
 20
35.00000000003945
 30
0.0
 11
22.5
 21
35.00000000003945
 31
0.0
  0
ARC
  5
1720
330
1707
100
AcDbEntity
  8
LW 3520-19-01
100
AcDbCircle
 10
91.5
 20
0.0000000000394493
 30
0.0
 40
35.0
100
AcDbArc
 50
270.0
 51
90.0
  0
LINE
  5
1721
330
1707
100
AcDbEntity
  8
LW 3520-19-01
100
AcDbLine
 10
11.49999999999994
 20
-35.0
 30
0.0
 11
18.5
 21
-35.0
 31
0.0
  0
LINE
  5
1722
330
1707
100
AcDbEntity
  8
LW 3520-19-01
100
AcDbLine
 10
18.5
 20
35.0
 30
0.0
 11
11.49999999999994
 21
35.0
 31
0.0
  0
LINE
  5
1723
330
1707
100
AcDbEntity
  8
LW 3520-19-01
100
AcDbLine
 10
11.49999999999994
 20
-35.0
 30
0.0
 11
11.49999999999994
 21
35.0
 31
0.0
  0
CIRCLE
  5
1724
330
1707
100
AcDbEntity
  8
LW 3520-19-01
100
AcDbCircle
 10
-91.50000000000005
 20
0.0000000000373461
 30
0.0
 40
22.5
  0
CIRCLE
  5
1725
330
1707
100
AcDbEntity
  8
LW 3520-19-01
100
AcDbCircle
 10
91.5
 20
0.0000000000373461
 30
0.0
 40
22.5
  0
CIRCLE
  5
1726
330
1707
100
AcDbEntity
  8
LW 3520-19-01
100
AcDbCircle
 10
91.5
 20
0.0000000000314344
 30
0.0
 40
17.5
  0
CIRCLE
  5
1727
330
1707
100
AcDbEntity
  8
LW 3520-19-01
100
AcDbCircle
 10
91.5
 20
0.0000000000305249
 30
0.0
 40
14.5
  0
POLYLINE
  5
1728
330
1707
100
AcDbEntity
  8
LW 3520-19-01
100
AcDb2dPolyline
 66
     1
 10
0.0
 20
0.0
 30
0.0
 70
   128
  0
VERTEX
  5
1729
330
1728
100
AcDbEntity
  8
LW 3520-19-01
100
AcDbVertex
100
AcDb2dVertex
 10
38.49999952316284
 20
-15.15544414520525
 30
0.0
  0
VERTEX
  5
172A
330
1728
100
AcDbEntity
  8
LW 3520-19-01
100
AcDbVertex
100
AcDb2dVertex
 10
38.48318386077881
 20
-15.28149843216198
 30
0.0
  0
VERTEX
  5
172B
330
1728
100
AcDbEntity
  8
LW 3520-19-01
100
AcDbVertex
100
AcDb2dVertex
 10
38.43250799179077
 20
-15.40561437607061
 30
0.0
  0
VERTEX
  5
172C
330
1728
100
AcDbEntity
  8
LW 3520-19-01
100
AcDbVertex
100
AcDb2dVertex
 10
38.34763216972351
 20
-15.52376866340881
 30
0.0
  0
VERTEX
  5
172D
330
1728
100
AcDbEntity
  8
LW 3520-19-01
100
AcDbVertex
100
AcDb2dVertex
 10
38.22932291030884
 20
-15.63239455223316
 30
0.0
  0
VERTEX
  5
172E
330
1728
100
AcDbEntity
  8
LW 3520-19-01
100
AcDbVertex
100
AcDb2dVertex
 10
38.08275866508484
 20
-15.72940349579084
 30
0.0
  0
VERTEX
  5
172F
330
1728
100
AcDbEntity
  8
LW 3520-19-01
100
AcDbVertex
100
AcDb2dVertex
 10
37.91421103477478
 20
-15.81298470497353
 30
0.0
  0
VERTEX
  5
1730
330
1728
100
AcDbEntity
  8
LW 3520-19-01
100
AcDbVertex
100
AcDb2dVertex
 10
37.72194790840149
 20
-15.8846962451957
 30
0.0
  0
VERTEX
  5
1731
330
1728
100
AcDbEntity
  8
LW 3520-19-01
100
AcDbVertex
100
AcDb2dVertex
 10
37.5038640499115
 20
-15.94591498375149
 30
0.0
  0
VERTEX
  5
1732
330
1728
100
AcDbEntity
  8
LW 3520-19-01
100
AcDbVertex
100
AcDb2dVertex
 10
37.26566958427429
 20
-15.9945559501669
 30
0.0
  0
VERTEX
  5
1733
330
1728
100
AcDbEntity
  8
LW 3520-19-01
100
AcDbVertex
100
AcDb2dVertex
 10
37.01353359222412
 20
-16.0290384292623
 30
0.0
  0
VERTEX
  5
1734
330
1728
100
AcDbEntity
  8
LW 3520-19-01
100
AcDbVertex
100
AcDb2dVertex
 10
36.75547885894776
 20
-16.04943513870444
 30
0.0
  0
VERTEX
  5
1735
330
1728
100
AcDbEntity
  8
LW 3520-19-01
100
AcDbVertex
100
AcDb2dVertex
 10
36.50000023841858
 20
-16.05614542961325
 30
0.0
  0
VERTEX
  5
1736
330
1728
100
AcDbEntity
  8
LW 3520-19-01
100
AcDbVertex
100
AcDb2dVertex
 10
36.24452042579651
 20
-16.04943513870444
 30
0.0
  0
VERTEX
  5
1737
330
1728
100
AcDbEntity
  8
LW 3520-19-01
100
AcDbVertex
100
AcDb2dVertex
 10
35.98646688461304
 20
-16.0290384292623
 30
0.0
  0
VERTEX
  5
1738
330
1728
100
AcDbEntity
  8
LW 3520-19-01
100
AcDbVertex
100
AcDb2dVertex
 10
35.73433089256287
 20
-15.9945559501669
 30
0.0
  0
VERTEX
  5
1739
330
1728
100
AcDbEntity
  8
LW 3520-19-01
100
AcDbVertex
100
AcDb2dVertex
 10
35.49613642692566
 20
-15.94591498375149
 30
0.0
  0
VERTEX
  5
173A
330
1728
100
AcDbEntity
  8
LW 3520-19-01
100
AcDbVertex
100
AcDb2dVertex
 10
35.27805137634278
 20
-15.8846962451957
 30
0.0
  0
VERTEX
  5
173B
330
1728
100
AcDbEntity
  8
LW 3520-19-01
100
AcDbVertex
100
AcDb2dVertex
 10
35.08578944206238
 20
-15.81298470497353
 30
0.0
  0
VERTEX
  5
173C
330
1728
100
AcDbEntity
  8
LW 3520-19-01
100
AcDbVertex
100
AcDb2dVertex
 10
34.91724181175232
 20
-15.72940349579084
 30
0.0
  0
VERTEX
  5
173D
330
1728
100
AcDbEntity
  8
LW 3520-19-01
100
AcDbVertex
100
AcDb2dVertex
 10
34.77067637443543
 20
-15.63239455223316
 30
0.0
  0
VERTEX
  5
173E
330
1728
100
AcDbEntity
  8
LW 3520-19-01
100
AcDbVertex
100
AcDb2dVertex
 10
34.65236830711365
 20
-15.52376866340881
 30
0.0
  0
VERTEX
  5
173F
330
1728
100
AcDbEntity
  8
LW 3520-19-01
100
AcDbVertex
100
AcDb2dVertex
 10
34.56749248504639
 20
-15.40561437607061
 30
0.0
  0
VERTEX
  5
1740
330
1728
100
AcDbEntity
  8
LW 3520-19-01
100
AcDbVertex
100
AcDb2dVertex
 10
34.51681661605835
 20
-15.28149843216198
 30
0.0
  0
VERTEX
  5
1741
330
1728
100
AcDbEntity
  8
LW 3520-19-01
100
AcDbVertex
100
AcDb2dVertex
 10
34.49999976158142
 20
-15.15544414520525
 30
0.0
  0
SEQEND
  5
1742
330
1728
100
AcDbEntity
  8
LW 3520-19-01
  0
POLYLINE
  5
1743
330
1707
100
AcDbEntity
  8
LW 3520-19-01
100
AcDb2dPolyline
 66
     1
 10
0.0
 20
0.0
 30
0.0
 70
   128
  0
VERTEX
  5
1744
330
1743
100
AcDbEntity
  8
LW 3520-19-01
100
AcDbVertex
100
AcDb2dVertex
 10
34.49999976158142
 20
-15.15544414520525
 30
0.0
  0
VERTEX
  5
1745
330
1743
100
AcDbEntity
  8
LW 3520-19-01
100
AcDbVertex
100
AcDb2dVertex
 10
34.51681661605835
 20
-15.02601861953997
 30
0.0
  0
VERTEX
  5
1746
330
1743
100
AcDbEntity
  8
LW 3520-19-01
100
AcDbVertex
100
AcDb2dVertex
 10
34.56749248504639
 20
-14.89207863807945
 30
0.0
  0
VERTEX
  5
1747
330
1743
100
AcDbEntity
  8
LW 3520-19-01
100
AcDbVertex
100
AcDb2dVertex
 10
34.65236830711365
 20
-14.75809454918186
 30
0.0
  0
VERTEX
  5
1748
330
1743
100
AcDbEntity
  8
LW 3520-19-01
100
AcDbVertex
100
AcDb2dVertex
 10
34.77067637443543
 20
-14.62852478027628
 30
0.0
  0
VERTEX
  5
1749
330
1743
100
AcDbEntity
  8
LW 3520-19-01
100
AcDbVertex
100
AcDb2dVertex
 10
34.91724181175232
 20
-14.50744867325119
 30
0.0
  0
VERTEX
  5
174A
330
1743
100
AcDbEntity
  8
LW 3520-19-01
100
AcDbVertex
100
AcDb2dVertex
 10
35.08578944206238
 20
-14.39876794815365
 30
0.0
  0
VERTEX
  5
174B
330
1743
100
AcDbEntity
  8
LW 3520-19-01
100
AcDbVertex
100
AcDb2dVertex
 10
35.27805137634278
 20
-14.30193305015865
 30
0.0
  0
VERTEX
  5
174C
330
1743
100
AcDbEntity
  8
LW 3520-19-01
100
AcDbVertex
100
AcDb2dVertex
 10
35.49613642692566
 20
-14.21658873558351
 30
0.0
  0
VERTEX
  5
174D
330
1743
100
AcDbEntity
  8
LW 3520-19-01
100
AcDbVertex
100
AcDb2dVertex
 10
35.73433089256287
 20
-14.14692282677004
 30
0.0
  0
VERTEX
  5
174E
330
1743
100
AcDbEntity
  8
LW 3520-19-01
100
AcDbVertex
100
AcDb2dVertex
 10
35.98646688461304
 20
-14.09652948379823
 30
0.0
  0
VERTEX
  5
174F
330
1743
100
AcDbEntity
  8
LW 3520-19-01
100
AcDbVertex
100
AcDb2dVertex
 10
36.24452042579651
 20
-14.06625151634523
 30
0.0
  0
VERTEX
  5
1750
330
1743
100
AcDbEntity
  8
LW 3520-19-01
100
AcDbVertex
100
AcDb2dVertex
 10
36.50000023841858
 20
-14.05614495277717
 30
0.0
  0
VERTEX
  5
1751
330
1743
100
AcDbEntity
  8
LW 3520-19-01
100
AcDbVertex
100
AcDb2dVertex
 10
36.75547885894776
 20
-14.06625151634523
 30
0.0
  0
VERTEX
  5
1752
330
1743
100
AcDbEntity
  8
LW 3520-19-01
100
AcDbVertex
100
AcDb2dVertex
 10
37.01353359222412
 20
-14.09652948379823
 30
0.0
  0
VERTEX
  5
1753
330
1743
100
AcDbEntity
  8
LW 3520-19-01
100
AcDbVertex
100
AcDb2dVertex
 10
37.26566958427429
 20
-14.14692282677004
 30
0.0
  0
VERTEX
  5
1754
330
1743
100
AcDbEntity
  8
LW 3520-19-01
100
AcDbVertex
100
AcDb2dVertex
 10
37.5038640499115
 20
-14.21658873558351
 30
0.0
  0
VERTEX
  5
1755
330
1743
100
AcDbEntity
  8
LW 3520-19-01
100
AcDbVertex
100
AcDb2dVertex
 10
37.72194790840149
 20
-14.30193305015865
 30
0.0
  0
VERTEX
  5
1756
330
1743
100
AcDbEntity
  8
LW 3520-19-01
100
AcDbVertex
100
AcDb2dVertex
 10
37.91421103477478
 20
-14.39876794815365
 30
0.0
  0
VERTEX
  5
1757
330
1743
100
AcDbEntity
  8
LW 3520-19-01
100
AcDbVertex
100
AcDb2dVertex
 10
38.08275866508484
 20
-14.50744867325119
 30
0.0
  0
VERTEX
  5
1758
330
1743
100
AcDbEntity
  8
LW 3520-19-01
100
AcDbVertex
100
AcDb2dVertex
 10
38.22932291030884
 20
-14.62852478027628
 30
0.0
  0
VERTEX
  5
1759
330
1743
100
AcDbEntity
  8
LW 3520-19-01
100
AcDbVertex
100
AcDb2dVertex
 10
38.34763216972351
 20
-14.75809454918186
 30
0.0
  0
VERTEX
  5
175A
330
1743
100
AcDbEntity
  8
LW 3520-19-01
100
AcDbVertex
100
AcDb2dVertex
 10
38.43250799179077
 20
-14.89207863807945
 30
0.0
  0
VERTEX
  5
175B
330
1743
100
AcDbEntity
  8
LW 3520-19-01
100
AcDbVertex
100
AcDb2dVertex
 10
38.48318386077881
 20
-15.02601861953997
 30
0.0
  0
VERTEX
  5
175C
330
1743
100
AcDbEntity
  8
LW 3520-19-01
100
AcDbVertex
100
AcDb2dVertex
 10
38.49999952316284
 20
-15.15544414520525
 30
0.0
  0
SEQEND
  5
175D
330
1743
100
AcDbEntity
  8
LW 3520-19-01
  0
POLYLINE
  5
175E
330
1707
100
AcDbEntity
  8
LW 3520-19-01
100
AcDb2dPolyline
 66
     1
 10
0.0
 20
0.0
 30
0.0
 70
   128
  0
VERTEX
  5
175F
330
175E
100
AcDbEntity
  8
LW 3520-19-01
100
AcDbVertex
100
AcDb2dVertex
 10
38.49999952316284
 20
15.15544414520002
 30
0.0
  0
VERTEX
  5
1760
330
175E
100
AcDbEntity
  8
LW 3520-19-01
100
AcDbVertex
100
AcDb2dVertex
 10
38.48318386077881
 20
15.02601861953474
 30
0.0
  0
VERTEX
  5
1761
330
175E
100
AcDbEntity
  8
LW 3520-19-01
100
AcDbVertex
100
AcDb2dVertex
 10
38.43250799179077
 20
14.89207863807411
 30
0.0
  0
VERTEX
  5
1762
330
175E
100
AcDbEntity
  8
LW 3520-19-01
100
AcDbVertex
100
AcDb2dVertex
 10
38.34763216972351
 20
14.75809454917629
 30
0.0
  0
VERTEX
  5
1763
330
175E
100
AcDbEntity
  8
LW 3520-19-01
100
AcDbVertex
100
AcDb2dVertex
 10
38.22932291030884
 20
14.62852478027059
 30
0.0
  0
VERTEX
  5
1764
330
175E
100
AcDbEntity
  8
LW 3520-19-01
100
AcDbVertex
100
AcDb2dVertex
 10
38.08275866508484
 20
14.50744867324539
 30
0.0
  0
VERTEX
  5
1765
330
175E
100
AcDbEntity
  8
LW 3520-19-01
100
AcDbVertex
100
AcDb2dVertex
 10
37.91421103477478
 20
14.39876794814762
 30
0.0
  0
VERTEX
  5
1766
330
175E
100
AcDbEntity
  8
LW 3520-19-01
100
AcDbVertex
100
AcDb2dVertex
 10
37.72194790840149
 20
14.30193305015263
 30
0.0
  0
VERTEX
  5
1767
330
175E
100
AcDbEntity
  8
LW 3520-19-01
100
AcDbVertex
100
AcDb2dVertex
 10
37.5038640499115
 20
14.21658873557737
 30
0.0
  0
VERTEX
  5
1768
330
175E
100
AcDbEntity
  8
LW 3520-19-01
100
AcDbVertex
100
AcDb2dVertex
 10
37.26566958427429
 20
14.1469228267639
 30
0.0
  0
VERTEX
  5
1769
330
175E
100
AcDbEntity
  8
LW 3520-19-01
100
AcDbVertex
100
AcDb2dVertex
 10
37.01353359222412
 20
14.0965294837921
 30
0.0
  0
VERTEX
  5
176A
330
175E
100
AcDbEntity
  8
LW 3520-19-01
100
AcDbVertex
100
AcDb2dVertex
 10
36.75547885894776
 20
14.06625151633909
 30
0.0
  0
VERTEX
  5
176B
330
175E
100
AcDbEntity
  8
LW 3520-19-01
100
AcDbVertex
100
AcDb2dVertex
 10
36.50000023841858
 20
14.05614495277092
 30
0.0
  0
VERTEX
  5
176C
330
175E
100
AcDbEntity
  8
LW 3520-19-01
100
AcDbVertex
100
AcDb2dVertex
 10
36.24452042579651
 20
14.06625151633909
 30
0.0
  0
VERTEX
  5
176D
330
175E
100
AcDbEntity
  8
LW 3520-19-01
100
AcDbVertex
100
AcDb2dVertex
 10
35.98646688461304
 20
14.0965294837921
 30
0.0
  0
VERTEX
  5
176E
330
175E
100
AcDbEntity
  8
LW 3520-19-01
100
AcDbVertex
100
AcDb2dVertex
 10
35.73433089256287
 20
14.1469228267639
 30
0.0
  0
VERTEX
  5
176F
330
175E
100
AcDbEntity
  8
LW 3520-19-01
100
AcDbVertex
100
AcDb2dVertex
 10
35.49613642692566
 20
14.21658873557737
 30
0.0
  0
VERTEX
  5
1770
330
175E
100
AcDbEntity
  8
LW 3520-19-01
100
AcDbVertex
100
AcDb2dVertex
 10
35.27805137634278
 20
14.30193305015263
 30
0.0
  0
VERTEX
  5
1771
330
175E
100
AcDbEntity
  8
LW 3520-19-01
100
AcDbVertex
100
AcDb2dVertex
 10
35.08578944206238
 20
14.39876794814762
 30
0.0
  0
VERTEX
  5
1772
330
175E
100
AcDbEntity
  8
LW 3520-19-01
100
AcDbVertex
100
AcDb2dVertex
 10
34.91724181175232
 20
14.50744867324539
 30
0.0
  0
VERTEX
  5
1773
330
175E
100
AcDbEntity
  8
LW 3520-19-01
100
AcDbVertex
100
AcDb2dVertex
 10
34.77067637443543
 20
14.62852478027059
 30
0.0
  0
VERTEX
  5
1774
330
175E
100
AcDbEntity
  8
LW 3520-19-01
100
AcDbVertex
100
AcDb2dVertex
 10
34.65236830711365
 20
14.75809454917629
 30
0.0
  0
VERTEX
  5
1775
330
175E
100
AcDbEntity
  8
LW 3520-19-01
100
AcDbVertex
100
AcDb2dVertex
 10
34.56749248504639
 20
14.89207863807411
 30
0.0
  0
VERTEX
  5
1776
330
175E
100
AcDbEntity
  8
LW 3520-19-01
100
AcDbVertex
100
AcDb2dVertex
 10
34.51681661605835
 20
15.02601861953474
 30
0.0
  0
VERTEX
  5
1777
330
175E
100
AcDbEntity
  8
LW 3520-19-01
100
AcDbVertex
100
AcDb2dVertex
 10
34.49999976158142
 20
15.15544414520002
 30
0.0
  0
SEQEND
  5
1778
330
175E
100
AcDbEntity
  8
LW 3520-19-01
  0
POLYLINE
  5
1779
330
1707
100
AcDbEntity
  8
LW 3520-19-01
100
AcDb2dPolyline
 66
     1
 10
0.0
 20
0.0
 30
0.0
 70
   128
  0
VERTEX
  5
177A
330
1779
100
AcDbEntity
  8
LW 3520-19-01
100
AcDbVertex
100
AcDb2dVertex
 10
34.49999976158142
 20
15.15544414520002
 30
0.0
  0
VERTEX
  5
177B
330
1779
100
AcDbEntity
  8
LW 3520-19-01
100
AcDbVertex
100
AcDb2dVertex
 10
34.51681661605835
 20
15.28149843215686
 30
0.0
  0
VERTEX
  5
177C
330
1779
100
AcDbEntity
  8
LW 3520-19-01
100
AcDbVertex
100
AcDb2dVertex
 10
34.56749248504639
 20
15.40561437606561
 30
0.0
  0
VERTEX
  5
177D
330
1779
100
AcDbEntity
  8
LW 3520-19-01
100
AcDbVertex
100
AcDb2dVertex
 10
34.65236830711365
 20
15.52376866340393
 30
0.0
  0
VERTEX
  5
177E
330
1779
100
AcDbEntity
  8
LW 3520-19-01
100
AcDbVertex
100
AcDb2dVertex
 10
34.77067637443543
 20
15.6323945522285
 30
0.0
  0
VERTEX
  5
177F
330
1779
100
AcDbEntity
  8
LW 3520-19-01
100
AcDbVertex
100
AcDb2dVertex
 10
34.91724181175232
 20
15.7294034957863
 30
0.0
  0
VERTEX
  5
1780
330
1779
100
AcDbEntity
  8
LW 3520-19-01
100
AcDbVertex
100
AcDb2dVertex
 10
35.08578944206238
 20
15.8129847049691
 30
0.0
  0
VERTEX
  5
1781
330
1779
100
AcDbEntity
  8
LW 3520-19-01
100
AcDbVertex
100
AcDb2dVertex
 10
35.27805137634278
 20
15.88469624519126
 30
0.0
  0
VERTEX
  5
1782
330
1779
100
AcDbEntity
  8
LW 3520-19-01
100
AcDbVertex
100
AcDb2dVertex
 10
35.49613642692566
 20
15.94591498374728
 30
0.0
  0
VERTEX
  5
1783
330
1779
100
AcDbEntity
  8
LW 3520-19-01
100
AcDbVertex
100
AcDb2dVertex
 10
35.73433089256287
 20
15.99455595016269
 30
0.0
  0
VERTEX
  5
1784
330
1779
100
AcDbEntity
  8
LW 3520-19-01
100
AcDbVertex
100
AcDb2dVertex
 10
35.98646688461304
 20
16.02903842925821
 30
0.0
  0
VERTEX
  5
1785
330
1779
100
AcDbEntity
  8
LW 3520-19-01
100
AcDbVertex
100
AcDb2dVertex
 10
36.24452042579651
 20
16.04943513870034
 30
0.0
  0
VERTEX
  5
1786
330
1779
100
AcDbEntity
  8
LW 3520-19-01
100
AcDbVertex
100
AcDb2dVertex
 10
36.50000023841858
 20
16.05614542960916
 30
0.0
  0
VERTEX
  5
1787
330
1779
100
AcDbEntity
  8
LW 3520-19-01
100
AcDbVertex
100
AcDb2dVertex
 10
36.75547885894776
 20
16.04943513870034
 30
0.0
  0
VERTEX
  5
1788
330
1779
100
AcDbEntity
  8
LW 3520-19-01
100
AcDbVertex
100
AcDb2dVertex
 10
37.01353359222412
 20
16.02903842925821
 30
0.0
  0
VERTEX
  5
1789
330
1779
100
AcDbEntity
  8
LW 3520-19-01
100
AcDbVertex
100
AcDb2dVertex
 10
37.26566958427429
 20
15.99455595016269
 30
0.0
  0
VERTEX
  5
178A
330
1779
100
AcDbEntity
  8
LW 3520-19-01
100
AcDbVertex
100
AcDb2dVertex
 10
37.5038640499115
 20
15.94591498374728
 30
0.0
  0
VERTEX
  5
178B
330
1779
100
AcDbEntity
  8
LW 3520-19-01
100
AcDbVertex
100
AcDb2dVertex
 10
37.72194790840149
 20
15.88469624519126
 30
0.0
  0
VERTEX
  5
178C
330
1779
100
AcDbEntity
  8
LW 3520-19-01
100
AcDbVertex
100
AcDb2dVertex
 10
37.91421103477478
 20
15.8129847049691
 30
0.0
  0
VERTEX
  5
178D
330
1779
100
AcDbEntity
  8
LW 3520-19-01
100
AcDbVertex
100
AcDb2dVertex
 10
38.08275866508484
 20
15.7294034957863
 30
0.0
  0
VERTEX
  5
178E
330
1779
100
AcDbEntity
  8
LW 3520-19-01
100
AcDbVertex
100
AcDb2dVertex
 10
38.22932291030884
 20
15.6323945522285
 30
0.0
  0
VERTEX
  5
178F
330
1779
100
AcDbEntity
  8
LW 3520-19-01
100
AcDbVertex
100
AcDb2dVertex
 10
38.34763216972351
 20
15.52376866340393
 30
0.0
  0
VERTEX
  5
1790
330
1779
100
AcDbEntity
  8
LW 3520-19-01
100
AcDbVertex
100
AcDb2dVertex
 10
38.43250799179077
 20
15.40561437606561
 30
0.0
  0
VERTEX
  5
1791
330
1779
100
AcDbEntity
  8
LW 3520-19-01
100
AcDbVertex
100
AcDb2dVertex
 10
38.48318386077881
 20
15.28149843215686
 30
0.0
  0
VERTEX
  5
1792
330
1779
100
AcDbEntity
  8
LW 3520-19-01
100
AcDbVertex
100
AcDb2dVertex
 10
38.49999952316284
 20
15.15544414520002
 30
0.0
  0
SEQEND
  5
1793
330
1779
100
AcDbEntity
  8
LW 3520-19-01
  0
LINE
  5
1794
330
1707
100
AcDbEntity
  8
LW 3520-19-01
100
AcDbLine
 10
40.49999999999999
 20
-17.5
 30
0.0
 11
40.49999999999999
 21
17.5
 31
0.0
  0
LINE
  5
1795
330
1707
100
AcDbEntity
  8
LW 3520-19-01
100
AcDbLine
 10
43.5
 20
-14.50000000000005
 30
0.0
 11
43.5
 21
14.50000000000005
 31
0.0
  0
LINE
  5
1796
330
1707
100
AcDbEntity
  8
LW 3520-19-01
100
AcDbLine
 10
20.5
 20
17.5
 30
0.0
 11
40.49999999999999
 21
17.5
 31
0.0
  0
LINE
  5
1797
330
1707
100
AcDbEntity
  8
LW 3520-19-01
100
AcDbLine
 10
20.5
 20
-17.5
 30
0.0
 11
40.49999999999999
 21
-17.5
 31
0.0
  0
LINE
  5
1798
330
1707
100
AcDbEntity
  8
LW 3520-19-01
100
AcDbLine
 10
43.5
 20
-14.50000000000005
 30
0.0
 11
40.49999999999999
 21
-17.5
 31
0.0
  0
LINE
  5
1799
330
1707
100
AcDbEntity
  8
LW 3520-19-01
100
AcDbLine
 10
43.5
 20
14.50000000000005
 30
0.0
 11
40.49999999999999
 21
17.5
 31
0.0
  0
POLYLINE
  5
179A
330
1707
100
AcDbEntity
  8
LW 3520-19-01
100
AcDb2dPolyline
 66
     1
 10
0.0
 20
0.0
 30
0.0
 70
   128
  0
VERTEX
  5
179B
330
179A
100
AcDbEntity
  8
LW 3520-19-01
100
AcDbVertex
100
AcDb2dVertex
 10
-38.49999952316284
 20
15.15544414520002
 30
0.0
  0
VERTEX
  5
179C
330
179A
100
AcDbEntity
  8
LW 3520-19-01
100
AcDbVertex
100
AcDb2dVertex
 10
-38.48318386077881
 20
15.28149843215686
 30
0.0
  0
VERTEX
  5
179D
330
179A
100
AcDbEntity
  8
LW 3520-19-01
100
AcDbVertex
100
AcDb2dVertex
 10
-38.43250799179077
 20
15.40561437606561
 30
0.0
  0
VERTEX
  5
179E
330
179A
100
AcDbEntity
  8
LW 3520-19-01
100
AcDbVertex
100
AcDb2dVertex
 10
-38.34763216972351
 20
15.52376866340393
 30
0.0
  0
VERTEX
  5
179F
330
179A
100
AcDbEntity
  8
LW 3520-19-01
100
AcDbVertex
100
AcDb2dVertex
 10
-38.22932291030884
 20
15.6323945522285
 30
0.0
  0
VERTEX
  5
17A0
330
179A
100
AcDbEntity
  8
LW 3520-19-01
100
AcDbVertex
100
AcDb2dVertex
 10
-38.08275866508484
 20
15.7294034957863
 30
0.0
  0
VERTEX
  5
17A1
330
179A
100
AcDbEntity
  8
LW 3520-19-01
100
AcDbVertex
100
AcDb2dVertex
 10
-37.91421103477478
 20
15.8129847049691
 30
0.0
  0
VERTEX
  5
17A2
330
179A
100
AcDbEntity
  8
LW 3520-19-01
100
AcDbVertex
100
AcDb2dVertex
 10
-37.72194790840149
 20
15.88469624519126
 30
0.0
  0
VERTEX
  5
17A3
330
179A
100
AcDbEntity
  8
LW 3520-19-01
100
AcDbVertex
100
AcDb2dVertex
 10
-37.5038640499115
 20
15.94591498374728
 30
0.0
  0
VERTEX
  5
17A4
330
179A
100
AcDbEntity
  8
LW 3520-19-01
100
AcDbVertex
100
AcDb2dVertex
 10
-37.26566958427429
 20
15.99455595016269
 30
0.0
  0
VERTEX
  5
17A5
330
179A
100
AcDbEntity
  8
LW 3520-19-01
100
AcDbVertex
100
AcDb2dVertex
 10
-37.01353359222412
 20
16.02903842925821
 30
0.0
  0
VERTEX
  5
17A6
330
179A
100
AcDbEntity
  8
LW 3520-19-01
100
AcDbVertex
100
AcDb2dVertex
 10
-36.75547885894776
 20
16.04943513870034
 30
0.0
  0
VERTEX
  5
17A7
330
179A
100
AcDbEntity
  8
LW 3520-19-01
100
AcDbVertex
100
AcDb2dVertex
 10
-36.50000023841858
 20
16.05614542960916
 30
0.0
  0
VERTEX
  5
17A8
330
179A
100
AcDbEntity
  8
LW 3520-19-01
100
AcDbVertex
100
AcDb2dVertex
 10
-36.24452042579651
 20
16.04943513870034
 30
0.0
  0
VERTEX
  5
17A9
330
179A
100
AcDbEntity
  8
LW 3520-19-01
100
AcDbVertex
100
AcDb2dVertex
 10
-35.98646688461304
 20
16.02903842925821
 30
0.0
  0
VERTEX
  5
17AA
330
179A
100
AcDbEntity
  8
LW 3520-19-01
100
AcDbVertex
100
AcDb2dVertex
 10
-35.73433089256287
 20
15.99455595016269
 30
0.0
  0
VERTEX
  5
17AB
330
179A
100
AcDbEntity
  8
LW 3520-19-01
100
AcDbVertex
100
AcDb2dVertex
 10
-35.49613642692566
 20
15.94591498374728
 30
0.0
  0
VERTEX
  5
17AC
330
179A
100
AcDbEntity
  8
LW 3520-19-01
100
AcDbVertex
100
AcDb2dVertex
 10
-35.27805137634278
 20
15.88469624519126
 30
0.0
  0
VERTEX
  5
17AD
330
179A
100
AcDbEntity
  8
LW 3520-19-01
100
AcDbVertex
100
AcDb2dVertex
 10
-35.08578944206238
 20
15.8129847049691
 30
0.0
  0
VERTEX
  5
17AE
330
179A
100
AcDbEntity
  8
LW 3520-19-01
100
AcDbVertex
100
AcDb2dVertex
 10
-34.91724181175232
 20
15.7294034957863
 30
0.0
  0
VERTEX
  5
17AF
330
179A
100
AcDbEntity
  8
LW 3520-19-01
100
AcDbVertex
100
AcDb2dVertex
 10
-34.77067637443543
 20
15.6323945522285
 30
0.0
  0
VERTEX
  5
17B0
330
179A
100
AcDbEntity
  8
LW 3520-19-01
100
AcDbVertex
100
AcDb2dVertex
 10
-34.65236830711365
 20
15.52376866340393
 30
0.0
  0
VERTEX
  5
17B1
330
179A
100
AcDbEntity
  8
LW 3520-19-01
100
AcDbVertex
100
AcDb2dVertex
 10
-34.56749248504639
 20
15.40561437606561
 30
0.0
  0
VERTEX
  5
17B2
330
179A
100
AcDbEntity
  8
LW 3520-19-01
100
AcDbVertex
100
AcDb2dVertex
 10
-34.51681661605835
 20
15.28149843215686
 30
0.0
  0
VERTEX
  5
17B3
330
179A
100
AcDbEntity
  8
LW 3520-19-01
100
AcDbVertex
100
AcDb2dVertex
 10
-34.49999976158142
 20
15.15544414520002
 30
0.0
  0
SEQEND
  5
17B4
330
179A
100
AcDbEntity
  8
LW 3520-19-01
  0
POLYLINE
  5
17B5
330
1707
100
AcDbEntity
  8
LW 3520-19-01
100
AcDb2dPolyline
 66
     1
 10
0.0
 20
0.0
 30
0.0
 70
   128
  0
VERTEX
  5
17B6
330
17B5
100
AcDbEntity
  8
LW 3520-19-01
100
AcDbVertex
100
AcDb2dVertex
 10
-34.49999976158142
 20
15.15544414520002
 30
0.0
  0
VERTEX
  5
17B7
330
17B5
100
AcDbEntity
  8
LW 3520-19-01
100
AcDbVertex
100
AcDb2dVertex
 10
-34.51681661605835
 20
15.02601861953474
 30
0.0
  0
VERTEX
  5
17B8
330
17B5
100
AcDbEntity
  8
LW 3520-19-01
100
AcDbVertex
100
AcDb2dVertex
 10
-34.56749248504639
 20
14.89207863807411
 30
0.0
  0
VERTEX
  5
17B9
330
17B5
100
AcDbEntity
  8
LW 3520-19-01
100
AcDbVertex
100
AcDb2dVertex
 10
-34.65236830711365
 20
14.75809454917629
 30
0.0
  0
VERTEX
  5
17BA
330
17B5
100
AcDbEntity
  8
LW 3520-19-01
100
AcDbVertex
100
AcDb2dVertex
 10
-34.77067637443543
 20
14.62852478027059
 30
0.0
  0
VERTEX
  5
17BB
330
17B5
100
AcDbEntity
  8
LW 3520-19-01
100
AcDbVertex
100
AcDb2dVertex
 10
-34.91724181175232
 20
14.50744867324539
 30
0.0
  0
VERTEX
  5
17BC
330
17B5
100
AcDbEntity
  8
LW 3520-19-01
100
AcDbVertex
100
AcDb2dVertex
 10
-35.08578944206238
 20
14.39876794814762
 30
0.0
  0
VERTEX
  5
17BD
330
17B5
100
AcDbEntity
  8
LW 3520-19-01
100
AcDbVertex
100
AcDb2dVertex
 10
-35.27805137634278
 20
14.30193305015263
 30
0.0
  0
VERTEX
  5
17BE
330
17B5
100
AcDbEntity
  8
LW 3520-19-01
100
AcDbVertex
100
AcDb2dVertex
 10
-35.49613642692566
 20
14.21658873557737
 30
0.0
  0
VERTEX
  5
17BF
330
17B5
100
AcDbEntity
  8
LW 3520-19-01
100
AcDbVertex
100
AcDb2dVertex
 10
-35.73433089256287
 20
14.1469228267639
 30
0.0
  0
VERTEX
  5
17C0
330
17B5
100
AcDbEntity
  8
LW 3520-19-01
100
AcDbVertex
100
AcDb2dVertex
 10
-35.98646688461304
 20
14.0965294837921
 30
0.0
  0
VERTEX
  5
17C1
330
17B5
100
AcDbEntity
  8
LW 3520-19-01
100
AcDbVertex
100
AcDb2dVertex
 10
-36.24452042579651
 20
14.06625151633909
 30
0.0
  0
VERTEX
  5
17C2
330
17B5
100
AcDbEntity
  8
LW 3520-19-01
100
AcDbVertex
100
AcDb2dVertex
 10
-36.50000023841858
 20
14.05614495277092
 30
0.0
  0
VERTEX
  5
17C3
330
17B5
100
AcDbEntity
  8
LW 3520-19-01
100
AcDbVertex
100
AcDb2dVertex
 10
-36.75547885894776
 20
14.06625151633909
 30
0.0
  0
VERTEX
  5
17C4
330
17B5
100
AcDbEntity
  8
LW 3520-19-01
100
AcDbVertex
100
AcDb2dVertex
 10
-37.01353359222412
 20
14.0965294837921
 30
0.0
  0
VERTEX
  5
17C5
330
17B5
100
AcDbEntity
  8
LW 3520-19-01
100
AcDbVertex
100
AcDb2dVertex
 10
-37.26566958427429
 20
14.1469228267639
 30
0.0
  0
VERTEX
  5
17C6
330
17B5
100
AcDbEntity
  8
LW 3520-19-01
100
AcDbVertex
100
AcDb2dVertex
 10
-37.5038640499115
 20
14.21658873557737
 30
0.0
  0
VERTEX
  5
17C7
330
17B5
100
AcDbEntity
  8
LW 3520-19-01
100
AcDbVertex
100
AcDb2dVertex
 10
-37.72194790840149
 20
14.30193305015263
 30
0.0
  0
VERTEX
  5
17C8
330
17B5
100
AcDbEntity
  8
LW 3520-19-01
100
AcDbVertex
100
AcDb2dVertex
 10
-37.91421103477478
 20
14.39876794814762
 30
0.0
  0
VERTEX
  5
17C9
330
17B5
100
AcDbEntity
  8
LW 3520-19-01
100
AcDbVertex
100
AcDb2dVertex
 10
-38.08275866508484
 20
14.50744867324539
 30
0.0
  0
VERTEX
  5
17CA
330
17B5
100
AcDbEntity
  8
LW 3520-19-01
100
AcDbVertex
100
AcDb2dVertex
 10
-38.22932291030884
 20
14.62852478027059
 30
0.0
  0
VERTEX
  5
17CB
330
17B5
100
AcDbEntity
  8
LW 3520-19-01
100
AcDbVertex
100
AcDb2dVertex
 10
-38.34763216972351
 20
14.75809454917629
 30
0.0
  0
VERTEX
  5
17CC
330
17B5
100
AcDbEntity
  8
LW 3520-19-01
100
AcDbVertex
100
AcDb2dVertex
 10
-38.43250799179077
 20
14.89207863807411
 30
0.0
  0
VERTEX
  5
17CD
330
17B5
100
AcDbEntity
  8
LW 3520-19-01
100
AcDbVertex
100
AcDb2dVertex
 10
-38.48318386077881
 20
15.02601861953474
 30
0.0
  0
VERTEX
  5
17CE
330
17B5
100
AcDbEntity
  8
LW 3520-19-01
100
AcDbVertex
100
AcDb2dVertex
 10
-38.49999952316284
 20
15.15544414520002
 30
0.0
  0
SEQEND
  5
17CF
330
17B5
100
AcDbEntity
  8
LW 3520-19-01
  0
POLYLINE
  5
17D0
330
1707
100
AcDbEntity
  8
LW 3520-19-01
100
AcDb2dPolyline
 66
     1
 10
0.0
 20
0.0
 30
0.0
 70
   128
  0
VERTEX
  5
17D1
330
17D0
100
AcDbEntity
  8
LW 3520-19-01
100
AcDbVertex
100
AcDb2dVertex
 10
-38.49999952316284
 20
-15.15544414520525
 30
0.0
  0
VERTEX
  5
17D2
330
17D0
100
AcDbEntity
  8
LW 3520-19-01
100
AcDbVertex
100
AcDb2dVertex
 10
-38.48318386077881
 20
-15.02601861953997
 30
0.0
  0
VERTEX
  5
17D3
330
17D0
100
AcDbEntity
  8
LW 3520-19-01
100
AcDbVertex
100
AcDb2dVertex
 10
-38.43250799179077
 20
-14.89207863807945
 30
0.0
  0
VERTEX
  5
17D4
330
17D0
100
AcDbEntity
  8
LW 3520-19-01
100
AcDbVertex
100
AcDb2dVertex
 10
-38.34763216972351
 20
-14.75809454918186
 30
0.0
  0
VERTEX
  5
17D5
330
17D0
100
AcDbEntity
  8
LW 3520-19-01
100
AcDbVertex
100
AcDb2dVertex
 10
-38.22932291030884
 20
-14.62852478027628
 30
0.0
  0
VERTEX
  5
17D6
330
17D0
100
AcDbEntity
  8
LW 3520-19-01
100
AcDbVertex
100
AcDb2dVertex
 10
-38.08275866508484
 20
-14.50744867325119
 30
0.0
  0
VERTEX
  5
17D7
330
17D0
100
AcDbEntity
  8
LW 3520-19-01
100
AcDbVertex
100
AcDb2dVertex
 10
-37.91421103477478
 20
-14.39876794815365
 30
0.0
  0
VERTEX
  5
17D8
330
17D0
100
AcDbEntity
  8
LW 3520-19-01
100
AcDbVertex
100
AcDb2dVertex
 10
-37.72194790840149
 20
-14.30193305015865
 30
0.0
  0
VERTEX
  5
17D9
330
17D0
100
AcDbEntity
  8
LW 3520-19-01
100
AcDbVertex
100
AcDb2dVertex
 10
-37.5038640499115
 20
-14.21658873558351
 30
0.0
  0
VERTEX
  5
17DA
330
17D0
100
AcDbEntity
  8
LW 3520-19-01
100
AcDbVertex
100
AcDb2dVertex
 10
-37.26566958427429
 20
-14.14692282677004
 30
0.0
  0
VERTEX
  5
17DB
330
17D0
100
AcDbEntity
  8
LW 3520-19-01
100
AcDbVertex
100
AcDb2dVertex
 10
-37.01353359222412
 20
-14.09652948379823
 30
0.0
  0
VERTEX
  5
17DC
330
17D0
100
AcDbEntity
  8
LW 3520-19-01
100
AcDbVertex
100
AcDb2dVertex
 10
-36.75547885894776
 20
-14.06625151634523
 30
0.0
  0
VERTEX
  5
17DD
330
17D0
100
AcDbEntity
  8
LW 3520-19-01
100
AcDbVertex
100
AcDb2dVertex
 10
-36.50000023841858
 20
-14.05614495277717
 30
0.0
  0
VERTEX
  5
17DE
330
17D0
100
AcDbEntity
  8
LW 3520-19-01
100
AcDbVertex
100
AcDb2dVertex
 10
-36.24452042579651
 20
-14.06625151634523
 30
0.0
  0
VERTEX
  5
17DF
330
17D0
100
AcDbEntity
  8
LW 3520-19-01
100
AcDbVertex
100
AcDb2dVertex
 10
-35.98646688461304
 20
-14.09652948379823
 30
0.0
  0
VERTEX
  5
17E0
330
17D0
100
AcDbEntity
  8
LW 3520-19-01
100
AcDbVertex
100
AcDb2dVertex
 10
-35.73433089256287
 20
-14.14692282677004
 30
0.0
  0
VERTEX
  5
17E1
330
17D0
100
AcDbEntity
  8
LW 3520-19-01
100
AcDbVertex
100
AcDb2dVertex
 10
-35.49613642692566
 20
-14.21658873558351
 30
0.0
  0
VERTEX
  5
17E2
330
17D0
100
AcDbEntity
  8
LW 3520-19-01
100
AcDbVertex
100
AcDb2dVertex
 10
-35.27805137634278
 20
-14.30193305015865
 30
0.0
  0
VERTEX
  5
17E3
330
17D0
100
AcDbEntity
  8
LW 3520-19-01
100
AcDbVertex
100
AcDb2dVertex
 10
-35.08578944206238
 20
-14.39876794815365
 30
0.0
  0
VERTEX
  5
17E4
330
17D0
100
AcDbEntity
  8
LW 3520-19-01
100
AcDbVertex
100
AcDb2dVertex
 10
-34.91724181175232
 20
-14.50744867325119
 30
0.0
  0
VERTEX
  5
17E5
330
17D0
100
AcDbEntity
  8
LW 3520-19-01
100
AcDbVertex
100
AcDb2dVertex
 10
-34.77067637443543
 20
-14.62852478027628
 30
0.0
  0
VERTEX
  5
17E6
330
17D0
100
AcDbEntity
  8
LW 3520-19-01
100
AcDbVertex
100
AcDb2dVertex
 10
-34.65236830711365
 20
-14.75809454918186
 30
0.0
  0
VERTEX
  5
17E7
330
17D0
100
AcDbEntity
  8
LW 3520-19-01
100
AcDbVertex
100
AcDb2dVertex
 10
-34.56749248504639
 20
-14.89207863807945
 30
0.0
  0
VERTEX
  5
17E8
330
17D0
100
AcDbEntity
  8
LW 3520-19-01
100
AcDbVertex
100
AcDb2dVertex
 10
-34.51681661605835
 20
-15.02601861953997
 30
0.0
  0
VERTEX
  5
17E9
330
17D0
100
AcDbEntity
  8
LW 3520-19-01
100
AcDbVertex
100
AcDb2dVertex
 10
-34.49999976158142
 20
-15.15544414520525
 30
0.0
  0
SEQEND
  5
17EA
330
17D0
100
AcDbEntity
  8
LW 3520-19-01
  0
POLYLINE
  5
17EB
330
1707
100
AcDbEntity
  8
LW 3520-19-01
100
AcDb2dPolyline
 66
     1
 10
0.0
 20
0.0
 30
0.0
 70
   128
  0
VERTEX
  5
17EC
330
17EB
100
AcDbEntity
  8
LW 3520-19-01
100
AcDbVertex
100
AcDb2dVertex
 10
-34.49999976158142
 20
-15.15544414520525
 30
0.0
  0
VERTEX
  5
17ED
330
17EB
100
AcDbEntity
  8
LW 3520-19-01
100
AcDbVertex
100
AcDb2dVertex
 10
-34.51681661605835
 20
-15.28149843216198
 30
0.0
  0
VERTEX
  5
17EE
330
17EB
100
AcDbEntity
  8
LW 3520-19-01
100
AcDbVertex
100
AcDb2dVertex
 10
-34.56749248504639
 20
-15.40561437607061
 30
0.0
  0
VERTEX
  5
17EF
330
17EB
100
AcDbEntity
  8
LW 3520-19-01
100
AcDbVertex
100
AcDb2dVertex
 10
-34.65236830711365
 20
-15.52376866340881
 30
0.0
  0
VERTEX
  5
17F0
330
17EB
100
AcDbEntity
  8
LW 3520-19-01
100
AcDbVertex
100
AcDb2dVertex
 10
-34.77067637443543
 20
-15.63239455223316
 30
0.0
  0
VERTEX
  5
17F1
330
17EB
100
AcDbEntity
  8
LW 3520-19-01
100
AcDbVertex
100
AcDb2dVertex
 10
-34.91724181175232
 20
-15.72940349579084
 30
0.0
  0
VERTEX
  5
17F2
330
17EB
100
AcDbEntity
  8
LW 3520-19-01
100
AcDbVertex
100
AcDb2dVertex
 10
-35.08578944206238
 20
-15.81298470497353
 30
0.0
  0
VERTEX
  5
17F3
330
17EB
100
AcDbEntity
  8
LW 3520-19-01
100
AcDbVertex
100
AcDb2dVertex
 10
-35.27805137634278
 20
-15.8846962451957
 30
0.0
  0
VERTEX
  5
17F4
330
17EB
100
AcDbEntity
  8
LW 3520-19-01
100
AcDbVertex
100
AcDb2dVertex
 10
-35.49613642692566
 20
-15.94591498375149
 30
0.0
  0
VERTEX
  5
17F5
330
17EB
100
AcDbEntity
  8
LW 3520-19-01
100
AcDbVertex
100
AcDb2dVertex
 10
-35.73433089256287
 20
-15.9945559501669
 30
0.0
  0
VERTEX
  5
17F6
330
17EB
100
AcDbEntity
  8
LW 3520-19-01
100
AcDbVertex
100
AcDb2dVertex
 10
-35.98646688461304
 20
-16.0290384292623
 30
0.0
  0
VERTEX
  5
17F7
330
17EB
100
AcDbEntity
  8
LW 3520-19-01
100
AcDbVertex
100
AcDb2dVertex
 10
-36.24452042579651
 20
-16.04943513870444
 30
0.0
  0
VERTEX
  5
17F8
330
17EB
100
AcDbEntity
  8
LW 3520-19-01
100
AcDbVertex
100
AcDb2dVertex
 10
-36.50000023841858
 20
-16.05614542961325
 30
0.0
  0
VERTEX
  5
17F9
330
17EB
100
AcDbEntity
  8
LW 3520-19-01
100
AcDbVertex
100
AcDb2dVertex
 10
-36.75547885894776
 20
-16.04943513870444
 30
0.0
  0
VERTEX
  5
17FA
330
17EB
100
AcDbEntity
  8
LW 3520-19-01
100
AcDbVertex
100
AcDb2dVertex
 10
-37.01353359222412
 20
-16.0290384292623
 30
0.0
  0
VERTEX
  5
17FB
330
17EB
100
AcDbEntity
  8
LW 3520-19-01
100
AcDbVertex
100
AcDb2dVertex
 10
-37.26566958427429
 20
-15.9945559501669
 30
0.0
  0
VERTEX
  5
17FC
330
17EB
100
AcDbEntity
  8
LW 3520-19-01
100
AcDbVertex
100
AcDb2dVertex
 10
-37.5038640499115
 20
-15.94591498375149
 30
0.0
  0
VERTEX
  5
17FD
330
17EB
100
AcDbEntity
  8
LW 3520-19-01
100
AcDbVertex
100
AcDb2dVertex
 10
-37.72194790840149
 20
-15.8846962451957
 30
0.0
  0
VERTEX
  5
17FE
330
17EB
100
AcDbEntity
  8
LW 3520-19-01
100
AcDbVertex
100
AcDb2dVertex
 10
-37.91421103477478
 20
-15.81298470497353
 30
0.0
  0
VERTEX
  5
17FF
330
17EB
100
AcDbEntity
  8
LW 3520-19-01
100
AcDbVertex
100
AcDb2dVertex
 10
-38.08275866508484
 20
-15.72940349579084
 30
0.0
  0
VERTEX
  5
1800
330
17EB
100
AcDbEntity
  8
LW 3520-19-01
100
AcDbVertex
100
AcDb2dVertex
 10
-38.22932291030884
 20
-15.63239455223316
 30
0.0
  0
VERTEX
  5
1801
330
17EB
100
AcDbEntity
  8
LW 3520-19-01
100
AcDbVertex
100
AcDb2dVertex
 10
-38.34763216972351
 20
-15.52376866340881
 30
0.0
  0
VERTEX
  5
1802
330
17EB
100
AcDbEntity
  8
LW 3520-19-01
100
AcDbVertex
100
AcDb2dVertex
 10
-38.43250799179077
 20
-15.40561437607061
 30
0.0
  0
VERTEX
  5
1803
330
17EB
100
AcDbEntity
  8
LW 3520-19-01
100
AcDbVertex
100
AcDb2dVertex
 10
-38.48318386077881
 20
-15.28149843216198
 30
0.0
  0
VERTEX
  5
1804
330
17EB
100
AcDbEntity
  8
LW 3520-19-01
100
AcDbVertex
100
AcDb2dVertex
 10
-38.49999952316284
 20
-15.15544414520525
 30
0.0
  0
SEQEND
  5
1805
330
17EB
100
AcDbEntity
  8
LW 3520-19-01
  0
LINE
  5
1806
330
1707
100
AcDbEntity
  8
LW 3520-19-01
100
AcDbLine
 10
-40.49999999999999
 20
17.5
 30
0.0
 11
-40.49999999999999
 21
-17.5
 31
0.0
  0
LINE
  5
1807
330
1707
100
AcDbEntity
  8
LW 3520-19-01
100
AcDbLine
 10
-43.5
 20
14.50000000000005
 30
0.0
 11
-43.5
 21
-14.50000000000005
 31
0.0
  0
LINE
  5
1808
330
1707
100
AcDbEntity
  8
LW 3520-19-01
100
AcDbLine
 10
-20.5
 20
-17.5
 30
0.0
 11
-40.49999999999999
 21
-17.5
 31
0.0
  0
LINE
  5
1809
330
1707
100
AcDbEntity
  8
LW 3520-19-01
100
AcDbLine
 10
-20.5
 20
17.5
 30
0.0
 11
-40.49999999999999
 21
17.5
 31
0.0
  0
LINE
  5
180A
330
1707
100
AcDbEntity
  8
LW 3520-19-01
100
AcDbLine
 10
-43.5
 20
14.50000000000005
 30
0.0
 11
-40.49999999999999
 21
17.5
 31
0.0
  0
LINE
  5
180B
330
1707
100
AcDbEntity
  8
LW 3520-19-01
100
AcDbLine
 10
-43.5
 20
-14.50000000000005
 30
0.0
 11
-40.49999999999999
 21
-17.5
 31
0.0
  0
CIRCLE
  5
180C
330
1707
100
AcDbEntity
  8
LW 3520-19-01
100
AcDbCircle
 10
-91.50000000000005
 20
0.0000000000314344
 30
0.0
 40
17.5
  0
CIRCLE
  5
180D
330
1707
100
AcDbEntity
  8
LW 3520-19-01
100
AcDbCircle
 10
-91.50000000000005
 20
0.0000000000305249
 30
0.0
 40
14.5
  0
LINE
  5
180E
330
1707
100
AcDbEntity
  8
LW 3520-19-01
100
AcDbLine
 10
-11.50000000000005
 20
-32.99999999999994
 30
0.0
 11
-9.500000000000056
 21
-32.99999999999994
 31
0.0
  0
LINE
  5
180F
330
1707
100
AcDbEntity
  8
LW 3520-19-01
100
AcDbLine
 10
-9.500000000000056
 20
32.99999999999994
 30
0.0
 11
-9.500000000000056
 21
-32.99999999999994
 31
0.0
  0
LINE
  5
1810
330
1707
100
AcDbEntity
  8
LW 3520-19-01
100
AcDbLine
 10
-11.50000000000005
 20
32.99999999999994
 30
0.0
 11
-9.500000000000056
 21
32.99999999999994
 31
0.0
  0
LINE
  5
1811
330
1707
100
AcDbEntity
  8
LW 3520-19-01
100
AcDbLine
 10
9.499999999999943
 20
-32.99999999999994
 30
0.0
 11
11.5
 21
-32.99999999999994
 31
0.0
  0
LINE
  5
1812
330
1707
100
AcDbEntity
  8
LW 3520-19-01
100
AcDbLine
 10
9.499999999999943
 20
32.99999999999994
 30
0.0
 11
11.5
 21
32.99999999999994
 31
0.0
  0
LINE
  5
1813
330
1707
100
AcDbEntity
  8
LW 3520-19-01
100
AcDbLine
 10
9.499999999999943
 20
-32.99999999999994
 30
0.0
 11
9.499999999999943
 21
32.99999999999994
 31
0.0
  0
LINE
  5
1814
330
1707
100
AcDbEntity
  8
LW 3520-19-01
100
AcDbLine
 10
6.5
 20
12.00000000000005
 30
0.0
 11
6.5
 21
7.000000000000056
 31
0.0
  0
LINE
  5
1815
330
1707
100
AcDbEntity
  8
LW 3520-19-01
100
AcDbLine
 10
6.5
 20
-6.999999999999943
 30
0.0
 11
6.5
 21
-12.00000000000005
 31
0.0
  0
LINE
  5
1816
330
1707
100
AcDbEntity
  8
LW 3520-19-01
100
AcDbLine
 10
-6.5
 20
12.00000000000005
 30
0.0
 11
-6.500000000000056
 21
7.000000000000056
 31
0.0
  0
LINE
  5
1817
330
1707
100
AcDbEntity
  8
LW 3520-19-01
100
AcDbLine
 10
-6.500000000000056
 20
-6.999999999999943
 30
0.0
 11
-6.5
 21
-12.00000000000005
 31
0.0
  0
LINE
  5
1818
330
1707
100
AcDbEntity
  8
LW 3520-19-01
100
AcDbLine
 10
-6.5
 20
12.00000000000005
 30
0.0
 11
6.5
 21
12.00000000000005
 31
0.0
  0
LINE
  5
1819
330
1707
100
AcDbEntity
  8
LW 3520-19-01
100
AcDbLine
 10
-6.5
 20
-12.00000000000005
 30
0.0
 11
6.5
 21
-12.00000000000005
 31
0.0
  0
LINE
  5
181A
330
1707
100
AcDbEntity
  8
LW 3520-19-01
  6
MITTE2
 62
     3
100
AcDbLine
 10
91.5
 20
27.50000000003735
 30
0.0
 11
91.5
 21
-27.49999999996266
 31
0.0
  0
LINE
  5
181B
330
1707
100
AcDbEntity
  8
LW 3520-19-01
  6
MITTE2
 62
     3
100
AcDbLine
 10
-91.50000000000005
 20
27.50000000003735
 30
0.0
 11
-91.50000000000005
 21
-27.49999999996266
 31
0.0
  0
LINE
  5
181C
330
1707
100
AcDbEntity
  8
LW 3520-19-01
  6
MITTE2
 62
     3
100
AcDbLine
 10
134.0080524954373
 20
0.0
 30
0.0
 11
-131.4268040422329
 21
0.0
 31
0.0
  0
LINE
  5
181D
330
1707
100
AcDbEntity
  8
LW 3520-19-01
  6
MITTE2
 62
     3
100
AcDbLine
 10
0.0
 20
-44.69743157691124
 30
0.0
 11
0.0
 21
44.69743157691124
 31
0.0
  0
LINE
  5
181E
330
1707
100
AcDbEntity
  8
LW 3520-19-01
100
AcDbLine
 10
-6.5
 20
-7.249999999999943
 30
0.0
 11
6.5
 21
-7.249999999999943
 31
0.0
  0
LINE
  5
181F
330
1707
100
AcDbEntity
  8
LW 3520-19-01
100
AcDbLine
 10
6.5
 20
7.250000000000056
 30
0.0
 11
-6.5
 21
7.250000000000056
 31
0.0
  0
LINE
  5
1820
330
1707
100
AcDbEntity
  8
LW 3520-19-01
100
AcDbLine
 10
9.5
 20
-6.999999999999943
 30
0.0
 11
-9.5
 21
-6.999999999999943
 31
0.0
  0
LINE
  5
1821
330
1707
100
AcDbEntity
  8
LW 3520-19-01
100
AcDbLine
 10
9.5
 20
7.000000000000056
 30
0.0
 11
-9.5
 21
7.000000000000056
 31
0.0
  0
LINE
  5
1822
330
1707
100
AcDbEntity
  8
LW 3520-19-01
 62
     3
100
AcDbLine
 10
-9.5
 20
-5.79449999999997
 30
0.0
 11
9.5
 21
-5.79449999999997
 31
0.0
  0
LINE
  5
1823
330
1707
100
AcDbEntity
  8
LW 3520-19-01
 62
     3
100
AcDbLine
 10
9.5
 20
5.794500000000027
 30
0.0
 11
-9.5
 21
5.794500000000027
 31
0.0
  0
HATCH
  5
1824
330
1707
100
AcDbEntity
  8
LW 3520-19-01
 62
     8
100
AcDbHatch
 10
0.0
 20
0.0
 30
0.0
210
0.0
220
0.0
230
1.0
  2
ANSI37
 70
     0
 71
     0
 91
        2
 92
        1
 93
        4
 72
     1
 10
6.5
 20
12.00000000000005
 11
6.5
 21
7.250000000000056
 72
     1
 10
6.5
 20
7.250000000000056
 11
-6.5
 21
7.250000000000056
 72
     1
 10
-6.5
 20
7.250000000000056
 11
-6.5
 21
12.00000000000005
 72
     1
 10
-6.5
 20
12.00000000000005
 11
6.5
 21
12.00000000000005
 97
        0
 92
        1
 93
        4
 72
     1
 10
-6.5
 20
-11.99999999999994
 11
-6.5
 21
-7.249999999999943
 72
     1
 10
-6.5
 20
-7.249999999999943
 11
6.5
 21
-7.249999999999943
 72
     1
 10
6.5
 20
-7.249999999999943
 11
6.5
 21
-11.99999999999994
 72
     1
 10
6.5
 20
-11.99999999999994
 11
-6.5
 21
-11.99999999999994
 97
        0
 75
     0
 76
     1
 52
0.0
 41
0.5
 77
     0
 78
     2
 53
45.0
 43
-270.1401696238884
 44
-469.613130463774
 45
-1.122532015133643
 46
1.122532015133644
 79
     0
 53
135.0
 43
-270.1401696238884
 44
-469.613130463774
 45
-1.122532015133644
 46
-1.122532015133643
 79
     0
 98
        1
 10
-270.1401696236951
 20
-191.0768559496324
1001
ACAD
1010
0.0
1020
0.0
1030
0.0
  0
INSERT
  5
1825
330
1707
100
AcDbEntity
  8
LW 3520-19-01
100
AcDbBlockReference
 66
     1
  2
insertpoint-ECKELT
 10
0.0
 20
0.0
 30
0.0
  0
ATTRIB
  5
1826
330
1825
100
AcDbEntity
  8
insertpoint_ECKELT
100
AcDbText
 10
-6.931514324693087
 20
0.0
 30
0.0
 40
0.6
  1
LW 3520/19-01
 72
     2
 11
-1.200000000000045
 21
0.0
 31
0.0
100
AcDbAttribute
  2
LINKS
 70
     0
  0
ATTRIB
  5
1827
330
1825
100
AcDbEntity
  8
insertpoint_ECKELT
100
AcDbText
 10
1.200000000000045
 20
0.0
 30
0.0
 40
0.6
  1

100
AcDbAttribute
  2
RECHTS
 70
     0
  0
SEQEND
  5
1828
330
1825
100
AcDbEntity
  8
LW 3520-19-01
  0
HATCH
  5
1829
330
1707
100
AcDbEntity
  8
LW 3520-19-01
 62
     1
100
AcDbHatch
 10
0.0
 20
0.0
 30
0.0
210
0.0
220
0.0
230
1.0
  2
SOLID
 70
     1
 71
     0
 91
        5
 92
        7
 72
     0
 73
     1
 93
       76
 10
53.36239256914956
 20
26.92799040657082
 10
53.39425139852238
 20
26.97957136841251
 10
53.51240952275356
 20
27.13081376742849
 10
53.64688759796632
 20
27.27123789769104
 10
53.79290750442788
 20
27.39962245940438
 10
53.95657630050988
 20
27.51652874232013
 10
54.13196325387452
 20
27.61870662414179
 10
54.31371618647489
 20
27.71005830372468
 10
54.49488512194062
 20
27.77957661617086
 10
52.23774718374063
 20
27.7795766161708
 10
52.0248506313406
 20
27.77088696097076
 10
51.82281614794061
 20
27.7448179953708
 10
51.62729890594056
 20
27.70354213317074
 10
51.44264373294067
 20
27.64923178817077
 10
51.26667821514053
 20
27.57971454657076
 10
51.09940235254061
 20
27.49716282217065
 10
50.94883408999368
 20
27.40183730462684
 10
50.80612648954076
 20
27.29512833877072
 10
50.68068523396999
 20
27.17608006253062
 10
50.56942028189263
 20
27.04782075177872
 10
50.46940235054063
 20
26.91061109617073
 10
50.38685062614064
 20
26.76505937157066
 10
50.32385062594068
 20
26.61081799177055
 10
50.27388510854081
 20
26.45005937057078
 10
50.24564372914068
 20
26.28495592177069
 10
50.23695407394069
 20
26.11116281777072
 10
50.24781614294074
 20
25.93736971377064
 10
50.27822993614069
 20
25.77009385117066
 10
50.33254028114078
 20
25.60933522997073
 10
50.40205752274068
 20
25.45292143637067
 10
50.49112648854083
 20
25.30519729797061
 10
50.59757476474072
 20
25.16399040097076
 10
50.72027269616473
 20
25.03277660745067
 10
50.85647174487298
 20
24.91164281396277
 10
51.00381614534075
 20
24.80119729637067
 10
51.16457476654085
 20
24.70343867537082
 10
51.340201387788
 20
24.61854074406677
 10
51.52085062974066
 20
24.54485246797077
 10
51.71202304414084
 20
24.48836970917074
 10
51.91188511374076
 20
24.44492143317075
 10
52.12043683854068
 20
24.41885246757073
 10
52.33116097714066
 20
24.41016281237074
 10
54.45033206289332
 20
24.41016281237086
 10
54.28978819884088
 20
24.47323361610575
 10
54.10622405503847
 20
24.56385388962849
 10
53.93775764886829
 20
24.66838358256007
 10
53.77492475410753
 20
24.78400182098551
 10
53.63101238573739
 20
24.91379141752537
 10
53.5035764922531
 20
25.05314510075391
 10
53.38987113750971
 20
25.20363334546647
 10
53.33789990606106
 20
25.2878179875708
 10
52.30943683914069
 20
25.28781798757075
 10
52.17732801113522
 20
25.29537798759481
 10
52.04657476934068
 20
25.31571178076274
 10
51.91840235514082
 20
25.34864557397071
 10
51.80326442374081
 20
25.39426626377082
 10
51.69831945789036
 20
25.45074902257074
 10
51.60016980240635
 20
25.51835454002674
 10
51.50998856074074
 20
25.59630074717069
 10
51.43829890534078
 20
25.68102488537074
 10
53.16582021959954
 20
25.68102488537079
 10
53.15523575232652
 20
25.71366032612912
 10
53.11912394436212
 20
25.89903427368023
 10
53.10708029158042
 20
26.08932398763097
 10
53.11910196400976
 20
26.28407508098599
 10
53.15540768568502
 20
26.47044445225248
 10
53.17200638835998
 20
26.51957661217074
 10
51.40136787074067
 20
26.51957661217074
 10
51.47088511234068
 20
26.61516281937065
 10
51.55343683674067
 20
26.69771454377076
 10
51.64852773359422
 20
26.76757937157868
 10
51.75112649254066
 20
26.82588695797079
 10
51.86981849291743
 20
26.86985661328271
 10
51.99226442434071
 20
26.90192144097074
 10
52.12912649374067
 20
26.92147316517071
 10
52.27250580454068
 20
26.92799040657076
 97
        0
 92
        7
 72
     0
 73
     1
 93
       72
 10
55.0908564341774
 20
26.91339178583479
 10
55.2137194690502
 20
26.93146626865081
 10
55.33778167634062
 20
26.93668006177086
 10
56.60647133554068
 20
26.93668006177091
 10
55.75922995354068
 20
26.12202488677099
 10
57.52540237294084
 20
24.40364557097098
 10
58.84405754954065
 20
24.40364557097098
 10
57.13002306134075
 20
26.14592143857095
 10
58.81147134254064
 20
27.77957661617103
 10
55.37254029714069
 20
27.77957661617086
 10
55.16455339992859
 20
27.76880144372291
 10
54.95783519237574
 20
27.74334075398679
 10
54.75340236414064
 20
27.70354213317086
 10
54.56005753594064
 20
27.64705937437083
 10
54.37322994914058
 20
27.57536971897082
 10
54.20206981066616
 20
27.48934213249083
 10
54.03650581014068
 20
27.39288695977081
 10
53.88443684414068
 20
27.28426626977086
 10
53.74873918853751
 20
27.16495730387482
 10
53.62374718814073
 20
27.03443868277077
 10
53.51512649814054
 20
26.89540419957075
 10
53.42388511854068
 20
26.74768006117091
 10
53.35219546314061
 20
26.5934386813708
 10
53.29788511814064
 20
26.43268006017081
 10
53.26529891114074
 20
26.26540419757077
 10
53.25443684214071
 20
26.0894386797707
 10
53.26529891114074
 20
25.91781798957084
 10
53.29788511814076
 20
25.75054212697086
 10
53.35002304934079
 20
25.58978350577087
 10
53.41954029094068
 20
25.43554212597082
 10
53.51138125674953
 20
25.28677522894691
 10
53.61676070535992
 20
25.14730626298677
 10
53.73476622297602
 20
25.01826488326691
 10
53.8670575337407
 20
24.89895591737087
 10
54.01917863767192
 20
24.79094350323476
 10
54.17771270714076
 20
24.69257660637078
 10
54.34933339734079
 20
24.60785246817085
 10
54.53181615654085
 20
24.53616281277084
 10
54.72604732957115
 20
24.48211315742685
 10
54.92285064054073
 20
24.43840419177082
 10
55.13140236534076
 20
24.41233522617086
 10
55.34212650394073
 20
24.40364557097087
 10
57.24516099274075
 20
24.40364557097098
 10
56.3588161623407
 20
25.27695591857094
 10
55.34212650394073
 20
25.27695591857088
 10
55.27545946924618
 20
25.28070321151017
 10
55.17451174478793
 20
25.29068557378685
 10
55.05437726164797
 20
25.31214902213088
 10
54.93725808886239
 20
25.34647316017077
 10
54.83576291612639
 20
25.38740143616286
 10
54.77962774353426
 20
25.4155559190109
 10
54.7259430537087
 20
25.44814212601096
 10
54.59338236363265
 20
25.54746488494681
 10
54.51978098408876
 20
25.61750350585885
 10
54.46471463908636
 20
25.68536971297073
 10
54.41600912169025
 20
25.75792833389079
 10
54.37664498363421
 20
25.83509247206678
 10
54.3472218111271
 20
25.91651454129078
 10
54.32652305244068
 20
26.00367178294687
 10
54.31900650069263
 20
26.09300143840272
 10
54.32036208690391
 20
26.15530626618681
 10
54.32636663864713
 20
26.21743730086672
 10
54.33852346627197
 20
26.28061109417087
 10
54.35673698357113
 20
26.34230764609083
 10
54.40038512164057
 20
26.44102212916272
 10
54.44191298384152
 20
26.50888833627476
 10
54.50499119093826
 20
26.58692143997081
 10
54.63439313130305
 20
26.71344417702449
 10
54.69366098464075
 20
26.75350213015486
 10
54.76995615729669
 20
26.79781937167479
 10
54.85397643342543
 20
26.83996419939485
 10
54.97051339931267
 20
26.88280419953088
 97
        0
 92
        7
 72
     0
 73
     1
 93
       57
 10
59.64889341416477
 20
26.89132006162708
 10
59.78036789734068
 20
26.93129247554708
 10
59.9150575529406
 20
26.95840419977111
 10
60.05843686374061
 20
26.96709385497104
 10
61.29888514354064
 20
26.9670938549711
 10
61.29888514354064
 20
27.79261109897112
 10
60.06495410514066
 20
27.79261109897101
 10
59.85422996654069
 20
27.78392144377102
 10
59.64785065554071
 20
27.75568006437101
 10
59.45016099974072
 20
27.71440420217107
 10
59.26116099914072
 20
27.66009385717103
 10
59.07650582614071
 20
27.58840420177103
 10
58.91009892906044
 20
27.50576558081895
 10
58.75127810097018
 20
27.40931040809892
 10
58.60119906601113
 20
27.29982075257897
 10
58.46663975523921
 20
27.18059868323502
 10
58.34657478934065
 20
27.05181799317097
 10
58.24229892694069
 20
26.91278350997101
 10
58.15757478874065
 20
26.76723178537094
 10
58.08588513334058
 20
26.61299040557088
 10
58.03591961594071
 20
26.45223178437106
 10
58.0033334089407
 20
26.28495592177109
 10
57.99247133994078
 20
26.111162817771
 10
58.0033334089407
 20
25.93736971377098
 10
58.03591961594071
 20
25.770093851171
 10
58.08805754714064
 20
25.60933522997089
 10
58.15974720254081
 20
25.45292143637102
 10
58.2466437545408
 20
25.30519729797101
 10
58.35549037557592
 20
25.16564143545901
 10
58.47534678974949
 20
25.03529660745903
 10
58.61177437638952
 20
24.91398902086701
 10
58.75933341134071
 20
24.80336971017095
 10
58.92009203254071
 20
24.70561108917093
 10
59.09388513654068
 20
24.620886950971
 10
59.2785403095408
 20
24.54702488177111
 10
59.46971272394074
 20
24.49054212297102
 10
59.66957479354078
 20
24.44709384697109
 10
59.87595410454076
 20
24.42319729517095
 10
60.08885065694079
 20
24.41450763997102
 10
61.29888514354076
 20
24.41450763997108
 10
61.29888514354076
 20
25.27261109097106
 10
60.06495410514066
 20
25.272611090971
 10
59.9313072081647
 20
25.28295178065895
 10
59.79905065602082
 20
25.30493660831508
 10
59.67843824184473
 20
25.33926074635502
 10
59.56243134492485
 20
25.38722764305908
 10
59.45276789630071
 20
25.44814212601108
 10
59.35570444771673
 20
25.51574764346697
 10
59.26828651640477
 20
25.59551867820301
 10
59.19381617134075
 20
25.68102488537102
 10
61.29888514354076
 20
25.68102488537107
 10
61.29888514354076
 20
26.5087145431711
 10
59.15688513674064
 20
26.50871454317098
 10
59.22640237834065
 20
26.60647316417101
 10
59.31329893034064
 20
26.69554212997093
 10
59.41444651686873
 20
26.77183730262703
 10
59.52185065514067
 20
26.83892144077101
 97
        0
 92
        7
 72
     0
 73
     1
 93
        6
 10
61.52916100634076
 20
27.77957661617114
 10
61.52916100634076
 20
24.41016281237109
 10
63.76674722034085
 20
24.4101628123712
 10
63.76674722034073
 20
25.27695591857122
 10
62.55236790614077
 20
25.27695591857122
 10
62.55236790614066
 20
27.77957661617114
 97
        0
 92
        7
 72
     0
 73
     1
 93
        8
 10
62.7848161827406
 20
27.77957661617114
 10
62.7848161827406
 20
26.95405937217112
 10
64.0187472211407
 20
26.95405937217123
 10
64.01874722114081
 20
24.40364557097121
 10
65.04412653474076
 20
24.40364557097121
 10
65.04412653474066
 20
26.95405937217117
 10
66.28674722834063
 20
26.95405937217123
 10
66.28674722834063
 20
27.77957661617126
 97
        0
 75
     0
 76
     1
 47
0.0142553043587597
 98
        5
 10
52.67205269521588
 20
27.33712694658169
 10
54.93954990855849
 20
27.194573961576
 10
59.43176164076004
 20
27.25159513412382
 10
62.15561072459166
 20
27.49393535881626
 10
63.56744870681843
 20
27.39414822640288
450
        0
451
        0
460
0.0
461
0.0
452
        0
462
0.0
453
        0
470

  0
LWPOLYLINE
  5
182A
330
1707
100
AcDbEntity
  8
LW 3520-19-01
 62
     1
100
AcDbPolyline
 90
        8
 70
     1
 43
0.0
 10
65.04412653474066
 20
26.95405937217117
 10
65.04412653474076
 20
24.40364557097121
 10
64.01874722114081
 20
24.40364557097121
 10
64.0187472211407
 20
26.95405937217123
 10
62.7848161827406
 20
26.95405937217112
 10
62.7848161827406
 20
27.77957661617114
 10
66.28674722834063
 20
27.77957661617126
 10
66.28674722834063
 20
26.95405937217123
  0
LWPOLYLINE
  5
182B
330
1707
100
AcDbEntity
  8
LW 3520-19-01
 62
     1
100
AcDbPolyline
 90
       73
 70
     1
 43
0.0
 10
55.34212650394073
 20
25.27695591857088
 10
56.3588161623407
 20
25.27695591857094
 10
57.24516099274075
 20
24.40364557097098
 10
55.34212650394073
 20
24.40364557097081
 10
55.13140236534076
 20
24.41233522617086
 10
54.92285064054073
 20
24.43840419177087
 10
54.72604732957115
 20
24.48211315742685
 10
54.53181615654085
 20
24.53616281277084
 10
54.34933339734079
 20
24.60785246817085
 10
54.17771270714076
 20
24.69257660637083
 10
54.01917863767204
 20
24.79094350323487
 10
53.8670575337407
 20
24.89895591737087
 10
53.73476622297591
 20
25.0182648832668
 10
53.61676070535992
 20
25.14730626298677
 10
53.51138125674953
 20
25.28677522894685
 10
53.41954029094068
 20
25.43554212597082
 10
53.35002304934079
 20
25.58978350577087
 10
53.29788511814076
 20
25.75054212697086
 10
53.26529891114074
 20
25.91781798957084
 10
53.25443684214071
 20
26.08943867977081
 10
53.26529891114074
 20
26.26540419757077
 10
53.29788511814064
 20
26.43268006017081
 10
53.35219546314073
 20
26.5934386813708
 10
53.42388511854068
 20
26.74768006117086
 10
53.51512649814066
 20
26.89540419957081
 10
53.62374718814073
 20
27.03443868277077
 10
53.74873918853751
 20
27.16495730387487
 10
53.88443684414056
 20
27.2842662697708
 10
54.03650581014068
 20
27.39288695977081
 10
54.20206981066627
 20
27.48934213249078
 10
54.37322994914058
 20
27.57536971897077
 10
54.56005753594064
 20
27.64705937437083
 10
54.75340236414064
 20
27.70354213317091
 10
54.95783519237585
 20
27.74334075398684
 10
55.16455339992859
 20
27.76880144372291
 10
55.37254029714057
 20
27.77957661617086
 10
58.81147134254064
 20
27.77957661617103
 10
57.13002306134075
 20
26.14592143857095
 10
58.84405754954065
 20
24.40364557097098
 10
57.52540237294084
 20
24.40364557097098
 10
55.75922995354068
 20
26.12202488677099
 10
56.60647133554068
 20
26.93668006177091
 10
55.33778167634062
 20
26.93668006177086
 10
55.2137194690502
 20
26.93146626865081
 10
55.0908564341774
 20
26.91339178583479
 10
54.97051339931267
 20
26.88280419953088
 10
54.85397643342543
 20
26.83996419939479
 10
54.76995615729657
 20
26.79781937167485
 10
54.69366098464064
 20
26.75350213015486
 10
54.65341919140946
 20
26.72630350937885
 10
54.61590594991111
 20
26.69536833686687
 10
54.50499119093826
 20
26.58692143997081
 10
54.44191298384152
 20
26.50888833627476
 10
54.40038512164068
 20
26.44102212916283
 10
54.35673698357113
 20
26.34230764609083
 10
54.33852346627197
 20
26.28061109417087
 10
54.32636663864713
 20
26.21743730086683
 10
54.32036208690391
 20
26.15530626618687
 10
54.31900650069275
 20
26.09300143840284
 10
54.32652305244068
 20
26.00367178294687
 10
54.34722181112721
 20
25.91651454129084
 10
54.37664498363432
 20
25.83509247206683
 10
54.41600912169025
 20
25.75792833389079
 10
54.46471463908626
 20
25.68536971297084
 10
54.51978098408876
 20
25.61750350585885
 10
54.59338236363265
 20
25.54746488494681
 10
54.72594305370882
 20
25.44814212601091
 10
54.77962774353438
 20
25.41555591901084
 10
54.83576291612639
 20
25.38740143616286
 10
54.93725808886239
 20
25.34647316017077
 10
55.05437726164797
 20
25.31214902213088
 10
55.17451174478793
 20
25.29068557378685
 10
55.2754594692463
 20
25.28070321151023
  0
LWPOLYLINE
  5
182C
330
1707
100
AcDbEntity
  8
LW 3520-19-01
 62
     1
100
AcDbPolyline
 90
       76
 70
     1
 43
0.0
 10
54.13196325387452
 20
27.61870662414179
 10
53.95657630050976
 20
27.51652874232008
 10
53.79290750442777
 20
27.39962245940444
 10
53.64688759796632
 20
27.27123789769104
 10
53.51240952275356
 20
27.13081376742849
 10
53.39425139852238
 20
26.97957136841262
 10
53.36239256914956
 20
26.92799040657082
 10
52.27250580454068
 20
26.92799040657082
 10
52.12912649374067
 20
26.92147316517071
 10
51.99226442434059
 20
26.90192144097074
 10
51.86981849291743
 20
26.86985661328271
 10
51.75112649254066
 20
26.82588695797079
 10
51.64852773359434
 20
26.76757937157873
 10
51.55343683674067
 20
26.6977145437707
 10
51.47088511234056
 20
26.61516281937071
 10
51.40136787074067
 20
26.51957661217074
 10
53.17200638835998
 20
26.51957661217074
 10
53.15540768568502
 20
26.47044445225248
 10
53.11910196400964
 20
26.28407508098587
 10
53.10708029158042
 20
26.08932398763097
 10
53.11912394436212
 20
25.89903427368023
 10
53.15523575232663
 20
25.71366032612917
 10
53.16582021959954
 20
25.68102488537079
 10
51.43829890534078
 20
25.68102488537074
 10
51.50998856074074
 20
25.59630074717069
 10
51.60016980240635
 20
25.51835454002674
 10
51.69831945789036
 20
25.45074902257074
 10
51.80326442374081
 20
25.39426626377082
 10
51.91840235514082
 20
25.34864557397077
 10
52.04657476934068
 20
25.31571178076274
 10
52.17732801113522
 20
25.29537798759481
 10
52.30943683914069
 20
25.28781798757075
 10
53.33789990606106
 20
25.2878179875708
 10
53.38987113750971
 20
25.20363334546653
 10
53.5035764922531
 20
25.05314510075391
 10
53.63101238573739
 20
24.91379141752537
 10
53.77492475410765
 20
24.78400182098563
 10
53.93775764886829
 20
24.66838358256007
 10
54.10622405503847
 20
24.56385388962849
 10
54.28978819884088
 20
24.47323361610575
 10
54.45033206289332
 20
24.41016281237086
 10
52.33116097714077
 20
24.41016281237069
 10
52.12043683854068
 20
24.41885246757073
 10
51.91188511374076
 20
24.44492143317075
 10
51.71202304414072
 20
24.48836970917074
 10
51.52085062974077
 20
24.54485246797066
 10
51.34020138778788
 20
24.61854074406671
 10
51.16457476654085
 20
24.70343867537082
 10
51.00381614534075
 20
24.80119729637067
 10
50.85647174487309
 20
24.91164281396271
 10
50.72027269616473
 20
25.03277660745067
 10
50.59757476474072
 20
25.1639904009707
 10
50.49112648854071
 20
25.30519729797067
 10
50.40205752274079
 20
25.45292143637073
 10
50.33254028114078
 20
25.60933522997073
 10
50.27822993614069
 20
25.77009385117066
 10
50.24781614294074
 20
25.93736971377075
 10
50.23695407394069
 20
26.11116281777067
 10
50.24564372914056
 20
26.28495592177063
 10
50.2738851085407
 20
26.45005937057073
 10
50.32385062594068
 20
26.61081799177066
 10
50.38685062614064
 20
26.76505937157066
 10
50.46940235054063
 20
26.91061109617073
 10
50.56942028189275
 20
27.04782075177872
 10
50.68068523396999
 20
27.17608006253068
 10
50.80612648954065
 20
27.29512833877067
 10
50.94883408999368
 20
27.40183730462673
 10
51.09940235254072
 20
27.49716282217077
 10
51.26667821514065
 20
27.5797145465707
 10
51.44264373294067
 20
27.64923178817077
 10
51.62729890594068
 20
27.70354213317069
 10
51.82281614794061
 20
27.7448179953708
 10
52.0248506313406
 20
27.77088696097076
 10
52.23774718374063
 20
27.77957661617075
 10
54.49488512194074
 20
27.77957661617092
 10
54.31371618647489
 20
27.71005830372468
  0
LWPOLYLINE
  5
182D
330
1707
100
AcDbEntity
  8
LW 3520-19-01
 62
     1
100
AcDbPolyline
 90
        6
 70
     1
 43
0.0
 10
63.76674722034085
 20
24.4101628123712
 10
61.52916100634076
 20
24.41016281237109
 10
61.52916100634076
 20
27.77957661617114
 10
62.55236790614066
 20
27.77957661617114
 10
62.55236790614077
 20
25.27695591857122
 10
63.76674722034073
 20
25.27695591857122
  0
LWPOLYLINE
  5
182E
330
1707
100
AcDbEntity
  8
LW 3520-19-01
 62
     1
100
AcDbPolyline
 90
       57
 70
     1
 43
0.0
 10
58.47534678974949
 20
25.03529660745903
 10
58.35549037557592
 20
25.16564143545895
 10
58.24664375454069
 20
25.30519729797095
 10
58.15974720254081
 20
25.45292143637102
 10
58.08805754714064
 20
25.60933522997089
 10
58.03591961594071
 20
25.770093851171
 10
58.0033334089407
 20
25.93736971377098
 10
57.99247133994078
 20
26.111162817771
 10
58.0033334089407
 20
26.28495592177103
 10
58.03591961594071
 20
26.45223178437095
 10
58.08588513334058
 20
26.61299040557088
 10
58.15757478874065
 20
26.767231785371
 10
58.24229892694058
 20
26.9127835099709
 10
58.34657478934065
 20
27.05181799317103
 10
58.46663975523899
 20
27.18059868323496
 10
58.60119906601113
 20
27.29982075257897
 10
58.7512781009703
 20
27.40931040809897
 10
58.91009892906078
 20
27.50576558081906
 10
59.07650582614071
 20
27.58840420177103
 10
59.2611609991406
 20
27.66009385717098
 10
59.45016099974072
 20
27.71440420217107
 10
59.64785065554071
 20
27.75568006437101
 10
59.85422996654069
 20
27.78392144377102
 10
60.06495410514066
 20
27.79261109897101
 10
61.29888514354064
 20
27.79261109897112
 10
61.29888514354064
 20
26.9670938549711
 10
60.05843686374072
 20
26.96709385497104
 10
59.9150575529407
 20
26.95840419977105
 10
59.78036789734068
 20
26.93129247554708
 10
59.64889341416466
 20
26.89132006162703
 10
59.52185065514067
 20
26.83892144077101
 10
59.41444651686873
 20
26.77183730262703
 10
59.31329893034064
 20
26.69554212997105
 10
59.22640237834065
 20
26.60647316417101
 10
59.15688513674064
 20
26.50871454317098
 10
61.29888514354076
 20
26.5087145431711
 10
61.29888514354076
 20
25.68102488537107
 10
59.19381617134075
 20
25.68102488537102
 10
59.26828651640477
 20
25.59551867820301
 10
59.35570444771673
 20
25.51574764346697
 10
59.45276789630071
 20
25.44814212601108
 10
59.56243134492485
 20
25.38722764305908
 10
59.67843824184473
 20
25.33926074635502
 10
59.79905065602082
 20
25.30493660831508
 10
59.9313072081647
 20
25.28295178065895
 10
60.06495410514066
 20
25.272611090971
 10
61.29888514354076
 20
25.27261109097106
 10
61.29888514354076
 20
24.41450763997108
 10
60.08885065694079
 20
24.41450763997102
 10
59.87595410454076
 20
24.42319729517095
 10
59.66957479354078
 20
24.44709384697103
 10
59.46971272394074
 20
24.49054212297102
 10
59.2785403095408
 20
24.54702488177111
 10
59.09388513654068
 20
24.620886950971
 10
58.92009203254071
 20
24.70561108917105
 10
58.75933341134071
 20
24.80336971017095
 10
58.61177437638952
 20
24.91398902086701
  0
ENDBLK
  5
1709
330
1707
100
AcDbEntity
  8
0
100
AcDbBlockEnd
  0
BLOCK
  5
1831
330
1830
100
AcDbEntity
  8
0
100
AcDbBlockBegin
  2
LW 3520-19-01_c
 70
     0
 10
0.0
 20
0.0
 30
0.0
  3
LW 3520-19-01_c
  1

  0
LINE
  5
1833
330
1830
100
AcDbEntity
  8
LW 3520-19-01
100
AcDbLine
 10
14.00000000000978
 20
32.99999999999585
 30
0.0
 11
13.99999999999022
 21
-33.00000000000409
 31
0.0
  0
ARC
  5
1834
330
1830
100
AcDbEntity
  8
LW 3520-19-01
100
AcDbCircle
 10
145.0000000000216
 20
-0.0000000000429736
 30
0.0
 40
35.0
100
AcDbArc
 50
269.9999999999804
 51
89.99999999998046
  0
LINE
  5
1835
330
1830
100
AcDbEntity
  8
LW 3520-19-01
100
AcDbLine
 10
145.000000000032
 20
34.99999999995703
 30
0.0
 11
16.00000000003206
 21
34.99999999999523
 31
0.0
  0
LINE
  5
1836
330
1830
100
AcDbEntity
  8
LW 3520-19-01
100
AcDbLine
 10
16.00000000001125
 20
-35.00000000000478
 30
0.0
 11
145.0000000000112
 21
-35.00000000004297
 31
0.0
  0
LINE
  5
1837
330
1830
100
AcDbEntity
  8
LW 3520-19-01
100
AcDbLine
 10
16.00000000003206
 20
34.99999999999523
 30
0.0
 11
12.00000000003081
 21
34.99999999999648
 31
0.0
  0
LINE
  5
1838
330
1830
100
AcDbEntity
  8
LW 3520-19-01
100
AcDbLine
 10
12.00000000001012
 20
-35.00000000000353
 30
0.0
 11
16.00000000001125
 21
-35.00000000000478
 31
0.0
  0
ARC
  5
1839
330
1830
100
AcDbEntity
  8
LW 3520-19-01
100
AcDbCircle
 10
12.00000000000978
 20
32.99999999999642
 30
0.0
 40
2.00000000000001
100
AcDbArc
 50
0.0
 51
89.99999999998046
  0
ARC
  5
183A
330
1830
100
AcDbEntity
  8
LW 3520-19-01
100
AcDbCircle
 10
11.99999999999022
 20
-33.00000000000352
 30
0.0
 40
1.999999999999997
100
AcDbArc
 50
269.9999999999804
 51
0.0
  0
LINE
  5
183B
330
1830
100
AcDbEntity
  8
LW 3520-19-01
100
AcDbLine
 10
4.999999999989654
 20
-35.00000000000148
 30
0.0
 11
5.000000000010345
 21
34.99999999999853
 31
0.0
  0
LINE
  5
183C
330
1830
100
AcDbEntity
  8
LW 3520-19-01
100
AcDbLine
 10
12.00000000001034
 20
34.99999999999648
 30
0.0
 11
5.000000000010345
 21
34.99999999999853
 31
0.0
  0
LINE
  5
183D
330
1830
100
AcDbEntity
  8
LW 3520-19-01
100
AcDbLine
 10
4.999999999989654
 20
-35.00000000000148
 30
0.0
 11
11.99999999998954
 21
-35.00000000000353
 31
0.0
  0
LINE
  5
183E
330
1830
100
AcDbEntity
  8
LW 3520-19-01
100
AcDbLine
 10
19.00000000000659
 20
22.49999999999443
 30
0.0
 11
18.99999999999329
 21
-22.50000000000557
 31
0.0
  0
LINE
  5
183F
330
1830
100
AcDbEntity
  8
LW 3520-19-01
100
AcDbLine
 10
14.00000000000659
 20
22.49999999999591
 30
0.0
 11
19.00000000000659
 21
22.49999999999443
 31
0.0
  0
LINE
  5
1840
330
1830
100
AcDbEntity
  8
LW 3520-19-01
100
AcDbLine
 10
13.99999999999329
 20
-22.50000000000409
 30
0.0
 11
18.99999999999329
 21
-22.50000000000557
 31
0.0
  0
LINE
  5
1841
330
1830
100
AcDbEntity
  8
LW 3520-19-01
100
AcDbLine
 10
-0.0000000000067075
 20
-22.5
 30
0.0
 11
0.0000000000067075
 21
22.5
 31
0.0
  0
LINE
  5
1842
330
1830
100
AcDbEntity
  8
LW 3520-19-01
100
AcDbLine
 10
4.999999999993292
 20
-22.50000000000148
 30
0.0
 11
-0.0000000000067075
 21
-22.5
 31
0.0
  0
LINE
  5
1843
330
1830
100
AcDbEntity
  8
LW 3520-19-01
100
AcDbLine
 10
5.000000000006707
 20
22.49999999999852
 30
0.0
 11
0.0000000000067075
 21
22.5
 31
0.0
  0
CIRCLE
  5
1844
330
1830
100
AcDbEntity
  8
LW 3520-19-01
100
AcDbCircle
 10
145.0000000000151
 20
-0.0000000000429736
 30
0.0
 40
17.5
  0
CIRCLE
  5
1845
330
1830
100
AcDbEntity
  8
LW 3520-19-01
100
AcDbCircle
 10
145.0000000000143
 20
-0.0000000000429736
 30
0.0
 40
14.5
  0
CIRCLE
  5
1846
330
1830
100
AcDbEntity
  8
LW 3520-19-01
100
AcDbCircle
 10
65.00000000001512
 20
-0.0000000000192131
 30
0.0
 40
17.5
  0
CIRCLE
  5
1847
330
1830
100
AcDbEntity
  8
LW 3520-19-01
100
AcDbCircle
 10
65.00000000001432
 20
-0.0000000000192131
 30
0.0
 40
14.5
  0
POLYLINE
  5
1848
330
1830
100
AcDbEntity
  8
LW 3520-19-01
100
AcDb2dPolyline
 66
     1
 10
0.0
 20
0.0
 30
0.0
 70
   128
  0
VERTEX
  5
1849
330
1848
100
AcDbEntity
  8
LW 3520-19-01
100
AcDbVertex
100
AcDb2dVertex
 10
36.99999952315761
 20
-0.0000000000109139
 30
0.0
  0
VERTEX
  5
184A
330
1848
100
AcDbEntity
  8
LW 3520-19-01
100
AcDbVertex
100
AcDb2dVertex
 10
36.98318386077358
 20
-0.2554797381271783
 30
0.0
  0
VERTEX
  5
184B
330
1848
100
AcDbEntity
  8
LW 3520-19-01
100
AcDbVertex
100
AcDb2dVertex
 10
36.93250799178543
 20
-0.513535626243538
 30
0.0
  0
VERTEX
  5
184C
330
1848
100
AcDbEntity
  8
LW 3520-19-01
100
AcDbVertex
100
AcDb2dVertex
 10
36.84763216971806
 20
-0.7656736672033731
 30
0.0
  0
VERTEX
  5
184D
330
1848
100
AcDbEntity
  8
LW 3520-19-01
100
AcDbVertex
100
AcDb2dVertex
 10
36.72932291030338
 20
-1.003869771968254
 30
0.0
  0
VERTEX
  5
184E
330
1848
100
AcDbEntity
  8
LW 3520-19-01
100
AcDbVertex
100
AcDb2dVertex
 10
36.58275866507927
 20
-1.221954673539471
 30
0.0
  0
VERTEX
  5
184F
330
1848
100
AcDbEntity
  8
LW 3520-19-01
100
AcDbVertex
100
AcDb2dVertex
 10
36.4142110347691
 20
-1.414216607819867
 30
0.0
  0
VERTEX
  5
1850
330
1848
100
AcDbEntity
  8
LW 3520-19-01
100
AcDbVertex
100
AcDb2dVertex
 10
36.22194790839581
 20
-1.58276334406014
 30
0.0
  0
VERTEX
  5
1851
330
1848
100
AcDbEntity
  8
LW 3520-19-01
100
AcDbVertex
100
AcDb2dVertex
 10
36.00386404990582
 20
-1.729326844226022
 30
0.0
  0
VERTEX
  5
1852
330
1848
100
AcDbEntity
  8
LW 3520-19-01
100
AcDbVertex
100
AcDb2dVertex
 10
35.76566958426861
 20
-1.847633719454847
 30
0.0
  0
VERTEX
  5
1853
330
1848
100
AcDbEntity
  8
LW 3520-19-01
100
AcDbVertex
100
AcDb2dVertex
 10
35.51353359221832
 20
-1.932508051405932
 30
0.0
  0
VERTEX
  5
1854
330
1848
100
AcDbEntity
  8
LW 3520-19-01
100
AcDbVertex
100
AcDb2dVertex
 10
35.25547885894196
 20
-1.983183622370688
 30
0.0
  0
VERTEX
  5
1855
330
1848
100
AcDbEntity
  8
LW 3520-19-01
100
AcDbVertex
100
AcDb2dVertex
 10
35.00000023841278
 20
-2.000000029812667
 30
0.0
  0
VERTEX
  5
1856
330
1848
100
AcDbEntity
  8
LW 3520-19-01
100
AcDbVertex
100
AcDb2dVertex
 10
34.74452042579071
 20
-1.983183622370518
 30
0.0
  0
VERTEX
  5
1857
330
1848
100
AcDbEntity
  8
LW 3520-19-01
100
AcDbVertex
100
AcDb2dVertex
 10
34.48646688460724
 20
-1.932508051405648
 30
0.0
  0
VERTEX
  5
1858
330
1848
100
AcDbEntity
  8
LW 3520-19-01
100
AcDbVertex
100
AcDb2dVertex
 10
34.23433089255718
 20
-1.847633719454393
 30
0.0
  0
VERTEX
  5
1859
330
1848
100
AcDbEntity
  8
LW 3520-19-01
100
AcDbVertex
100
AcDb2dVertex
 10
33.99613642691998
 20
-1.729326844225454
 30
0.0
  0
VERTEX
  5
185A
330
1848
100
AcDbEntity
  8
LW 3520-19-01
100
AcDbVertex
100
AcDb2dVertex
 10
33.77805137633709
 20
-1.582763344059458
 30
0.0
  0
VERTEX
  5
185B
330
1848
100
AcDbEntity
  8
LW 3520-19-01
100
AcDbVertex
100
AcDb2dVertex
 10
33.5857894420567
 20
-1.414216607819014
 30
0.0
  0
VERTEX
  5
185C
330
1848
100
AcDbEntity
  8
LW 3520-19-01
100
AcDbVertex
100
AcDb2dVertex
 10
33.41724181174675
 20
-1.221954673538562
 30
0.0
  0
VERTEX
  5
185D
330
1848
100
AcDbEntity
  8
LW 3520-19-01
100
AcDbVertex
100
AcDb2dVertex
 10
33.27067637442997
 20
-1.003869771967288
 30
0.0
  0
VERTEX
  5
185E
330
1848
100
AcDbEntity
  8
LW 3520-19-01
100
AcDbVertex
100
AcDb2dVertex
 10
33.15236830710819
 20
-0.7656736672022362
 30
0.0
  0
VERTEX
  5
185F
330
1848
100
AcDbEntity
  8
LW 3520-19-01
100
AcDbVertex
100
AcDb2dVertex
 10
33.06749248504104
 20
-0.5135356262424012
 30
0.0
  0
VERTEX
  5
1860
330
1848
100
AcDbEntity
  8
LW 3520-19-01
100
AcDbVertex
100
AcDb2dVertex
 10
33.01681661605312
 20
-0.2554797381260414
 30
0.0
  0
VERTEX
  5
1861
330
1848
100
AcDbEntity
  8
LW 3520-19-01
100
AcDbVertex
100
AcDb2dVertex
 10
32.99999976157619
 20
-0.0000000000097202
 30
0.0
  0
SEQEND
  5
1862
330
1848
100
AcDbEntity
  8
LW 3520-19-01
  0
POLYLINE
  5
1863
330
1830
100
AcDbEntity
  8
LW 3520-19-01
100
AcDb2dPolyline
 66
     1
 10
0.0
 20
0.0
 30
0.0
 70
   128
  0
VERTEX
  5
1864
330
1863
100
AcDbEntity
  8
LW 3520-19-01
100
AcDbVertex
100
AcDb2dVertex
 10
32.99999976157619
 20
-0.0000000000097202
 30
0.0
  0
VERTEX
  5
1865
330
1863
100
AcDbEntity
  8
LW 3520-19-01
100
AcDbVertex
100
AcDb2dVertex
 10
33.01681661605324
 20
0.2554797381064873
 30
0.0
  0
VERTEX
  5
1866
330
1863
100
AcDbEntity
  8
LW 3520-19-01
100
AcDbVertex
100
AcDb2dVertex
 10
33.06749248504127
 20
0.513535626222847
 30
0.0
  0
VERTEX
  5
1867
330
1863
100
AcDbEntity
  8
LW 3520-19-01
100
AcDbVertex
100
AcDb2dVertex
 10
33.15236830710865
 20
0.7656736671826821
 30
0.0
  0
VERTEX
  5
1868
330
1863
100
AcDbEntity
  8
LW 3520-19-01
100
AcDbVertex
100
AcDb2dVertex
 10
33.27067637443054
 20
1.003869771947506
 30
0.0
  0
VERTEX
  5
1869
330
1863
100
AcDbEntity
  8
LW 3520-19-01
100
AcDbVertex
100
AcDb2dVertex
 10
33.41724181174743
 20
1.22195467351878
 30
0.0
  0
VERTEX
  5
186A
330
1863
100
AcDbEntity
  8
LW 3520-19-01
100
AcDbVertex
100
AcDb2dVertex
 10
33.5857894420576
 20
1.414216607799119
 30
0.0
  0
VERTEX
  5
186B
330
1863
100
AcDbEntity
  8
LW 3520-19-01
100
AcDbVertex
100
AcDb2dVertex
 10
33.778051376338
 20
1.582763344039449
 30
0.0
  0
VERTEX
  5
186C
330
1863
100
AcDbEntity
  8
LW 3520-19-01
100
AcDbVertex
100
AcDb2dVertex
 10
33.996136426921
 20
1.729326844205331
 30
0.0
  0
VERTEX
  5
186D
330
1863
100
AcDbEntity
  8
LW 3520-19-01
100
AcDbVertex
100
AcDb2dVertex
 10
34.23433089255821
 20
1.847633719434156
 30
0.0
  0
VERTEX
  5
186E
330
1863
100
AcDbEntity
  8
LW 3520-19-01
100
AcDbVertex
100
AcDb2dVertex
 10
34.48646688460849
 20
1.932508051385184
 30
0.0
  0
VERTEX
  5
186F
330
1863
100
AcDbEntity
  8
LW 3520-19-01
100
AcDbVertex
100
AcDb2dVertex
 10
34.74452042579196
 20
1.98318362234994
 30
0.0
  0
VERTEX
  5
1870
330
1863
100
AcDbEntity
  8
LW 3520-19-01
100
AcDbVertex
100
AcDb2dVertex
 10
35.00000023841403
 20
2.000000029791976
 30
0.0
  0
VERTEX
  5
1871
330
1863
100
AcDbEntity
  8
LW 3520-19-01
100
AcDbVertex
100
AcDb2dVertex
 10
35.25547885894321
 20
1.98318362234977
 30
0.0
  0
VERTEX
  5
1872
330
1863
100
AcDbEntity
  8
LW 3520-19-01
100
AcDbVertex
100
AcDb2dVertex
 10
35.51353359221958
 20
1.9325080513849
 30
0.0
  0
VERTEX
  5
1873
330
1863
100
AcDbEntity
  8
LW 3520-19-01
100
AcDbVertex
100
AcDb2dVertex
 10
35.76566958426963
 20
1.847633719433702
 30
0.0
  0
VERTEX
  5
1874
330
1863
100
AcDbEntity
  8
LW 3520-19-01
100
AcDbVertex
100
AcDb2dVertex
 10
36.00386404990684
 20
1.729326844204763
 30
0.0
  0
VERTEX
  5
1875
330
1863
100
AcDbEntity
  8
LW 3520-19-01
100
AcDbVertex
100
AcDb2dVertex
 10
36.22194790839671
 20
1.582763344038767
 30
0.0
  0
VERTEX
  5
1876
330
1863
100
AcDbEntity
  8
LW 3520-19-01
100
AcDbVertex
100
AcDb2dVertex
 10
36.41421103477
 20
1.414216607798266
 30
0.0
  0
VERTEX
  5
1877
330
1863
100
AcDbEntity
  8
LW 3520-19-01
100
AcDbVertex
100
AcDb2dVertex
 10
36.58275866507995
 20
1.221954673517871
 30
0.0
  0
VERTEX
  5
1878
330
1863
100
AcDbEntity
  8
LW 3520-19-01
100
AcDbVertex
100
AcDb2dVertex
 10
36.72932291030395
 20
1.00386977194654
 30
0.0
  0
VERTEX
  5
1879
330
1863
100
AcDbEntity
  8
LW 3520-19-01
100
AcDbVertex
100
AcDb2dVertex
 10
36.84763216971851
 20
0.7656736671815452
 30
0.0
  0
VERTEX
  5
187A
330
1863
100
AcDbEntity
  8
LW 3520-19-01
100
AcDbVertex
100
AcDb2dVertex
 10
36.93250799178566
 20
0.5135356262217102
 30
0.0
  0
VERTEX
  5
187B
330
1863
100
AcDbEntity
  8
LW 3520-19-01
100
AcDbVertex
100
AcDb2dVertex
 10
36.9831838607737
 20
0.2554797381053504
 30
0.0
  0
VERTEX
  5
187C
330
1863
100
AcDbEntity
  8
LW 3520-19-01
100
AcDbVertex
100
AcDb2dVertex
 10
36.99999952315761
 20
-0.0000000000109139
 30
0.0
  0
SEQEND
  5
187D
330
1863
100
AcDbEntity
  8
LW 3520-19-01
  0
LINE
  5
187E
330
1830
100
AcDbEntity
  8
LW 3520-19-01
100
AcDbLine
 10
38.99999999999477
 20
-17.50000000001148
 30
0.0
 11
39.00000000000512
 21
17.49999999998852
 31
0.0
  0
LINE
  5
187F
330
1830
100
AcDbEntity
  8
LW 3520-19-01
100
AcDbLine
 10
41.99999999999556
 20
-14.50000000001245
 30
0.0
 11
42.00000000000431
 21
14.49999999998761
 31
0.0
  0
LINE
  5
1880
330
1830
100
AcDbEntity
  8
LW 3520-19-01
100
AcDbLine
 10
19.00000000000511
 20
17.49999999999443
 30
0.0
 11
39.00000000000512
 21
17.4999999999884
 31
0.0
  0
LINE
  5
1881
330
1830
100
AcDbEntity
  8
LW 3520-19-01
100
AcDbLine
 10
18.99999999999477
 20
-17.50000000000557
 30
0.0
 11
38.99999999999477
 21
-17.50000000001159
 31
0.0
  0
LINE
  5
1882
330
1830
100
AcDbEntity
  8
LW 3520-19-01
100
AcDbLine
 10
41.99999999999568
 20
-14.50000000001245
 30
0.0
 11
38.99999999999477
 21
-17.50000000001148
 31
0.0
  0
LINE
  5
1883
330
1830
100
AcDbEntity
  8
LW 3520-19-01
100
AcDbLine
 10
42.00000000000431
 20
14.49999999998761
 30
0.0
 11
39.00000000000512
 21
17.4999999999884
 31
0.0
  0
LINE
  5
1884
330
1830
100
AcDbEntity
  8
LW 3520-19-01
100
AcDbLine
 10
70.00000000001512
 20
-0.0000000000192131
 30
0.0
 11
60.00000000001512
 21
-0.0000000000192131
 31
0.0
  0
LINE
  5
1885
330
1830
100
AcDbEntity
  8
LW 3520-19-01
  6
MITTE2
 62
     3
100
AcDbLine
 10
65.00000000001512
 20
22.49999999998079
 30
0.0
 11
65.00000000001512
 21
-22.50000000001922
 31
0.0
  0
LINE
  5
1886
330
1830
100
AcDbEntity
  8
LW 3520-19-01
  6
MITTE2
 62
     3
100
AcDbLine
 10
145.0000000000151
 20
22.49999999995702
 30
0.0
 11
145.0000000000151
 21
-22.50000000004297
 31
0.0
  0
LINE
  5
1887
330
1830
100
AcDbEntity
  8
LW 3520-19-01
  6
MITTE2
 62
     3
100
AcDbLine
 10
187.3663674569925
 20
-0.000000000055536
 30
0.0
 11
-23.30038640845748
 21
0.0000000000069349
 31
0.0
  0
LINE
  5
1888
330
1830
100
AcDbEntity
  8
LW 3520-19-01
100
AcDbLine
 10
-15.99999999999795
 20
7.000000000005059
 30
0.0
 11
-15.99999999999795
 21
-6.99999999999494
 31
0.0
  0
LINE
  5
1889
330
1830
100
AcDbEntity
  8
LW 3520-19-01
100
AcDbLine
 10
-16.99999999999795
 20
6.000000000005059
 30
0.0
 11
-16.99999999999795
 21
-5.99999999999494
 31
0.0
  0
LINE
  5
188A
330
1830
100
AcDbEntity
  8
LW 3520-19-01
100
AcDbLine
 10
0.0000000000020464
 20
-6.99999999999494
 30
0.0
 11
-15.99999999999795
 21
-6.99999999999494
 31
0.0
  0
LINE
  5
188B
330
1830
100
AcDbEntity
  8
LW 3520-19-01
100
AcDbLine
 10
0.0000000000020464
 20
7.000000000005059
 30
0.0
 11
-15.99999999999795
 21
7.000000000005059
 31
0.0
  0
LINE
  5
188C
330
1830
100
AcDbEntity
  8
LW 3520-19-01
100
AcDbLine
 10
-16.99999999999795
 20
6.000000000005059
 30
0.0
 11
-15.99999999999795
 21
7.000000000005059
 31
0.0
  0
LINE
  5
188D
330
1830
100
AcDbEntity
  8
LW 3520-19-01
100
AcDbLine
 10
-16.99999999999795
 20
-5.99999999999494
 30
0.0
 11
-15.99999999999795
 21
-6.99999999999494
 31
0.0
  0
LINE
  5
188E
330
1830
100
AcDbEntity
  8
LW 3520-19-01
 62
     3
100
AcDbLine
 10
-16.99999999999795
 20
-5.794499999994911
 30
0.0
 11
0.0000000000020464
 21
-5.794499999994911
 31
0.0
  0
LINE
  5
188F
330
1830
100
AcDbEntity
  8
LW 3520-19-01
 62
     3
100
AcDbLine
 10
0.0000000000020464
 20
5.794500000005029
 30
0.0
 11
-16.99999999999795
 21
5.794500000005029
 31
0.0
  0
LINE
  5
1890
330
1830
100
AcDbEntity
  8
LW 3520-19-01
100
AcDbLine
 10
-15.99999999999795
 20
7.000000000005059
 30
0.0
 11
-15.99999999999795
 21
-6.99999999999494
 31
0.0
  0
INSERT
  5
1891
330
1830
100
AcDbEntity
  8
LW 3520-19-01
100
AcDbBlockReference
 66
     1
  2
insertpoint-ECKELT
 10
0.0
 20
0.0
 30
0.0
  0
ATTRIB
  5
1892
330
1891
100
AcDbEntity
  8
insertpoint_ECKELT
100
AcDbText
 10
-6.931514324693087
 20
0.0
 30
0.0
 40
0.6
  1
LW 3520/19-01
 72
     2
 11
-1.200000000000045
 21
0.0
 31
0.0
100
AcDbAttribute
  2
LINKS
 70
     0
  0
ATTRIB
  5
1893
330
1891
100
AcDbEntity
  8
insertpoint_ECKELT
100
AcDbText
 10
1.200000000000045
 20
0.0
 30
0.0
 40
0.6
  1

100
AcDbAttribute
  2
RECHTS
 70
     0
  0
SEQEND
  5
1894
330
1891
100
AcDbEntity
  8
LW 3520-19-01
  0
HATCH
  5
1895
330
1830
100
AcDbEntity
  8
LW 3520-19-01
 62
     1
100
AcDbHatch
 10
0.0
 20
0.0
 30
0.0
210
0.0
220
0.0
230
1.0
  2
SOLID
 70
     1
 71
     0
 91
        5
 92
        7
 72
     0
 73
     1
 93
       76
 10
101.6198830459461
 20
19.76920546873941
 10
101.651741875319
 20
19.82078643058111
 10
101.7698999995501
 20
19.97202882959709
 10
101.9043780747629
 20
20.11245295985964
 10
102.0503979812245
 20
20.24083752157299
 10
102.2140667773064
 20
20.35774380448874
 10
102.3894537306711
 20
20.45992168631039
 10
102.5712066632715
 20
20.55127336589328
 10
102.7523755987372
 20
20.62079167833946
 10
100.4952376605372
 20
20.6207916783394
 10
100.2823411081372
 20
20.61210202313936
 10
100.0803066247372
 20
20.5860330575394
 10
99.88478938273715
 20
20.54475719533934
 10
99.70013420973726
 20
20.49044685033937
 10
99.52416869193712
 20
20.42092960873936
 10
99.3568928293372
 20
20.33837788433925
 10
99.20632456679028
 20
20.24305236679544
 10
99.06361696633736
 20
20.13634340093933
 10
98.9381757107666
 20
20.01729512469922
 10
98.82691075868923
 20
19.88903581394732
 10
98.72689282733723
 20
19.75182615833933
 10
98.64434110293723
 20
19.60627443373926
 10
98.58134110273727
 20
19.45203305393915
 10
98.5313755853374
 20
19.29127443273938
 10
98.50313420593728
 20
19.12617098393929
 10
98.49444455073729
 20
18.95237787993932
 10
98.50530661973733
 20
18.77858477593924
 10
98.53572041293729
 20
18.61130891333926
 10
98.59003075793737
 20
18.45055029213932
 10
98.65954799953726
 20
18.29413649853927
 10
98.74861696533741
 20
18.14641236013921
 10
98.85506524153733
 20
18.00520546313936
 10
98.97776317296132
 20
17.87399166961927
 10
99.11396222166956
 20
17.75285787613137
 10
99.26130662213735
 20
17.64241235853927
 10
99.42206524333744
 20
17.54465373753942
 10
99.59769186458458
 20
17.45975580623536
 10
99.77834110653725
 20
17.38606753013937
 10
99.96951352093743
 20
17.32958477133934
 10
100.1693755905373
 20
17.28613649533935
 10
100.3779273153373
 20
17.26006752973933
 10
100.5886514539372
 20
17.25137787453934
 10
102.7078225396899
 20
17.25137787453945
 10
102.5472786756374
 20
17.31444867827434
 10
102.363714531835
 20
17.40506895179709
 10
102.1952481256648
 20
17.50959864472867
 10
102.0324152309041
 20
17.62521688315411
 10
101.888502862534
 20
17.75500647969397
 10
101.7610669690497
 20
17.89436016292251
 10
101.6473616143063
 20
18.04484840763507
 10
101.5953903828576
 20
18.1290330497394
 10
100.5669273159373
 20
18.12903304973935
 10
100.4348184879318
 20
18.1365930497634
 10
100.3040652461372
 20
18.15692684293134
 10
100.1758928319374
 20
18.18986063613931
 10
100.0607549005374
 20
18.23548132593941
 10
99.95580993468696
 20
18.29196408473933
 10
99.85766027920295
 20
18.35956960219533
 10
99.76747903753732
 20
18.43751580933929
 10
99.69578938213738
 20
18.52223994753933
 10
101.4233106963961
 20
18.52223994753939
 10
101.4127262291231
 20
18.55487538829772
 10
101.3766144211587
 20
18.74024933584883
 10
101.364570768377
 20
18.93053904979956
 10
101.3765924408063
 20
19.12529014315459
 10
101.4128981624816
 20
19.31165951442108
 10
101.4294968651566
 20
19.36079167433934
 10
99.65885834753727
 20
19.36079167433934
 10
99.72837558913727
 20
19.45637788153925
 10
99.81092731353726
 20
19.53892960593936
 10
99.90601821039081
 20
19.60879443374728
 10
100.0086169693372
 20
19.66710202013939
 10
100.127308969714
 20
19.71107167545131
 10
100.2497549011373
 20
19.74313650313934
 10
100.3866169705372
 20
19.76268822733931
 10
100.5299962813372
 20
19.76920546873936
 97
        0
 92
        7
 72
     0
 73
     1
 93
       72
 10
103.348346910974
 20
19.75460684800339
 10
103.4712099458468
 20
19.77268133081941
 10
103.5952721531372
 20
19.77789512393946
 10
104.8639618123372
 20
19.77789512393951
 10
104.0167204303372
 20
18.96323994893959
 10
105.7828928497374
 20
17.24486063313958
 10
107.1015480263372
 20
17.24486063313958
 10
105.3875135381373
 20
18.98713650073955
 10
107.0689618193372
 20
20.62079167833963
 10
103.6300307739373
 20
20.62079167833946
 10
103.4220438767252
 20
20.61001650589151
 10
103.2153256691723
 20
20.58455581615539
 10
103.0108928409372
 20
20.54475719533946
 10
102.8175480127372
 20
20.48827443653943
 10
102.6307204259371
 20
20.41658478113942
 10
102.4595602874627
 20
20.33055719465943
 10
102.2939962869372
 20
20.23410202193941
 10
102.1419273209372
 20
20.12548133193945
 10
102.0062296653341
 20
20.00617236604341
 10
101.8812376649373
 20
19.87565374493937
 10
101.7726169749371
 20
19.73661926173935
 10
101.6813755953372
 20
19.58889512333951
 10
101.6096859399372
 20
19.4346537435394
 10
101.5553755949372
 20
19.27389512233941
 10
101.5227893879373
 20
19.10661925973937
 10
101.5119273189373
 20
18.93065374193929
 10
101.5227893879373
 20
18.75903305173943
 10
101.5553755949373
 20
18.59175718913945
 10
101.6075135261374
 20
18.43099856793947
 10
101.6770307677373
 20
18.27675718813941
 10
101.7688717335461
 20
18.12799029111551
 10
101.8742511821565
 20
17.98852132515537
 10
101.9922566997726
 20
17.85947994543551
 10
102.1245480105373
 20
17.74017097953947
 10
102.2766691144685
 20
17.63215856540336
 10
102.4352031839373
 20
17.53379166853938
 10
102.6068238741373
 20
17.44906753033945
 10
102.7893066333374
 20
17.37737787493944
 10
102.9835378063677
 20
17.32332821959545
 10
103.1803411173373
 20
17.27961925393941
 10
103.3888928421373
 20
17.25355028833945
 10
103.5996169807373
 20
17.24486063313946
 10
105.5026514695373
 20
17.24486063313958
 10
104.6163066391373
 20
18.11817098073953
 10
103.5996169807373
 20
18.11817098073948
 10
103.5329499460428
 20
18.12191827367877
 10
103.4320022215845
 20
18.13190063595544
 10
103.3118677384445
 20
18.15336408429948
 10
103.194748565659
 20
18.18768822233937
 10
103.0932533929229
 20
18.22861649833146
 10
103.0371182203308
 20
18.2567709811795
 10
102.9834335305053
 20
18.28935718817956
 10
102.8508728404292
 20
18.3886799471154
 10
102.7772714608853
 20
18.45871856802745
 10
102.7222051158829
 20
18.52658477513933
 10
102.6734995984868
 20
18.59914339605939
 10
102.6341354604308
 20
18.67630753423538
 10
102.6047122879237
 20
18.75772960345938
 10
102.5840135292372
 20
18.84488684511547
 10
102.5764969774892
 20
18.93421650057132
 10
102.5778525637005
 20
18.99652132835541
 10
102.5838571154437
 20
19.05865236303532
 10
102.5960139430685
 20
19.12182615633946
 10
102.6142274603677
 20
19.18352270825943
 10
102.6578755984371
 20
19.28223719133132
 10
102.6994034606381
 20
19.35010339844336
 10
102.7624816677348
 20
19.42813650213941
 10
102.8918836080996
 20
19.55465923919308
 10
102.9511514614373
 20
19.59471719232346
 10
103.0274466340933
 20
19.63903443384339
 10
103.111466910222
 20
19.68117926156344
 10
103.2280038761092
 20
19.72401926169948
 97
        0
 92
        7
 72
     0
 73
     1
 93
       57
 10
107.9063838909613
 20
19.73253512379568
 10
108.0378583741373
 20
19.77250753771568
 10
108.1725480297372
 20
19.79961926193971
 10
108.3159273405372
 20
19.80830891713964
 10
109.5563756203372
 20
19.8083089171397
 10
109.5563756203372
 20
20.63382616113973
 10
108.3224445819372
 20
20.63382616113961
 10
108.1117204433373
 20
20.62513650593962
 10
107.9053411323373
 20
20.59689512653961
 10
107.7076514765373
 20
20.55561926433967
 10
107.5186514759373
 20
20.50130891933964
 10
107.3339963029373
 20
20.42961926393963
 10
107.167589405857
 20
20.34698064298755
 10
107.0087685777667
 20
20.25052547026752
 10
106.8586895428077
 20
20.14103581474757
 10
106.7241302320358
 20
20.02181374540362
 10
106.6040652661372
 20
19.89303305533957
 10
106.4997894037372
 20
19.75399857213961
 10
106.4150652655372
 20
19.60844684753954
 10
106.3433756101372
 20
19.45420546773948
 10
106.2934100927373
 20
19.29344684653966
 10
106.2608238857373
 20
19.12617098393969
 10
106.2499618167373
 20
18.9523778799396
 10
106.2608238857373
 20
18.77858477593958
 10
106.2934100927373
 20
18.6113089133396
 10
106.3455480239372
 20
18.45055029213949
 10
106.4172376793374
 20
18.29413649853961
 10
106.5041342313374
 20
18.14641236013961
 10
106.6129808523725
 20
18.00685649762761
 10
106.732837266546
 20
17.87651166962763
 10
106.8692648531861
 20
17.75520408303561
 10
107.0168238881373
 20
17.64458477233955
 10
107.1775825093373
 20
17.54682615133953
 10
107.3513756133372
 20
17.4621020131396
 10
107.5360307863374
 20
17.38823994393971
 10
107.7272032007373
 20
17.33175718513962
 10
107.9270652703373
 20
17.28830890913968
 10
108.1334445813373
 20
17.26441235733955
 10
108.3463411337374
 20
17.25572270213962
 10
109.5563756203373
 20
17.25572270213968
 10
109.5563756203373
 20
18.11382615313965
 10
108.3224445819372
 20
18.1138261531396
 10
108.1887976849613
 20
18.12416684282755
 10
108.0565411328174
 20
18.14615167048367
 10
107.9359287186413
 20
18.18047580852362
 10
107.8199218217214
 20
18.22844270522768
 10
107.7102583730973
 20
18.28935718817968
 10
107.6131949245133
 20
18.35696270563557
 10
107.5257769932013
 20
18.43673374037161
 10
107.4513066481373
 20
18.52223994753962
 10
109.5563756203373
 20
18.52223994753967
 10
109.5563756203373
 20
19.34992960533969
 10
107.4143756135372
 20
19.34992960533958
 10
107.4838928551372
 20
19.4476882263396
 10
107.5707894071372
 20
19.53675719213953
 10
107.6719369936653
 20
19.61305236479563
 10
107.7793411319372
 20
19.6801365029396
 97
        0
 92
        7
 72
     0
 73
     1
 93
        6
 10
109.7866514831373
 20
20.62079167833974
 10
109.7866514831373
 20
17.25137787453968
 10
112.0242376971374
 20
17.2513778745398
 10
112.0242376971373
 20
18.11817098073982
 10
110.8098583829373
 20
18.11817098073982
 10
110.8098583829372
 20
20.62079167833974
 97
        0
 92
        7
 72
     0
 73
     1
 93
        8
 10
111.0423066595372
 20
20.62079167833974
 10
111.0423066595372
 20
19.79527443433972
 10
112.2762376979373
 20
19.79527443433983
 10
112.2762376979374
 20
17.24486063313981
 10
113.3016170115373
 20
17.24486063313981
 10
113.3016170115372
 20
19.79527443433977
 10
114.5442377051372
 20
19.79527443433983
 10
114.5442377051372
 20
20.62079167833986
 97
        0
 75
     0
 76
     1
 47
0.0142553043587597
 98
        5
 10
100.9295431720125
 20
20.17834200875029
 10
103.1970403853551
 20
20.0357890237446
 10
107.6892521175566
 20
20.09281019629242
 10
110.4131012013882
 20
20.33515042098486
 10
111.824939183615
 20
20.23536328857148
450
        0
451
        0
460
0.0
461
0.0
452
        0
462
0.0
453
        0
470

  0
LWPOLYLINE
  5
1896
330
1830
100
AcDbEntity
  8
LW 3520-19-01
 62
     1
100
AcDbPolyline
 90
        8
 70
     1
 43
0.0
 10
113.3016170115372
 20
19.79527443433977
 10
113.3016170115373
 20
17.24486063313981
 10
112.2762376979374
 20
17.24486063313981
 10
112.2762376979373
 20
19.79527443433983
 10
111.0423066595372
 20
19.79527443433972
 10
111.0423066595372
 20
20.62079167833974
 10
114.5442377051372
 20
20.62079167833986
 10
114.5442377051372
 20
19.79527443433983
  0
LWPOLYLINE
  5
1897
330
1830
100
AcDbEntity
  8
LW 3520-19-01
 62
     1
100
AcDbPolyline
 90
       73
 70
     1
 43
0.0
 10
103.5996169807373
 20
18.11817098073948
 10
104.6163066391373
 20
18.11817098073953
 10
105.5026514695373
 20
17.24486063313958
 10
103.5996169807373
 20
17.24486063313941
 10
103.3888928421373
 20
17.25355028833945
 10
103.1803411173373
 20
17.27961925393947
 10
102.9835378063677
 20
17.32332821959545
 10
102.7893066333374
 20
17.37737787493944
 10
102.6068238741373
 20
17.44906753033945
 10
102.4352031839373
 20
17.53379166853943
 10
102.2766691144686
 20
17.63215856540347
 10
102.1245480105373
 20
17.74017097953947
 10
101.9922566997725
 20
17.85947994543539
 10
101.8742511821565
 20
17.98852132515537
 10
101.7688717335461
 20
18.12799029111545
 10
101.6770307677373
 20
18.27675718813941
 10
101.6075135261374
 20
18.43099856793947
 10
101.5553755949373
 20
18.59175718913945
 10
101.5227893879373
 20
18.75903305173943
 10
101.5119273189373
 20
18.93065374193941
 10
101.5227893879373
 20
19.10661925973937
 10
101.5553755949372
 20
19.27389512233941
 10
101.6096859399373
 20
19.4346537435394
 10
101.6813755953372
 20
19.58889512333945
 10
101.7726169749372
 20
19.7366192617394
 10
101.8812376649373
 20
19.87565374493937
 10
102.0062296653341
 20
20.00617236604347
 10
102.1419273209371
 20
20.1254813319394
 10
102.2939962869372
 20
20.23410202193941
 10
102.4595602874628
 20
20.33055719465938
 10
102.6307204259371
 20
20.41658478113936
 10
102.8175480127372
 20
20.48827443653943
 10
103.0108928409372
 20
20.54475719533952
 10
103.2153256691724
 20
20.58455581615544
 10
103.4220438767252
 20
20.61001650589151
 10
103.6300307739371
 20
20.62079167833946
 10
107.0689618193372
 20
20.62079167833963
 10
105.3875135381373
 20
18.98713650073955
 10
107.1015480263372
 20
17.24486063313958
 10
105.7828928497374
 20
17.24486063313958
 10
104.0167204303372
 20
18.96323994893959
 10
104.8639618123372
 20
19.77789512393951
 10
103.5952721531372
 20
19.77789512393946
 10
103.4712099458468
 20
19.77268133081941
 10
103.348346910974
 20
19.75460684800339
 10
103.2280038761092
 20
19.72401926169948
 10
103.111466910222
 20
19.68117926156338
 10
103.0274466340932
 20
19.63903443384345
 10
102.9511514614372
 20
19.59471719232346
 10
102.910909668206
 20
19.56751857154745
 10
102.8733964267077
 20
19.53658339903546
 10
102.7624816677348
 20
19.42813650213941
 10
102.6994034606381
 20
19.35010339844336
 10
102.6578755984372
 20
19.28223719133143
 10
102.6142274603677
 20
19.18352270825943
 10
102.5960139430685
 20
19.12182615633946
 10
102.5838571154437
 20
19.05865236303543
 10
102.5778525637005
 20
18.99652132835547
 10
102.5764969774893
 20
18.93421650057144
 10
102.5840135292372
 20
18.84488684511547
 10
102.6047122879238
 20
18.75772960345944
 10
102.6341354604309
 20
18.67630753423543
 10
102.6734995984868
 20
18.59914339605939
 10
102.7222051158828
 20
18.52658477513944
 10
102.7772714608853
 20
18.45871856802745
 10
102.8508728404292
 20
18.3886799471154
 10
102.9834335305054
 20
18.28935718817951
 10
103.0371182203309
 20
18.25677098117944
 10
103.0932533929229
 20
18.22861649833146
 10
103.194748565659
 20
18.18768822233937
 10
103.3118677384445
 20
18.15336408429948
 10
103.4320022215845
 20
18.13190063595544
 10
103.5329499460429
 20
18.12191827367883
  0
LWPOLYLINE
  5
1898
330
1830
100
AcDbEntity
  8
LW 3520-19-01
 62
     1
100
AcDbPolyline
 90
       76
 70
     1
 43
0.0
 10
102.3894537306711
 20
20.45992168631039
 10
102.2140667773063
 20
20.35774380448868
 10
102.0503979812243
 20
20.24083752157304
 10
101.9043780747629
 20
20.11245295985964
 10
101.7698999995501
 20
19.97202882959709
 10
101.651741875319
 20
19.82078643058122
 10
101.6198830459461
 20
19.76920546873941
 10
100.5299962813372
 20
19.76920546873941
 10
100.3866169705372
 20
19.76268822733931
 10
100.2497549011372
 20
19.74313650313934
 10
100.127308969714
 20
19.71107167545131
 10
100.0086169693372
 20
19.66710202013939
 10
99.90601821039092
 20
19.60879443374733
 10
99.81092731353726
 20
19.5389296059393
 10
99.72837558913717
 20
19.45637788153931
 10
99.65885834753727
 20
19.36079167433934
 10
101.4294968651566
 20
19.36079167433934
 10
101.4128981624816
 20
19.31165951442108
 10
101.3765924408062
 20
19.12529014315447
 10
101.364570768377
 20
18.93053904979956
 10
101.3766144211587
 20
18.74024933584883
 10
101.4127262291232
 20
18.55487538829777
 10
101.4233106963961
 20
18.52223994753939
 10
99.69578938213738
 20
18.52223994753933
 10
99.76747903753732
 20
18.43751580933929
 10
99.85766027920295
 20
18.35956960219533
 10
99.95580993468696
 20
18.29196408473933
 10
100.0607549005374
 20
18.23548132593941
 10
100.1758928319374
 20
18.18986063613937
 10
100.3040652461372
 20
18.15692684293134
 10
100.4348184879318
 20
18.1365930497634
 10
100.5669273159373
 20
18.12903304973935
 10
101.5953903828576
 20
18.1290330497394
 10
101.6473616143063
 20
18.04484840763513
 10
101.7610669690497
 20
17.89436016292251
 10
101.888502862534
 20
17.75500647969397
 10
102.0324152309042
 20
17.62521688315422
 10
102.1952481256648
 20
17.50959864472867
 10
102.363714531835
 20
17.40506895179709
 10
102.5472786756374
 20
17.31444867827434
 10
102.7078225396899
 20
17.25137787453945
 10
100.5886514539373
 20
17.25137787453929
 10
100.3779273153373
 20
17.26006752973933
 10
100.1693755905373
 20
17.28613649533935
 10
99.96951352093731
 20
17.32958477133934
 10
99.77834110653738
 20
17.38606753013925
 10
99.59769186458448
 20
17.45975580623531
 10
99.42206524333744
 20
17.54465373753942
 10
99.26130662213735
 20
17.64241235853927
 10
99.11396222166969
 20
17.75285787613131
 10
98.97776317296132
 20
17.87399166961927
 10
98.85506524153733
 20
18.0052054631393
 10
98.74861696533731
 20
18.14641236013926
 10
98.65954799953739
 20
18.29413649853933
 10
98.59003075793737
 20
18.45055029213932
 10
98.53572041293729
 20
18.61130891333926
 10
98.50530661973733
 20
18.77858477593935
 10
98.49444455073729
 20
18.95237787993926
 10
98.50313420593716
 20
19.12617098393923
 10
98.53137558533729
 20
19.29127443273933
 10
98.58134110273727
 20
19.45203305393926
 10
98.64434110293723
 20
19.60627443373926
 10
98.72689282733723
 20
19.75182615833933
 10
98.82691075868933
 20
19.88903581394732
 10
98.9381757107666
 20
20.01729512469927
 10
99.06361696633723
 20
20.13634340093927
 10
99.20632456679028
 20
20.24305236679532
 10
99.35689282933731
 20
20.33837788433936
 10
99.52416869193724
 20
20.4209296087393
 10
99.70013420973726
 20
20.49044685033937
 10
99.88478938273727
 20
20.54475719533929
 10
100.0803066247372
 20
20.5860330575394
 10
100.2823411081372
 20
20.61210202313936
 10
100.4952376605372
 20
20.62079167833934
 10
102.7523755987373
 20
20.62079167833951
 10
102.5712066632715
 20
20.55127336589328
  0
LWPOLYLINE
  5
1899
330
1830
100
AcDbEntity
  8
LW 3520-19-01
 62
     1
100
AcDbPolyline
 90
        6
 70
     1
 43
0.0
 10
112.0242376971374
 20
17.2513778745398
 10
109.7866514831373
 20
17.25137787453968
 10
109.7866514831373
 20
20.62079167833974
 10
110.8098583829372
 20
20.62079167833974
 10
110.8098583829373
 20
18.11817098073982
 10
112.0242376971373
 20
18.11817098073982
  0
LWPOLYLINE
  5
189A
330
1830
100
AcDbEntity
  8
LW 3520-19-01
 62
     1
100
AcDbPolyline
 90
       57
 70
     1
 43
0.0
 10
106.732837266546
 20
17.87651166962763
 10
106.6129808523725
 20
18.00685649762755
 10
106.5041342313372
 20
18.14641236013955
 10
106.4172376793374
 20
18.29413649853961
 10
106.3455480239372
 20
18.45055029213949
 10
106.2934100927373
 20
18.6113089133396
 10
106.2608238857373
 20
18.77858477593958
 10
106.2499618167373
 20
18.9523778799396
 10
106.2608238857373
 20
19.12617098393963
 10
106.2934100927373
 20
19.29344684653955
 10
106.3433756101372
 20
19.45420546773948
 10
106.4150652655372
 20
19.6084468475396
 10
106.4997894037371
 20
19.75399857213949
 10
106.6040652661372
 20
19.89303305533963
 10
106.7241302320355
 20
20.02181374540356
 10
106.8586895428077
 20
20.14103581474757
 10
107.0087685777669
 20
20.25052547026758
 10
107.1675894058573
 20
20.34698064298766
 10
107.3339963029373
 20
20.42961926393963
 10
107.5186514759372
 20
20.50130891933958
 10
107.7076514765373
 20
20.55561926433967
 10
107.9053411323373
 20
20.59689512653961
 10
108.1117204433373
 20
20.62513650593962
 10
108.3224445819372
 20
20.63382616113961
 10
109.5563756203372
 20
20.63382616113973
 10
109.5563756203372
 20
19.8083089171397
 10
108.3159273405373
 20
19.80830891713964
 10
108.1725480297373
 20
19.79961926193965
 10
108.0378583741373
 20
19.77250753771568
 10
107.9063838909612
 20
19.73253512379563
 10
107.7793411319372
 20
19.6801365029396
 10
107.6719369936653
 20
19.61305236479563
 10
107.5707894071372
 20
19.53675719213964
 10
107.4838928551372
 20
19.4476882263396
 10
107.4143756135372
 20
19.34992960533958
 10
109.5563756203373
 20
19.34992960533969
 10
109.5563756203373
 20
18.52223994753967
 10
107.4513066481373
 20
18.52223994753962
 10
107.5257769932013
 20
18.43673374037161
 10
107.6131949245133
 20
18.35696270563557
 10
107.7102583730973
 20
18.28935718817968
 10
107.8199218217214
 20
18.22844270522768
 10
107.9359287186413
 20
18.18047580852362
 10
108.0565411328174
 20
18.14615167048367
 10
108.1887976849613
 20
18.12416684282755
 10
108.3224445819372
 20
18.1138261531396
 10
109.5563756203373
 20
18.11382615313965
 10
109.5563756203373
 20
17.25572270213968
 10
108.3463411337374
 20
17.25572270213962
 10
108.1334445813373
 20
17.26441235733955
 10
107.9270652703373
 20
17.28830890913963
 10
107.7272032007373
 20
17.33175718513962
 10
107.5360307863374
 20
17.38823994393971
 10
107.3513756133372
 20
17.4621020131396
 10
107.1775825093373
 20
17.54682615133964
 10
107.0168238881373
 20
17.64458477233955
 10
106.8692648531861
 20
17.75520408303561
  0
ENDBLK
  5
1832
330
1830
100
AcDbEntity
  8
0
100
AcDbBlockEnd
  0
BLOCK
  5
189D
330
189C
100
AcDbEntity
  8
0
100
AcDbBlockBegin
  2
LW 3520-19-01_d
 70
     0
 10
0.0
 20
0.0
 30
0.0
  3
LW 3520-19-01_d
  1

  0
LINE
  5
189F
330
189C
100
AcDbEntity
  8
LW 3520-19-01
100
AcDbLine
 10
-14.00000000000978
 20
32.99999999999585
 30
0.0
 11
-13.99999999999022
 21
-33.00000000000409
 31
0.0
  0
ARC
  5
18A0
330
189C
100
AcDbEntity
  8
LW 3520-19-01
100
AcDbCircle
 10
-145.0000000000216
 20
-0.0000000000429736
 30
0.0
 40
35.0
100
AcDbArc
 50
90.00000000001953
 51
270.0000000000196
  0
LINE
  5
18A1
330
189C
100
AcDbEntity
  8
LW 3520-19-01
100
AcDbLine
 10
-145.000000000032
 20
34.99999999995703
 30
0.0
 11
-16.00000000003206
 21
34.99999999999523
 31
0.0
  0
LINE
  5
18A2
330
189C
100
AcDbEntity
  8
LW 3520-19-01
100
AcDbLine
 10
-16.00000000001125
 20
-35.00000000000478
 30
0.0
 11
-145.0000000000112
 21
-35.00000000004297
 31
0.0
  0
LINE
  5
18A3
330
189C
100
AcDbEntity
  8
LW 3520-19-01
100
AcDbLine
 10
-16.00000000003206
 20
34.99999999999523
 30
0.0
 11
-12.00000000003081
 21
34.99999999999648
 31
0.0
  0
LINE
  5
18A4
330
189C
100
AcDbEntity
  8
LW 3520-19-01
100
AcDbLine
 10
-12.00000000001012
 20
-35.00000000000353
 30
0.0
 11
-16.00000000001125
 21
-35.00000000000478
 31
0.0
  0
ARC
  5
18A5
330
189C
100
AcDbEntity
  8
LW 3520-19-01
100
AcDbCircle
 10
-12.00000000000978
 20
32.99999999999642
 30
0.0
 40
2.00000000000001
100
AcDbArc
 50
90.00000000001953
 51
180.0
  0
ARC
  5
18A6
330
189C
100
AcDbEntity
  8
LW 3520-19-01
100
AcDbCircle
 10
-11.99999999999022
 20
-33.00000000000352
 30
0.0
 40
1.999999999999996
100
AcDbArc
 50
180.0
 51
270.0000000000196
  0
LINE
  5
18A7
330
189C
100
AcDbEntity
  8
LW 3520-19-01
100
AcDbLine
 10
-4.999999999989654
 20
-35.00000000000148
 30
0.0
 11
-5.000000000010345
 21
34.99999999999853
 31
0.0
  0
LINE
  5
18A8
330
189C
100
AcDbEntity
  8
LW 3520-19-01
100
AcDbLine
 10
-12.00000000001034
 20
34.99999999999648
 30
0.0
 11
-5.000000000010345
 21
34.99999999999853
 31
0.0
  0
LINE
  5
18A9
330
189C
100
AcDbEntity
  8
LW 3520-19-01
100
AcDbLine
 10
-4.999999999989654
 20
-35.00000000000148
 30
0.0
 11
-11.99999999998954
 21
-35.00000000000353
 31
0.0
  0
LINE
  5
18AA
330
189C
100
AcDbEntity
  8
LW 3520-19-01
100
AcDbLine
 10
-19.00000000000659
 20
22.49999999999443
 30
0.0
 11
-18.99999999999329
 21
-22.50000000000557
 31
0.0
  0
LINE
  5
18AB
330
189C
100
AcDbEntity
  8
LW 3520-19-01
100
AcDbLine
 10
-14.00000000000659
 20
22.49999999999591
 30
0.0
 11
-19.00000000000659
 21
22.49999999999443
 31
0.0
  0
LINE
  5
18AC
330
189C
100
AcDbEntity
  8
LW 3520-19-01
100
AcDbLine
 10
-13.99999999999329
 20
-22.50000000000409
 30
0.0
 11
-18.99999999999329
 21
-22.50000000000557
 31
0.0
  0
LINE
  5
18AD
330
189C
100
AcDbEntity
  8
LW 3520-19-01
100
AcDbLine
 10
0.0000000000067075
 20
-22.5
 30
0.0
 11
-0.0000000000067075
 21
22.5
 31
0.0
  0
LINE
  5
18AE
330
189C
100
AcDbEntity
  8
LW 3520-19-01
100
AcDbLine
 10
-4.999999999993292
 20
-22.50000000000148
 30
0.0
 11
0.0000000000067075
 21
-22.5
 31
0.0
  0
LINE
  5
18AF
330
189C
100
AcDbEntity
  8
LW 3520-19-01
100
AcDbLine
 10
-5.000000000006707
 20
22.49999999999852
 30
0.0
 11
-0.0000000000067075
 21
22.5
 31
0.0
  0
CIRCLE
  5
18B0
330
189C
100
AcDbEntity
  8
LW 3520-19-01
100
AcDbCircle
 10
-145.0000000000151
 20
-0.0000000000429736
 30
0.0
 40
17.49999999999999
  0
CIRCLE
  5
18B1
330
189C
100
AcDbEntity
  8
LW 3520-19-01
100
AcDbCircle
 10
-145.0000000000143
 20
-0.0000000000429736
 30
0.0
 40
14.49999999999999
  0
CIRCLE
  5
18B2
330
189C
100
AcDbEntity
  8
LW 3520-19-01
100
AcDbCircle
 10
-65.00000000001512
 20
-0.0000000000192131
 30
0.0
 40
17.49999999999999
  0
CIRCLE
  5
18B3
330
189C
100
AcDbEntity
  8
LW 3520-19-01
100
AcDbCircle
 10
-65.00000000001432
 20
-0.0000000000192131
 30
0.0
 40
14.49999999999999
  0
POLYLINE
  5
18B4
330
189C
100
AcDbEntity
  8
LW 3520-19-01
100
AcDb2dPolyline
 66
     1
 10
0.0
 20
0.0
 30
0.0
 70
   128
  0
VERTEX
  5
18B5
330
18B4
100
AcDbEntity
  8
LW 3520-19-01
100
AcDbVertex
100
AcDb2dVertex
 10
-36.99999952315761
 20
-0.0000000000109139
 30
0.0
  0
VERTEX
  5
18B6
330
18B4
100
AcDbEntity
  8
LW 3520-19-01
100
AcDbVertex
100
AcDb2dVertex
 10
-36.98318386077358
 20
-0.2554797381271783
 30
0.0
  0
VERTEX
  5
18B7
330
18B4
100
AcDbEntity
  8
LW 3520-19-01
100
AcDbVertex
100
AcDb2dVertex
 10
-36.93250799178543
 20
-0.513535626243538
 30
0.0
  0
VERTEX
  5
18B8
330
18B4
100
AcDbEntity
  8
LW 3520-19-01
100
AcDbVertex
100
AcDb2dVertex
 10
-36.84763216971806
 20
-0.7656736672033731
 30
0.0
  0
VERTEX
  5
18B9
330
18B4
100
AcDbEntity
  8
LW 3520-19-01
100
AcDbVertex
100
AcDb2dVertex
 10
-36.72932291030338
 20
-1.003869771968254
 30
0.0
  0
VERTEX
  5
18BA
330
18B4
100
AcDbEntity
  8
LW 3520-19-01
100
AcDbVertex
100
AcDb2dVertex
 10
-36.58275866507927
 20
-1.221954673539471
 30
0.0
  0
VERTEX
  5
18BB
330
18B4
100
AcDbEntity
  8
LW 3520-19-01
100
AcDbVertex
100
AcDb2dVertex
 10
-36.4142110347691
 20
-1.414216607819867
 30
0.0
  0
VERTEX
  5
18BC
330
18B4
100
AcDbEntity
  8
LW 3520-19-01
100
AcDbVertex
100
AcDb2dVertex
 10
-36.22194790839581
 20
-1.58276334406014
 30
0.0
  0
VERTEX
  5
18BD
330
18B4
100
AcDbEntity
  8
LW 3520-19-01
100
AcDbVertex
100
AcDb2dVertex
 10
-36.00386404990582
 20
-1.729326844226022
 30
0.0
  0
VERTEX
  5
18BE
330
18B4
100
AcDbEntity
  8
LW 3520-19-01
100
AcDbVertex
100
AcDb2dVertex
 10
-35.76566958426861
 20
-1.847633719454847
 30
0.0
  0
VERTEX
  5
18BF
330
18B4
100
AcDbEntity
  8
LW 3520-19-01
100
AcDbVertex
100
AcDb2dVertex
 10
-35.51353359221832
 20
-1.932508051405932
 30
0.0
  0
VERTEX
  5
18C0
330
18B4
100
AcDbEntity
  8
LW 3520-19-01
100
AcDbVertex
100
AcDb2dVertex
 10
-35.25547885894196
 20
-1.983183622370688
 30
0.0
  0
VERTEX
  5
18C1
330
18B4
100
AcDbEntity
  8
LW 3520-19-01
100
AcDbVertex
100
AcDb2dVertex
 10
-35.00000023841278
 20
-2.000000029812667
 30
0.0
  0
VERTEX
  5
18C2
330
18B4
100
AcDbEntity
  8
LW 3520-19-01
100
AcDbVertex
100
AcDb2dVertex
 10
-34.74452042579071
 20
-1.983183622370518
 30
0.0
  0
VERTEX
  5
18C3
330
18B4
100
AcDbEntity
  8
LW 3520-19-01
100
AcDbVertex
100
AcDb2dVertex
 10
-34.48646688460724
 20
-1.932508051405648
 30
0.0
  0
VERTEX
  5
18C4
330
18B4
100
AcDbEntity
  8
LW 3520-19-01
100
AcDbVertex
100
AcDb2dVertex
 10
-34.23433089255718
 20
-1.847633719454393
 30
0.0
  0
VERTEX
  5
18C5
330
18B4
100
AcDbEntity
  8
LW 3520-19-01
100
AcDbVertex
100
AcDb2dVertex
 10
-33.99613642691998
 20
-1.729326844225454
 30
0.0
  0
VERTEX
  5
18C6
330
18B4
100
AcDbEntity
  8
LW 3520-19-01
100
AcDbVertex
100
AcDb2dVertex
 10
-33.77805137633709
 20
-1.582763344059458
 30
0.0
  0
VERTEX
  5
18C7
330
18B4
100
AcDbEntity
  8
LW 3520-19-01
100
AcDbVertex
100
AcDb2dVertex
 10
-33.5857894420567
 20
-1.414216607819014
 30
0.0
  0
VERTEX
  5
18C8
330
18B4
100
AcDbEntity
  8
LW 3520-19-01
100
AcDbVertex
100
AcDb2dVertex
 10
-33.41724181174675
 20
-1.221954673538562
 30
0.0
  0
VERTEX
  5
18C9
330
18B4
100
AcDbEntity
  8
LW 3520-19-01
100
AcDbVertex
100
AcDb2dVertex
 10
-33.27067637442997
 20
-1.003869771967288
 30
0.0
  0
VERTEX
  5
18CA
330
18B4
100
AcDbEntity
  8
LW 3520-19-01
100
AcDbVertex
100
AcDb2dVertex
 10
-33.15236830710819
 20
-0.7656736672022362
 30
0.0
  0
VERTEX
  5
18CB
330
18B4
100
AcDbEntity
  8
LW 3520-19-01
100
AcDbVertex
100
AcDb2dVertex
 10
-33.06749248504104
 20
-0.5135356262424012
 30
0.0
  0
VERTEX
  5
18CC
330
18B4
100
AcDbEntity
  8
LW 3520-19-01
100
AcDbVertex
100
AcDb2dVertex
 10
-33.01681661605312
 20
-0.2554797381260414
 30
0.0
  0
VERTEX
  5
18CD
330
18B4
100
AcDbEntity
  8
LW 3520-19-01
100
AcDbVertex
100
AcDb2dVertex
 10
-32.99999976157619
 20
-0.0000000000097202
 30
0.0
  0
SEQEND
  5
18CE
330
18B4
100
AcDbEntity
  8
LW 3520-19-01
  0
POLYLINE
  5
18CF
330
189C
100
AcDbEntity
  8
LW 3520-19-01
100
AcDb2dPolyline
 66
     1
 10
0.0
 20
0.0
 30
0.0
 70
   128
  0
VERTEX
  5
18D0
330
18CF
100
AcDbEntity
  8
LW 3520-19-01
100
AcDbVertex
100
AcDb2dVertex
 10
-32.99999976157619
 20
-0.0000000000097202
 30
0.0
  0
VERTEX
  5
18D1
330
18CF
100
AcDbEntity
  8
LW 3520-19-01
100
AcDbVertex
100
AcDb2dVertex
 10
-33.01681661605324
 20
0.2554797381064873
 30
0.0
  0
VERTEX
  5
18D2
330
18CF
100
AcDbEntity
  8
LW 3520-19-01
100
AcDbVertex
100
AcDb2dVertex
 10
-33.06749248504127
 20
0.513535626222847
 30
0.0
  0
VERTEX
  5
18D3
330
18CF
100
AcDbEntity
  8
LW 3520-19-01
100
AcDbVertex
100
AcDb2dVertex
 10
-33.15236830710865
 20
0.7656736671826821
 30
0.0
  0
VERTEX
  5
18D4
330
18CF
100
AcDbEntity
  8
LW 3520-19-01
100
AcDbVertex
100
AcDb2dVertex
 10
-33.27067637443054
 20
1.003869771947506
 30
0.0
  0
VERTEX
  5
18D5
330
18CF
100
AcDbEntity
  8
LW 3520-19-01
100
AcDbVertex
100
AcDb2dVertex
 10
-33.41724181174743
 20
1.22195467351878
 30
0.0
  0
VERTEX
  5
18D6
330
18CF
100
AcDbEntity
  8
LW 3520-19-01
100
AcDbVertex
100
AcDb2dVertex
 10
-33.5857894420576
 20
1.414216607799119
 30
0.0
  0
VERTEX
  5
18D7
330
18CF
100
AcDbEntity
  8
LW 3520-19-01
100
AcDbVertex
100
AcDb2dVertex
 10
-33.778051376338
 20
1.582763344039449
 30
0.0
  0
VERTEX
  5
18D8
330
18CF
100
AcDbEntity
  8
LW 3520-19-01
100
AcDbVertex
100
AcDb2dVertex
 10
-33.996136426921
 20
1.729326844205331
 30
0.0
  0
VERTEX
  5
18D9
330
18CF
100
AcDbEntity
  8
LW 3520-19-01
100
AcDbVertex
100
AcDb2dVertex
 10
-34.23433089255821
 20
1.847633719434156
 30
0.0
  0
VERTEX
  5
18DA
330
18CF
100
AcDbEntity
  8
LW 3520-19-01
100
AcDbVertex
100
AcDb2dVertex
 10
-34.48646688460849
 20
1.932508051385184
 30
0.0
  0
VERTEX
  5
18DB
330
18CF
100
AcDbEntity
  8
LW 3520-19-01
100
AcDbVertex
100
AcDb2dVertex
 10
-34.74452042579196
 20
1.98318362234994
 30
0.0
  0
VERTEX
  5
18DC
330
18CF
100
AcDbEntity
  8
LW 3520-19-01
100
AcDbVertex
100
AcDb2dVertex
 10
-35.00000023841403
 20
2.000000029791976
 30
0.0
  0
VERTEX
  5
18DD
330
18CF
100
AcDbEntity
  8
LW 3520-19-01
100
AcDbVertex
100
AcDb2dVertex
 10
-35.25547885894321
 20
1.98318362234977
 30
0.0
  0
VERTEX
  5
18DE
330
18CF
100
AcDbEntity
  8
LW 3520-19-01
100
AcDbVertex
100
AcDb2dVertex
 10
-35.51353359221958
 20
1.9325080513849
 30
0.0
  0
VERTEX
  5
18DF
330
18CF
100
AcDbEntity
  8
LW 3520-19-01
100
AcDbVertex
100
AcDb2dVertex
 10
-35.76566958426963
 20
1.847633719433702
 30
0.0
  0
VERTEX
  5
18E0
330
18CF
100
AcDbEntity
  8
LW 3520-19-01
100
AcDbVertex
100
AcDb2dVertex
 10
-36.00386404990684
 20
1.729326844204763
 30
0.0
  0
VERTEX
  5
18E1
330
18CF
100
AcDbEntity
  8
LW 3520-19-01
100
AcDbVertex
100
AcDb2dVertex
 10
-36.22194790839671
 20
1.582763344038767
 30
0.0
  0
VERTEX
  5
18E2
330
18CF
100
AcDbEntity
  8
LW 3520-19-01
100
AcDbVertex
100
AcDb2dVertex
 10
-36.41421103477
 20
1.414216607798266
 30
0.0
  0
VERTEX
  5
18E3
330
18CF
100
AcDbEntity
  8
LW 3520-19-01
100
AcDbVertex
100
AcDb2dVertex
 10
-36.58275866507995
 20
1.221954673517871
 30
0.0
  0
VERTEX
  5
18E4
330
18CF
100
AcDbEntity
  8
LW 3520-19-01
100
AcDbVertex
100
AcDb2dVertex
 10
-36.72932291030395
 20
1.00386977194654
 30
0.0
  0
VERTEX
  5
18E5
330
18CF
100
AcDbEntity
  8
LW 3520-19-01
100
AcDbVertex
100
AcDb2dVertex
 10
-36.84763216971851
 20
0.7656736671815452
 30
0.0
  0
VERTEX
  5
18E6
330
18CF
100
AcDbEntity
  8
LW 3520-19-01
100
AcDbVertex
100
AcDb2dVertex
 10
-36.93250799178566
 20
0.5135356262217102
 30
0.0
  0
VERTEX
  5
18E7
330
18CF
100
AcDbEntity
  8
LW 3520-19-01
100
AcDbVertex
100
AcDb2dVertex
 10
-36.9831838607737
 20
0.2554797381053504
 30
0.0
  0
VERTEX
  5
18E8
330
18CF
100
AcDbEntity
  8
LW 3520-19-01
100
AcDbVertex
100
AcDb2dVertex
 10
-36.99999952315761
 20
-0.0000000000109139
 30
0.0
  0
SEQEND
  5
18E9
330
18CF
100
AcDbEntity
  8
LW 3520-19-01
  0
LINE
  5
18EA
330
189C
100
AcDbEntity
  8
LW 3520-19-01
100
AcDbLine
 10
-38.99999999999477
 20
-17.50000000001148
 30
0.0
 11
-39.00000000000512
 21
17.49999999998852
 31
0.0
  0
LINE
  5
18EB
330
189C
100
AcDbEntity
  8
LW 3520-19-01
100
AcDbLine
 10
-41.99999999999556
 20
-14.50000000001245
 30
0.0
 11
-42.00000000000431
 21
14.49999999998761
 31
0.0
  0
LINE
  5
18EC
330
189C
100
AcDbEntity
  8
LW 3520-19-01
100
AcDbLine
 10
-19.00000000000511
 20
17.49999999999443
 30
0.0
 11
-39.00000000000512
 21
17.4999999999884
 31
0.0
  0
LINE
  5
18ED
330
189C
100
AcDbEntity
  8
LW 3520-19-01
100
AcDbLine
 10
-18.99999999999477
 20
-17.50000000000557
 30
0.0
 11
-38.99999999999477
 21
-17.50000000001159
 31
0.0
  0
LINE
  5
18EE
330
189C
100
AcDbEntity
  8
LW 3520-19-01
100
AcDbLine
 10
-41.99999999999568
 20
-14.50000000001245
 30
0.0
 11
-38.99999999999477
 21
-17.50000000001148
 31
0.0
  0
LINE
  5
18EF
330
189C
100
AcDbEntity
  8
LW 3520-19-01
100
AcDbLine
 10
-42.00000000000431
 20
14.49999999998761
 30
0.0
 11
-39.00000000000512
 21
17.4999999999884
 31
0.0
  0
LINE
  5
18F0
330
189C
100
AcDbEntity
  8
LW 3520-19-01
100
AcDbLine
 10
-70.00000000001512
 20
-0.0000000000192131
 30
0.0
 11
-60.00000000001512
 21
-0.0000000000192131
 31
0.0
  0
LINE
  5
18F1
330
189C
100
AcDbEntity
  8
LW 3520-19-01
  6
MITTE2
 62
     3
100
AcDbLine
 10
-65.00000000001512
 20
22.49999999998079
 30
0.0
 11
-65.00000000001512
 21
-22.50000000001922
 31
0.0
  0
LINE
  5
18F2
330
189C
100
AcDbEntity
  8
LW 3520-19-01
  6
MITTE2
 62
     3
100
AcDbLine
 10
-145.0000000000151
 20
22.49999999995702
 30
0.0
 11
-145.0000000000151
 21
-22.50000000004297
 31
0.0
  0
LINE
  5
18F3
330
189C
100
AcDbEntity
  8
LW 3520-19-01
  6
MITTE2
 62
     3
100
AcDbLine
 10
-187.3663674569925
 20
-0.000000000055536
 30
0.0
 11
23.30038640845748
 21
0.0000000000069349
 31
0.0
  0
LINE
  5
18F4
330
189C
100
AcDbEntity
  8
LW 3520-19-01
100
AcDbLine
 10
15.99999999999795
 20
7.000000000005059
 30
0.0
 11
15.99999999999795
 21
-6.99999999999494
 31
0.0
  0
LINE
  5
18F5
330
189C
100
AcDbEntity
  8
LW 3520-19-01
100
AcDbLine
 10
16.99999999999795
 20
6.000000000005059
 30
0.0
 11
16.99999999999795
 21
-5.99999999999494
 31
0.0
  0
LINE
  5
18F6
330
189C
100
AcDbEntity
  8
LW 3520-19-01
100
AcDbLine
 10
-0.0000000000020464
 20
-6.99999999999494
 30
0.0
 11
15.99999999999795
 21
-6.99999999999494
 31
0.0
  0
LINE
  5
18F7
330
189C
100
AcDbEntity
  8
LW 3520-19-01
100
AcDbLine
 10
-0.0000000000020464
 20
7.000000000005059
 30
0.0
 11
15.99999999999795
 21
7.000000000005059
 31
0.0
  0
LINE
  5
18F8
330
189C
100
AcDbEntity
  8
LW 3520-19-01
100
AcDbLine
 10
16.99999999999795
 20
6.000000000005059
 30
0.0
 11
15.99999999999795
 21
7.000000000005059
 31
0.0
  0
LINE
  5
18F9
330
189C
100
AcDbEntity
  8
LW 3520-19-01
100
AcDbLine
 10
16.99999999999795
 20
-5.99999999999494
 30
0.0
 11
15.99999999999795
 21
-6.99999999999494
 31
0.0
  0
LINE
  5
18FA
330
189C
100
AcDbEntity
  8
LW 3520-19-01
 62
     3
100
AcDbLine
 10
16.99999999999795
 20
-5.794499999994911
 30
0.0
 11
-0.0000000000020464
 21
-5.794499999994911
 31
0.0
  0
LINE
  5
18FB
330
189C
100
AcDbEntity
  8
LW 3520-19-01
 62
     3
100
AcDbLine
 10
-0.0000000000020464
 20
5.794500000005029
 30
0.0
 11
16.99999999999795
 21
5.794500000005029
 31
0.0
  0
LINE
  5
18FC
330
189C
100
AcDbEntity
  8
LW 3520-19-01
100
AcDbLine
 10
15.99999999999795
 20
7.000000000005059
 30
0.0
 11
15.99999999999795
 21
-6.99999999999494
 31
0.0
  0
INSERT
  5
18FD
330
189C
100
AcDbEntity
  8
LW 3520-19-01
100
AcDbBlockReference
 66
     1
  2
insertpoint-ECKELT
 10
0.0
 20
0.0
 30
0.0
  0
ATTRIB
  5
18FE
330
18FD
100
AcDbEntity
  8
insertpoint_ECKELT
100
AcDbText
 10
-1.200000000000045
 20
0.0
 30
0.0
 40
0.6
  1

 72
     2
 11
-1.200000000000045
 21
0.0
 31
0.0
100
AcDbAttribute
  2
LINKS
 70
     0
  0
ATTRIB
  5
18FF
330
18FD
100
AcDbEntity
  8
insertpoint_ECKELT
100
AcDbText
 10
1.200000000000045
 20
0.0
 30
0.0
 40
0.6
  1
LW 3520/19-01
100
AcDbAttribute
  2
RECHTS
 70
     0
  0
SEQEND
  5
1900
330
18FD
100
AcDbEntity
  8
LW 3520-19-01
  0
HATCH
  5
1901
330
189C
100
AcDbEntity
  8
LW 3520-19-01
 62
     1
100
AcDbHatch
 10
0.0
 20
0.0
 30
0.0
210
0.0
220
0.0
230
1.0
  2
SOLID
 70
     1
 71
     0
 91
        5
 92
        7
 72
     0
 73
     1
 93
       76
 10
-108.3801169540833
 20
19.76920546871565
 10
-108.3482581247104
 20
19.82078643055735
 10
-108.2301000004793
 20
19.97202882957333
 10
-108.0956219252665
 20
20.11245295983588
 10
-107.9496020188049
 20
20.24083752154922
 10
-107.785933222723
 20
20.35774380446497
 10
-107.6105462693583
 20
20.45992168628663
 10
-107.4287933367579
 20
20.55127336586952
 10
-107.2476244012922
 20
20.6207916783157
 10
-109.5047623394922
 20
20.62079167831564
 10
-109.7176588918922
 20
20.6121020231156
 10
-109.9196933752922
 20
20.58603305751564
 10
-110.1152106172923
 20
20.54475719531558
 10
-110.2998657902922
 20
20.49044685031561
 10
-110.4758313080923
 20
20.4209296087156
 10
-110.6431071706922
 20
20.33837788431549
 10
-110.7936754332391
 20
20.24305236677168
 10
-110.9363830336921
 20
20.13634340091556
 10
-111.0618242892628
 20
20.01729512467546
 10
-111.1730892413402
 20
19.88903581392355
 10
-111.2731071726922
 20
19.75182615831556
 10
-111.3556588970922
 20
19.60627443371549
 10
-111.4186588972922
 20
19.45203305391538
 10
-111.468624414692
 20
19.29127443271562
 10
-111.4968657940921
 20
19.12617098391553
 10
-111.5055554492921
 20
18.95237787991556
 10
-111.4946933802921
 20
18.77858477591547
 10
-111.4642795870921
 20
18.6113089133155
 10
-111.409969242092
 20
18.45055029211556
 10
-111.3404520004922
 20
18.29413649851551
 10
-111.251383034692
 20
18.14641236011545
 10
-111.1449347584921
 20
18.0052054631156
 10
-111.0222368270681
 20
17.87399166959551
 10
-110.8860377783599
 20
17.75285787610761
 10
-110.7386933778921
 20
17.64241235851551
 10
-110.577934756692
 20
17.54465373751566
 10
-110.4023081354448
 20
17.4597558062116
 10
-110.2216588934922
 20
17.38606753011561
 10
-110.030486479092
 20
17.32958477131558
 10
-109.8306244094921
 20
17.28613649531559
 10
-109.6220726846921
 20
17.26006752971557
 10
-109.4113485460922
 20
17.25137787451558
 10
-107.2921774603395
 20
17.2513778745157
 10
-107.452721324392
 20
17.31444867825058
 10
-107.6362854681944
 20
17.40506895177333
 10
-107.8047518743646
 20
17.50959864470491
 10
-107.9675847691253
 20
17.62521688313035
 10
-108.1114971374954
 20
17.75500647967021
 10
-108.2389330309797
 20
17.89436016289875
 10
-108.3526383857231
 20
18.04484840761131
 10
-108.4046096171718
 20
18.12903304971564
 10
-109.4330726840921
 20
18.12903304971559
 10
-109.5651815120976
 20
18.13659304973964
 10
-109.6959347538922
 20
18.15692684290758
 10
-109.824107168092
 20
18.18986063611555
 10
-109.939245099492
 20
18.23548132591566
 10
-110.0441900653425
 20
18.29196408471557
 10
-110.1423397208265
 20
18.35956960217157
 10
-110.2325209624921
 20
18.43751580931552
 10
-110.304210617892
 20
18.52223994751557
 10
-108.5766893036333
 20
18.52223994751563
 10
-108.5872737709063
 20
18.55487538827395
 10
-108.6233855788707
 20
18.74024933582507
 10
-108.6354292316524
 20
18.9305390497758
 10
-108.6234075592231
 20
19.12529014313082
 10
-108.5871018375478
 20
19.31165951439732
 10
-108.5705031348728
 20
19.36079167431558
 10
-110.3411416524922
 20
19.36079167431558
 10
-110.2716244108921
 20
19.45637788151549
 10
-110.1890726864922
 20
19.53892960591559
 10
-110.0939817896386
 20
19.60879443372352
 10
-109.9913830306922
 20
19.66710202011563
 10
-109.8726910303154
 20
19.71107167542754
 10
-109.7502450988921
 20
19.74313650311558
 10
-109.6133830294922
 20
19.76268822731555
 10
-109.4700037186921
 20
19.7692054687156
 97
        0
 92
        7
 72
     0
 73
     1
 93
       72
 10
-106.6516530890554
 20
19.75460684797963
 10
-106.5287900541826
 20
19.77268133079565
 10
-106.4047278468922
 20
19.7778951239157
 10
-105.1360381876921
 20
19.77789512391575
 10
-105.9832795696922
 20
18.96323994891583
 10
-104.217107150292
 20
17.24486063311582
 10
-102.8984519736922
 20
17.24486063311582
 10
-104.6124864618921
 20
18.98713650071579
 10
-102.9310381806922
 20
20.62079167831587
 10
-106.3699692260921
 20
20.6207916783157
 10
-106.5779561233042
 20
20.61001650586775
 10
-106.7846743308571
 20
20.58455581613163
 10
-106.9891071590922
 20
20.5447571953157
 10
-107.1824519872922
 20
20.48827443651567
 10
-107.3692795740923
 20
20.41658478111566
 10
-107.5404397125667
 20
20.33055719463567
 10
-107.7060037130922
 20
20.23410202191564
 10
-107.8580726790921
 20
20.12548133191569
 10
-107.9937703346953
 20
20.00617236601966
 10
-108.1187623350921
 20
19.87565374491561
 10
-108.2273830250923
 20
19.73661926171559
 10
-108.3186244046921
 20
19.58889512331575
 10
-108.3903140600922
 20
19.43465374351564
 10
-108.4446244050922
 20
19.27389512231565
 10
-108.4772106120921
 20
19.10661925971561
 10
-108.4880726810921
 20
18.93065374191553
 10
-108.4772106120921
 20
18.75903305171567
 10
-108.4446244050921
 20
18.5917571891157
 10
-108.392486473892
 20
18.43099856791571
 10
-108.3229692322921
 20
18.27675718811565
 10
-108.2311282664833
 20
18.12799029109175
 10
-108.1257488178729
 20
17.98852132513161
 10
-108.0077433002568
 20
17.85947994541175
 10
-107.8754519894921
 20
17.74017097951571
 10
-107.7233308855609
 20
17.6321585653796
 10
-107.5647968160921
 20
17.53379166851562
 10
-107.393176125892
 20
17.44906753031569
 10
-107.210693366692
 20
17.37737787491568
 10
-107.0164621936617
 20
17.32332821957169
 10
-106.8196588826921
 20
17.27961925391565
 10
-106.6111071578921
 20
17.25355028831569
 10
-106.4003830192921
 20
17.24486063311571
 10
-104.4973485304921
 20
17.24486063311582
 10
-105.3836933608921
 20
18.11817098071577
 10
-106.4003830192921
 20
18.11817098071571
 10
-106.4670500539866
 20
18.12191827365501
 10
-106.5679977784449
 20
18.13190063593168
 10
-106.6881322615849
 20
18.15336408427572
 10
-106.8052514343704
 20
18.18768822231561
 10
-106.9067466071064
 20
18.2286164983077
 10
-106.9628817796986
 20
18.25677098115574
 10
-107.0165664695241
 20
18.2893571881558
 10
-107.1491271596002
 20
18.38867994709164
 10
-107.2227285391441
 20
18.45871856800369
 10
-107.2777948841465
 20
18.52658477511556
 10
-107.3265004015426
 20
18.59914339603563
 10
-107.3658645395986
 20
18.67630753421162
 10
-107.3952877121057
 20
18.75772960343562
 10
-107.4159864707922
 20
18.84488684509171
 10
-107.4235030225402
 20
18.93421650054756
 10
-107.4221474363289
 20
18.99652132833165
 10
-107.4161428845857
 20
19.05865236301156
 10
-107.4039860569609
 20
19.1218261563157
 10
-107.3857725396617
 20
19.18352270823567
 10
-107.3421244015923
 20
19.28223719130756
 10
-107.3005965393913
 20
19.3501033984196
 10
-107.2375183322946
 20
19.42813650211565
 10
-107.1081163919298
 20
19.55465923916932
 10
-107.0488485385921
 20
19.5947171922997
 10
-106.9725533659361
 20
19.63903443381963
 10
-106.8885330898074
 20
19.68117926153968
 10
-106.7719961239202
 20
19.72401926167572
 97
        0
 92
        7
 72
     0
 73
     1
 93
       57
 10
-102.0936161090681
 20
19.73253512377192
 10
-101.9621416258921
 20
19.77250753769192
 10
-101.8274519702922
 20
19.79961926191595
 10
-101.6840726594922
 20
19.80830891711588
 10
-100.4436243796922
 20
19.80830891711594
 10
-100.4436243796922
 20
20.63382616111596
 10
-101.6775554180922
 20
20.63382616111585
 10
-101.8882795566921
 20
20.62513650591586
 10
-102.0946588676921
 20
20.59689512651585
 10
-102.2923485234921
 20
20.55561926431591
 10
-102.4813485240921
 20
20.50130891931587
 10
-102.6660036970921
 20
20.42961926391587
 10
-102.8324105941724
 20
20.34698064296379
 10
-102.9912314222626
 20
20.25052547024376
 10
-103.1413104572217
 20
20.14103581472381
 10
-103.2758697679936
 20
20.02181374537986
 10
-103.3959347338922
 20
19.89303305531581
 10
-103.5002105962921
 20
19.75399857211584
 10
-103.5849347344922
 20
19.60844684751578
 10
-103.6566243898922
 20
19.45420546771572
 10
-103.7065899072921
 20
19.2934468465159
 10
-103.7391761142921
 20
19.12617098391592
 10
-103.750038183292
 20
18.95237787991584
 10
-103.7391761142921
 20
18.77858477591582
 10
-103.7065899072921
 20
18.61130891331584
 10
-103.6544519760922
 20
18.45055029211573
 10
-103.582762320692
 20
18.29413649851585
 10
-103.495865768692
 20
18.14641236011584
 10
-103.3870191476569
 20
18.00685649760385
 10
-103.2671627334833
 20
17.87651166960387
 10
-103.1307351468433
 20
17.75520408301185
 10
-102.9831761118921
 20
17.64458477231579
 10
-102.8224174906921
 20
17.54682615131577
 10
-102.6486243866921
 20
17.46210201311584
 10
-102.463969213692
 20
17.38823994391595
 10
-102.2727967992921
 20
17.33175718511586
 10
-102.072934729692
 20
17.28830890911592
 10
-101.8665554186921
 20
17.26441235731579
 10
-101.653658866292
 20
17.25572270211586
 10
-100.4436243796921
 20
17.25572270211592
 10
-100.4436243796921
 20
18.11382615311589
 10
-101.6775554180922
 20
18.11382615311584
 10
-101.8112023150681
 20
18.12416684280379
 10
-101.943458867212
 20
18.14615167045991
 10
-102.0640712813881
 20
18.18047580849986
 10
-102.180078178308
 20
18.22844270520391
 10
-102.2897416269321
 20
18.28935718815592
 10
-102.3868050755161
 20
18.35696270561181
 10
-102.4742230068281
 20
18.43673374034785
 10
-102.5486933518921
 20
18.52223994751586
 10
-100.4436243796921
 20
18.52223994751591
 10
-100.4436243796921
 20
19.34992960531593
 10
-102.5856243864922
 20
19.34992960531582
 10
-102.5161071448922
 20
19.44768822631585
 10
-102.4292105928922
 20
19.53675719211577
 10
-102.3280630063641
 20
19.61305236477187
 10
-102.2206588680922
 20
19.68013650291584
 97
        0
 92
        7
 72
     0
 73
     1
 93
        6
 10
-100.2133485168921
 20
20.62079167831598
 10
-100.2133485168921
 20
17.25137787451592
 10
-97.97576230289202
 20
17.25137787451604
 10
-97.97576230289212
 20
18.11817098071606
 10
-99.19014161709208
 20
18.11817098071606
 10
-99.1901416170922
 20
20.62079167831598
 97
        0
 92
        7
 72
     0
 73
     1
 93
        8
 10
-98.95769334049226
 20
20.62079167831598
 10
-98.95769334049226
 20
19.79527443431596
 10
-97.72376230209216
 20
19.79527443431607
 10
-97.72376230209204
 20
17.24486063311605
 10
-96.69838298849208
 20
17.24486063311605
 10
-96.69838298849221
 20
19.79527443431601
 10
-95.45576229489222
 20
19.79527443431607
 10
-95.45576229489222
 20
20.6207916783161
 97
        0
 75
     0
 76
     1
 47
0.0142553043587597
 98
        5
 10
-109.0704568280169
 20
20.17834200872653
 10
-106.8029596146743
 20
20.03578902372084
 10
-102.3107478824728
 20
20.09281019626866
 10
-99.58689879864119
 20
20.3351504209611
 10
-98.17506081641443
 20
20.23536328854772
450
        0
451
        0
460
0.0
461
0.0
452
        0
462
0.0
453
        0
470

  0
LWPOLYLINE
  5
1902
330
189C
100
AcDbEntity
  8
LW 3520-19-01
 62
     1
100
AcDbPolyline
 90
        8
 70
     1
 43
0.0
 10
-96.69838298849221
 20
19.79527443431601
 10
-96.69838298849208
 20
17.24486063311605
 10
-97.72376230209204
 20
17.24486063311605
 10
-97.72376230209216
 20
19.79527443431607
 10
-98.95769334049226
 20
19.79527443431596
 10
-98.95769334049226
 20
20.62079167831598
 10
-95.45576229489222
 20
20.6207916783161
 10
-95.45576229489222
 20
19.79527443431607
  0
LWPOLYLINE
  5
1903
330
189C
100
AcDbEntity
  8
LW 3520-19-01
 62
     1
100
AcDbPolyline
 90
       73
 70
     1
 43
0.0
 10
-106.4003830192921
 20
18.11817098071571
 10
-105.3836933608921
 20
18.11817098071577
 10
-104.4973485304921
 20
17.24486063311582
 10
-106.4003830192921
 20
17.24486063311565
 10
-106.6111071578921
 20
17.25355028831569
 10
-106.8196588826921
 20
17.27961925391571
 10
-107.0164621936617
 20
17.32332821957169
 10
-107.210693366692
 20
17.37737787491568
 10
-107.393176125892
 20
17.44906753031569
 10
-107.5647968160921
 20
17.53379166851567
 10
-107.7233308855608
 20
17.63215856537971
 10
-107.8754519894921
 20
17.74017097951571
 10
-108.0077433002569
 20
17.85947994541163
 10
-108.1257488178729
 20
17.98852132513161
 10
-108.2311282664833
 20
18.12799029109169
 10
-108.3229692322921
 20
18.27675718811565
 10
-108.392486473892
 20
18.43099856791571
 10
-108.4446244050921
 20
18.5917571891157
 10
-108.4772106120921
 20
18.75903305171567
 10
-108.4880726810921
 20
18.93065374191565
 10
-108.4772106120921
 20
19.10661925971561
 10
-108.4446244050922
 20
19.27389512231565
 10
-108.3903140600921
 20
19.43465374351564
 10
-108.3186244046921
 20
19.58889512331569
 10
-108.2273830250922
 20
19.73661926171564
 10
-108.1187623350921
 20
19.87565374491561
 10
-107.9937703346953
 20
20.00617236601971
 10
-107.8580726790923
 20
20.12548133191564
 10
-107.7060037130922
 20
20.23410202191564
 10
-107.5404397125666
 20
20.33055719463562
 10
-107.3692795740923
 20
20.4165847811156
 10
-107.1824519872922
 20
20.48827443651567
 10
-106.9891071590922
 20
20.54475719531575
 10
-106.784674330857
 20
20.58455581613168
 10
-106.5779561233042
 20
20.61001650586775
 10
-106.3699692260922
 20
20.6207916783157
 10
-102.9310381806922
 20
20.62079167831587
 10
-104.6124864618921
 20
18.98713650071579
 10
-102.8984519736922
 20
17.24486063311582
 10
-104.217107150292
 20
17.24486063311582
 10
-105.9832795696922
 20
18.96323994891583
 10
-105.1360381876921
 20
19.77789512391575
 10
-106.4047278468922
 20
19.7778951239157
 10
-106.5287900541826
 20
19.77268133079565
 10
-106.6516530890554
 20
19.75460684797963
 10
-106.7719961239202
 20
19.72401926167572
 10
-106.8885330898074
 20
19.68117926153962
 10
-106.9725533659362
 20
19.63903443381969
 10
-107.0488485385922
 20
19.5947171922997
 10
-107.0890903318234
 20
19.56751857152369
 10
-107.1266035733217
 20
19.5365833990117
 10
-107.2375183322946
 20
19.42813650211565
 10
-107.3005965393913
 20
19.3501033984196
 10
-107.3421244015921
 20
19.28223719130767
 10
-107.3857725396617
 20
19.18352270823567
 10
-107.4039860569609
 20
19.1218261563157
 10
-107.4161428845857
 20
19.05865236301167
 10
-107.4221474363289
 20
18.99652132833171
 10
-107.4235030225401
 20
18.93421650054768
 10
-107.4159864707922
 20
18.84488684509171
 10
-107.3952877121056
 20
18.75772960343567
 10
-107.3658645395985
 20
18.67630753421167
 10
-107.3265004015426
 20
18.59914339603563
 10
-107.2777948841466
 20
18.52658477511568
 10
-107.2227285391441
 20
18.45871856800369
 10
-107.1491271596002
 20
18.38867994709164
 10
-107.016566469524
 20
18.28935718815575
 10
-106.9628817796985
 20
18.25677098115568
 10
-106.9067466071064
 20
18.2286164983077
 10
-106.8052514343704
 20
18.18768822231561
 10
-106.6881322615849
 20
18.15336408427572
 10
-106.5679977784449
 20
18.13190063593168
 10
-106.4670500539865
 20
18.12191827365507
  0
LWPOLYLINE
  5
1904
330
189C
100
AcDbEntity
  8
LW 3520-19-01
 62
     1
100
AcDbPolyline
 90
       76
 70
     1
 43
0.0
 10
-107.6105462693583
 20
20.45992168628663
 10
-107.7859332227231
 20
20.35774380446492
 10
-107.9496020188051
 20
20.24083752154928
 10
-108.0956219252665
 20
20.11245295983588
 10
-108.2301000004793
 20
19.97202882957333
 10
-108.3482581247104
 20
19.82078643055746
 10
-108.3801169540833
 20
19.76920546871565
 10
-109.4700037186921
 20
19.76920546871565
 10
-109.6133830294922
 20
19.76268822731555
 10
-109.7502450988922
 20
19.74313650311558
 10
-109.8726910303154
 20
19.71107167542754
 10
-109.9913830306922
 20
19.66710202011563
 10
-110.0939817896385
 20
19.60879443372357
 10
-110.1890726864922
 20
19.53892960591554
 10
-110.2716244108923
 20
19.45637788151555
 10
-110.3411416524922
 20
19.36079167431558
 10
-108.5705031348728
 20
19.36079167431558
 10
-108.5871018375478
 20
19.31165951439732
 10
-108.6234075592232
 20
19.12529014313071
 10
-108.6354292316524
 20
18.9305390497758
 10
-108.6233855788707
 20
18.74024933582507
 10
-108.5872737709062
 20
18.55487538827401
 10
-108.5766893036333
 20
18.52223994751563
 10
-110.304210617892
 20
18.52223994751557
 10
-110.2325209624921
 20
18.43751580931552
 10
-110.1423397208265
 20
18.35956960217157
 10
-110.0441900653425
 20
18.29196408471557
 10
-109.939245099492
 20
18.23548132591566
 10
-109.824107168092
 20
18.18986063611561
 10
-109.6959347538922
 20
18.15692684290758
 10
-109.5651815120976
 20
18.13659304973964
 10
-109.4330726840921
 20
18.12903304971559
 10
-108.4046096171718
 20
18.12903304971564
 10
-108.3526383857231
 20
18.04484840761137
 10
-108.2389330309797
 20
17.89436016289875
 10
-108.1114971374954
 20
17.75500647967021
 10
-107.9675847691252
 20
17.62521688313046
 10
-107.8047518743646
 20
17.50959864470491
 10
-107.6362854681944
 20
17.40506895177333
 10
-107.452721324392
 20
17.31444867825058
 10
-107.2921774603395
 20
17.2513778745157
 10
-109.4113485460921
 20
17.25137787451552
 10
-109.6220726846921
 20
17.26006752971557
 10
-109.8306244094921
 20
17.28613649531559
 10
-110.0304864790921
 20
17.32958477131558
 10
-110.221658893492
 20
17.3860675301155
 10
-110.402308135445
 20
17.45975580621155
 10
-110.577934756692
 20
17.54465373751566
 10
-110.7386933778921
 20
17.64241235851551
 10
-110.8860377783597
 20
17.75285787610755
 10
-111.0222368270681
 20
17.87399166959551
 10
-111.1449347584921
 20
18.00520546311554
 10
-111.2513830346921
 20
18.1464123601155
 10
-111.340452000492
 20
18.29413649851557
 10
-111.409969242092
 20
18.45055029211556
 10
-111.4642795870921
 20
18.6113089133155
 10
-111.4946933802921
 20
18.77858477591559
 10
-111.5055554492921
 20
18.9523778799155
 10
-111.4968657940923
 20
19.12617098391547
 10
-111.4686244146921
 20
19.29127443271557
 10
-111.4186588972922
 20
19.4520330539155
 10
-111.3556588970922
 20
19.60627443371549
 10
-111.2731071726922
 20
19.75182615831556
 10
-111.1730892413401
 20
19.88903581392355
 10
-111.0618242892628
 20
20.01729512467552
 10
-110.9363830336922
 20
20.13634340091551
 10
-110.7936754332391
 20
20.24305236677157
 10
-110.6431071706921
 20
20.33837788431561
 10
-110.4758313080922
 20
20.42092960871554
 10
-110.2998657902922
 20
20.49044685031561
 10
-110.1152106172921
 20
20.54475719531553
 10
-109.9196933752922
 20
20.58603305751564
 10
-109.7176588918922
 20
20.6121020231156
 10
-109.5047623394922
 20
20.62079167831559
 10
-107.2476244012921
 20
20.62079167831575
 10
-107.4287933367579
 20
20.55127336586952
  0
LWPOLYLINE
  5
1905
330
189C
100
AcDbEntity
  8
LW 3520-19-01
 62
     1
100
AcDbPolyline
 90
        6
 70
     1
 43
0.0
 10
-97.97576230289202
 20
17.25137787451604
 10
-100.2133485168921
 20
17.25137787451592
 10
-100.2133485168921
 20
20.62079167831598
 10
-99.1901416170922
 20
20.62079167831598
 10
-99.19014161709208
 20
18.11817098071606
 10
-97.97576230289212
 20
18.11817098071606
  0
LWPOLYLINE
  5
1906
330
189C
100
AcDbEntity
  8
LW 3520-19-01
 62
     1
100
AcDbPolyline
 90
       57
 70
     1
 43
0.0
 10
-103.2671627334833
 20
17.87651166960387
 10
-103.3870191476569
 20
18.00685649760379
 10
-103.4958657686921
 20
18.14641236011579
 10
-103.582762320692
 20
18.29413649851585
 10
-103.6544519760922
 20
18.45055029211573
 10
-103.7065899072921
 20
18.61130891331584
 10
-103.7391761142921
 20
18.77858477591582
 10
-103.750038183292
 20
18.95237787991584
 10
-103.7391761142921
 20
19.12617098391587
 10
-103.7065899072921
 20
19.29344684651579
 10
-103.6566243898922
 20
19.45420546771572
 10
-103.5849347344922
 20
19.60844684751583
 10
-103.5002105962923
 20
19.75399857211573
 10
-103.3959347338922
 20
19.89303305531587
 10
-103.2758697679938
 20
20.0218137453798
 10
-103.1413104572217
 20
20.14103581472381
 10
-102.9912314222625
 20
20.25052547024381
 10
-102.832410594172
 20
20.3469806429639
 10
-102.6660036970921
 20
20.42961926391587
 10
-102.4813485240922
 20
20.50130891931582
 10
-102.2923485234921
 20
20.55561926431591
 10
-102.0946588676921
 20
20.59689512651585
 10
-101.8882795566921
 20
20.62513650591586
 10
-101.6775554180922
 20
20.63382616111585
 10
-100.4436243796922
 20
20.63382616111596
 10
-100.4436243796922
 20
19.80830891711594
 10
-101.6840726594921
 20
19.80830891711588
 10
-101.8274519702921
 20
19.79961926191589
 10
-101.9621416258921
 20
19.77250753769192
 10
-102.0936161090682
 20
19.73253512377187
 10
-102.2206588680922
 20
19.68013650291584
 10
-102.3280630063641
 20
19.61305236477187
 10
-102.4292105928922
 20
19.53675719211588
 10
-102.5161071448922
 20
19.44768822631585
 10
-102.5856243864922
 20
19.34992960531582
 10
-100.4436243796921
 20
19.34992960531593
 10
-100.4436243796921
 20
18.52223994751591
 10
-102.5486933518921
 20
18.52223994751586
 10
-102.4742230068281
 20
18.43673374034785
 10
-102.3868050755161
 20
18.35696270561181
 10
-102.2897416269321
 20
18.28935718815592
 10
-102.180078178308
 20
18.22844270520391
 10
-102.0640712813881
 20
18.18047580849986
 10
-101.943458867212
 20
18.14615167045991
 10
-101.8112023150681
 20
18.12416684280379
 10
-101.6775554180922
 20
18.11382615311584
 10
-100.4436243796921
 20
18.11382615311589
 10
-100.4436243796921
 20
17.25572270211592
 10
-101.653658866292
 20
17.25572270211586
 10
-101.8665554186921
 20
17.26441235731579
 10
-102.072934729692
 20
17.28830890911587
 10
-102.2727967992921
 20
17.33175718511586
 10
-102.463969213692
 20
17.38823994391595
 10
-102.6486243866921
 20
17.46210201311584
 10
-102.8224174906921
 20
17.54682615131588
 10
-102.9831761118921
 20
17.64458477231579
 10
-103.1307351468433
 20
17.75520408301185
  0
ENDBLK
  5
189E
330
189C
100
AcDbEntity
  8
0
100
AcDbBlockEnd
  0
ENDSEC
  0
SECTION
  2
ENTITIES
  0
INSERT
  5
1706
330
23
100
AcDbEntity
  8
0
100
AcDbBlockReference
  2
LW 3520-19-01_a
 10
270.1401696236951
 20
335.1866254961618
 30
0.0
  0
INSERT
  5
182F
330
23
100
AcDbEntity
  8
0
100
AcDbBlockReference
  2
LW 3520-19-01_b
 10
270.1401696238897
 20
465.3278722640312
 30
0.0
  0
INSERT
  5
189B
330
23
100
AcDbEntity
  8
0
100
AcDbBlockReference
  2
LW 3520-19-01_c
 10
515.667533200067
 20
465.3278722639973
 30
0.0
  0
INSERT
  5
1907
330
23
100
AcDbEntity
  8
0
100
AcDbBlockReference
  2
LW 3520-19-01_d
 10
24.6128060477098
 20
465.3278722639973
 30
0.0
  0
ENDSEC
  0
SECTION
  2
OBJECTS
  0
DICTIONARY
  5
C
330
0
100
AcDbDictionary
281
     1
  3
ACAD_COLOR
350
1C
  3
ACAD_GROUP
350
D
  3
ACAD_LAYOUT
350
1A
  3
ACAD_MATERIAL
350
1B
  3
ACAD_MLINESTYLE
350
17
  3
ACAD_PLOTSETTINGS
350
19
  3
ACAD_PLOTSTYLENAME
350
E
  3
ACAD_TABLESTYLE
350
1D
  3
AcDbVariableDictionary
350
61C
  0
DICTIONARY
  5
9C6
330
2
100
AcDbDictionary
280
     1
281
     1
  3
ACAD_LAYERFILTERS
360
1475
  3
ACLYDICTIONARY
360
1474
  0
DICTIONARY
  5
9A6
330
23
100
AcDbDictionary
280
     1
281
     1
  3
ACAD_SORTENTS
360
9A7
  0
DICTIONARY
  5
627
330
626
100
AcDbDictionary
280
     1
281
     1
  3
ACAD_SORTENTS
360
628
  0
DICTIONARY
  5
1C
102
{ACAD_REACTORS
330
C
102
}
330
C
100
AcDbDictionary
281
     1
  0
DICTIONARY
  5
D
102
{ACAD_REACTORS
330
C
102
}
330
C
100
AcDbDictionary
281
     1
  0
DICTIONARY
  5
1A
102
{ACAD_REACTORS
330
C
102
}
330
C
100
AcDbDictionary
281
     1
  3
Layout1
350
22
  3
Layout2
350
2A
  3
Model
350
26
  0
DICTIONARY
  5
1B
102
{ACAD_REACTORS
330
C
102
}
330
C
100
AcDbDictionary
281
     1
  0
DICTIONARY
  5
17
102
{ACAD_REACTORS
330
C
102
}
330
C
100
AcDbDictionary
281
     1
  3
Standard
350
18
  0
DICTIONARY
  5
19
102
{ACAD_REACTORS
330
C
102
}
330
C
100
AcDbDictionary
281
     1
  0
ACDBDICTIONARYWDFLT
  5
E
102
{ACAD_REACTORS
330
C
102
}
330
C
100
AcDbDictionary
281
     1
  3
Normal
350
F
100
AcDbDictionaryWithDefault
340
F
  0
DICTIONARY
  5
1D
102
{ACAD_REACTORS
330
C
102
}
330
C
100
AcDbDictionary
281
     1
  3
Standard
350
1E
  0
DICTIONARY
  5
61C
102
{ACAD_REACTORS
330
C
102
}
330
C
100
AcDbDictionary
281
     1
  3
CTABLESTYLE
350
61D
  0
DICTIONARY
  5
1475
102
{ACAD_REACTORS
330
9C6
102
}
330
9C6
100
AcDbDictionary
281
     1
  0
DICTIONARY
  5
1474
102
{ACAD_REACTORS
330
9C6
102
}
330
9C6
100
AcDbDictionary
281
     1
1001
ACAD
1000
<All
  0
SORTENTSTABLE
  5
9A7
102
{ACAD_REACTORS
330
9A6
102
}
330
9A6
100
AcDbSortentsTable
330
23
  0
SORTENTSTABLE
  5
628
102
{ACAD_REACTORS
330
627
102
}
330
627
100
AcDbSortentsTable
330
626
  0
LAYOUT
  5
22
102
{ACAD_REACTORS
330
1A
102
}
330
1A
100
AcDbPlotSettings
  1

  2

  4

  6

 40
0.0
 41
0.0
 42
0.0
 43
0.0
 44
0.0
 45
0.0
 46
0.0
 47
0.0
 48
0.0
 49
0.0
140
0.0
141
0.0
142
1.0
143
1.0
 70
   688
 72
     0
 73
     0
 74
     5
  7

 75
    16
147
1.0
 76
     0
 77
     2
 78
   300
148
0.0
149
0.0
100
AcDbLayout
  1
Layout1
 70
     1
 71
     1
 10
0.0
 20
0.0
 11
840.0
 21
594.0
 12
0.0
 22
0.0
 32
0.0
 14
0.0
 24
0.0
 34
0.0
 15
840.0
 25
594.0
 35
0.0
146
0.0
 13
0.0
 23
0.0
 33
0.0
 16
1.0
 26
0.0
 36
0.0
 17
0.0
 27
1.0
 37
0.0
 76
     0
330
1F
  0
LAYOUT
  5
2A
102
{ACAD_REACTORS
330
1A
102
}
330
1A
100
AcDbPlotSettings
  1

  2

  4

  6

 40
0.0
 41
0.0
 42
0.0
 43
0.0
 44
0.0
 45
0.0
 46
0.0
 47
0.0
 48
0.0
 49
0.0
140
0.0
141
0.0
142
1.0
143
1.0
 70
   688
 72
     0
 73
     0
 74
     5
  7

 75
    16
147
1.0
 76
     0
 77
     2
 78
   300
148
0.0
149
0.0
100
AcDbLayout
  1
Layout2
 70
     1
 71
     2
 10
0.0
 20
0.0
 11
12.0
 21
9.0
 12
0.0
 22
0.0
 32
0.0
 14
0.0
 24
0.0
 34
0.0
 15
0.0
 25
0.0
 35
0.0
146
0.0
 13
0.0
 23
0.0
 33
0.0
 16
1.0
 26
0.0
 36
0.0
 17
0.0
 27
1.0
 37
0.0
 76
     0
330
27
  0
LAYOUT
  5
26
102
{ACAD_REACTORS
330
1A
102
}
330
1A
100
AcDbPlotSettings
  1

  2

  4

  6

 40
0.0
 41
0.0
 42
0.0
 43
0.0
 44
0.0
 45
0.0
 46
0.0
 47
0.0
 48
0.0
 49
0.0
140
0.0
141
0.0
142
1.0
143
1.0
 70
  1712
 72
     0
 73
     0
 74
     0
  7

 75
     0
147
1.0
 76
     0
 77
     2
 78
   300
148
0.0
149
0.0
100
AcDbLayout
  1
Model
 70
     1
 71
     0
 10
0.0
 20
0.0
 11
12.0
 21
9.0
 12
0.0
 22
0.0
 32
0.0
 14
0.0
 24
0.0
 34
0.0
 15
0.0
 25
0.0
 35
0.0
146
0.0
 13
0.0
 23
0.0
 33
0.0
 16
1.0
 26
0.0
 36
0.0
 17
0.0
 27
1.0
 37
0.0
 76
     0
330
23
  0
MLINESTYLE
  5
18
102
{ACAD_REACTORS
330
17
102
}
330
17
100
AcDbMlineStyle
  2
STANDARD
 70
     0
  3

 62
   256
 51
90.0
 52
90.0
 71
     2
 49
0.5
 62
   256
  6
BYLAYER
 49
-0.5
 62
   256
  6
BYLAYER
  0
ACDBPLACEHOLDER
  5
F
102
{ACAD_REACTORS
330
E
102
}
330
E
  0
TABLESTYLE
  5
1E
102
{ACAD_REACTORS
330
1D
102
}
330
1D
100
AcDbTableStyle
  3
Standard
 70
     0
 71
     0
 40
0.06
 41
0.06
280
     0
281
     0
  7
Standard
140
0.18
170
     2
 62
     0
 63
     7
283
     0
274
    -2
284
     1
 64
     0
275
    -2
285
     1
 65
     0
276
    -2
286
     1
 66
     0
277
    -2
287
     1
 67
     0
278
    -2
288
     1
 68
     0
279
    -2
289
     1
 69
     0
  7
Standard
140
0.25
170
     5
 62
     0
 63
     7
283
     0
274
    -2
284
     1
 64
     0
275
    -2
285
     1
 65
     0
276
    -2
286
     1
 66
     0
277
    -2
287
     1
 67
     0
278
    -2
288
     1
 68
     0
279
    -2
289
     1
 69
     0
  7
Standard
140
0.18
170
     5
 62
     0
 63
     7
283
     0
274
    -2
284
     1
 64
     0
275
    -2
285
     1
 65
     0
276
    -2
286
     1
 66
     0
277
    -2
287
     1
 67
     0
278
    -2
288
     1
 68
     0
279
    -2
289
     1
 69
     0
  0
DICTIONARYVAR
  5
61D
102
{ACAD_REACTORS
330
61C
102
}
330
61C
100
DictionaryVariables
280
     0
  1
STANDARD
  0
ENDSEC
  0
EOF
