  0
SECTION
  2
HEADER
  9
$ACADVER
  1
AC1018
  9
$ACADMAINTVER
 70
    76
  9
$DWGCODEPAGE
  3
ANSI_1252
  9
$AUTHOR
  1
Grandl
  9
$CUSTOMPROPERTYTAG
  1
Manager
  9
$CUSTOMPROPERTY
  1

  9
$CUSTOMPROPERTYTAG
  1
Firma
  9
$CUSTOMPROPERTY
  1

  9
$CUSTOMPROPERTYTAG
  1
Kategorie
  9
$CUSTOMPROPERTY
  1

  9
$CUSTOMPROPERTYTAG
  1
Bauteilnummer
  9
$CUSTOMPROPERTY
  1
3500-19-01
  9
$CUSTOMPROPERTYTAG
  1
Bezeichnung
  9
$CUSTOMPROPERTY
  1

  9
$CUSTOMPROPERTYTAG
  1
Projekt
  9
$CUSTOMPROPERTY
  1

  9
$CUSTOMPROPERTYTAG
  1
Konstrukteur
  9
$CUSTOMPROPERTY
  1
Grandl
  9
$CUSTOMPROPERTYTAG
  1
Ingenieur
  9
$CUSTOMPROPERTY
  1

  9
$CUSTOMPROPERTYTAG
  1
Bevollmächtigter
  9
$CUSTOMPROPERTY
  1

  9
$CUSTOMPROPERTYTAG
  1
Kostenstelle
  9
$CUSTOMPROPERTY
  1

  9
$CUSTOMPROPERTYTAG
  1
Händler
  9
$CUSTOMPROPERTY
  1

  9
$CUSTOMPROPERTYTAG
  1
Benutzerstatus
  9
$CUSTOMPROPERTY
  1

  9
$CUSTOMPROPERTYTAG
  1
Konstruktionsstatus
  9
$CUSTOMPROPERTY
  1
InBearbeitung
  9
$CUSTOMPROPERTYTAG
  1
Überprüft von
  9
$CUSTOMPROPERTY
  1

  9
$CUSTOMPROPERTYTAG
  1
Konstruktion genehmigt von
  9
$CUSTOMPROPERTY
  1

  9
$CUSTOMPROPERTYTAG
  1
Fertigung genehmigt von
  9
$CUSTOMPROPERTY
  1

  9
$INSBASE
 10
0.0
 20
0.0
 30
0.0
  9
$EXTMIN
 10
-162.7535614092827
 20
134.9540042318398
 30
0.0
  9
$EXTMAX
 10
703.0339006570596
 20
510.0253038409424
 30
0.0
  9
$LIMMIN
 10
0.0
 20
0.0
  9
$LIMMAX
 10
840.0
 20
594.0
  9
$ORTHOMODE
 70
     1
  9
$REGENMODE
 70
     1
  9
$FILLMODE
 70
     1
  9
$QTEXTMODE
 70
     0
  9
$MIRRTEXT
 70
     0
  9
$LTSCALE
 40
2.0
  9
$ATTMODE
 70
     1
  9
$TEXTSIZE
 40
0.2
  9
$TRACEWID
 40
0.05
  9
$TEXTSTYLE
  7
Standard
  9
$CLAYER
  8
0
  9
$CELTYPE
  6
ByLayer
  9
$CECOLOR
 62
   256
  9
$CELTSCALE
 40
1.0
  9
$DISPSILH
 70
     0
  9
$DIMSCALE
 40
1.0
  9
$DIMASZ
 40
1.799999999999999
  9
$DIMEXO
 40
0.0625
  9
$DIMDLI
 40
0.38
  9
$DIMRND
 40
0.0
  9
$DIMDLE
 40
0.0
  9
$DIMEXE
 40
0.18
  9
$DIMTP
 40
0.0
  9
$DIMTM
 40
0.0
  9
$DIMTXT
 40
0.3000000119209289
  9
$DIMCEN
 40
0.09
  9
$DIMTSZ
 40
0.0
  9
$DIMTOL
 70
     0
  9
$DIMLIM
 70
     0
  9
$DIMTIH
 70
     1
  9
$DIMTOH
 70
     1
  9
$DIMSE1
 70
     0
  9
$DIMSE2
 70
     0
  9
$DIMTAD
 70
     0
  9
$DIMZIN
 70
     0
  9
$DIMBLK
  1

  9
$DIMASO
 70
     1
  9
$DIMSHO
 70
     1
  9
$DIMPOST
  1

  9
$DIMAPOST
  1

  9
$DIMALT
 70
     0
  9
$DIMALTD
 70
     2
  9
$DIMALTF
 40
25.4
  9
$DIMLFAC
 40
1.0
  9
$DIMTOFL
 70
     0
  9
$DIMTVP
 40
0.0
  9
$DIMTIX
 70
     0
  9
$DIMSOXD
 70
     0
  9
$DIMSAH
 70
     0
  9
$DIMBLK1
  1

  9
$DIMBLK2
  1

  9
$DIMSTYLE
  2
Standard
  9
$DIMCLRD
 70
     0
  9
$DIMCLRE
 70
     0
  9
$DIMCLRT
 70
     0
  9
$DIMTFAC
 40
1.0
  9
$DIMGAP
 40
0.09
  9
$DIMJUST
 70
     0
  9
$DIMSD1
 70
     0
  9
$DIMSD2
 70
     0
  9
$DIMTOLJ
 70
     1
  9
$DIMTZIN
 70
     0
  9
$DIMALTZ
 70
     0
  9
$DIMALTTZ
 70
     0
  9
$DIMUPT
 70
     0
  9
$DIMDEC
 70
     4
  9
$DIMTDEC
 70
     4
  9
$DIMALTU
 70
     2
  9
$DIMALTTD
 70
     2
  9
$DIMTXSTY
  7
Standard
  9
$DIMAUNIT
 70
     0
  9
$DIMADEC
 70
     0
  9
$DIMALTRND
 40
0.0
  9
$DIMAZIN
 70
     0
  9
$DIMDSEP
 70
    46
  9
$DIMATFIT
 70
     3
  9
$DIMFRAC
 70
     0
  9
$DIMLDRBLK
  1

  9
$DIMLUNIT
 70
     2
  9
$DIMLWD
 70
    -2
  9
$DIMLWE
 70
    -2
  9
$DIMTMOVE
 70
     0
  9
$LUNITS
 70
     2
  9
$LUPREC
 70
     4
  9
$SKETCHINC
 40
0.1
  9
$FILLETRAD
 40
0.0
  9
$AUNITS
 70
     0
  9
$AUPREC
 70
     0
  9
$MENU
  1
.
  9
$ELEVATION
 40
0.0
  9
$PELEVATION
 40
0.0
  9
$THICKNESS
 40
0.0
  9
$LIMCHECK
 70
     0
  9
$CHAMFERA
 40
0.0
  9
$CHAMFERB
 40
0.0
  9
$CHAMFERC
 40
0.0
  9
$CHAMFERD
 40
0.0
  9
$SKPOLY
 70
     0
  9
$TDCREATE
 40
2453706.351795776
  9
$TDUCREATE
 40
2453706.310129109
  9
$TDUPDATE
 40
2453710.479280776
  9
$TDUUPDATE
 40
2453710.437614109
  9
$TDINDWG
 40
0.1920050000
  9
$TDUSRTIMER
 40
0.1920050000
  9
$USRTIMER
 70
     1
  9
$ANGBASE
 50
0.0
  9
$ANGDIR
 70
     0
  9
$PDMODE
 70
     0
  9
$PDSIZE
 40
0.0
  9
$PLINEWID
 40
0.0
  9
$SPLFRAME
 70
     0
  9
$SPLINETYPE
 70
     6
  9
$SPLINESEGS
 70
     8
  9
$HANDSEED
  5
2292
  9
$SURFTAB1
 70
     6
  9
$SURFTAB2
 70
     6
  9
$SURFTYPE
 70
     6
  9
$SURFU
 70
     6
  9
$SURFV
 70
     6
  9
$UCSBASE
  2

  9
$UCSNAME
  2

  9
$UCSORG
 10
0.0
 20
0.0
 30
0.0
  9
$UCSXDIR
 10
1.0
 20
0.0
 30
0.0
  9
$UCSYDIR
 10
0.0
 20
1.0
 30
0.0
  9
$UCSORTHOREF
  2

  9
$UCSORTHOVIEW
 70
     0
  9
$UCSORGTOP
 10
0.0
 20
0.0
 30
0.0
  9
$UCSORGBOTTOM
 10
0.0
 20
0.0
 30
0.0
  9
$UCSORGLEFT
 10
0.0
 20
0.0
 30
0.0
  9
$UCSORGRIGHT
 10
0.0
 20
0.0
 30
0.0
  9
$UCSORGFRONT
 10
0.0
 20
0.0
 30
0.0
  9
$UCSORGBACK
 10
0.0
 20
0.0
 30
0.0
  9
$PUCSBASE
  2

  9
$PUCSNAME
  2

  9
$PUCSORG
 10
0.0
 20
0.0
 30
0.0
  9
$PUCSXDIR
 10
1.0
 20
0.0
 30
0.0
  9
$PUCSYDIR
 10
0.0
 20
1.0
 30
0.0
  9
$PUCSORTHOREF
  2

  9
$PUCSORTHOVIEW
 70
     0
  9
$PUCSORGTOP
 10
0.0
 20
0.0
 30
0.0
  9
$PUCSORGBOTTOM
 10
0.0
 20
0.0
 30
0.0
  9
$PUCSORGLEFT
 10
0.0
 20
0.0
 30
0.0
  9
$PUCSORGRIGHT
 10
0.0
 20
0.0
 30
0.0
  9
$PUCSORGFRONT
 10
0.0
 20
0.0
 30
0.0
  9
$PUCSORGBACK
 10
0.0
 20
0.0
 30
0.0
  9
$USERI1
 70
     0
  9
$USERI2
 70
     0
  9
$USERI3
 70
     0
  9
$USERI4
 70
     0
  9
$USERI5
 70
     0
  9
$USERR1
 40
0.0
  9
$USERR2
 40
0.0
  9
$USERR3
 40
0.0
  9
$USERR4
 40
0.0
  9
$USERR5
 40
0.0
  9
$WORLDVIEW
 70
     1
  9
$SHADEDGE
 70
     3
  9
$SHADEDIF
 70
    70
  9
$TILEMODE
 70
     1
  9
$MAXACTVP
 70
    64
  9
$PINSBASE
 10
0.0
 20
0.0
 30
0.0
  9
$PLIMCHECK
 70
     0
  9
$PEXTMIN
 10
0.0
 20
0.0
 30
0.0
  9
$PEXTMAX
 10
840.0
 20
594.0
 30
0.0
  9
$PLIMMIN
 10
0.0
 20
0.0
  9
$PLIMMAX
 10
840.0
 20
594.0
  9
$UNITMODE
 70
     0
  9
$VISRETAIN
 70
     1
  9
$PLINEGEN
 70
     0
  9
$PSLTSCALE
 70
     1
  9
$TREEDEPTH
 70
  3020
  9
$CMLSTYLE
  2
Standard
  9
$CMLJUST
 70
     0
  9
$CMLSCALE
 40
1.0
  9
$PROXYGRAPHICS
 70
     1
  9
$MEASUREMENT
 70
     1
  9
$CELWEIGHT
370
    -1
  9
$ENDCAPS
280
     0
  9
$JOINSTYLE
280
     0
  9
$LWDISPLAY
290
     0
  9
$INSUNITS
 70
     0
  9
$HYPERLINKBASE
  1

  9
$STYLESHEET
  1

  9
$XEDIT
290
     1
  9
$CEPSNTYPE
380
     0
  9
$PSTYLEMODE
290
     1
  9
$FINGERPRINTGUID
  2
{CD339A04-B85F-4A73-AC85-5D4F30B09856}
  9
$VERSIONGUID
  2
{BAE77BE7-E410-4643-BDF2-2994B17D9093}
  9
$EXTNAMES
290
     1
  9
$PSVPSCALE
 40
0.0
  9
$OLESTARTUP
290
     0
  9
$SORTENTS
280
   127
  9
$INDEXCTL
280
     0
  9
$HIDETEXT
280
     1
  9
$XCLIPFRAME
290
     0
  9
$HALOGAP
280
     0
  9
$OBSCOLOR
 70
   257
  9
$OBSLTYPE
280
     0
  9
$INTERSECTIONDISPLAY
280
     0
  9
$INTERSECTIONCOLOR
 70
   257
  9
$DIMASSOC
280
     1
  9
$PROJECTNAME
  1

  0
ENDSEC
  0
SECTION
  2
CLASSES
  0
CLASS
  1
ACDBDICTIONARYWDFLT
  2
AcDbDictionaryWithDefault
  3
ObjectDBX Classes
 90
        0
 91
        1
280
     0
281
     0
  0
CLASS
  1
TABLESTYLE
  2
AcDbTableStyle
  3
ObjectDBX Classes
 90
     2047
 91
        1
280
     0
281
     0
  0
CLASS
  1
DICTIONARYVAR
  2
AcDbDictionaryVar
  3
ObjectDBX Classes
 90
        0
 91
        4
280
     0
281
     0
  0
CLASS
  1
SORTENTSTABLE
  2
AcDbSortentsTable
  3
ObjectDBX Classes
 90
        0
 91
        2
280
     0
281
     0
  0
ENDSEC
  0
SECTION
  2
TABLES
  0
TABLE
  2
VPORT
  5
8
330
0
100
AcDbSymbolTable
 70
     3
  0
VPORT
  5
2291
330
8
100
AcDbSymbolTableRecord
100
AcDbViewportTableRecord
  2
*Active
 70
     0
 10
0.0
 20
0.0
 11
1.0
 21
1.0
 12
270.1555945545102
 22
322.4917158902294
 13
0.0
 23
0.0
 14
1.0
 24
1.0
 15
0.0
 25
0.0
 16
0.0
 26
0.0
 36
1.0
 17
0.0
 27
0.0
 37
0.0
 40
491.0458518838098
 41
1.773333333333333
 42
50.0
 43
0.0
 44
0.0
 50
0.0
 51
0.0
 71
     0
 72
   100
 73
     1
 74
     1
 75
     0
 76
     0
 77
     0
 78
     0
281
     0
 65
     1
110
0.0
120
0.0
130
0.0
111
1.0
121
0.0
131
0.0
112
0.0
122
1.0
132
0.0
 79
     0
146
0.0
  0
ENDTAB
  0
TABLE
  2
LTYPE
  5
5
330
0
100
AcDbSymbolTable
 70
     2
  0
LTYPE
  5
14
330
5
100
AcDbSymbolTableRecord
100
AcDbLinetypeTableRecord
  2
ByBlock
 70
     0
  3

 72
    65
 73
     0
 40
0.0
  0
LTYPE
  5
15
330
5
100
AcDbSymbolTableRecord
100
AcDbLinetypeTableRecord
  2
ByLayer
 70
     0
  3

 72
    65
 73
     0
 40
0.0
  0
LTYPE
  5
16
330
5
100
AcDbSymbolTableRecord
100
AcDbLinetypeTableRecord
  2
Continuous
 70
     0
  3
Solid line
 72
    65
 73
     0
 40
0.0
  0
LTYPE
  5
7E7
330
5
100
AcDbSymbolTableRecord
100
AcDbLinetypeTableRecord
  2
MITTE2
 70
     0
  3
Mitte (.5x) ___ _ ___ _ ___ _ ___ _ ___ _ ___
 72
    65
 73
     4
 40
28.575
 49
19.05
 74
     0
 49
-3.174999999999999
 74
     0
 49
3.174999999999999
 74
     0
 49
-3.174999999999999
 74
     0
  0
ENDTAB
  0
TABLE
  2
LAYER
  5
2
102
{ACAD_XDICTIONARY
360
9C6
102
}
330
0
100
AcDbSymbolTable
 70
     3
  0
LAYER
  5
10
330
2
100
AcDbSymbolTableRecord
100
AcDbLayerTableRecord
  2
0
 70
     0
 62
     7
  6
Continuous
370
    -3
390
F
  0
LAYER
  5
7E9
330
2
100
AcDbSymbolTableRecord
100
AcDbLayerTableRecord
  2
LW 3520-32-00
 70
     0
 62
     7
  6
Continuous
370
    -3
390
F
  0
LAYER
  5
7EA
330
2
100
AcDbSymbolTableRecord
100
AcDbLayerTableRecord
  2
insertpoint_ECKELT
 70
     0
 62
   141
  6
Continuous
370
    -3
390
F
  0
ENDTAB
  0
TABLE
  2
STYLE
  5
3
330
0
100
AcDbSymbolTable
 70
     1
  0
STYLE
  5
11
330
3
100
AcDbSymbolTableRecord
100
AcDbTextStyleTableRecord
  2
Standard
 70
     0
 40
0.0
 41
1.0
 50
0.0
 71
     0
 42
0.2
  3
ARIAL.TTF
  4

1001
ACAD
1000
Arial
1071
      256
  0
ENDTAB
  0
TABLE
  2
VIEW
  5
6
330
0
100
AcDbSymbolTable
 70
     0
  0
ENDTAB
  0
TABLE
  2
UCS
  5
7
330
0
100
AcDbSymbolTable
 70
     0
  0
ENDTAB
  0
TABLE
  2
APPID
  5
9
330
0
100
AcDbSymbolTable
 70
     2
  0
APPID
  5
12
330
9
100
AcDbSymbolTableRecord
100
AcDbRegAppTableRecord
  2
ACAD
 70
     0
  0
APPID
  5
A3E
330
9
100
AcDbSymbolTableRecord
100
AcDbRegAppTableRecord
  2
ACAD_PSEXT
 70
     0
  0
ENDTAB
  0
TABLE
  2
DIMSTYLE
  5
A
330
0
100
AcDbSymbolTable
 70
     1
100
AcDbDimStyleTable
 71
     0
  0
DIMSTYLE
105
2B
330
A
100
AcDbSymbolTableRecord
100
AcDbDimStyleTableRecord
  2
Standard
 70
     0
340
11
  0
ENDTAB
  0
TABLE
  2
BLOCK_RECORD
  5
1
330
0
100
AcDbSymbolTable
 70
     6
  0
BLOCK_RECORD
  5
23
102
{ACAD_XDICTIONARY
360
9A6
102
}
330
1
100
AcDbSymbolTableRecord
100
AcDbBlockTableRecord
  2
*Model_Space
340
26
  0
BLOCK_RECORD
  5
1F
330
1
100
AcDbSymbolTableRecord
100
AcDbBlockTableRecord
  2
*Paper_Space
340
22
  0
BLOCK_RECORD
  5
27
330
1
100
AcDbSymbolTableRecord
100
AcDbBlockTableRecord
  2
*Paper_Space0
340
2A
  0
BLOCK_RECORD
  5
626
102
{ACAD_XDICTIONARY
360
627
102
}
330
1
100
AcDbSymbolTableRecord
100
AcDbBlockTableRecord
  2
insertpoint-ECKELT
340
0
102
{BLKREFS
331
2073
331
219C
331
2208
331
2274
102
}
  0
BLOCK_RECORD
  5
1DED
330
1
100
AcDbSymbolTableRecord
100
AcDbBlockTableRecord
  2
LW 3520-32-00_a
340
0
310
2800000020000000200000000100080000000000000400000000000000000000000000000000000000000000000080000080000000808000800000008000800080800000C0C0C000C0DCC000F0CAA6000020400000206000002080000020A0000020C0000020E00000400000004020000040400000406000004080000040A0
310
000040C0000040E00000600000006020000060400000606000006080000060A0000060C0000060E00000800000008020000080400000806000008080000080A0000080C0000080E00000A0000000A0200000A0400000A0600000A0800000A0A00000A0C00000A0E00000C0000000C0200000C0400000C0600000C0800000C0
310
A00000C0C00000C0E00000E0000000E0200000E0400000E0600000E0800000E0A00000E0C00000E0E00040000000400020004000400040006000400080004000A0004000C0004000E00040200000402020004020400040206000402080004020A0004020C0004020E000404000004040200040404000404060004040800040
310
40A0004040C0004040E00040600000406020004060400040606000406080004060A0004060C0004060E00040800000408020004080400040806000408080004080A0004080C0004080E00040A0000040A0200040A0400040A0600040A0800040A0A00040A0C00040A0E00040C0000040C0200040C0400040C0600040C08000
310
40C0A00040C0C00040C0E00040E0000040E0200040E0400040E0600040E0800040E0A00040E0C00040E0E00080000000800020008000400080006000800080008000A0008000C0008000E00080200000802020008020400080206000802080008020A0008020C0008020E00080400000804020008040400080406000804080
310
008040A0008040C0008040E00080600000806020008060400080606000806080008060A0008060C0008060E00080800000808020008080400080806000808080008080A0008080C0008080E00080A0000080A0200080A0400080A0600080A0800080A0A00080A0C00080A0E00080C0000080C0200080C0400080C0600080C0
310
800080C0A00080C0C00080C0E00080E0000080E0200080E0400080E0600080E0800080E0A00080E0C00080E0E000C0000000C0002000C0004000C0006000C0008000C000A000C000C000C000E000C0200000C0202000C0204000C0206000C0208000C020A000C020C000C020E000C0400000C0402000C0404000C0406000C0
310
408000C040A000C040C000C040E000C0600000C0602000C0604000C0606000C0608000C060A000C060C000C060E000C0800000C0802000C0804000C0806000C0808000C080A000C080C000C080E000C0A00000C0A02000C0A04000C0A06000C0A08000C0A0A000C0A0C000C0A0E000C0C00000C0C02000C0C04000C0C06000
310
C0C08000C0C0A000F0FBFF00A4A0A000808080000000FF0000FF000000FFFF00FF000000FF00FF00FFFF0000FFFFFF0000000000000000000000000000000000000000000000000000000000000000000000000000000000000000000000000000000000000000000000000000000000000000000000000000000000000000
310
0000000000000000000000000000000000000000000000000000000000000000000000000000000000000000000000000000000000000000000000000000000000FA00000000000000000000000000000000000000000000000000000000000000FA00000000000000000000000000000000000000000000000000000000FF
310
FF00FAFFFF0000000000000000000000000000000000000000000000000000FFFF00FAFFFF0000000000000000000000000000000000000000000000FFFFFFFFFF00FAFFFFFFFFFF0000000000000000000000000000000000000000FFFF00FFFAFAFAFAFF00FFFF0000000000000000000000000000000000000000FAFAFA
310
FAFAFAFAFAFAFAFAFA0000000000000000000000000000000000000000FF0000FFFFFFFAFFFF0000FF0000000000000000000000000000000000000000FFFFFFFFFF00FAFFFFFFFFFF0000000000000000000000000000000000000000000000FFFF00FAFFFF00000000000000000000000000000000000000000000000000
310
00FFFF00FAFFFF0000000000000000000000000000000000000000000000000000FFFF00FAFFFF0000000000000000000000000000000000000000000000FFFFFFFFFF00FAFFFFFFFFFF0000000000000000000000000000000000000000FFFF00FFFFFFFAFFFF00FFFF0000000000000000000000000000000000000000FA
310
FAFAFAFAFAFAFAFAFAFAFA0000000000000000000000000000000000000000FF0000FFFAFAFAFAFF0000FF000000000000000000000000000000FA00000000FFFFFFFFFFFFFAFFFFFFFFFF00000000FA0000000000000000FFFFFAFFFF00000000FFFFFF00FAFFFFFF00000000FFFFFAFFFF000000000000FF00FAFFFF0000
310
F9F9F9FFFF00FAFFFF00FFFF0000FF00FAFFFF000000000000FFFFFAFFFF00FFF9F900FFFF00FAFFFF000000FF00FFFFFAFFFF00000000FFFFFFFFFAFFFFFFFFFFFFFFFFFF0009FFFFFFFFFFFFFFFFFFFAFFFFFFFF0000FFFFFFFAFAFAFFFFFFFFFFFFFF00090900FFFFFFFFFFFFFFFAFAFAFFFFFF0000000000FAFAFA0000
310
00000000000000FA0000000000000000FAFAFA0000000000000000FFFAFF000000000000000000FA0000000000000000FFFAFF00000000000000000000000000000000000000000000000000000000000000000000000000000000000000000000000000000000000000000000000000000000000000000000000000000000
310
0000000000000000000000000000000000000000000000000000000000000000000000000000000000000000000000000000000000000000
102
{BLKREFS
331
207D
102
}
  0
BLOCK_RECORD
  5
207E
330
1
100
AcDbSymbolTableRecord
100
AcDbBlockTableRecord
  2
LW 3520-32-00_b
340
0
310
2800000020000000200000000100080000000000000400000000000000000000000000000000000000000000000080000080000000808000800000008000800080800000C0C0C000C0DCC000F0CAA6000020400000206000002080000020A0000020C0000020E00000400000004020000040400000406000004080000040A0
310
000040C0000040E00000600000006020000060400000606000006080000060A0000060C0000060E00000800000008020000080400000806000008080000080A0000080C0000080E00000A0000000A0200000A0400000A0600000A0800000A0A00000A0C00000A0E00000C0000000C0200000C0400000C0600000C0800000C0
310
A00000C0C00000C0E00000E0000000E0200000E0400000E0600000E0800000E0A00000E0C00000E0E00040000000400020004000400040006000400080004000A0004000C0004000E00040200000402020004020400040206000402080004020A0004020C0004020E000404000004040200040404000404060004040800040
310
40A0004040C0004040E00040600000406020004060400040606000406080004060A0004060C0004060E00040800000408020004080400040806000408080004080A0004080C0004080E00040A0000040A0200040A0400040A0600040A0800040A0A00040A0C00040A0E00040C0000040C0200040C0400040C0600040C08000
310
40C0A00040C0C00040C0E00040E0000040E0200040E0400040E0600040E0800040E0A00040E0C00040E0E00080000000800020008000400080006000800080008000A0008000C0008000E00080200000802020008020400080206000802080008020A0008020C0008020E00080400000804020008040400080406000804080
310
008040A0008040C0008040E00080600000806020008060400080606000806080008060A0008060C0008060E00080800000808020008080400080806000808080008080A0008080C0008080E00080A0000080A0200080A0400080A0600080A0800080A0A00080A0C00080A0E00080C0000080C0200080C0400080C0600080C0
310
800080C0A00080C0C00080C0E00080E0000080E0200080E0400080E0600080E0800080E0A00080E0C00080E0E000C0000000C0002000C0004000C0006000C0008000C000A000C000C000C000E000C0200000C0202000C0204000C0206000C0208000C020A000C020C000C020E000C0400000C0402000C0404000C0406000C0
310
408000C040A000C040C000C040E000C0600000C0602000C0604000C0606000C0608000C060A000C060C000C060E000C0800000C0802000C0804000C0806000C0808000C080A000C080C000C080E000C0A00000C0A02000C0A04000C0A06000C0A08000C0A0A000C0A0C000C0A0E000C0C00000C0C02000C0C04000C0C06000
310
C0C08000C0C0A000F0FBFF00A4A0A000808080000000FF0000FF000000FFFF00FF000000FF00FF00FFFF0000FFFFFF0000000000000000000000000000000000000000000000000000000000000000000000000000000000000000000000000000000000000000000000000000000000000000000000000000000000000000
310
00000000000000000000000000000000000000000000000000000000000000000000000000000000000000000000000000000000000000000000000000000000000000000000000000000000000000000000000000000000000000000000000000000000000000000000000000000000000000000000000000000000000000
310
00000000000000000000000000000000000000000000000000000000000000000000000000000000000000000000000000000000000000000000000000000000000000000000000000000000000000000000000000000000000000000000000000000000000000000000000000000000000000000000000000000000000000
310
00000000000000000000000000000000000000000000000000000000000000000000FA000000000000000000000000000000000000000000FFFFFFFFFFFFFFFFFFFFFA00FFFFFFFFFFFFFFFFFF000000000000000000FFFFFAFF000000000000FFFFFA00FFFF000000000000FAFFFF000000000000FF00FFFAFFFF0000FFFF
310
FFFFFFFAFFFFFFFFFFFF0000FFFAFFFFFFFF000000FAFAFAFAFAFAFAFAFAFAFAFAFAFA0909FAFAFAFAFAFAFAFAFAFAFAFAFAFA000000FFFFFFFA00FFFFFFFFFF00FFFA09FAFAFF00FFFFFFFFFFFA00FFFFFF00000000FF00FFFAFFFF0000FFFFFFFFFFFAFFFFFFFFFFFF0000FFFAFFFF00FF0000000000FF00FAFF00000000
310
0000FFFFFA00FFFF0000F9F9F900FAFFFFFF00000000000000FFFFFFFFFFFFFFFFFFFFFFFA00FFFFFFFFFFFFFFFFFFFF0000000000000000000000000000000000000000FA00000000000000000000000000000000000000000000000000000000000000000000000000000000000000000000000000000000000000000000
310
00000000000000000000000000000000000000000000000000000000000000000000000000000000000000000000000000000000000000000000000000000000000000000000000000000000000000000000000000000000000000000000000000000000000000000000000000000000000000000000000000000000000000
310
00000000000000000000000000000000000000000000000000000000000000000000000000000000000000000000000000000000000000000000000000000000000000000000000000000000000000000000000000000000000000000000000000000000000000000000000000000000000000000000000000000000000000
310
0000000000000000000000000000000000000000000000000000000000000000000000000000000000000000000000000000000000000000
102
{BLKREFS
331
21A6
102
}
  0
BLOCK_RECORD
  5
21A7
330
1
100
AcDbSymbolTableRecord
100
AcDbBlockTableRecord
  2
LW 3520-32-00_c
340
0
310
2800000020000000200000000100080000000000000400000000000000000000000000000000000000000000000080000080000000808000800000008000800080800000C0C0C000C0DCC000F0CAA6000020400000206000002080000020A0000020C0000020E00000400000004020000040400000406000004080000040A0
310
000040C0000040E00000600000006020000060400000606000006080000060A0000060C0000060E00000800000008020000080400000806000008080000080A0000080C0000080E00000A0000000A0200000A0400000A0600000A0800000A0A00000A0C00000A0E00000C0000000C0200000C0400000C0600000C0800000C0
310
A00000C0C00000C0E00000E0000000E0200000E0400000E0600000E0800000E0A00000E0C00000E0E00040000000400020004000400040006000400080004000A0004000C0004000E00040200000402020004020400040206000402080004020A0004020C0004020E000404000004040200040404000404060004040800040
310
40A0004040C0004040E00040600000406020004060400040606000406080004060A0004060C0004060E00040800000408020004080400040806000408080004080A0004080C0004080E00040A0000040A0200040A0400040A0600040A0800040A0A00040A0C00040A0E00040C0000040C0200040C0400040C0600040C08000
310
40C0A00040C0C00040C0E00040E0000040E0200040E0400040E0600040E0800040E0A00040E0C00040E0E00080000000800020008000400080006000800080008000A0008000C0008000E00080200000802020008020400080206000802080008020A0008020C0008020E00080400000804020008040400080406000804080
310
008040A0008040C0008040E00080600000806020008060400080606000806080008060A0008060C0008060E00080800000808020008080400080806000808080008080A0008080C0008080E00080A0000080A0200080A0400080A0600080A0800080A0A00080A0C00080A0E00080C0000080C0200080C0400080C0600080C0
310
800080C0A00080C0C00080C0E00080E0000080E0200080E0400080E0600080E0800080E0A00080E0C00080E0E000C0000000C0002000C0004000C0006000C0008000C000A000C000C000C000E000C0200000C0202000C0204000C0206000C0208000C020A000C020C000C020E000C0400000C0402000C0404000C0406000C0
310
408000C040A000C040C000C040E000C0600000C0602000C0604000C0606000C0608000C060A000C060C000C060E000C0800000C0802000C0804000C0806000C0808000C080A000C080C000C080E000C0A00000C0A02000C0A04000C0A06000C0A08000C0A0A000C0A0C000C0A0E000C0C00000C0C02000C0C04000C0C06000
310
C0C08000C0C0A000F0FBFF00A4A0A000808080000000FF0000FF000000FFFF00FF000000FF00FF00FFFF0000FFFFFF0000000000000000000000000000000000000000000000000000000000000000000000000000000000000000000000000000000000000000000000000000000000000000000000000000000000000000
310
00000000000000000000000000000000000000000000000000000000000000000000000000000000000000000000000000000000000000000000000000000000000000000000000000000000000000000000000000000000000000000000000000000000000000000000000000000000000000000000000000000000000000
310
00000000000000000000000000000000000000000000000000000000000000000000000000000000000000000000000000000000000000000000000000000000000000000000000000000000000000000000000000000000000000000000000000000000000000000000000000000000000000000000000000000000000000
310
000000000000000000000000000000000000000000000000FFFFFFFFFFFFFFFFFFFFFFFFFFFFFFFFFFFFFFFFFF0000000000000000000000FFFFFF0000000000FA00000000000000000000FA00FFFF000000000000000000FFFFFFFFFFFF0000FA00000000000000000000FA000000FF0000000000000000FFFFFF0000FF00
310
FFFAFFFF000000000000FFFFFAFFFF00FF0000000000FFFAFA09FFFF00FFFFFFFFFA00FFFAFAFAFAFAFAFAFAFAFAFAFAFAFAFA0000FAFFFA0909FAFAFAFAFAFAFAFAFAFAFF0000000000FF00FA00FF00FF0000000000000000FFFFFF0000FF00FFFAFFFF000000000000FFFFFAFFFF00FF0000000000000000FFFFFFFFFFFF
310
0000FAFF000000F9F9F90000FFFAFF0000FF0000000000000000FFFFFF0000000000FA00000000000000000000FA00FFFF000000000000000000FFFFFFFFFFFFFFFFFFFFFFFFFFFFFFFFFFFFFFFFFF000000000000000000000000000000000000000000000000000000000000000000000000000000000000000000000000
310
00000000000000000000000000000000000000000000000000000000000000000000000000000000000000000000000000000000000000000000000000000000000000000000000000000000000000000000000000000000000000000000000000000000000000000000000000000000000000000000000000000000000000
310
00000000000000000000000000000000000000000000000000000000000000000000000000000000000000000000000000000000000000000000000000000000000000000000000000000000000000000000000000000000000000000000000000000000000000000000000000000000000000000000000000000000000000
310
0000000000000000000000000000000000000000000000000000000000000000000000000000000000000000000000000000000000000000
102
{BLKREFS
331
2212
102
}
  0
BLOCK_RECORD
  5
2213
330
1
100
AcDbSymbolTableRecord
100
AcDbBlockTableRecord
  2
LW 3520-32-00_d
340
0
310
2800000020000000200000000100080000000000000400000000000000000000000000000000000000000000000080000080000000808000800000008000800080800000C0C0C000C0DCC000F0CAA6000020400000206000002080000020A0000020C0000020E00000400000004020000040400000406000004080000040A0
310
000040C0000040E00000600000006020000060400000606000006080000060A0000060C0000060E00000800000008020000080400000806000008080000080A0000080C0000080E00000A0000000A0200000A0400000A0600000A0800000A0A00000A0C00000A0E00000C0000000C0200000C0400000C0600000C0800000C0
310
A00000C0C00000C0E00000E0000000E0200000E0400000E0600000E0800000E0A00000E0C00000E0E00040000000400020004000400040006000400080004000A0004000C0004000E00040200000402020004020400040206000402080004020A0004020C0004020E000404000004040200040404000404060004040800040
310
40A0004040C0004040E00040600000406020004060400040606000406080004060A0004060C0004060E00040800000408020004080400040806000408080004080A0004080C0004080E00040A0000040A0200040A0400040A0600040A0800040A0A00040A0C00040A0E00040C0000040C0200040C0400040C0600040C08000
310
40C0A00040C0C00040C0E00040E0000040E0200040E0400040E0600040E0800040E0A00040E0C00040E0E00080000000800020008000400080006000800080008000A0008000C0008000E00080200000802020008020400080206000802080008020A0008020C0008020E00080400000804020008040400080406000804080
310
008040A0008040C0008040E00080600000806020008060400080606000806080008060A0008060C0008060E00080800000808020008080400080806000808080008080A0008080C0008080E00080A0000080A0200080A0400080A0600080A0800080A0A00080A0C00080A0E00080C0000080C0200080C0400080C0600080C0
310
800080C0A00080C0C00080C0E00080E0000080E0200080E0400080E0600080E0800080E0A00080E0C00080E0E000C0000000C0002000C0004000C0006000C0008000C000A000C000C000C000E000C0200000C0202000C0204000C0206000C0208000C020A000C020C000C020E000C0400000C0402000C0404000C0406000C0
310
408000C040A000C040C000C040E000C0600000C0602000C0604000C0606000C0608000C060A000C060C000C060E000C0800000C0802000C0804000C0806000C0808000C080A000C080C000C080E000C0A00000C0A02000C0A04000C0A06000C0A08000C0A0A000C0A0C000C0A0E000C0C00000C0C02000C0C04000C0C06000
310
C0C08000C0C0A000F0FBFF00A4A0A000808080000000FF0000FF000000FFFF00FF000000FF00FF00FFFF0000FFFFFF0000000000000000000000000000000000000000000000000000000000000000000000000000000000000000000000000000000000000000000000000000000000000000000000000000000000000000
310
00000000000000000000000000000000000000000000000000000000000000000000000000000000000000000000000000000000000000000000000000000000000000000000000000000000000000000000000000000000000000000000000000000000000000000000000000000000000000000000000000000000000000
310
00000000000000000000000000000000000000000000000000000000000000000000000000000000000000000000000000000000000000000000000000000000000000000000000000000000000000000000000000000000000000000000000000000000000000000000000000000000000000000000000000000000000000
310
00000000000000000000000000000000000000000000000000FFFFFFFFFFFFFFFFFFFFFFFFFFFFFFFFFFFFFFFFFF000000000000000000FFFF00FA00000000000000000000FA0000000000FFFFFF000000000000000000FF0000FA00000000000000000000FA0000FFFFFFFFFFFF0000000000000000FF00FFFFFAFFFF0000
310
00000000FFFFFAFF00FF0000FFFFFF000000000000FAFAFAFAFAFAFAFAFAFAFAFAFAFAFAFF00FA00FFFFFF00FFFF0909FAFF0000000000FF00FF00FA00FF0000000000FFFAFAFAFAFAFAFAFAFAFA0909FAFFFA00000000FF00FFFFFAFFFF000000000000FFFFFAFF00FF0000FFFFFF000000000000000000FF00FFFAFF0000
310
00F9F9F90000FFFA0000FFFFFFFFFFFF000000000000000000FFFF00FA00000000000000000000FA0000000000FFFFFF0000000000000000000000FFFFFFFFFFFFFFFFFFFFFFFFFFFFFFFFFFFFFFFFFF0000000000000000000000000000000000000000000000000000000000000000000000000000000000000000000000
310
00000000000000000000000000000000000000000000000000000000000000000000000000000000000000000000000000000000000000000000000000000000000000000000000000000000000000000000000000000000000000000000000000000000000000000000000000000000000000000000000000000000000000
310
00000000000000000000000000000000000000000000000000000000000000000000000000000000000000000000000000000000000000000000000000000000000000000000000000000000000000000000000000000000000000000000000000000000000000000000000000000000000000000000000000000000000000
310
0000000000000000000000000000000000000000000000000000000000000000000000000000000000000000000000000000000000000000
102
{BLKREFS
331
227E
102
}
  0
ENDTAB
  0
ENDSEC
  0
SECTION
  2
BLOCKS
  0
BLOCK
  5
24
330
23
100
AcDbEntity
  8
0
100
AcDbBlockBegin
  2
*Model_Space
 70
     0
 10
0.0
 20
0.0
 30
0.0
  3
*Model_Space
  1

  0
ENDBLK
  5
25
330
23
100
AcDbEntity
  8
0
100
AcDbBlockEnd
  0
BLOCK
  5
20
330
1F
100
AcDbEntity
 67
     1
  8
0
100
AcDbBlockBegin
  2
*Paper_Space
 70
     0
 10
0.0
 20
0.0
 30
0.0
  3
*Paper_Space
  1

  0
ENDBLK
  5
21
330
1F
100
AcDbEntity
 67
     1
  8
0
100
AcDbBlockEnd
  0
BLOCK
  5
28
330
27
100
AcDbEntity
 67
     1
  8
0
100
AcDbBlockBegin
  2
*Paper_Space0
 70
     0
 10
0.0
 20
0.0
 30
0.0
  3
*Paper_Space0
  1

  0
ENDBLK
  5
29
330
27
100
AcDbEntity
 67
     1
  8
0
100
AcDbBlockEnd
  0
BLOCK
  5
629
330
626
100
AcDbEntity
  8
0
100
AcDbBlockBegin
  2
insertpoint-ECKELT
 70
     2
 10
0.0
 20
0.0
 30
0.0
  3
insertpoint-ECKELT
  1

  0
ATTDEF
  5
62A
330
626
100
AcDbEntity
  8
insertpoint_ECKELT
100
AcDbText
 10
-2.457298772169167
 20
-0.0000000000000284
 30
0.0
 40
0.6
  1
LW
 72
     2
 11
-1.199999999999999
 21
-0.0000000000000284
 31
0.0
100
AcDbAttributeDefinition
  3
Nr. links
  2
LINKS
 70
     0
  0
ATTDEF
  5
62B
330
626
100
AcDbEntity
  8
insertpoint_ECKELT
100
AcDbText
 10
1.199999999999999
 20
-0.0000000000000284
 30
0.0
 40
0.6
  1
LW
100
AcDbAttributeDefinition
  3
Nr. rechts
  2
RECHTS
 70
     0
  0
LINE
  5
62C
102
{ACAD_REACTORS
330
62F
102
}
330
626
100
AcDbEntity
  8
insertpoint_ECKELT
100
AcDbLine
 10
0.0
 20
1.799999999999997
 30
0.0
 11
0.0
 21
-1.799999999999997
 31
0.0
  0
LINE
  5
62D
102
{ACAD_REACTORS
330
62F
102
}
330
626
100
AcDbEntity
  8
insertpoint_ECKELT
100
AcDbLine
 10
-1.8
 20
-0.0000000000000284
 30
0.0
 11
1.8
 21
-0.0000000000000284
 31
0.0
  0
CIRCLE
  5
62E
102
{ACAD_REACTORS
330
62F
102
}
330
626
100
AcDbEntity
  8
insertpoint_ECKELT
100
AcDbCircle
 10
0.0
 20
0.0
 30
0.0
 40
1.199999999999999
  0
HATCH
  5
62F
330
626
100
AcDbEntity
  8
insertpoint_ECKELT
100
AcDbHatch
 10
0.0
 20
0.0
 30
0.0
210
0.0
220
0.0
230
1.0
  2
SOLID
 70
     1
 71
     1
 91
        2
 92
        7
 72
     1
 73
     1
 93
        3
 10
0.0
 20
-0.0000000000000284
 42
0.0
 10
0.0
 20
1.200000000000002
 42
0.4142135623731013
 10
-1.199999999999999
 20
-0.0000000000000284
 42
0.0
 97
        3
330
62E
330
62D
330
62C
 92
        7
 72
     1
 73
     1
 93
        3
 10
1.199999999999999
 20
-0.0000000000000284
 42
0.0
 10
0.0
 20
-0.0000000000000284
 42
0.0
 10
0.0
 20
-1.200000000000002
 42
0.4142135623730888
 97
        3
330
62D
330
62C
330
62E
 75
     0
 76
     1
 47
0.0223086566480813
 98
        2
 10
-0.3163651093721391
 20
0.271413292077348
 10
0.7415965996738798
 20
-0.4513871917946233
450
        0
451
        0
460
0.0
461
0.0
452
        0
462
0.0
453
        0
470

  0
ENDBLK
  5
630
330
626
100
AcDbEntity
  8
0
100
AcDbBlockEnd
  0
BLOCK
  5
1DEE
330
1DED
100
AcDbEntity
  8
0
100
AcDbBlockBegin
  2
LW 3520-32-00_a
 70
     0
 10
0.0
 20
0.0
 30
0.0
  3
LW 3520-32-00_a
  1

  0
LINE
  5
1DF0
330
1DED
100
AcDbEntity
  8
LW 3520-32-00
100
AcDbLine
 10
-28.52000000000001
 20
-172.9999999999999
 30
0.0
 11
-28.52000000000001
 21
-139.9999999999999
 31
0.0
  0
LINE
  5
1DF1
330
1DED
100
AcDbEntity
  8
LW 3520-32-00
100
AcDbLine
 10
-28.52000000000007
 20
-11.0
 30
0.0
 11
-28.52000000000001
 21
-139.9999999999999
 31
0.0
  0
LINE
  5
1DF2
330
1DED
100
AcDbEntity
  8
LW 3520-32-00
100
AcDbLine
 10
-99.52000000000005
 20
-9.0
 30
0.0
 11
-30.52000000000004
 21
-9.0
 31
0.0
  0
LINE
  5
1DF3
330
1DED
100
AcDbEntity
  8
LW 3520-32-00
100
AcDbLine
 10
-99.52000000000005
 20
-9.0
 30
0.0
 11
-132.52
 21
-9.0
 31
0.0
  0
ARC
  5
1DF4
330
1DED
100
AcDbEntity
  8
LW 3520-32-00
100
AcDbCircle
 10
-30.52000000000004
 20
-11.0
 30
0.0
 40
1.999999999999988
100
AcDbArc
 50
0.0
 51
90.0
  0
ARC
  5
1DF5
330
1DED
100
AcDbEntity
  8
LW 3520-32-00
100
AcDbCircle
 10
-26.51999999999998
 20
-172.9999999999999
 30
0.0
 40
2.0
100
AcDbArc
 50
180.0
 51
270.0
  0
ARC
  5
1DF6
330
1DED
100
AcDbEntity
  8
LW 3520-32-00
100
AcDbCircle
 10
-132.52
 20
-7.0
 30
0.0
 40
2.0
100
AcDbArc
 50
180.0
 51
270.0
  0
LINE
  5
1DF7
330
1DED
100
AcDbEntity
  8
LW 3520-32-00
100
AcDbLine
 10
-134.52
 20
0.0
 30
0.0
 11
-99.52000000000007
 21
0.0
 31
0.0
  0
LINE
  5
1DF8
330
1DED
100
AcDbEntity
  8
LW 3520-32-00
100
AcDbLine
 10
-19.52000000000001
 20
-139.9999999999999
 30
0.0
 11
-19.52000000000001
 21
-175.0
 31
0.0
  0
LINE
  5
1DF9
330
1DED
100
AcDbEntity
  8
LW 3520-32-00
100
AcDbLine
 10
-19.52000000000001
 20
-175.0
 30
0.0
 11
-26.52000000000001
 21
-175.0
 31
0.0
  0
LINE
  5
1DFA
330
1DED
100
AcDbEntity
  8
LW 3520-32-00
100
AcDbLine
 10
-134.52
 20
-7.0
 30
0.0
 11
-134.52
 21
0.0
 31
0.0
  0
LINE
  5
1DFB
330
1DED
100
AcDbEntity
  8
LW 3520-32-00
100
AcDbLine
 10
-99.52000000000005
 20
0.0
 30
0.0
 11
-19.52000000000001
 21
0.0
 31
0.0
  0
LINE
  5
1DFC
330
1DED
100
AcDbEntity
  8
LW 3520-32-00
100
AcDbLine
 10
-19.52000000000001
 20
0.0
 30
0.0
 11
-19.52000000000001
 21
-139.9999999999999
 31
0.0
  0
ARC
  5
1DFD
330
1DED
100
AcDbEntity
  8
LW 3520-32-00
100
AcDbCircle
 10
-30.52000000000004
 20
-40.0
 30
0.0
 40
1.99999999999998
100
AcDbArc
 50
0.0
 51
53.13010235415793
  0
ARC
  5
1DFE
330
1DED
100
AcDbEntity
  8
LW 3520-32-00
100
AcDbCircle
 10
-69.18666666666672
 20
-11.00000000000005
 30
0.0
 40
2.000000000000055
100
AcDbArc
 50
53.13010235415793
 51
90.0
  0
LINE
  5
1DFF
330
1DED
100
AcDbEntity
  8
LW 3520-32-00
100
AcDbLine
 10
-67.98666666666671
 20
-9.399999999999977
 30
0.0
 11
-29.32000000000002
 21
-38.39999999999998
 31
0.0
  0
LINE
  5
1E00
330
1DED
100
AcDbEntity
  8
LW 3520-32-00
100
AcDbLine
 10
28.51999999999998
 20
-139.9999999999999
 30
0.0
 11
28.51999999999998
 21
-11.0
 31
0.0
  0
LINE
  5
1E01
330
1DED
100
AcDbEntity
  8
LW 3520-32-00
100
AcDbLine
 10
28.51999999999998
 20
-139.9999999999999
 30
0.0
 11
28.51999999999998
 21
-172.9999999999999
 31
0.0
  0
ARC
  5
1E02
330
1DED
100
AcDbEntity
  8
LW 3520-32-00
100
AcDbCircle
 10
30.51999999999998
 20
-11.0
 30
0.0
 40
1.999999999999988
100
AcDbArc
 50
90.0
 51
180.0
  0
LINE
  5
1E03
330
1DED
100
AcDbEntity
  8
LW 3520-32-00
100
AcDbLine
 10
132.52
 20
-9.0
 30
0.0
 11
99.51999999999998
 21
-9.0
 31
0.0
  0
LINE
  5
1E04
330
1DED
100
AcDbEntity
  8
LW 3520-32-00
100
AcDbLine
 10
30.51999999999998
 20
-9.0
 30
0.0
 11
99.51999999999998
 21
-9.0
 31
0.0
  0
ARC
  5
1E05
330
1DED
100
AcDbEntity
  8
LW 3520-32-00
100
AcDbCircle
 10
26.51999999999998
 20
-172.9999999999999
 30
0.0
 40
2.0
100
AcDbArc
 50
270.0
 51
0.0
  0
ARC
  5
1E06
330
1DED
100
AcDbEntity
  8
LW 3520-32-00
100
AcDbCircle
 10
132.52
 20
-6.999999999999943
 30
0.0
 40
2.0
100
AcDbArc
 50
270.0
 51
0.0
  0
LINE
  5
1E07
330
1DED
100
AcDbEntity
  8
LW 3520-32-00
100
AcDbLine
 10
99.51999999999998
 20
0.0
 30
0.0
 11
134.52
 21
0.0
 31
0.0
  0
LINE
  5
1E08
330
1DED
100
AcDbEntity
  8
LW 3520-32-00
100
AcDbLine
 10
19.51999999999998
 20
-175.0
 30
0.0
 11
19.51999999999998
 21
-139.9999999999999
 31
0.0
  0
LINE
  5
1E09
330
1DED
100
AcDbEntity
  8
LW 3520-32-00
100
AcDbLine
 10
19.51999999999998
 20
-175.0
 30
0.0
 11
26.51999999999998
 21
-175.0
 31
0.0
  0
LINE
  5
1E0A
330
1DED
100
AcDbEntity
  8
LW 3520-32-00
100
AcDbLine
 10
134.52
 20
-6.999999999999943
 30
0.0
 11
134.52
 21
0.0
 31
0.0
  0
LINE
  5
1E0B
330
1DED
100
AcDbEntity
  8
LW 3520-32-00
100
AcDbLine
 10
99.51999999999998
 20
0.0
 30
0.0
 11
19.51999999999998
 21
0.0
 31
0.0
  0
LINE
  5
1E0C
330
1DED
100
AcDbEntity
  8
LW 3520-32-00
100
AcDbLine
 10
19.51999999999998
 20
0.0
 30
0.0
 11
19.51999999999998
 21
-139.9999999999999
 31
0.0
  0
ARC
  5
1E0D
330
1DED
100
AcDbEntity
  8
LW 3520-32-00
100
AcDbCircle
 10
30.51999999999992
 20
-40.0
 30
0.0
 40
1.999999999999928
100
AcDbArc
 50
126.869897645842
 51
180.0
  0
ARC
  5
1E0E
330
1DED
100
AcDbEntity
  8
LW 3520-32-00
100
AcDbCircle
 10
69.18665613093264
 20
-10.99997498133973
 30
0.0
 40
1.999972927955441
100
AcDbArc
 50
89.99969816967691
 51
126.8700862261824
  0
LINE
  5
1E0F
330
1DED
100
AcDbEntity
  8
LW 3520-32-00
100
AcDbLine
 10
67.98666666666668
 20
-9.399999999999977
 30
0.0
 11
29.32
 21
-38.39999999999998
 31
0.0
  0
LINE
  5
1E10
330
1DED
100
AcDbEntity
  8
LW 3520-32-00
100
AcDbLine
 10
-77.02000000000004
 20
-14.0
 30
0.0
 11
-122.02
 21
-14.0
 31
0.0
  0
LINE
  5
1E11
330
1DED
100
AcDbEntity
  8
LW 3520-32-00
100
AcDbLine
 10
-77.02000000000004
 20
-9.0
 30
0.0
 11
-77.02000000000004
 21
-14.0
 31
0.0
  0
LINE
  5
1E12
330
1DED
100
AcDbEntity
  8
LW 3520-32-00
100
AcDbLine
 10
-122.02
 20
-9.0
 30
0.0
 11
-122.02
 21
-14.0
 31
0.0
  0
LINE
  5
1E13
330
1DED
100
AcDbEntity
  8
LW 3520-32-00
100
AcDbLine
 10
-122.02
 20
5.0
 30
0.0
 11
-77.02000000000004
 21
5.0
 31
0.0
  0
LINE
  5
1E14
330
1DED
100
AcDbEntity
  8
LW 3520-32-00
100
AcDbLine
 10
-122.02
 20
0.0
 30
0.0
 11
-122.02
 21
5.0
 31
0.0
  0
LINE
  5
1E15
330
1DED
100
AcDbEntity
  8
LW 3520-32-00
100
AcDbLine
 10
-77.02000000000004
 20
0.0
 30
0.0
 11
-77.02000000000004
 21
5.0
 31
0.0
  0
LINE
  5
1E16
330
1DED
100
AcDbEntity
  8
LW 3520-32-00
100
AcDbLine
 10
122.02
 20
-14.0
 30
0.0
 11
77.01999999999998
 21
-14.0
 31
0.0
  0
LINE
  5
1E17
330
1DED
100
AcDbEntity
  8
LW 3520-32-00
100
AcDbLine
 10
122.02
 20
-9.0
 30
0.0
 11
122.02
 21
-14.0
 31
0.0
  0
LINE
  5
1E18
330
1DED
100
AcDbEntity
  8
LW 3520-32-00
100
AcDbLine
 10
77.01999999999998
 20
-9.0
 30
0.0
 11
77.01999999999998
 21
-14.0
 31
0.0
  0
LINE
  5
1E19
330
1DED
100
AcDbEntity
  8
LW 3520-32-00
100
AcDbLine
 10
77.01999999999998
 20
5.0
 30
0.0
 11
122.02
 21
5.0
 31
0.0
  0
LINE
  5
1E1A
330
1DED
100
AcDbEntity
  8
LW 3520-32-00
100
AcDbLine
 10
77.01999999999998
 20
0.0
 30
0.0
 11
77.01999999999998
 21
5.0
 31
0.0
  0
LINE
  5
1E1B
330
1DED
100
AcDbEntity
  8
LW 3520-32-00
100
AcDbLine
 10
122.02
 20
0.0
 30
0.0
 11
122.02
 21
5.0
 31
0.0
  0
LINE
  5
1E1C
330
1DED
100
AcDbEntity
  8
LW 3520-32-00
100
AcDbLine
 10
106.5199999999999
 20
21.0
 30
0.0
 11
92.51999999999986
 21
21.0
 31
0.0
  0
LINE
  5
1E1D
330
1DED
100
AcDbEntity
  8
LW 3520-32-00
100
AcDbLine
 10
105.5199999999999
 20
22.0
 30
0.0
 11
93.51999999999987
 21
22.0
 31
0.0
  0
LINE
  5
1E1E
330
1DED
100
AcDbEntity
  8
LW 3520-32-00
100
AcDbLine
 10
92.51999999999993
 20
5.000000000000056
 30
0.0
 11
92.51999999999986
 21
21.0
 31
0.0
  0
LINE
  5
1E1F
330
1DED
100
AcDbEntity
  8
LW 3520-32-00
100
AcDbLine
 10
106.5199999999999
 20
5.000000000000056
 30
0.0
 11
106.5199999999999
 21
21.0
 31
0.0
  0
LINE
  5
1E20
330
1DED
100
AcDbEntity
  8
LW 3520-32-00
100
AcDbLine
 10
105.5199999999999
 20
22.0
 30
0.0
 11
106.5199999999999
 21
21.00000000000006
 31
0.0
  0
LINE
  5
1E21
330
1DED
100
AcDbEntity
  8
LW 3520-32-00
100
AcDbLine
 10
93.51999999999987
 20
22.0
 30
0.0
 11
92.51999999999993
 21
21.0
 31
0.0
  0
LINE
  5
1E22
330
1DED
100
AcDbEntity
  8
LW 3520-32-00
 62
     3
100
AcDbLine
 10
93.72549999999989
 20
21.99999999999994
 30
0.0
 11
93.72549999999989
 21
5.000000000000056
 31
0.0
  0
LINE
  5
1E23
330
1DED
100
AcDbEntity
  8
LW 3520-32-00
 62
     3
100
AcDbLine
 10
105.3144999999999
 20
5.000000000000056
 30
0.0
 11
105.3144999999999
 21
21.99999999999994
 31
0.0
  0
LINE
  5
1E24
330
1DED
100
AcDbEntity
  8
LW 3520-32-00
100
AcDbLine
 10
106.5199999999999
 20
21.0
 30
0.0
 11
92.51999999999986
 21
21.0
 31
0.0
  0
LINE
  5
1E25
330
1DED
100
AcDbEntity
  8
LW 3520-32-00
100
AcDbLine
 10
-92.52
 20
21.0
 30
0.0
 11
-106.52
 21
21.0
 31
0.0
  0
LINE
  5
1E26
330
1DED
100
AcDbEntity
  8
LW 3520-32-00
100
AcDbLine
 10
-93.51999999999998
 20
22.0
 30
0.0
 11
-105.52
 21
22.0
 31
0.0
  0
LINE
  5
1E27
330
1DED
100
AcDbEntity
  8
LW 3520-32-00
100
AcDbLine
 10
-106.52
 20
5.0
 30
0.0
 11
-106.52
 21
21.0
 31
0.0
  0
LINE
  5
1E28
330
1DED
100
AcDbEntity
  8
LW 3520-32-00
100
AcDbLine
 10
-92.52
 20
5.0
 30
0.0
 11
-92.52
 21
21.0
 31
0.0
  0
LINE
  5
1E29
330
1DED
100
AcDbEntity
  8
LW 3520-32-00
100
AcDbLine
 10
-93.52000000000002
 20
22.0
 30
0.0
 11
-92.52
 21
21.0
 31
0.0
  0
LINE
  5
1E2A
330
1DED
100
AcDbEntity
  8
LW 3520-32-00
100
AcDbLine
 10
-105.52
 20
22.0
 30
0.0
 11
-106.52
 21
21.0
 31
0.0
  0
LINE
  5
1E2B
330
1DED
100
AcDbEntity
  8
LW 3520-32-00
 62
     3
100
AcDbLine
 10
-105.3145
 20
22.0
 30
0.0
 11
-105.3145
 21
5.0
 31
0.0
  0
LINE
  5
1E2C
330
1DED
100
AcDbEntity
  8
LW 3520-32-00
 62
     3
100
AcDbLine
 10
-93.72550000000002
 20
5.0
 30
0.0
 11
-93.72550000000002
 21
22.0
 31
0.0
  0
LINE
  5
1E2D
330
1DED
100
AcDbEntity
  8
LW 3520-32-00
100
AcDbLine
 10
-92.52000000000004
 20
21.0
 30
0.0
 11
-106.52
 21
21.0
 31
0.0
  0
ELLIPSE
  5
1E2E
330
1DED
100
AcDbEntity
  8
LW 3520-32-00
100
AcDbEllipse
 10
105.77
 20
-30.0
 30
0.0
 11
0.000000000000115
 21
1.999999999999962
 31
0.0
210
0.0
220
0.0
230
1.0
 40
0.8660254037844643
 41
3.935761501374585
 42
5.489016459394972
  0
POLYLINE
  5
1E2F
330
1DED
100
AcDbEntity
  8
LW 3520-32-00
100
AcDb2dPolyline
 66
     1
 10
0.0
 20
0.0
 30
0.0
 70
   128
  0
VERTEX
  5
1E30
330
1E2F
100
AcDbEntity
  8
LW 3520-32-00
100
AcDbVertex
100
AcDb2dVertex
 10
108.27
 20
-31.99999952316284
 30
0.0
  0
VERTEX
  5
1E31
330
1E2F
100
AcDbEntity
  8
LW 3520-32-00
100
AcDbVertex
100
AcDb2dVertex
 10
108.0477742147446
 20
-31.98318386077881
 30
0.0
  0
VERTEX
  5
1E32
330
1E2F
100
AcDbEntity
  8
LW 3520-32-00
100
AcDbVertex
100
AcDb2dVertex
 10
107.8214559745789
 20
-31.93250799179077
 30
0.0
  0
VERTEX
  5
1E33
330
1E2F
100
AcDbEntity
  8
LW 3520-32-00
100
AcDbVertex
100
AcDb2dVertex
 10
107.598528046608
 20
-31.84763216972351
 30
0.0
  0
VERTEX
  5
1E34
330
1E2F
100
AcDbEntity
  8
LW 3520-32-00
100
AcDbVertex
100
AcDb2dVertex
 10
107.3861978244782
 20
-31.72932291030884
 30
0.0
  0
VERTEX
  5
1E35
330
1E2F
100
AcDbEntity
  8
LW 3520-32-00
100
AcDbVertex
100
AcDb2dVertex
 10
107.1903834533691
 20
-31.58275866508484
 30
0.0
  0
VERTEX
  5
1E36
330
1E2F
100
AcDbEntity
  8
LW 3520-32-00
100
AcDbVertex
100
AcDb2dVertex
 10
107.0166341257095
 20
-31.41421103477478
 30
0.0
  0
VERTEX
  5
1E37
330
1E2F
100
AcDbEntity
  8
LW 3520-32-00
100
AcDbVertex
100
AcDb2dVertex
 10
106.8634162139893
 20
-31.22194790840149
 30
0.0
  0
VERTEX
  5
1E38
330
1E2F
100
AcDbEntity
  8
LW 3520-32-00
100
AcDbVertex
100
AcDb2dVertex
 10
106.7295239162445
 20
-31.0038640499115
 30
0.0
  0
VERTEX
  5
1E39
330
1E2F
100
AcDbEntity
  8
LW 3520-32-00
100
AcDbVertex
100
AcDb2dVertex
 10
106.6209975671768
 20
-30.76566958427429
 30
0.0
  0
VERTEX
  5
1E3A
330
1E2F
100
AcDbEntity
  8
LW 3520-32-00
100
AcDbVertex
100
AcDb2dVertex
 10
106.5429011774063
 20
-30.51353359222412
 30
0.0
  0
VERTEX
  5
1E3B
330
1E2F
100
AcDbEntity
  8
LW 3520-32-00
100
AcDbVertex
100
AcDb2dVertex
 10
106.4961621952057
 20
-30.25547885894776
 30
0.0
  0
VERTEX
  5
1E3C
330
1E2F
100
AcDbEntity
  8
LW 3520-32-00
100
AcDbVertex
100
AcDb2dVertex
 10
106.4806184959412
 20
-30.00000023841858
 30
0.0
  0
VERTEX
  5
1E3D
330
1E2F
100
AcDbEntity
  8
LW 3520-32-00
100
AcDbVertex
100
AcDb2dVertex
 10
106.4961621952057
 20
-29.74452042579651
 30
0.0
  0
VERTEX
  5
1E3E
330
1E2F
100
AcDbEntity
  8
LW 3520-32-00
100
AcDbVertex
100
AcDb2dVertex
 10
106.5429011774063
 20
-29.48646688461304
 30
0.0
  0
VERTEX
  5
1E3F
330
1E2F
100
AcDbEntity
  8
LW 3520-32-00
100
AcDbVertex
100
AcDb2dVertex
 10
106.6209975671768
 20
-29.23433089256287
 30
0.0
  0
VERTEX
  5
1E40
330
1E2F
100
AcDbEntity
  8
LW 3520-32-00
100
AcDbVertex
100
AcDb2dVertex
 10
106.7295239162445
 20
-28.99613642692566
 30
0.0
  0
VERTEX
  5
1E41
330
1E2F
100
AcDbEntity
  8
LW 3520-32-00
100
AcDbVertex
100
AcDb2dVertex
 10
106.8634162139893
 20
-28.77805137634278
 30
0.0
  0
VERTEX
  5
1E42
330
1E2F
100
AcDbEntity
  8
LW 3520-32-00
100
AcDbVertex
100
AcDb2dVertex
 10
107.0166341257095
 20
-28.58578944206238
 30
0.0
  0
VERTEX
  5
1E43
330
1E2F
100
AcDbEntity
  8
LW 3520-32-00
100
AcDbVertex
100
AcDb2dVertex
 10
107.1903834533691
 20
-28.41724181175232
 30
0.0
  0
VERTEX
  5
1E44
330
1E2F
100
AcDbEntity
  8
LW 3520-32-00
100
AcDbVertex
100
AcDb2dVertex
 10
107.3861978244782
 20
-28.27067637443543
 30
0.0
  0
VERTEX
  5
1E45
330
1E2F
100
AcDbEntity
  8
LW 3520-32-00
100
AcDbVertex
100
AcDb2dVertex
 10
107.598528046608
 20
-28.15236830711365
 30
0.0
  0
VERTEX
  5
1E46
330
1E2F
100
AcDbEntity
  8
LW 3520-32-00
100
AcDbVertex
100
AcDb2dVertex
 10
107.8214559745789
 20
-28.06749248504639
 30
0.0
  0
VERTEX
  5
1E47
330
1E2F
100
AcDbEntity
  8
LW 3520-32-00
100
AcDbVertex
100
AcDb2dVertex
 10
108.0477742147446
 20
-28.01681661605835
 30
0.0
  0
VERTEX
  5
1E48
330
1E2F
100
AcDbEntity
  8
LW 3520-32-00
100
AcDbVertex
100
AcDb2dVertex
 10
108.27
 20
-27.99999976158142
 30
0.0
  0
SEQEND
  5
1E49
330
1E2F
100
AcDbEntity
  8
LW 3520-32-00
  0
POLYLINE
  5
1E4A
330
1DED
100
AcDbEntity
  8
LW 3520-32-00
100
AcDb2dPolyline
 66
     1
 10
0.0
 20
0.0
 30
0.0
 70
   128
  0
VERTEX
  5
1E4B
330
1E4A
100
AcDbEntity
  8
LW 3520-32-00
100
AcDbVertex
100
AcDb2dVertex
 10
108.27
 20
-27.99999976158142
 30
0.0
  0
VERTEX
  5
1E4C
330
1E4A
100
AcDbEntity
  8
LW 3520-32-00
100
AcDbVertex
100
AcDb2dVertex
 10
108.4902785015106
 20
-28.01681661605835
 30
0.0
  0
VERTEX
  5
1E4D
330
1E4A
100
AcDbEntity
  8
LW 3520-32-00
100
AcDbVertex
100
AcDb2dVertex
 10
108.7109259557724
 20
-28.06749248504639
 30
0.0
  0
VERTEX
  5
1E4E
330
1E4A
100
AcDbEntity
  8
LW 3520-32-00
100
AcDbVertex
100
AcDb2dVertex
 10
108.924713511467
 20
-28.15236830711365
 30
0.0
  0
VERTEX
  5
1E4F
330
1E4A
100
AcDbEntity
  8
LW 3520-32-00
100
AcDbVertex
100
AcDb2dVertex
 10
109.1249517393112
 20
-28.27067637443543
 30
0.0
  0
VERTEX
  5
1E50
330
1E4A
100
AcDbEntity
  8
LW 3520-32-00
100
AcDbVertex
100
AcDb2dVertex
 10
109.3068710756302
 20
-28.41724181175232
 30
0.0
  0
VERTEX
  5
1E51
330
1E4A
100
AcDbEntity
  8
LW 3520-32-00
100
AcDbVertex
100
AcDb2dVertex
 10
109.466129322052
 20
-28.58578944206238
 30
0.0
  0
VERTEX
  5
1E52
330
1E4A
100
AcDbEntity
  8
LW 3520-32-00
100
AcDbVertex
100
AcDb2dVertex
 10
109.6048424434662
 20
-28.77805137634278
 30
0.0
  0
VERTEX
  5
1E53
330
1E4A
100
AcDbEntity
  8
LW 3520-32-00
100
AcDbVertex
100
AcDb2dVertex
 10
109.7248063278198
 20
-28.99613642692566
 30
0.0
  0
VERTEX
  5
1E54
330
1E4A
100
AcDbEntity
  8
LW 3520-32-00
100
AcDbVertex
100
AcDb2dVertex
 10
109.8211929988861
 20
-29.23433089256287
 30
0.0
  0
VERTEX
  5
1E55
330
1E4A
100
AcDbEntity
  8
LW 3520-32-00
100
AcDbVertex
100
AcDb2dVertex
 10
109.8901031208038
 20
-29.48646688461304
 30
0.0
  0
VERTEX
  5
1E56
330
1E4A
100
AcDbEntity
  8
LW 3520-32-00
100
AcDbVertex
100
AcDb2dVertex
 10
109.931137342453
 20
-29.74452042579651
 30
0.0
  0
VERTEX
  5
1E57
330
1E4A
100
AcDbEntity
  8
LW 3520-32-00
100
AcDbVertex
100
AcDb2dVertex
 10
109.9447200489044
 20
-30.00000023841858
 30
0.0
  0
VERTEX
  5
1E58
330
1E4A
100
AcDbEntity
  8
LW 3520-32-00
100
AcDbVertex
100
AcDb2dVertex
 10
109.931137342453
 20
-30.25547885894776
 30
0.0
  0
VERTEX
  5
1E59
330
1E4A
100
AcDbEntity
  8
LW 3520-32-00
100
AcDbVertex
100
AcDb2dVertex
 10
109.8901031208038
 20
-30.51353359222412
 30
0.0
  0
VERTEX
  5
1E5A
330
1E4A
100
AcDbEntity
  8
LW 3520-32-00
100
AcDbVertex
100
AcDb2dVertex
 10
109.8211929988861
 20
-30.76566958427429
 30
0.0
  0
VERTEX
  5
1E5B
330
1E4A
100
AcDbEntity
  8
LW 3520-32-00
100
AcDbVertex
100
AcDb2dVertex
 10
109.7248063278198
 20
-31.0038640499115
 30
0.0
  0
VERTEX
  5
1E5C
330
1E4A
100
AcDbEntity
  8
LW 3520-32-00
100
AcDbVertex
100
AcDb2dVertex
 10
109.6048424434662
 20
-31.22194790840149
 30
0.0
  0
VERTEX
  5
1E5D
330
1E4A
100
AcDbEntity
  8
LW 3520-32-00
100
AcDbVertex
100
AcDb2dVertex
 10
109.466129322052
 20
-31.41421103477478
 30
0.0
  0
VERTEX
  5
1E5E
330
1E4A
100
AcDbEntity
  8
LW 3520-32-00
100
AcDbVertex
100
AcDb2dVertex
 10
109.3068710756302
 20
-31.58275866508484
 30
0.0
  0
VERTEX
  5
1E5F
330
1E4A
100
AcDbEntity
  8
LW 3520-32-00
100
AcDbVertex
100
AcDb2dVertex
 10
109.1249517393112
 20
-31.72932291030884
 30
0.0
  0
VERTEX
  5
1E60
330
1E4A
100
AcDbEntity
  8
LW 3520-32-00
100
AcDbVertex
100
AcDb2dVertex
 10
108.924713511467
 20
-31.84763216972351
 30
0.0
  0
VERTEX
  5
1E61
330
1E4A
100
AcDbEntity
  8
LW 3520-32-00
100
AcDbVertex
100
AcDb2dVertex
 10
108.7109259557724
 20
-31.93250799179077
 30
0.0
  0
VERTEX
  5
1E62
330
1E4A
100
AcDbEntity
  8
LW 3520-32-00
100
AcDbVertex
100
AcDb2dVertex
 10
108.4902785015106
 20
-31.98318386077881
 30
0.0
  0
VERTEX
  5
1E63
330
1E4A
100
AcDbEntity
  8
LW 3520-32-00
100
AcDbVertex
100
AcDb2dVertex
 10
108.27
 20
-31.99999952316284
 30
0.0
  0
SEQEND
  5
1E64
330
1E4A
100
AcDbEntity
  8
LW 3520-32-00
  0
POLYLINE
  5
1E65
330
1DED
100
AcDbEntity
  8
LW 3520-32-00
100
AcDb2dPolyline
 66
     1
 10
0.0
 20
0.0
 30
0.0
 70
   128
  0
VERTEX
  5
1E66
330
1E65
100
AcDbEntity
  8
LW 3520-32-00
100
AcDbVertex
100
AcDb2dVertex
 10
82.02000000000003
 20
-27.99999976158142
 30
0.0
  0
VERTEX
  5
1E67
330
1E65
100
AcDbEntity
  8
LW 3520-32-00
100
AcDbVertex
100
AcDb2dVertex
 10
82.02194668769839
 20
-28.01681661605835
 30
0.0
  0
VERTEX
  5
1E68
330
1E65
100
AcDbEntity
  8
LW 3520-32-00
100
AcDbVertex
100
AcDb2dVertex
 10
82.02761866569522
 20
-28.06749248504639
 30
0.0
  0
VERTEX
  5
1E69
330
1E65
100
AcDbEntity
  8
LW 3520-32-00
100
AcDbVertex
100
AcDb2dVertex
 10
82.03675844192508
 20
-28.15236830711365
 30
0.0
  0
VERTEX
  5
1E6A
330
1E65
100
AcDbEntity
  8
LW 3520-32-00
100
AcDbVertex
100
AcDb2dVertex
 10
82.04885103225711
 20
-28.27067637443543
 30
0.0
  0
VERTEX
  5
1E6B
330
1E65
100
AcDbEntity
  8
LW 3520-32-00
100
AcDbVertex
100
AcDb2dVertex
 10
82.06274606704715
 20
-28.41724181175232
 30
0.0
  0
VERTEX
  5
1E6C
330
1E65
100
AcDbEntity
  8
LW 3520-32-00
100
AcDbVertex
100
AcDb2dVertex
 10
82.07723714828494
 20
-28.58578944206238
 30
0.0
  0
VERTEX
  5
1E6D
330
1E65
100
AcDbEntity
  8
LW 3520-32-00
100
AcDbVertex
100
AcDb2dVertex
 10
82.09174134254459
 20
-28.77805137634278
 30
0.0
  0
VERTEX
  5
1E6E
330
1E65
100
AcDbEntity
  8
LW 3520-32-00
100
AcDbVertex
100
AcDb2dVertex
 10
82.1056697559357
 20
-28.99613642692566
 30
0.0
  0
VERTEX
  5
1E6F
330
1E65
100
AcDbEntity
  8
LW 3520-32-00
100
AcDbVertex
100
AcDb2dVertex
 10
82.11780883789066
 20
-29.23433089256287
 30
0.0
  0
VERTEX
  5
1E70
330
1E65
100
AcDbEntity
  8
LW 3520-32-00
100
AcDbVertex
100
AcDb2dVertex
 10
82.12699510574344
 20
-29.48646688461304
 30
0.0
  0
VERTEX
  5
1E71
330
1E65
100
AcDbEntity
  8
LW 3520-32-00
100
AcDbVertex
100
AcDb2dVertex
 10
82.13270046234134
 20
-29.74452042579651
 30
0.0
  0
VERTEX
  5
1E72
330
1E65
100
AcDbEntity
  8
LW 3520-32-00
100
AcDbVertex
100
AcDb2dVertex
 10
82.13466145515445
 20
-30.00000023841858
 30
0.0
  0
VERTEX
  5
1E73
330
1E65
100
AcDbEntity
  8
LW 3520-32-00
100
AcDbVertex
100
AcDb2dVertex
 10
82.13270046234134
 20
-30.25547885894776
 30
0.0
  0
VERTEX
  5
1E74
330
1E65
100
AcDbEntity
  8
LW 3520-32-00
100
AcDbVertex
100
AcDb2dVertex
 10
82.12699510574344
 20
-30.51353359222412
 30
0.0
  0
VERTEX
  5
1E75
330
1E65
100
AcDbEntity
  8
LW 3520-32-00
100
AcDbVertex
100
AcDb2dVertex
 10
82.11780883789066
 20
-30.76566958427429
 30
0.0
  0
VERTEX
  5
1E76
330
1E65
100
AcDbEntity
  8
LW 3520-32-00
100
AcDbVertex
100
AcDb2dVertex
 10
82.1056697559357
 20
-31.0038640499115
 30
0.0
  0
VERTEX
  5
1E77
330
1E65
100
AcDbEntity
  8
LW 3520-32-00
100
AcDbVertex
100
AcDb2dVertex
 10
82.09174134254459
 20
-31.22194790840149
 30
0.0
  0
VERTEX
  5
1E78
330
1E65
100
AcDbEntity
  8
LW 3520-32-00
100
AcDbVertex
100
AcDb2dVertex
 10
82.07723714828494
 20
-31.41421103477478
 30
0.0
  0
VERTEX
  5
1E79
330
1E65
100
AcDbEntity
  8
LW 3520-32-00
100
AcDbVertex
100
AcDb2dVertex
 10
82.06274606704715
 20
-31.58275866508484
 30
0.0
  0
VERTEX
  5
1E7A
330
1E65
100
AcDbEntity
  8
LW 3520-32-00
100
AcDbVertex
100
AcDb2dVertex
 10
82.04885103225711
 20
-31.72932291030884
 30
0.0
  0
VERTEX
  5
1E7B
330
1E65
100
AcDbEntity
  8
LW 3520-32-00
100
AcDbVertex
100
AcDb2dVertex
 10
82.03675844192508
 20
-31.84763216972351
 30
0.0
  0
VERTEX
  5
1E7C
330
1E65
100
AcDbEntity
  8
LW 3520-32-00
100
AcDbVertex
100
AcDb2dVertex
 10
82.02761866569522
 20
-31.93250799179077
 30
0.0
  0
VERTEX
  5
1E7D
330
1E65
100
AcDbEntity
  8
LW 3520-32-00
100
AcDbVertex
100
AcDb2dVertex
 10
82.02194668769839
 20
-31.98318386077881
 30
0.0
  0
VERTEX
  5
1E7E
330
1E65
100
AcDbEntity
  8
LW 3520-32-00
100
AcDbVertex
100
AcDb2dVertex
 10
82.02000000000003
 20
-31.99999952316284
 30
0.0
  0
SEQEND
  5
1E7F
330
1E65
100
AcDbEntity
  8
LW 3520-32-00
  0
LINE
  5
1E80
330
1DED
100
AcDbEntity
  8
LW 3520-32-00
100
AcDbLine
 10
82.02000000000003
 20
-34.0
 30
0.0
 11
117.02
 21
-34.0
 31
0.0
  0
LINE
  5
1E81
330
1DED
100
AcDbEntity
  8
LW 3520-32-00
100
AcDbLine
 10
85.01999999999998
 20
-37.0
 30
0.0
 11
114.0200000000001
 21
-37.0
 31
0.0
  0
LINE
  5
1E82
330
1DED
100
AcDbEntity
  8
LW 3520-32-00
100
AcDbLine
 10
117.02
 20
-14.0
 30
0.0
 11
117.02
 21
-34.0
 31
0.0
  0
LINE
  5
1E83
330
1DED
100
AcDbEntity
  8
LW 3520-32-00
100
AcDbLine
 10
82.02000000000003
 20
-14.0
 30
0.0
 11
82.02000000000003
 21
-28.0
 31
0.0
  0
LINE
  5
1E84
330
1DED
100
AcDbEntity
  8
LW 3520-32-00
100
AcDbLine
 10
82.02000000000003
 20
-32.0
 30
0.0
 11
82.02000000000003
 21
-34.0
 31
0.0
  0
LINE
  5
1E85
330
1DED
100
AcDbEntity
  8
LW 3520-32-00
100
AcDbLine
 10
85.01999999999998
 20
-37.0
 30
0.0
 11
82.02000000000003
 21
-34.0
 31
0.0
  0
LINE
  5
1E86
330
1DED
100
AcDbEntity
  8
LW 3520-32-00
100
AcDbLine
 10
114.02
 20
-37.0
 30
0.0
 11
117.02
 21
-34.0
 31
0.0
  0
ELLIPSE
  5
1E87
330
1DED
100
AcDbEntity
  8
LW 3520-32-00
100
AcDbEllipse
 10
44.51999999999998
 20
-66.25
 30
0.0
 11
-1.999999999999962
 21
0.0000000000001156
 31
0.0
210
0.0
220
0.0
230
1.0
 40
0.8660254037844643
 41
0.7941688477847935
 42
2.347423805805178
  0
POLYLINE
  5
1E88
330
1DED
100
AcDbEntity
  8
LW 3520-32-00
100
AcDb2dPolyline
 66
     1
 10
0.0
 20
0.0
 30
0.0
 70
   128
  0
VERTEX
  5
1E89
330
1E88
100
AcDbEntity
  8
LW 3520-32-00
100
AcDbVertex
100
AcDb2dVertex
 10
46.51999952316282
 20
-68.75
 30
0.0
  0
VERTEX
  5
1E8A
330
1E88
100
AcDbEntity
  8
LW 3520-32-00
100
AcDbVertex
100
AcDb2dVertex
 10
46.50318386077879
 20
-68.97027850151062
 30
0.0
  0
VERTEX
  5
1E8B
330
1E88
100
AcDbEntity
  8
LW 3520-32-00
100
AcDbVertex
100
AcDb2dVertex
 10
46.45250799179075
 20
-69.19092595577239
 30
0.0
  0
VERTEX
  5
1E8C
330
1E88
100
AcDbEntity
  8
LW 3520-32-00
100
AcDbVertex
100
AcDb2dVertex
 10
46.36763216972349
 20
-69.40471351146697
 30
0.0
  0
VERTEX
  5
1E8D
330
1E88
100
AcDbEntity
  8
LW 3520-32-00
100
AcDbVertex
100
AcDb2dVertex
 10
46.24932291030882
 20
-69.60495173931121
 30
0.0
  0
VERTEX
  5
1E8E
330
1E88
100
AcDbEntity
  8
LW 3520-32-00
100
AcDbVertex
100
AcDb2dVertex
 10
46.10275866508482
 20
-69.78687107563018
 30
0.0
  0
VERTEX
  5
1E8F
330
1E88
100
AcDbEntity
  8
LW 3520-32-00
100
AcDbVertex
100
AcDb2dVertex
 10
45.93421103477476
 20
-69.946129322052
 30
0.0
  0
VERTEX
  5
1E90
330
1E88
100
AcDbEntity
  8
LW 3520-32-00
100
AcDbVertex
100
AcDb2dVertex
 10
45.74194790840147
 20
-70.08484244346618
 30
0.0
  0
VERTEX
  5
1E91
330
1E88
100
AcDbEntity
  8
LW 3520-32-00
100
AcDbVertex
100
AcDb2dVertex
 10
45.52386404991148
 20
-70.20480632781982
 30
0.0
  0
VERTEX
  5
1E92
330
1E88
100
AcDbEntity
  8
LW 3520-32-00
100
AcDbVertex
100
AcDb2dVertex
 10
45.28566958427427
 20
-70.3011929988861
 30
0.0
  0
VERTEX
  5
1E93
330
1E88
100
AcDbEntity
  8
LW 3520-32-00
100
AcDbVertex
100
AcDb2dVertex
 10
45.0335335922241
 20
-70.37010312080383
 30
0.0
  0
VERTEX
  5
1E94
330
1E88
100
AcDbEntity
  8
LW 3520-32-00
100
AcDbVertex
100
AcDb2dVertex
 10
44.77547885894773
 20
-70.411137342453
 30
0.0
  0
VERTEX
  5
1E95
330
1E88
100
AcDbEntity
  8
LW 3520-32-00
100
AcDbVertex
100
AcDb2dVertex
 10
44.52000023841856
 20
-70.42472004890441
 30
0.0
  0
VERTEX
  5
1E96
330
1E88
100
AcDbEntity
  8
LW 3520-32-00
100
AcDbVertex
100
AcDb2dVertex
 10
44.26452042579649
 20
-70.411137342453
 30
0.0
  0
VERTEX
  5
1E97
330
1E88
100
AcDbEntity
  8
LW 3520-32-00
100
AcDbVertex
100
AcDb2dVertex
 10
44.00646688461302
 20
-70.37010312080383
 30
0.0
  0
VERTEX
  5
1E98
330
1E88
100
AcDbEntity
  8
LW 3520-32-00
100
AcDbVertex
100
AcDb2dVertex
 10
43.75433089256285
 20
-70.3011929988861
 30
0.0
  0
VERTEX
  5
1E99
330
1E88
100
AcDbEntity
  8
LW 3520-32-00
100
AcDbVertex
100
AcDb2dVertex
 10
43.51613642692564
 20
-70.20480632781982
 30
0.0
  0
VERTEX
  5
1E9A
330
1E88
100
AcDbEntity
  8
LW 3520-32-00
100
AcDbVertex
100
AcDb2dVertex
 10
43.29805137634275
 20
-70.08484244346618
 30
0.0
  0
VERTEX
  5
1E9B
330
1E88
100
AcDbEntity
  8
LW 3520-32-00
100
AcDbVertex
100
AcDb2dVertex
 10
43.10578944206236
 20
-69.946129322052
 30
0.0
  0
VERTEX
  5
1E9C
330
1E88
100
AcDbEntity
  8
LW 3520-32-00
100
AcDbVertex
100
AcDb2dVertex
 10
42.9372418117523
 20
-69.78687107563018
 30
0.0
  0
VERTEX
  5
1E9D
330
1E88
100
AcDbEntity
  8
LW 3520-32-00
100
AcDbVertex
100
AcDb2dVertex
 10
42.79067637443541
 20
-69.60495173931121
 30
0.0
  0
VERTEX
  5
1E9E
330
1E88
100
AcDbEntity
  8
LW 3520-32-00
100
AcDbVertex
100
AcDb2dVertex
 10
42.67236830711363
 20
-69.40471351146697
 30
0.0
  0
VERTEX
  5
1E9F
330
1E88
100
AcDbEntity
  8
LW 3520-32-00
100
AcDbVertex
100
AcDb2dVertex
 10
42.58749248504637
 20
-69.19092595577239
 30
0.0
  0
VERTEX
  5
1EA0
330
1E88
100
AcDbEntity
  8
LW 3520-32-00
100
AcDbVertex
100
AcDb2dVertex
 10
42.53681661605833
 20
-68.97027850151062
 30
0.0
  0
VERTEX
  5
1EA1
330
1E88
100
AcDbEntity
  8
LW 3520-32-00
100
AcDbVertex
100
AcDb2dVertex
 10
42.5199997615814
 20
-68.75
 30
0.0
  0
SEQEND
  5
1EA2
330
1E88
100
AcDbEntity
  8
LW 3520-32-00
  0
POLYLINE
  5
1EA3
330
1DED
100
AcDbEntity
  8
LW 3520-32-00
100
AcDb2dPolyline
 66
     1
 10
0.0
 20
0.0
 30
0.0
 70
   128
  0
VERTEX
  5
1EA4
330
1EA3
100
AcDbEntity
  8
LW 3520-32-00
100
AcDbVertex
100
AcDb2dVertex
 10
42.5199997615814
 20
-68.75
 30
0.0
  0
VERTEX
  5
1EA5
330
1EA3
100
AcDbEntity
  8
LW 3520-32-00
100
AcDbVertex
100
AcDb2dVertex
 10
42.53681661605833
 20
-68.52777421474456
 30
0.0
  0
VERTEX
  5
1EA6
330
1EA3
100
AcDbEntity
  8
LW 3520-32-00
100
AcDbVertex
100
AcDb2dVertex
 10
42.58749248504637
 20
-68.30145597457885
 30
0.0
  0
VERTEX
  5
1EA7
330
1EA3
100
AcDbEntity
  8
LW 3520-32-00
100
AcDbVertex
100
AcDb2dVertex
 10
42.67236830711363
 20
-68.07852804660797
 30
0.0
  0
VERTEX
  5
1EA8
330
1EA3
100
AcDbEntity
  8
LW 3520-32-00
100
AcDbVertex
100
AcDb2dVertex
 10
42.79067637443541
 20
-67.86619782447814
 30
0.0
  0
VERTEX
  5
1EA9
330
1EA3
100
AcDbEntity
  8
LW 3520-32-00
100
AcDbVertex
100
AcDb2dVertex
 10
42.9372418117523
 20
-67.67038345336914
 30
0.0
  0
VERTEX
  5
1EAA
330
1EA3
100
AcDbEntity
  8
LW 3520-32-00
100
AcDbVertex
100
AcDb2dVertex
 10
43.10578944206236
 20
-67.49663412570953
 30
0.0
  0
VERTEX
  5
1EAB
330
1EA3
100
AcDbEntity
  8
LW 3520-32-00
100
AcDbVertex
100
AcDb2dVertex
 10
43.29805137634275
 20
-67.34341621398925
 30
0.0
  0
VERTEX
  5
1EAC
330
1EA3
100
AcDbEntity
  8
LW 3520-32-00
100
AcDbVertex
100
AcDb2dVertex
 10
43.51613642692564
 20
-67.2095239162445
 30
0.0
  0
VERTEX
  5
1EAD
330
1EA3
100
AcDbEntity
  8
LW 3520-32-00
100
AcDbVertex
100
AcDb2dVertex
 10
43.75433089256285
 20
-67.10099756717681
 30
0.0
  0
VERTEX
  5
1EAE
330
1EA3
100
AcDbEntity
  8
LW 3520-32-00
100
AcDbVertex
100
AcDb2dVertex
 10
44.00646688461302
 20
-67.02290117740631
 30
0.0
  0
VERTEX
  5
1EAF
330
1EA3
100
AcDbEntity
  8
LW 3520-32-00
100
AcDbVertex
100
AcDb2dVertex
 10
44.26452042579649
 20
-66.97616219520568
 30
0.0
  0
VERTEX
  5
1EB0
330
1EA3
100
AcDbEntity
  8
LW 3520-32-00
100
AcDbVertex
100
AcDb2dVertex
 10
44.52000023841856
 20
-66.96061849594116
 30
0.0
  0
VERTEX
  5
1EB1
330
1EA3
100
AcDbEntity
  8
LW 3520-32-00
100
AcDbVertex
100
AcDb2dVertex
 10
44.77547885894773
 20
-66.97616219520568
 30
0.0
  0
VERTEX
  5
1EB2
330
1EA3
100
AcDbEntity
  8
LW 3520-32-00
100
AcDbVertex
100
AcDb2dVertex
 10
45.0335335922241
 20
-67.02290117740631
 30
0.0
  0
VERTEX
  5
1EB3
330
1EA3
100
AcDbEntity
  8
LW 3520-32-00
100
AcDbVertex
100
AcDb2dVertex
 10
45.28566958427427
 20
-67.10099756717681
 30
0.0
  0
VERTEX
  5
1EB4
330
1EA3
100
AcDbEntity
  8
LW 3520-32-00
100
AcDbVertex
100
AcDb2dVertex
 10
45.52386404991148
 20
-67.2095239162445
 30
0.0
  0
VERTEX
  5
1EB5
330
1EA3
100
AcDbEntity
  8
LW 3520-32-00
100
AcDbVertex
100
AcDb2dVertex
 10
45.74194790840147
 20
-67.34341621398925
 30
0.0
  0
VERTEX
  5
1EB6
330
1EA3
100
AcDbEntity
  8
LW 3520-32-00
100
AcDbVertex
100
AcDb2dVertex
 10
45.93421103477476
 20
-67.49663412570953
 30
0.0
  0
VERTEX
  5
1EB7
330
1EA3
100
AcDbEntity
  8
LW 3520-32-00
100
AcDbVertex
100
AcDb2dVertex
 10
46.10275866508482
 20
-67.67038345336914
 30
0.0
  0
VERTEX
  5
1EB8
330
1EA3
100
AcDbEntity
  8
LW 3520-32-00
100
AcDbVertex
100
AcDb2dVertex
 10
46.24932291030882
 20
-67.86619782447814
 30
0.0
  0
VERTEX
  5
1EB9
330
1EA3
100
AcDbEntity
  8
LW 3520-32-00
100
AcDbVertex
100
AcDb2dVertex
 10
46.36763216972349
 20
-68.07852804660797
 30
0.0
  0
VERTEX
  5
1EBA
330
1EA3
100
AcDbEntity
  8
LW 3520-32-00
100
AcDbVertex
100
AcDb2dVertex
 10
46.45250799179075
 20
-68.30145597457885
 30
0.0
  0
VERTEX
  5
1EBB
330
1EA3
100
AcDbEntity
  8
LW 3520-32-00
100
AcDbVertex
100
AcDb2dVertex
 10
46.50318386077879
 20
-68.52777421474456
 30
0.0
  0
VERTEX
  5
1EBC
330
1EA3
100
AcDbEntity
  8
LW 3520-32-00
100
AcDbVertex
100
AcDb2dVertex
 10
46.51999952316282
 20
-68.75
 30
0.0
  0
SEQEND
  5
1EBD
330
1EA3
100
AcDbEntity
  8
LW 3520-32-00
  0
POLYLINE
  5
1EBE
330
1DED
100
AcDbEntity
  8
LW 3520-32-00
100
AcDb2dPolyline
 66
     1
 10
0.0
 20
0.0
 30
0.0
 70
   128
  0
VERTEX
  5
1EBF
330
1EBE
100
AcDbEntity
  8
LW 3520-32-00
100
AcDbVertex
100
AcDb2dVertex
 10
46.51999952316282
 20
-42.5
 30
0.0
  0
VERTEX
  5
1EC0
330
1EBE
100
AcDbEntity
  8
LW 3520-32-00
100
AcDbVertex
100
AcDb2dVertex
 10
46.50318386077879
 20
-42.50194668769836
 30
0.0
  0
VERTEX
  5
1EC1
330
1EBE
100
AcDbEntity
  8
LW 3520-32-00
100
AcDbVertex
100
AcDb2dVertex
 10
46.45250799179075
 20
-42.50761866569519
 30
0.0
  0
VERTEX
  5
1EC2
330
1EBE
100
AcDbEntity
  8
LW 3520-32-00
100
AcDbVertex
100
AcDb2dVertex
 10
46.36763216972349
 20
-42.51675844192504
 30
0.0
  0
VERTEX
  5
1EC3
330
1EBE
100
AcDbEntity
  8
LW 3520-32-00
100
AcDbVertex
100
AcDb2dVertex
 10
46.24932291030882
 20
-42.52885103225708
 30
0.0
  0
VERTEX
  5
1EC4
330
1EBE
100
AcDbEntity
  8
LW 3520-32-00
100
AcDbVertex
100
AcDb2dVertex
 10
46.10275866508482
 20
-42.54274606704711
 30
0.0
  0
VERTEX
  5
1EC5
330
1EBE
100
AcDbEntity
  8
LW 3520-32-00
100
AcDbVertex
100
AcDb2dVertex
 10
45.93421103477476
 20
-42.55723714828491
 30
0.0
  0
VERTEX
  5
1EC6
330
1EBE
100
AcDbEntity
  8
LW 3520-32-00
100
AcDbVertex
100
AcDb2dVertex
 10
45.74194790840147
 20
-42.57174134254455
 30
0.0
  0
VERTEX
  5
1EC7
330
1EBE
100
AcDbEntity
  8
LW 3520-32-00
100
AcDbVertex
100
AcDb2dVertex
 10
45.52386404991148
 20
-42.58566975593566
 30
0.0
  0
VERTEX
  5
1EC8
330
1EBE
100
AcDbEntity
  8
LW 3520-32-00
100
AcDbVertex
100
AcDb2dVertex
 10
45.28566958427427
 20
-42.59780883789062
 30
0.0
  0
VERTEX
  5
1EC9
330
1EBE
100
AcDbEntity
  8
LW 3520-32-00
100
AcDbVertex
100
AcDb2dVertex
 10
45.0335335922241
 20
-42.6069951057434
 30
0.0
  0
VERTEX
  5
1ECA
330
1EBE
100
AcDbEntity
  8
LW 3520-32-00
100
AcDbVertex
100
AcDb2dVertex
 10
44.77547885894773
 20
-42.6127004623413
 30
0.0
  0
VERTEX
  5
1ECB
330
1EBE
100
AcDbEntity
  8
LW 3520-32-00
100
AcDbVertex
100
AcDb2dVertex
 10
44.52000023841856
 20
-42.61466145515441
 30
0.0
  0
VERTEX
  5
1ECC
330
1EBE
100
AcDbEntity
  8
LW 3520-32-00
100
AcDbVertex
100
AcDb2dVertex
 10
44.26452042579649
 20
-42.6127004623413
 30
0.0
  0
VERTEX
  5
1ECD
330
1EBE
100
AcDbEntity
  8
LW 3520-32-00
100
AcDbVertex
100
AcDb2dVertex
 10
44.00646688461302
 20
-42.6069951057434
 30
0.0
  0
VERTEX
  5
1ECE
330
1EBE
100
AcDbEntity
  8
LW 3520-32-00
100
AcDbVertex
100
AcDb2dVertex
 10
43.75433089256285
 20
-42.59780883789062
 30
0.0
  0
VERTEX
  5
1ECF
330
1EBE
100
AcDbEntity
  8
LW 3520-32-00
100
AcDbVertex
100
AcDb2dVertex
 10
43.51613642692564
 20
-42.58566975593566
 30
0.0
  0
VERTEX
  5
1ED0
330
1EBE
100
AcDbEntity
  8
LW 3520-32-00
100
AcDbVertex
100
AcDb2dVertex
 10
43.29805137634275
 20
-42.57174134254455
 30
0.0
  0
VERTEX
  5
1ED1
330
1EBE
100
AcDbEntity
  8
LW 3520-32-00
100
AcDbVertex
100
AcDb2dVertex
 10
43.10578944206236
 20
-42.55723714828491
 30
0.0
  0
VERTEX
  5
1ED2
330
1EBE
100
AcDbEntity
  8
LW 3520-32-00
100
AcDbVertex
100
AcDb2dVertex
 10
42.9372418117523
 20
-42.54274606704711
 30
0.0
  0
VERTEX
  5
1ED3
330
1EBE
100
AcDbEntity
  8
LW 3520-32-00
100
AcDbVertex
100
AcDb2dVertex
 10
42.79067637443541
 20
-42.52885103225708
 30
0.0
  0
VERTEX
  5
1ED4
330
1EBE
100
AcDbEntity
  8
LW 3520-32-00
100
AcDbVertex
100
AcDb2dVertex
 10
42.67236830711363
 20
-42.51675844192504
 30
0.0
  0
VERTEX
  5
1ED5
330
1EBE
100
AcDbEntity
  8
LW 3520-32-00
100
AcDbVertex
100
AcDb2dVertex
 10
42.58749248504637
 20
-42.50761866569519
 30
0.0
  0
VERTEX
  5
1ED6
330
1EBE
100
AcDbEntity
  8
LW 3520-32-00
100
AcDbVertex
100
AcDb2dVertex
 10
42.53681661605833
 20
-42.50194668769836
 30
0.0
  0
VERTEX
  5
1ED7
330
1EBE
100
AcDbEntity
  8
LW 3520-32-00
100
AcDbVertex
100
AcDb2dVertex
 10
42.5199997615814
 20
-42.5
 30
0.0
  0
SEQEND
  5
1ED8
330
1EBE
100
AcDbEntity
  8
LW 3520-32-00
  0
LINE
  5
1ED9
330
1DED
100
AcDbEntity
  8
LW 3520-32-00
100
AcDbLine
 10
48.51999999999998
 20
-77.5
 30
0.0
 11
48.51999999999998
 21
-42.5
 31
0.0
  0
LINE
  5
1EDA
330
1DED
100
AcDbEntity
  8
LW 3520-32-00
100
AcDbLine
 10
51.51999999999998
 20
-74.49999999999994
 30
0.0
 11
51.51999999999998
 21
-45.49999999999999
 31
0.0
  0
LINE
  5
1EDB
330
1DED
100
AcDbEntity
  8
LW 3520-32-00
100
AcDbLine
 10
28.51999999999998
 20
-42.5
 30
0.0
 11
42.51999999999998
 21
-42.5
 31
0.0
  0
LINE
  5
1EDC
330
1DED
100
AcDbEntity
  8
LW 3520-32-00
100
AcDbLine
 10
46.51999999999998
 20
-42.5
 30
0.0
 11
48.51999999999998
 21
-42.5
 31
0.0
  0
LINE
  5
1EDD
330
1DED
100
AcDbEntity
  8
LW 3520-32-00
100
AcDbLine
 10
28.51999999999998
 20
-77.5
 30
0.0
 11
48.51999999999998
 21
-77.5
 31
0.0
  0
LINE
  5
1EDE
330
1DED
100
AcDbEntity
  8
LW 3520-32-00
100
AcDbLine
 10
51.51999999999998
 20
-74.49999999999994
 30
0.0
 11
48.51999999999998
 21
-77.5
 31
0.0
  0
LINE
  5
1EDF
330
1DED
100
AcDbEntity
  8
LW 3520-32-00
100
AcDbLine
 10
51.51999999999998
 20
-45.49999999999999
 30
0.0
 11
48.51999999999998
 21
-42.5
 31
0.0
  0
ELLIPSE
  5
1EE0
330
1DED
100
AcDbEntity
  8
LW 3520-32-00
100
AcDbEllipse
 10
44.51999999999998
 20
-146.25
 30
0.0
 11
-1.999999999999996
 21
0.0000000000001138
 31
0.0
210
0.0
220
0.0
230
1.0
 40
0.8660254037844353
 41
0.7941688477848095
 42
2.347423805805161
  0
POLYLINE
  5
1EE1
330
1DED
100
AcDbEntity
  8
LW 3520-32-00
100
AcDb2dPolyline
 66
     1
 10
0.0
 20
0.0
 30
0.0
 70
   128
  0
VERTEX
  5
1EE2
330
1EE1
100
AcDbEntity
  8
LW 3520-32-00
100
AcDbVertex
100
AcDb2dVertex
 10
46.51999952316282
 20
-148.75
 30
0.0
  0
VERTEX
  5
1EE3
330
1EE1
100
AcDbEntity
  8
LW 3520-32-00
100
AcDbVertex
100
AcDb2dVertex
 10
46.50318386077879
 20
-148.9702785015106
 30
0.0
  0
VERTEX
  5
1EE4
330
1EE1
100
AcDbEntity
  8
LW 3520-32-00
100
AcDbVertex
100
AcDb2dVertex
 10
46.45250799179075
 20
-149.1909259557724
 30
0.0
  0
VERTEX
  5
1EE5
330
1EE1
100
AcDbEntity
  8
LW 3520-32-00
100
AcDbVertex
100
AcDb2dVertex
 10
46.36763216972349
 20
-149.4047135114669
 30
0.0
  0
VERTEX
  5
1EE6
330
1EE1
100
AcDbEntity
  8
LW 3520-32-00
100
AcDbVertex
100
AcDb2dVertex
 10
46.24932291030882
 20
-149.6049517393112
 30
0.0
  0
VERTEX
  5
1EE7
330
1EE1
100
AcDbEntity
  8
LW 3520-32-00
100
AcDbVertex
100
AcDb2dVertex
 10
46.10275866508482
 20
-149.7868710756302
 30
0.0
  0
VERTEX
  5
1EE8
330
1EE1
100
AcDbEntity
  8
LW 3520-32-00
100
AcDbVertex
100
AcDb2dVertex
 10
45.93421103477476
 20
-149.946129322052
 30
0.0
  0
VERTEX
  5
1EE9
330
1EE1
100
AcDbEntity
  8
LW 3520-32-00
100
AcDbVertex
100
AcDb2dVertex
 10
45.74194790840147
 20
-150.0848424434662
 30
0.0
  0
VERTEX
  5
1EEA
330
1EE1
100
AcDbEntity
  8
LW 3520-32-00
100
AcDbVertex
100
AcDb2dVertex
 10
45.52386404991148
 20
-150.2048063278198
 30
0.0
  0
VERTEX
  5
1EEB
330
1EE1
100
AcDbEntity
  8
LW 3520-32-00
100
AcDbVertex
100
AcDb2dVertex
 10
45.28566958427427
 20
-150.3011929988861
 30
0.0
  0
VERTEX
  5
1EEC
330
1EE1
100
AcDbEntity
  8
LW 3520-32-00
100
AcDbVertex
100
AcDb2dVertex
 10
45.0335335922241
 20
-150.3701031208038
 30
0.0
  0
VERTEX
  5
1EED
330
1EE1
100
AcDbEntity
  8
LW 3520-32-00
100
AcDbVertex
100
AcDb2dVertex
 10
44.77547885894773
 20
-150.411137342453
 30
0.0
  0
VERTEX
  5
1EEE
330
1EE1
100
AcDbEntity
  8
LW 3520-32-00
100
AcDbVertex
100
AcDb2dVertex
 10
44.52000023841856
 20
-150.4247200489044
 30
0.0
  0
VERTEX
  5
1EEF
330
1EE1
100
AcDbEntity
  8
LW 3520-32-00
100
AcDbVertex
100
AcDb2dVertex
 10
44.26452042579649
 20
-150.411137342453
 30
0.0
  0
VERTEX
  5
1EF0
330
1EE1
100
AcDbEntity
  8
LW 3520-32-00
100
AcDbVertex
100
AcDb2dVertex
 10
44.00646688461302
 20
-150.3701031208038
 30
0.0
  0
VERTEX
  5
1EF1
330
1EE1
100
AcDbEntity
  8
LW 3520-32-00
100
AcDbVertex
100
AcDb2dVertex
 10
43.75433089256285
 20
-150.3011929988861
 30
0.0
  0
VERTEX
  5
1EF2
330
1EE1
100
AcDbEntity
  8
LW 3520-32-00
100
AcDbVertex
100
AcDb2dVertex
 10
43.51613642692564
 20
-150.2048063278198
 30
0.0
  0
VERTEX
  5
1EF3
330
1EE1
100
AcDbEntity
  8
LW 3520-32-00
100
AcDbVertex
100
AcDb2dVertex
 10
43.29805137634275
 20
-150.0848424434662
 30
0.0
  0
VERTEX
  5
1EF4
330
1EE1
100
AcDbEntity
  8
LW 3520-32-00
100
AcDbVertex
100
AcDb2dVertex
 10
43.10578944206236
 20
-149.946129322052
 30
0.0
  0
VERTEX
  5
1EF5
330
1EE1
100
AcDbEntity
  8
LW 3520-32-00
100
AcDbVertex
100
AcDb2dVertex
 10
42.9372418117523
 20
-149.7868710756302
 30
0.0
  0
VERTEX
  5
1EF6
330
1EE1
100
AcDbEntity
  8
LW 3520-32-00
100
AcDbVertex
100
AcDb2dVertex
 10
42.79067637443541
 20
-149.6049517393112
 30
0.0
  0
VERTEX
  5
1EF7
330
1EE1
100
AcDbEntity
  8
LW 3520-32-00
100
AcDbVertex
100
AcDb2dVertex
 10
42.67236830711363
 20
-149.4047135114669
 30
0.0
  0
VERTEX
  5
1EF8
330
1EE1
100
AcDbEntity
  8
LW 3520-32-00
100
AcDbVertex
100
AcDb2dVertex
 10
42.58749248504637
 20
-149.1909259557724
 30
0.0
  0
VERTEX
  5
1EF9
330
1EE1
100
AcDbEntity
  8
LW 3520-32-00
100
AcDbVertex
100
AcDb2dVertex
 10
42.53681661605833
 20
-148.9702785015106
 30
0.0
  0
VERTEX
  5
1EFA
330
1EE1
100
AcDbEntity
  8
LW 3520-32-00
100
AcDbVertex
100
AcDb2dVertex
 10
42.5199997615814
 20
-148.75
 30
0.0
  0
SEQEND
  5
1EFB
330
1EE1
100
AcDbEntity
  8
LW 3520-32-00
  0
POLYLINE
  5
1EFC
330
1DED
100
AcDbEntity
  8
LW 3520-32-00
100
AcDb2dPolyline
 66
     1
 10
0.0
 20
0.0
 30
0.0
 70
   128
  0
VERTEX
  5
1EFD
330
1EFC
100
AcDbEntity
  8
LW 3520-32-00
100
AcDbVertex
100
AcDb2dVertex
 10
42.5199997615814
 20
-148.75
 30
0.0
  0
VERTEX
  5
1EFE
330
1EFC
100
AcDbEntity
  8
LW 3520-32-00
100
AcDbVertex
100
AcDb2dVertex
 10
42.53681661605833
 20
-148.5277742147445
 30
0.0
  0
VERTEX
  5
1EFF
330
1EFC
100
AcDbEntity
  8
LW 3520-32-00
100
AcDbVertex
100
AcDb2dVertex
 10
42.58749248504637
 20
-148.3014559745788
 30
0.0
  0
VERTEX
  5
1F00
330
1EFC
100
AcDbEntity
  8
LW 3520-32-00
100
AcDbVertex
100
AcDb2dVertex
 10
42.67236830711363
 20
-148.0785280466079
 30
0.0
  0
VERTEX
  5
1F01
330
1EFC
100
AcDbEntity
  8
LW 3520-32-00
100
AcDbVertex
100
AcDb2dVertex
 10
42.79067637443541
 20
-147.8661978244781
 30
0.0
  0
VERTEX
  5
1F02
330
1EFC
100
AcDbEntity
  8
LW 3520-32-00
100
AcDbVertex
100
AcDb2dVertex
 10
42.9372418117523
 20
-147.6703834533691
 30
0.0
  0
VERTEX
  5
1F03
330
1EFC
100
AcDbEntity
  8
LW 3520-32-00
100
AcDbVertex
100
AcDb2dVertex
 10
43.10578944206236
 20
-147.4966341257095
 30
0.0
  0
VERTEX
  5
1F04
330
1EFC
100
AcDbEntity
  8
LW 3520-32-00
100
AcDbVertex
100
AcDb2dVertex
 10
43.29805137634275
 20
-147.3434162139892
 30
0.0
  0
VERTEX
  5
1F05
330
1EFC
100
AcDbEntity
  8
LW 3520-32-00
100
AcDbVertex
100
AcDb2dVertex
 10
43.51613642692564
 20
-147.2095239162445
 30
0.0
  0
VERTEX
  5
1F06
330
1EFC
100
AcDbEntity
  8
LW 3520-32-00
100
AcDbVertex
100
AcDb2dVertex
 10
43.75433089256285
 20
-147.1009975671768
 30
0.0
  0
VERTEX
  5
1F07
330
1EFC
100
AcDbEntity
  8
LW 3520-32-00
100
AcDbVertex
100
AcDb2dVertex
 10
44.00646688461302
 20
-147.0229011774063
 30
0.0
  0
VERTEX
  5
1F08
330
1EFC
100
AcDbEntity
  8
LW 3520-32-00
100
AcDbVertex
100
AcDb2dVertex
 10
44.26452042579649
 20
-146.9761621952057
 30
0.0
  0
VERTEX
  5
1F09
330
1EFC
100
AcDbEntity
  8
LW 3520-32-00
100
AcDbVertex
100
AcDb2dVertex
 10
44.52000023841856
 20
-146.9606184959411
 30
0.0
  0
VERTEX
  5
1F0A
330
1EFC
100
AcDbEntity
  8
LW 3520-32-00
100
AcDbVertex
100
AcDb2dVertex
 10
44.77547885894773
 20
-146.9761621952057
 30
0.0
  0
VERTEX
  5
1F0B
330
1EFC
100
AcDbEntity
  8
LW 3520-32-00
100
AcDbVertex
100
AcDb2dVertex
 10
45.0335335922241
 20
-147.0229011774063
 30
0.0
  0
VERTEX
  5
1F0C
330
1EFC
100
AcDbEntity
  8
LW 3520-32-00
100
AcDbVertex
100
AcDb2dVertex
 10
45.28566958427427
 20
-147.1009975671768
 30
0.0
  0
VERTEX
  5
1F0D
330
1EFC
100
AcDbEntity
  8
LW 3520-32-00
100
AcDbVertex
100
AcDb2dVertex
 10
45.52386404991148
 20
-147.2095239162445
 30
0.0
  0
VERTEX
  5
1F0E
330
1EFC
100
AcDbEntity
  8
LW 3520-32-00
100
AcDbVertex
100
AcDb2dVertex
 10
45.74194790840147
 20
-147.3434162139892
 30
0.0
  0
VERTEX
  5
1F0F
330
1EFC
100
AcDbEntity
  8
LW 3520-32-00
100
AcDbVertex
100
AcDb2dVertex
 10
45.93421103477476
 20
-147.4966341257095
 30
0.0
  0
VERTEX
  5
1F10
330
1EFC
100
AcDbEntity
  8
LW 3520-32-00
100
AcDbVertex
100
AcDb2dVertex
 10
46.10275866508482
 20
-147.6703834533691
 30
0.0
  0
VERTEX
  5
1F11
330
1EFC
100
AcDbEntity
  8
LW 3520-32-00
100
AcDbVertex
100
AcDb2dVertex
 10
46.24932291030882
 20
-147.8661978244781
 30
0.0
  0
VERTEX
  5
1F12
330
1EFC
100
AcDbEntity
  8
LW 3520-32-00
100
AcDbVertex
100
AcDb2dVertex
 10
46.36763216972349
 20
-148.0785280466079
 30
0.0
  0
VERTEX
  5
1F13
330
1EFC
100
AcDbEntity
  8
LW 3520-32-00
100
AcDbVertex
100
AcDb2dVertex
 10
46.45250799179075
 20
-148.3014559745788
 30
0.0
  0
VERTEX
  5
1F14
330
1EFC
100
AcDbEntity
  8
LW 3520-32-00
100
AcDbVertex
100
AcDb2dVertex
 10
46.50318386077879
 20
-148.5277742147445
 30
0.0
  0
VERTEX
  5
1F15
330
1EFC
100
AcDbEntity
  8
LW 3520-32-00
100
AcDbVertex
100
AcDb2dVertex
 10
46.51999952316282
 20
-148.75
 30
0.0
  0
SEQEND
  5
1F16
330
1EFC
100
AcDbEntity
  8
LW 3520-32-00
  0
POLYLINE
  5
1F17
330
1DED
100
AcDbEntity
  8
LW 3520-32-00
100
AcDb2dPolyline
 66
     1
 10
0.0
 20
0.0
 30
0.0
 70
   128
  0
VERTEX
  5
1F18
330
1F17
100
AcDbEntity
  8
LW 3520-32-00
100
AcDbVertex
100
AcDb2dVertex
 10
46.51999952316282
 20
-122.4999999999999
 30
0.0
  0
VERTEX
  5
1F19
330
1F17
100
AcDbEntity
  8
LW 3520-32-00
100
AcDbVertex
100
AcDb2dVertex
 10
46.50318386077879
 20
-122.5019466876983
 30
0.0
  0
VERTEX
  5
1F1A
330
1F17
100
AcDbEntity
  8
LW 3520-32-00
100
AcDbVertex
100
AcDb2dVertex
 10
46.45250799179075
 20
-122.5076186656951
 30
0.0
  0
VERTEX
  5
1F1B
330
1F17
100
AcDbEntity
  8
LW 3520-32-00
100
AcDbVertex
100
AcDb2dVertex
 10
46.36763216972349
 20
-122.516758441925
 30
0.0
  0
VERTEX
  5
1F1C
330
1F17
100
AcDbEntity
  8
LW 3520-32-00
100
AcDbVertex
100
AcDb2dVertex
 10
46.24932291030882
 20
-122.528851032257
 30
0.0
  0
VERTEX
  5
1F1D
330
1F17
100
AcDbEntity
  8
LW 3520-32-00
100
AcDbVertex
100
AcDb2dVertex
 10
46.10275866508482
 20
-122.5427460670471
 30
0.0
  0
VERTEX
  5
1F1E
330
1F17
100
AcDbEntity
  8
LW 3520-32-00
100
AcDbVertex
100
AcDb2dVertex
 10
45.93421103477476
 20
-122.5572371482849
 30
0.0
  0
VERTEX
  5
1F1F
330
1F17
100
AcDbEntity
  8
LW 3520-32-00
100
AcDbVertex
100
AcDb2dVertex
 10
45.74194790840147
 20
-122.5717413425445
 30
0.0
  0
VERTEX
  5
1F20
330
1F17
100
AcDbEntity
  8
LW 3520-32-00
100
AcDbVertex
100
AcDb2dVertex
 10
45.52386404991148
 20
-122.5856697559356
 30
0.0
  0
VERTEX
  5
1F21
330
1F17
100
AcDbEntity
  8
LW 3520-32-00
100
AcDbVertex
100
AcDb2dVertex
 10
45.28566958427427
 20
-122.5978088378906
 30
0.0
  0
VERTEX
  5
1F22
330
1F17
100
AcDbEntity
  8
LW 3520-32-00
100
AcDbVertex
100
AcDb2dVertex
 10
45.0335335922241
 20
-122.6069951057433
 30
0.0
  0
VERTEX
  5
1F23
330
1F17
100
AcDbEntity
  8
LW 3520-32-00
100
AcDbVertex
100
AcDb2dVertex
 10
44.77547885894773
 20
-122.6127004623412
 30
0.0
  0
VERTEX
  5
1F24
330
1F17
100
AcDbEntity
  8
LW 3520-32-00
100
AcDbVertex
100
AcDb2dVertex
 10
44.52000023841856
 20
-122.6146614551544
 30
0.0
  0
VERTEX
  5
1F25
330
1F17
100
AcDbEntity
  8
LW 3520-32-00
100
AcDbVertex
100
AcDb2dVertex
 10
44.26452042579649
 20
-122.6127004623412
 30
0.0
  0
VERTEX
  5
1F26
330
1F17
100
AcDbEntity
  8
LW 3520-32-00
100
AcDbVertex
100
AcDb2dVertex
 10
44.00646688461302
 20
-122.6069951057433
 30
0.0
  0
VERTEX
  5
1F27
330
1F17
100
AcDbEntity
  8
LW 3520-32-00
100
AcDbVertex
100
AcDb2dVertex
 10
43.75433089256285
 20
-122.5978088378906
 30
0.0
  0
VERTEX
  5
1F28
330
1F17
100
AcDbEntity
  8
LW 3520-32-00
100
AcDbVertex
100
AcDb2dVertex
 10
43.51613642692564
 20
-122.5856697559356
 30
0.0
  0
VERTEX
  5
1F29
330
1F17
100
AcDbEntity
  8
LW 3520-32-00
100
AcDbVertex
100
AcDb2dVertex
 10
43.29805137634275
 20
-122.5717413425445
 30
0.0
  0
VERTEX
  5
1F2A
330
1F17
100
AcDbEntity
  8
LW 3520-32-00
100
AcDbVertex
100
AcDb2dVertex
 10
43.10578944206236
 20
-122.5572371482849
 30
0.0
  0
VERTEX
  5
1F2B
330
1F17
100
AcDbEntity
  8
LW 3520-32-00
100
AcDbVertex
100
AcDb2dVertex
 10
42.9372418117523
 20
-122.5427460670471
 30
0.0
  0
VERTEX
  5
1F2C
330
1F17
100
AcDbEntity
  8
LW 3520-32-00
100
AcDbVertex
100
AcDb2dVertex
 10
42.79067637443541
 20
-122.528851032257
 30
0.0
  0
VERTEX
  5
1F2D
330
1F17
100
AcDbEntity
  8
LW 3520-32-00
100
AcDbVertex
100
AcDb2dVertex
 10
42.67236830711363
 20
-122.516758441925
 30
0.0
  0
VERTEX
  5
1F2E
330
1F17
100
AcDbEntity
  8
LW 3520-32-00
100
AcDbVertex
100
AcDb2dVertex
 10
42.58749248504637
 20
-122.5076186656951
 30
0.0
  0
VERTEX
  5
1F2F
330
1F17
100
AcDbEntity
  8
LW 3520-32-00
100
AcDbVertex
100
AcDb2dVertex
 10
42.53681661605833
 20
-122.5019466876983
 30
0.0
  0
VERTEX
  5
1F30
330
1F17
100
AcDbEntity
  8
LW 3520-32-00
100
AcDbVertex
100
AcDb2dVertex
 10
42.5199997615814
 20
-122.4999999999999
 30
0.0
  0
SEQEND
  5
1F31
330
1F17
100
AcDbEntity
  8
LW 3520-32-00
  0
LINE
  5
1F32
330
1DED
100
AcDbEntity
  8
LW 3520-32-00
100
AcDbLine
 10
48.51999999999998
 20
-157.5
 30
0.0
 11
48.51999999999998
 21
-122.4999999999999
 31
0.0
  0
LINE
  5
1F33
330
1DED
100
AcDbEntity
  8
LW 3520-32-00
100
AcDbLine
 10
51.51999999999998
 20
-154.4999999999999
 30
0.0
 11
51.51999999999998
 21
-125.5
 31
0.0
  0
LINE
  5
1F34
330
1DED
100
AcDbEntity
  8
LW 3520-32-00
100
AcDbLine
 10
28.51999999999998
 20
-122.4999999999999
 30
0.0
 11
42.51999999999998
 21
-122.4999999999999
 31
0.0
  0
LINE
  5
1F35
330
1DED
100
AcDbEntity
  8
LW 3520-32-00
100
AcDbLine
 10
46.51999999999998
 20
-122.4999999999999
 30
0.0
 11
48.51999999999998
 21
-122.4999999999999
 31
0.0
  0
LINE
  5
1F36
330
1DED
100
AcDbEntity
  8
LW 3520-32-00
100
AcDbLine
 10
28.51999999999998
 20
-157.5
 30
0.0
 11
48.51999999999998
 21
-157.5
 31
0.0
  0
LINE
  5
1F37
330
1DED
100
AcDbEntity
  8
LW 3520-32-00
100
AcDbLine
 10
51.51999999999998
 20
-154.4999999999999
 30
0.0
 11
48.51999999999998
 21
-157.5
 31
0.0
  0
LINE
  5
1F38
330
1DED
100
AcDbEntity
  8
LW 3520-32-00
100
AcDbLine
 10
51.51999999999998
 20
-125.5
 30
0.0
 11
48.51999999999998
 21
-122.4999999999999
 31
0.0
  0
ELLIPSE
  5
1F39
330
1DED
100
AcDbEntity
  8
LW 3520-32-00
100
AcDbEllipse
 10
-44.52
 20
-146.25
 30
0.0
 11
-1.999999999999997
 21
0.0000000000001147
 31
0.0
210
0.0
220
0.0
230
1.0
 40
0.8660254037844351
 41
0.7941688477848099
 42
2.347423805805161
  0
POLYLINE
  5
1F3A
330
1DED
100
AcDbEntity
  8
LW 3520-32-00
100
AcDb2dPolyline
 66
     1
 10
0.0
 20
0.0
 30
0.0
 70
   128
  0
VERTEX
  5
1F3B
330
1F3A
100
AcDbEntity
  8
LW 3520-32-00
100
AcDbVertex
100
AcDb2dVertex
 10
-46.51999952316282
 20
-148.75
 30
0.0
  0
VERTEX
  5
1F3C
330
1F3A
100
AcDbEntity
  8
LW 3520-32-00
100
AcDbVertex
100
AcDb2dVertex
 10
-46.50318386077879
 20
-148.5277742147445
 30
0.0
  0
VERTEX
  5
1F3D
330
1F3A
100
AcDbEntity
  8
LW 3520-32-00
100
AcDbVertex
100
AcDb2dVertex
 10
-46.45250799179075
 20
-148.3014559745788
 30
0.0
  0
VERTEX
  5
1F3E
330
1F3A
100
AcDbEntity
  8
LW 3520-32-00
100
AcDbVertex
100
AcDb2dVertex
 10
-46.36763216972349
 20
-148.0785280466079
 30
0.0
  0
VERTEX
  5
1F3F
330
1F3A
100
AcDbEntity
  8
LW 3520-32-00
100
AcDbVertex
100
AcDb2dVertex
 10
-46.24932291030882
 20
-147.8661978244781
 30
0.0
  0
VERTEX
  5
1F40
330
1F3A
100
AcDbEntity
  8
LW 3520-32-00
100
AcDbVertex
100
AcDb2dVertex
 10
-46.10275866508482
 20
-147.6703834533691
 30
0.0
  0
VERTEX
  5
1F41
330
1F3A
100
AcDbEntity
  8
LW 3520-32-00
100
AcDbVertex
100
AcDb2dVertex
 10
-45.93421103477476
 20
-147.4966341257095
 30
0.0
  0
VERTEX
  5
1F42
330
1F3A
100
AcDbEntity
  8
LW 3520-32-00
100
AcDbVertex
100
AcDb2dVertex
 10
-45.74194790840147
 20
-147.3434162139892
 30
0.0
  0
VERTEX
  5
1F43
330
1F3A
100
AcDbEntity
  8
LW 3520-32-00
100
AcDbVertex
100
AcDb2dVertex
 10
-45.52386404991148
 20
-147.2095239162445
 30
0.0
  0
VERTEX
  5
1F44
330
1F3A
100
AcDbEntity
  8
LW 3520-32-00
100
AcDbVertex
100
AcDb2dVertex
 10
-45.28566958427427
 20
-147.1009975671768
 30
0.0
  0
VERTEX
  5
1F45
330
1F3A
100
AcDbEntity
  8
LW 3520-32-00
100
AcDbVertex
100
AcDb2dVertex
 10
-45.0335335922241
 20
-147.0229011774063
 30
0.0
  0
VERTEX
  5
1F46
330
1F3A
100
AcDbEntity
  8
LW 3520-32-00
100
AcDbVertex
100
AcDb2dVertex
 10
-44.77547885894773
 20
-146.9761621952057
 30
0.0
  0
VERTEX
  5
1F47
330
1F3A
100
AcDbEntity
  8
LW 3520-32-00
100
AcDbVertex
100
AcDb2dVertex
 10
-44.52000023841856
 20
-146.9606184959411
 30
0.0
  0
VERTEX
  5
1F48
330
1F3A
100
AcDbEntity
  8
LW 3520-32-00
100
AcDbVertex
100
AcDb2dVertex
 10
-44.26452042579649
 20
-146.9761621952057
 30
0.0
  0
VERTEX
  5
1F49
330
1F3A
100
AcDbEntity
  8
LW 3520-32-00
100
AcDbVertex
100
AcDb2dVertex
 10
-44.00646688461302
 20
-147.0229011774063
 30
0.0
  0
VERTEX
  5
1F4A
330
1F3A
100
AcDbEntity
  8
LW 3520-32-00
100
AcDbVertex
100
AcDb2dVertex
 10
-43.75433089256285
 20
-147.1009975671768
 30
0.0
  0
VERTEX
  5
1F4B
330
1F3A
100
AcDbEntity
  8
LW 3520-32-00
100
AcDbVertex
100
AcDb2dVertex
 10
-43.51613642692564
 20
-147.2095239162445
 30
0.0
  0
VERTEX
  5
1F4C
330
1F3A
100
AcDbEntity
  8
LW 3520-32-00
100
AcDbVertex
100
AcDb2dVertex
 10
-43.29805137634275
 20
-147.3434162139892
 30
0.0
  0
VERTEX
  5
1F4D
330
1F3A
100
AcDbEntity
  8
LW 3520-32-00
100
AcDbVertex
100
AcDb2dVertex
 10
-43.10578944206236
 20
-147.4966341257095
 30
0.0
  0
VERTEX
  5
1F4E
330
1F3A
100
AcDbEntity
  8
LW 3520-32-00
100
AcDbVertex
100
AcDb2dVertex
 10
-42.9372418117523
 20
-147.6703834533691
 30
0.0
  0
VERTEX
  5
1F4F
330
1F3A
100
AcDbEntity
  8
LW 3520-32-00
100
AcDbVertex
100
AcDb2dVertex
 10
-42.79067637443541
 20
-147.8661978244781
 30
0.0
  0
VERTEX
  5
1F50
330
1F3A
100
AcDbEntity
  8
LW 3520-32-00
100
AcDbVertex
100
AcDb2dVertex
 10
-42.67236830711363
 20
-148.0785280466079
 30
0.0
  0
VERTEX
  5
1F51
330
1F3A
100
AcDbEntity
  8
LW 3520-32-00
100
AcDbVertex
100
AcDb2dVertex
 10
-42.58749248504637
 20
-148.3014559745788
 30
0.0
  0
VERTEX
  5
1F52
330
1F3A
100
AcDbEntity
  8
LW 3520-32-00
100
AcDbVertex
100
AcDb2dVertex
 10
-42.53681661605833
 20
-148.5277742147445
 30
0.0
  0
VERTEX
  5
1F53
330
1F3A
100
AcDbEntity
  8
LW 3520-32-00
100
AcDbVertex
100
AcDb2dVertex
 10
-42.5199997615814
 20
-148.75
 30
0.0
  0
SEQEND
  5
1F54
330
1F3A
100
AcDbEntity
  8
LW 3520-32-00
  0
POLYLINE
  5
1F55
330
1DED
100
AcDbEntity
  8
LW 3520-32-00
100
AcDb2dPolyline
 66
     1
 10
0.0
 20
0.0
 30
0.0
 70
   128
  0
VERTEX
  5
1F56
330
1F55
100
AcDbEntity
  8
LW 3520-32-00
100
AcDbVertex
100
AcDb2dVertex
 10
-42.5199997615814
 20
-148.75
 30
0.0
  0
VERTEX
  5
1F57
330
1F55
100
AcDbEntity
  8
LW 3520-32-00
100
AcDbVertex
100
AcDb2dVertex
 10
-42.53681661605833
 20
-148.9702785015106
 30
0.0
  0
VERTEX
  5
1F58
330
1F55
100
AcDbEntity
  8
LW 3520-32-00
100
AcDbVertex
100
AcDb2dVertex
 10
-42.58749248504637
 20
-149.1909259557724
 30
0.0
  0
VERTEX
  5
1F59
330
1F55
100
AcDbEntity
  8
LW 3520-32-00
100
AcDbVertex
100
AcDb2dVertex
 10
-42.67236830711363
 20
-149.4047135114669
 30
0.0
  0
VERTEX
  5
1F5A
330
1F55
100
AcDbEntity
  8
LW 3520-32-00
100
AcDbVertex
100
AcDb2dVertex
 10
-42.79067637443541
 20
-149.6049517393112
 30
0.0
  0
VERTEX
  5
1F5B
330
1F55
100
AcDbEntity
  8
LW 3520-32-00
100
AcDbVertex
100
AcDb2dVertex
 10
-42.9372418117523
 20
-149.7868710756302
 30
0.0
  0
VERTEX
  5
1F5C
330
1F55
100
AcDbEntity
  8
LW 3520-32-00
100
AcDbVertex
100
AcDb2dVertex
 10
-43.10578944206236
 20
-149.946129322052
 30
0.0
  0
VERTEX
  5
1F5D
330
1F55
100
AcDbEntity
  8
LW 3520-32-00
100
AcDbVertex
100
AcDb2dVertex
 10
-43.29805137634275
 20
-150.0848424434662
 30
0.0
  0
VERTEX
  5
1F5E
330
1F55
100
AcDbEntity
  8
LW 3520-32-00
100
AcDbVertex
100
AcDb2dVertex
 10
-43.51613642692564
 20
-150.2048063278198
 30
0.0
  0
VERTEX
  5
1F5F
330
1F55
100
AcDbEntity
  8
LW 3520-32-00
100
AcDbVertex
100
AcDb2dVertex
 10
-43.75433089256285
 20
-150.3011929988861
 30
0.0
  0
VERTEX
  5
1F60
330
1F55
100
AcDbEntity
  8
LW 3520-32-00
100
AcDbVertex
100
AcDb2dVertex
 10
-44.00646688461302
 20
-150.3701031208038
 30
0.0
  0
VERTEX
  5
1F61
330
1F55
100
AcDbEntity
  8
LW 3520-32-00
100
AcDbVertex
100
AcDb2dVertex
 10
-44.26452042579649
 20
-150.411137342453
 30
0.0
  0
VERTEX
  5
1F62
330
1F55
100
AcDbEntity
  8
LW 3520-32-00
100
AcDbVertex
100
AcDb2dVertex
 10
-44.52000023841856
 20
-150.4247200489044
 30
0.0
  0
VERTEX
  5
1F63
330
1F55
100
AcDbEntity
  8
LW 3520-32-00
100
AcDbVertex
100
AcDb2dVertex
 10
-44.77547885894773
 20
-150.411137342453
 30
0.0
  0
VERTEX
  5
1F64
330
1F55
100
AcDbEntity
  8
LW 3520-32-00
100
AcDbVertex
100
AcDb2dVertex
 10
-45.0335335922241
 20
-150.3701031208038
 30
0.0
  0
VERTEX
  5
1F65
330
1F55
100
AcDbEntity
  8
LW 3520-32-00
100
AcDbVertex
100
AcDb2dVertex
 10
-45.28566958427427
 20
-150.3011929988861
 30
0.0
  0
VERTEX
  5
1F66
330
1F55
100
AcDbEntity
  8
LW 3520-32-00
100
AcDbVertex
100
AcDb2dVertex
 10
-45.52386404991148
 20
-150.2048063278198
 30
0.0
  0
VERTEX
  5
1F67
330
1F55
100
AcDbEntity
  8
LW 3520-32-00
100
AcDbVertex
100
AcDb2dVertex
 10
-45.74194790840147
 20
-150.0848424434662
 30
0.0
  0
VERTEX
  5
1F68
330
1F55
100
AcDbEntity
  8
LW 3520-32-00
100
AcDbVertex
100
AcDb2dVertex
 10
-45.93421103477476
 20
-149.946129322052
 30
0.0
  0
VERTEX
  5
1F69
330
1F55
100
AcDbEntity
  8
LW 3520-32-00
100
AcDbVertex
100
AcDb2dVertex
 10
-46.10275866508482
 20
-149.7868710756302
 30
0.0
  0
VERTEX
  5
1F6A
330
1F55
100
AcDbEntity
  8
LW 3520-32-00
100
AcDbVertex
100
AcDb2dVertex
 10
-46.24932291030882
 20
-149.6049517393112
 30
0.0
  0
VERTEX
  5
1F6B
330
1F55
100
AcDbEntity
  8
LW 3520-32-00
100
AcDbVertex
100
AcDb2dVertex
 10
-46.36763216972349
 20
-149.4047135114669
 30
0.0
  0
VERTEX
  5
1F6C
330
1F55
100
AcDbEntity
  8
LW 3520-32-00
100
AcDbVertex
100
AcDb2dVertex
 10
-46.45250799179075
 20
-149.1909259557724
 30
0.0
  0
VERTEX
  5
1F6D
330
1F55
100
AcDbEntity
  8
LW 3520-32-00
100
AcDbVertex
100
AcDb2dVertex
 10
-46.50318386077879
 20
-148.9702785015106
 30
0.0
  0
VERTEX
  5
1F6E
330
1F55
100
AcDbEntity
  8
LW 3520-32-00
100
AcDbVertex
100
AcDb2dVertex
 10
-46.51999952316282
 20
-148.75
 30
0.0
  0
SEQEND
  5
1F6F
330
1F55
100
AcDbEntity
  8
LW 3520-32-00
  0
POLYLINE
  5
1F70
330
1DED
100
AcDbEntity
  8
LW 3520-32-00
100
AcDb2dPolyline
 66
     1
 10
0.0
 20
0.0
 30
0.0
 70
   128
  0
VERTEX
  5
1F71
330
1F70
100
AcDbEntity
  8
LW 3520-32-00
100
AcDbVertex
100
AcDb2dVertex
 10
-42.5199997615814
 20
-122.4999999999999
 30
0.0
  0
VERTEX
  5
1F72
330
1F70
100
AcDbEntity
  8
LW 3520-32-00
100
AcDbVertex
100
AcDb2dVertex
 10
-42.53681661605833
 20
-122.5019466876983
 30
0.0
  0
VERTEX
  5
1F73
330
1F70
100
AcDbEntity
  8
LW 3520-32-00
100
AcDbVertex
100
AcDb2dVertex
 10
-42.58749248504637
 20
-122.5076186656951
 30
0.0
  0
VERTEX
  5
1F74
330
1F70
100
AcDbEntity
  8
LW 3520-32-00
100
AcDbVertex
100
AcDb2dVertex
 10
-42.67236830711363
 20
-122.516758441925
 30
0.0
  0
VERTEX
  5
1F75
330
1F70
100
AcDbEntity
  8
LW 3520-32-00
100
AcDbVertex
100
AcDb2dVertex
 10
-42.79067637443541
 20
-122.528851032257
 30
0.0
  0
VERTEX
  5
1F76
330
1F70
100
AcDbEntity
  8
LW 3520-32-00
100
AcDbVertex
100
AcDb2dVertex
 10
-42.9372418117523
 20
-122.5427460670471
 30
0.0
  0
VERTEX
  5
1F77
330
1F70
100
AcDbEntity
  8
LW 3520-32-00
100
AcDbVertex
100
AcDb2dVertex
 10
-43.10578944206236
 20
-122.5572371482849
 30
0.0
  0
VERTEX
  5
1F78
330
1F70
100
AcDbEntity
  8
LW 3520-32-00
100
AcDbVertex
100
AcDb2dVertex
 10
-43.29805137634275
 20
-122.5717413425445
 30
0.0
  0
VERTEX
  5
1F79
330
1F70
100
AcDbEntity
  8
LW 3520-32-00
100
AcDbVertex
100
AcDb2dVertex
 10
-43.51613642692564
 20
-122.5856697559356
 30
0.0
  0
VERTEX
  5
1F7A
330
1F70
100
AcDbEntity
  8
LW 3520-32-00
100
AcDbVertex
100
AcDb2dVertex
 10
-43.75433089256285
 20
-122.5978088378906
 30
0.0
  0
VERTEX
  5
1F7B
330
1F70
100
AcDbEntity
  8
LW 3520-32-00
100
AcDbVertex
100
AcDb2dVertex
 10
-44.00646688461302
 20
-122.6069951057433
 30
0.0
  0
VERTEX
  5
1F7C
330
1F70
100
AcDbEntity
  8
LW 3520-32-00
100
AcDbVertex
100
AcDb2dVertex
 10
-44.26452042579649
 20
-122.6127004623412
 30
0.0
  0
VERTEX
  5
1F7D
330
1F70
100
AcDbEntity
  8
LW 3520-32-00
100
AcDbVertex
100
AcDb2dVertex
 10
-44.52000023841856
 20
-122.6146614551544
 30
0.0
  0
VERTEX
  5
1F7E
330
1F70
100
AcDbEntity
  8
LW 3520-32-00
100
AcDbVertex
100
AcDb2dVertex
 10
-44.77547885894773
 20
-122.6127004623412
 30
0.0
  0
VERTEX
  5
1F7F
330
1F70
100
AcDbEntity
  8
LW 3520-32-00
100
AcDbVertex
100
AcDb2dVertex
 10
-45.0335335922241
 20
-122.6069951057433
 30
0.0
  0
VERTEX
  5
1F80
330
1F70
100
AcDbEntity
  8
LW 3520-32-00
100
AcDbVertex
100
AcDb2dVertex
 10
-45.28566958427427
 20
-122.5978088378906
 30
0.0
  0
VERTEX
  5
1F81
330
1F70
100
AcDbEntity
  8
LW 3520-32-00
100
AcDbVertex
100
AcDb2dVertex
 10
-45.52386404991148
 20
-122.5856697559356
 30
0.0
  0
VERTEX
  5
1F82
330
1F70
100
AcDbEntity
  8
LW 3520-32-00
100
AcDbVertex
100
AcDb2dVertex
 10
-45.74194790840147
 20
-122.5717413425445
 30
0.0
  0
VERTEX
  5
1F83
330
1F70
100
AcDbEntity
  8
LW 3520-32-00
100
AcDbVertex
100
AcDb2dVertex
 10
-45.93421103477476
 20
-122.5572371482849
 30
0.0
  0
VERTEX
  5
1F84
330
1F70
100
AcDbEntity
  8
LW 3520-32-00
100
AcDbVertex
100
AcDb2dVertex
 10
-46.10275866508482
 20
-122.5427460670471
 30
0.0
  0
VERTEX
  5
1F85
330
1F70
100
AcDbEntity
  8
LW 3520-32-00
100
AcDbVertex
100
AcDb2dVertex
 10
-46.24932291030882
 20
-122.528851032257
 30
0.0
  0
VERTEX
  5
1F86
330
1F70
100
AcDbEntity
  8
LW 3520-32-00
100
AcDbVertex
100
AcDb2dVertex
 10
-46.36763216972349
 20
-122.516758441925
 30
0.0
  0
VERTEX
  5
1F87
330
1F70
100
AcDbEntity
  8
LW 3520-32-00
100
AcDbVertex
100
AcDb2dVertex
 10
-46.45250799179075
 20
-122.5076186656951
 30
0.0
  0
VERTEX
  5
1F88
330
1F70
100
AcDbEntity
  8
LW 3520-32-00
100
AcDbVertex
100
AcDb2dVertex
 10
-46.50318386077879
 20
-122.5019466876983
 30
0.0
  0
VERTEX
  5
1F89
330
1F70
100
AcDbEntity
  8
LW 3520-32-00
100
AcDbVertex
100
AcDb2dVertex
 10
-46.51999952316282
 20
-122.4999999999999
 30
0.0
  0
SEQEND
  5
1F8A
330
1F70
100
AcDbEntity
  8
LW 3520-32-00
  0
LINE
  5
1F8B
330
1DED
100
AcDbEntity
  8
LW 3520-32-00
100
AcDbLine
 10
-48.51999999999998
 20
-122.4999999999999
 30
0.0
 11
-48.51999999999998
 21
-157.5
 31
0.0
  0
LINE
  5
1F8C
330
1DED
100
AcDbEntity
  8
LW 3520-32-00
100
AcDbLine
 10
-51.51999999999998
 20
-125.5
 30
0.0
 11
-51.51999999999998
 21
-154.4999999999999
 31
0.0
  0
LINE
  5
1F8D
330
1DED
100
AcDbEntity
  8
LW 3520-32-00
100
AcDbLine
 10
-28.51999999999998
 20
-157.5
 30
0.0
 11
-48.51999999999998
 21
-157.5
 31
0.0
  0
LINE
  5
1F8E
330
1DED
100
AcDbEntity
  8
LW 3520-32-00
100
AcDbLine
 10
-28.51999999999998
 20
-122.4999999999999
 30
0.0
 11
-42.52000000000001
 21
-122.4999999999999
 31
0.0
  0
LINE
  5
1F8F
330
1DED
100
AcDbEntity
  8
LW 3520-32-00
100
AcDbLine
 10
-46.51999999999998
 20
-122.4999999999999
 30
0.0
 11
-48.51999999999998
 21
-122.4999999999999
 31
0.0
  0
LINE
  5
1F90
330
1DED
100
AcDbEntity
  8
LW 3520-32-00
100
AcDbLine
 10
-51.51999999999998
 20
-125.5
 30
0.0
 11
-48.51999999999998
 21
-122.4999999999999
 31
0.0
  0
LINE
  5
1F91
330
1DED
100
AcDbEntity
  8
LW 3520-32-00
100
AcDbLine
 10
-51.51999999999998
 20
-154.4999999999999
 30
0.0
 11
-48.51999999999998
 21
-157.5
 31
0.0
  0
ELLIPSE
  5
1F92
330
1DED
100
AcDbEntity
  8
LW 3520-32-00
100
AcDbEllipse
 10
-44.52
 20
-66.25
 30
0.0
 11
-1.999999999999942
 21
0.0000000000001831
 31
0.0
210
0.0
220
0.0
230
1.0
 40
0.866025403784473
 41
0.794168847784833
 42
2.347423805805217
  0
POLYLINE
  5
1F93
330
1DED
100
AcDbEntity
  8
LW 3520-32-00
100
AcDb2dPolyline
 66
     1
 10
0.0
 20
0.0
 30
0.0
 70
   128
  0
VERTEX
  5
1F94
330
1F93
100
AcDbEntity
  8
LW 3520-32-00
100
AcDbVertex
100
AcDb2dVertex
 10
-46.51999952316282
 20
-68.75
 30
0.0
  0
VERTEX
  5
1F95
330
1F93
100
AcDbEntity
  8
LW 3520-32-00
100
AcDbVertex
100
AcDb2dVertex
 10
-46.50318386077879
 20
-68.52777421474456
 30
0.0
  0
VERTEX
  5
1F96
330
1F93
100
AcDbEntity
  8
LW 3520-32-00
100
AcDbVertex
100
AcDb2dVertex
 10
-46.45250799179075
 20
-68.30145597457885
 30
0.0
  0
VERTEX
  5
1F97
330
1F93
100
AcDbEntity
  8
LW 3520-32-00
100
AcDbVertex
100
AcDb2dVertex
 10
-46.36763216972349
 20
-68.07852804660797
 30
0.0
  0
VERTEX
  5
1F98
330
1F93
100
AcDbEntity
  8
LW 3520-32-00
100
AcDbVertex
100
AcDb2dVertex
 10
-46.24932291030882
 20
-67.86619782447814
 30
0.0
  0
VERTEX
  5
1F99
330
1F93
100
AcDbEntity
  8
LW 3520-32-00
100
AcDbVertex
100
AcDb2dVertex
 10
-46.10275866508482
 20
-67.67038345336914
 30
0.0
  0
VERTEX
  5
1F9A
330
1F93
100
AcDbEntity
  8
LW 3520-32-00
100
AcDbVertex
100
AcDb2dVertex
 10
-45.93421103477476
 20
-67.49663412570953
 30
0.0
  0
VERTEX
  5
1F9B
330
1F93
100
AcDbEntity
  8
LW 3520-32-00
100
AcDbVertex
100
AcDb2dVertex
 10
-45.74194790840147
 20
-67.34341621398925
 30
0.0
  0
VERTEX
  5
1F9C
330
1F93
100
AcDbEntity
  8
LW 3520-32-00
100
AcDbVertex
100
AcDb2dVertex
 10
-45.52386404991148
 20
-67.2095239162445
 30
0.0
  0
VERTEX
  5
1F9D
330
1F93
100
AcDbEntity
  8
LW 3520-32-00
100
AcDbVertex
100
AcDb2dVertex
 10
-45.28566958427427
 20
-67.10099756717681
 30
0.0
  0
VERTEX
  5
1F9E
330
1F93
100
AcDbEntity
  8
LW 3520-32-00
100
AcDbVertex
100
AcDb2dVertex
 10
-45.0335335922241
 20
-67.02290117740631
 30
0.0
  0
VERTEX
  5
1F9F
330
1F93
100
AcDbEntity
  8
LW 3520-32-00
100
AcDbVertex
100
AcDb2dVertex
 10
-44.77547885894773
 20
-66.97616219520568
 30
0.0
  0
VERTEX
  5
1FA0
330
1F93
100
AcDbEntity
  8
LW 3520-32-00
100
AcDbVertex
100
AcDb2dVertex
 10
-44.52000023841856
 20
-66.96061849594116
 30
0.0
  0
VERTEX
  5
1FA1
330
1F93
100
AcDbEntity
  8
LW 3520-32-00
100
AcDbVertex
100
AcDb2dVertex
 10
-44.26452042579649
 20
-66.97616219520568
 30
0.0
  0
VERTEX
  5
1FA2
330
1F93
100
AcDbEntity
  8
LW 3520-32-00
100
AcDbVertex
100
AcDb2dVertex
 10
-44.00646688461302
 20
-67.02290117740631
 30
0.0
  0
VERTEX
  5
1FA3
330
1F93
100
AcDbEntity
  8
LW 3520-32-00
100
AcDbVertex
100
AcDb2dVertex
 10
-43.75433089256285
 20
-67.10099756717681
 30
0.0
  0
VERTEX
  5
1FA4
330
1F93
100
AcDbEntity
  8
LW 3520-32-00
100
AcDbVertex
100
AcDb2dVertex
 10
-43.51613642692564
 20
-67.2095239162445
 30
0.0
  0
VERTEX
  5
1FA5
330
1F93
100
AcDbEntity
  8
LW 3520-32-00
100
AcDbVertex
100
AcDb2dVertex
 10
-43.29805137634275
 20
-67.34341621398925
 30
0.0
  0
VERTEX
  5
1FA6
330
1F93
100
AcDbEntity
  8
LW 3520-32-00
100
AcDbVertex
100
AcDb2dVertex
 10
-43.10578944206236
 20
-67.49663412570953
 30
0.0
  0
VERTEX
  5
1FA7
330
1F93
100
AcDbEntity
  8
LW 3520-32-00
100
AcDbVertex
100
AcDb2dVertex
 10
-42.9372418117523
 20
-67.67038345336914
 30
0.0
  0
VERTEX
  5
1FA8
330
1F93
100
AcDbEntity
  8
LW 3520-32-00
100
AcDbVertex
100
AcDb2dVertex
 10
-42.79067637443541
 20
-67.86619782447814
 30
0.0
  0
VERTEX
  5
1FA9
330
1F93
100
AcDbEntity
  8
LW 3520-32-00
100
AcDbVertex
100
AcDb2dVertex
 10
-42.67236830711363
 20
-68.07852804660797
 30
0.0
  0
VERTEX
  5
1FAA
330
1F93
100
AcDbEntity
  8
LW 3520-32-00
100
AcDbVertex
100
AcDb2dVertex
 10
-42.58749248504637
 20
-68.30145597457885
 30
0.0
  0
VERTEX
  5
1FAB
330
1F93
100
AcDbEntity
  8
LW 3520-32-00
100
AcDbVertex
100
AcDb2dVertex
 10
-42.53681661605833
 20
-68.52777421474456
 30
0.0
  0
VERTEX
  5
1FAC
330
1F93
100
AcDbEntity
  8
LW 3520-32-00
100
AcDbVertex
100
AcDb2dVertex
 10
-42.5199997615814
 20
-68.75
 30
0.0
  0
SEQEND
  5
1FAD
330
1F93
100
AcDbEntity
  8
LW 3520-32-00
  0
POLYLINE
  5
1FAE
330
1DED
100
AcDbEntity
  8
LW 3520-32-00
100
AcDb2dPolyline
 66
     1
 10
0.0
 20
0.0
 30
0.0
 70
   128
  0
VERTEX
  5
1FAF
330
1FAE
100
AcDbEntity
  8
LW 3520-32-00
100
AcDbVertex
100
AcDb2dVertex
 10
-42.5199997615814
 20
-68.75
 30
0.0
  0
VERTEX
  5
1FB0
330
1FAE
100
AcDbEntity
  8
LW 3520-32-00
100
AcDbVertex
100
AcDb2dVertex
 10
-42.53681661605833
 20
-68.97027850151062
 30
0.0
  0
VERTEX
  5
1FB1
330
1FAE
100
AcDbEntity
  8
LW 3520-32-00
100
AcDbVertex
100
AcDb2dVertex
 10
-42.58749248504637
 20
-69.19092595577239
 30
0.0
  0
VERTEX
  5
1FB2
330
1FAE
100
AcDbEntity
  8
LW 3520-32-00
100
AcDbVertex
100
AcDb2dVertex
 10
-42.67236830711363
 20
-69.40471351146697
 30
0.0
  0
VERTEX
  5
1FB3
330
1FAE
100
AcDbEntity
  8
LW 3520-32-00
100
AcDbVertex
100
AcDb2dVertex
 10
-42.79067637443541
 20
-69.60495173931121
 30
0.0
  0
VERTEX
  5
1FB4
330
1FAE
100
AcDbEntity
  8
LW 3520-32-00
100
AcDbVertex
100
AcDb2dVertex
 10
-42.9372418117523
 20
-69.78687107563018
 30
0.0
  0
VERTEX
  5
1FB5
330
1FAE
100
AcDbEntity
  8
LW 3520-32-00
100
AcDbVertex
100
AcDb2dVertex
 10
-43.10578944206236
 20
-69.946129322052
 30
0.0
  0
VERTEX
  5
1FB6
330
1FAE
100
AcDbEntity
  8
LW 3520-32-00
100
AcDbVertex
100
AcDb2dVertex
 10
-43.29805137634275
 20
-70.08484244346618
 30
0.0
  0
VERTEX
  5
1FB7
330
1FAE
100
AcDbEntity
  8
LW 3520-32-00
100
AcDbVertex
100
AcDb2dVertex
 10
-43.51613642692564
 20
-70.20480632781982
 30
0.0
  0
VERTEX
  5
1FB8
330
1FAE
100
AcDbEntity
  8
LW 3520-32-00
100
AcDbVertex
100
AcDb2dVertex
 10
-43.75433089256285
 20
-70.3011929988861
 30
0.0
  0
VERTEX
  5
1FB9
330
1FAE
100
AcDbEntity
  8
LW 3520-32-00
100
AcDbVertex
100
AcDb2dVertex
 10
-44.00646688461302
 20
-70.37010312080383
 30
0.0
  0
VERTEX
  5
1FBA
330
1FAE
100
AcDbEntity
  8
LW 3520-32-00
100
AcDbVertex
100
AcDb2dVertex
 10
-44.26452042579649
 20
-70.411137342453
 30
0.0
  0
VERTEX
  5
1FBB
330
1FAE
100
AcDbEntity
  8
LW 3520-32-00
100
AcDbVertex
100
AcDb2dVertex
 10
-44.52000023841856
 20
-70.42472004890441
 30
0.0
  0
VERTEX
  5
1FBC
330
1FAE
100
AcDbEntity
  8
LW 3520-32-00
100
AcDbVertex
100
AcDb2dVertex
 10
-44.77547885894773
 20
-70.411137342453
 30
0.0
  0
VERTEX
  5
1FBD
330
1FAE
100
AcDbEntity
  8
LW 3520-32-00
100
AcDbVertex
100
AcDb2dVertex
 10
-45.0335335922241
 20
-70.37010312080383
 30
0.0
  0
VERTEX
  5
1FBE
330
1FAE
100
AcDbEntity
  8
LW 3520-32-00
100
AcDbVertex
100
AcDb2dVertex
 10
-45.28566958427427
 20
-70.3011929988861
 30
0.0
  0
VERTEX
  5
1FBF
330
1FAE
100
AcDbEntity
  8
LW 3520-32-00
100
AcDbVertex
100
AcDb2dVertex
 10
-45.52386404991148
 20
-70.20480632781982
 30
0.0
  0
VERTEX
  5
1FC0
330
1FAE
100
AcDbEntity
  8
LW 3520-32-00
100
AcDbVertex
100
AcDb2dVertex
 10
-45.74194790840147
 20
-70.08484244346618
 30
0.0
  0
VERTEX
  5
1FC1
330
1FAE
100
AcDbEntity
  8
LW 3520-32-00
100
AcDbVertex
100
AcDb2dVertex
 10
-45.93421103477476
 20
-69.946129322052
 30
0.0
  0
VERTEX
  5
1FC2
330
1FAE
100
AcDbEntity
  8
LW 3520-32-00
100
AcDbVertex
100
AcDb2dVertex
 10
-46.10275866508482
 20
-69.78687107563018
 30
0.0
  0
VERTEX
  5
1FC3
330
1FAE
100
AcDbEntity
  8
LW 3520-32-00
100
AcDbVertex
100
AcDb2dVertex
 10
-46.24932291030882
 20
-69.60495173931121
 30
0.0
  0
VERTEX
  5
1FC4
330
1FAE
100
AcDbEntity
  8
LW 3520-32-00
100
AcDbVertex
100
AcDb2dVertex
 10
-46.36763216972349
 20
-69.40471351146697
 30
0.0
  0
VERTEX
  5
1FC5
330
1FAE
100
AcDbEntity
  8
LW 3520-32-00
100
AcDbVertex
100
AcDb2dVertex
 10
-46.45250799179075
 20
-69.19092595577239
 30
0.0
  0
VERTEX
  5
1FC6
330
1FAE
100
AcDbEntity
  8
LW 3520-32-00
100
AcDbVertex
100
AcDb2dVertex
 10
-46.50318386077879
 20
-68.97027850151062
 30
0.0
  0
VERTEX
  5
1FC7
330
1FAE
100
AcDbEntity
  8
LW 3520-32-00
100
AcDbVertex
100
AcDb2dVertex
 10
-46.51999952316282
 20
-68.75
 30
0.0
  0
SEQEND
  5
1FC8
330
1FAE
100
AcDbEntity
  8
LW 3520-32-00
  0
POLYLINE
  5
1FC9
330
1DED
100
AcDbEntity
  8
LW 3520-32-00
100
AcDb2dPolyline
 66
     1
 10
0.0
 20
0.0
 30
0.0
 70
   128
  0
VERTEX
  5
1FCA
330
1FC9
100
AcDbEntity
  8
LW 3520-32-00
100
AcDbVertex
100
AcDb2dVertex
 10
-42.5199997615814
 20
-42.5
 30
0.0
  0
VERTEX
  5
1FCB
330
1FC9
100
AcDbEntity
  8
LW 3520-32-00
100
AcDbVertex
100
AcDb2dVertex
 10
-42.53681661605833
 20
-42.50194668769836
 30
0.0
  0
VERTEX
  5
1FCC
330
1FC9
100
AcDbEntity
  8
LW 3520-32-00
100
AcDbVertex
100
AcDb2dVertex
 10
-42.58749248504637
 20
-42.50761866569519
 30
0.0
  0
VERTEX
  5
1FCD
330
1FC9
100
AcDbEntity
  8
LW 3520-32-00
100
AcDbVertex
100
AcDb2dVertex
 10
-42.67236830711363
 20
-42.51675844192504
 30
0.0
  0
VERTEX
  5
1FCE
330
1FC9
100
AcDbEntity
  8
LW 3520-32-00
100
AcDbVertex
100
AcDb2dVertex
 10
-42.79067637443541
 20
-42.52885103225708
 30
0.0
  0
VERTEX
  5
1FCF
330
1FC9
100
AcDbEntity
  8
LW 3520-32-00
100
AcDbVertex
100
AcDb2dVertex
 10
-42.9372418117523
 20
-42.54274606704711
 30
0.0
  0
VERTEX
  5
1FD0
330
1FC9
100
AcDbEntity
  8
LW 3520-32-00
100
AcDbVertex
100
AcDb2dVertex
 10
-43.10578944206236
 20
-42.55723714828491
 30
0.0
  0
VERTEX
  5
1FD1
330
1FC9
100
AcDbEntity
  8
LW 3520-32-00
100
AcDbVertex
100
AcDb2dVertex
 10
-43.29805137634275
 20
-42.57174134254455
 30
0.0
  0
VERTEX
  5
1FD2
330
1FC9
100
AcDbEntity
  8
LW 3520-32-00
100
AcDbVertex
100
AcDb2dVertex
 10
-43.51613642692564
 20
-42.58566975593566
 30
0.0
  0
VERTEX
  5
1FD3
330
1FC9
100
AcDbEntity
  8
LW 3520-32-00
100
AcDbVertex
100
AcDb2dVertex
 10
-43.75433089256285
 20
-42.59780883789062
 30
0.0
  0
VERTEX
  5
1FD4
330
1FC9
100
AcDbEntity
  8
LW 3520-32-00
100
AcDbVertex
100
AcDb2dVertex
 10
-44.00646688461302
 20
-42.6069951057434
 30
0.0
  0
VERTEX
  5
1FD5
330
1FC9
100
AcDbEntity
  8
LW 3520-32-00
100
AcDbVertex
100
AcDb2dVertex
 10
-44.26452042579649
 20
-42.6127004623413
 30
0.0
  0
VERTEX
  5
1FD6
330
1FC9
100
AcDbEntity
  8
LW 3520-32-00
100
AcDbVertex
100
AcDb2dVertex
 10
-44.52000023841856
 20
-42.61466145515441
 30
0.0
  0
VERTEX
  5
1FD7
330
1FC9
100
AcDbEntity
  8
LW 3520-32-00
100
AcDbVertex
100
AcDb2dVertex
 10
-44.77547885894773
 20
-42.6127004623413
 30
0.0
  0
VERTEX
  5
1FD8
330
1FC9
100
AcDbEntity
  8
LW 3520-32-00
100
AcDbVertex
100
AcDb2dVertex
 10
-45.0335335922241
 20
-42.6069951057434
 30
0.0
  0
VERTEX
  5
1FD9
330
1FC9
100
AcDbEntity
  8
LW 3520-32-00
100
AcDbVertex
100
AcDb2dVertex
 10
-45.28566958427427
 20
-42.59780883789062
 30
0.0
  0
VERTEX
  5
1FDA
330
1FC9
100
AcDbEntity
  8
LW 3520-32-00
100
AcDbVertex
100
AcDb2dVertex
 10
-45.52386404991148
 20
-42.58566975593566
 30
0.0
  0
VERTEX
  5
1FDB
330
1FC9
100
AcDbEntity
  8
LW 3520-32-00
100
AcDbVertex
100
AcDb2dVertex
 10
-45.74194790840147
 20
-42.57174134254455
 30
0.0
  0
VERTEX
  5
1FDC
330
1FC9
100
AcDbEntity
  8
LW 3520-32-00
100
AcDbVertex
100
AcDb2dVertex
 10
-45.93421103477476
 20
-42.55723714828491
 30
0.0
  0
VERTEX
  5
1FDD
330
1FC9
100
AcDbEntity
  8
LW 3520-32-00
100
AcDbVertex
100
AcDb2dVertex
 10
-46.10275866508482
 20
-42.54274606704711
 30
0.0
  0
VERTEX
  5
1FDE
330
1FC9
100
AcDbEntity
  8
LW 3520-32-00
100
AcDbVertex
100
AcDb2dVertex
 10
-46.24932291030882
 20
-42.52885103225708
 30
0.0
  0
VERTEX
  5
1FDF
330
1FC9
100
AcDbEntity
  8
LW 3520-32-00
100
AcDbVertex
100
AcDb2dVertex
 10
-46.36763216972349
 20
-42.51675844192504
 30
0.0
  0
VERTEX
  5
1FE0
330
1FC9
100
AcDbEntity
  8
LW 3520-32-00
100
AcDbVertex
100
AcDb2dVertex
 10
-46.45250799179075
 20
-42.50761866569519
 30
0.0
  0
VERTEX
  5
1FE1
330
1FC9
100
AcDbEntity
  8
LW 3520-32-00
100
AcDbVertex
100
AcDb2dVertex
 10
-46.50318386077879
 20
-42.50194668769836
 30
0.0
  0
VERTEX
  5
1FE2
330
1FC9
100
AcDbEntity
  8
LW 3520-32-00
100
AcDbVertex
100
AcDb2dVertex
 10
-46.51999952316282
 20
-42.5
 30
0.0
  0
SEQEND
  5
1FE3
330
1FC9
100
AcDbEntity
  8
LW 3520-32-00
  0
LINE
  5
1FE4
330
1DED
100
AcDbEntity
  8
LW 3520-32-00
100
AcDbLine
 10
-48.51999999999998
 20
-42.5
 30
0.0
 11
-48.51999999999998
 21
-77.5
 31
0.0
  0
LINE
  5
1FE5
330
1DED
100
AcDbEntity
  8
LW 3520-32-00
100
AcDbLine
 10
-51.51999999999998
 20
-45.49999999999999
 30
0.0
 11
-51.51999999999998
 21
-74.49999999999994
 31
0.0
  0
LINE
  5
1FE6
330
1DED
100
AcDbEntity
  8
LW 3520-32-00
100
AcDbLine
 10
-28.51999999999998
 20
-77.5
 30
0.0
 11
-48.51999999999998
 21
-77.5
 31
0.0
  0
LINE
  5
1FE7
330
1DED
100
AcDbEntity
  8
LW 3520-32-00
100
AcDbLine
 10
-28.51999999999998
 20
-42.5
 30
0.0
 11
-42.52000000000001
 21
-42.5
 31
0.0
  0
LINE
  5
1FE8
330
1DED
100
AcDbEntity
  8
LW 3520-32-00
100
AcDbLine
 10
-46.51999999999998
 20
-42.5
 30
0.0
 11
-48.51999999999998
 21
-42.5
 31
0.0
  0
LINE
  5
1FE9
330
1DED
100
AcDbEntity
  8
LW 3520-32-00
100
AcDbLine
 10
-51.51999999999998
 20
-45.49999999999999
 30
0.0
 11
-48.51999999999998
 21
-42.5
 31
0.0
  0
LINE
  5
1FEA
330
1DED
100
AcDbEntity
  8
LW 3520-32-00
100
AcDbLine
 10
-51.51999999999998
 20
-74.49999999999994
 30
0.0
 11
-48.51999999999998
 21
-77.5
 31
0.0
  0
ELLIPSE
  5
1FEB
330
1DED
100
AcDbEntity
  8
LW 3520-32-00
100
AcDbEllipse
 10
-93.27000000000003
 20
-30.0
 30
0.0
 11
0.0000000000001952
 21
2.00000000000002
 31
0.0
210
0.0
220
0.0
230
1.0
 40
0.866025403784425
 41
3.935761501374648
 42
5.489016459394978
  0
POLYLINE
  5
1FEC
330
1DED
100
AcDbEntity
  8
LW 3520-32-00
100
AcDb2dPolyline
 66
     1
 10
0.0
 20
0.0
 30
0.0
 70
   128
  0
VERTEX
  5
1FED
330
1FEC
100
AcDbEntity
  8
LW 3520-32-00
100
AcDbVertex
100
AcDb2dVertex
 10
-90.77000000000003
 20
-31.99999952316284
 30
0.0
  0
VERTEX
  5
1FEE
330
1FEC
100
AcDbEntity
  8
LW 3520-32-00
100
AcDbVertex
100
AcDb2dVertex
 10
-90.99222578525546
 20
-31.98318386077881
 30
0.0
  0
VERTEX
  5
1FEF
330
1FEC
100
AcDbEntity
  8
LW 3520-32-00
100
AcDbVertex
100
AcDb2dVertex
 10
-91.21854402542117
 20
-31.93250799179077
 30
0.0
  0
VERTEX
  5
1FF0
330
1FEC
100
AcDbEntity
  8
LW 3520-32-00
100
AcDbVertex
100
AcDb2dVertex
 10
-91.44147195339206
 20
-31.84763216972351
 30
0.0
  0
VERTEX
  5
1FF1
330
1FEC
100
AcDbEntity
  8
LW 3520-32-00
100
AcDbVertex
100
AcDb2dVertex
 10
-91.65380217552188
 20
-31.72932291030884
 30
0.0
  0
VERTEX
  5
1FF2
330
1FEC
100
AcDbEntity
  8
LW 3520-32-00
100
AcDbVertex
100
AcDb2dVertex
 10
-91.84961654663089
 20
-31.58275866508484
 30
0.0
  0
VERTEX
  5
1FF3
330
1FEC
100
AcDbEntity
  8
LW 3520-32-00
100
AcDbVertex
100
AcDb2dVertex
 10
-92.0233658742905
 20
-31.41421103477478
 30
0.0
  0
VERTEX
  5
1FF4
330
1FEC
100
AcDbEntity
  8
LW 3520-32-00
100
AcDbVertex
100
AcDb2dVertex
 10
-92.17658378601077
 20
-31.22194790840149
 30
0.0
  0
VERTEX
  5
1FF5
330
1FEC
100
AcDbEntity
  8
LW 3520-32-00
100
AcDbVertex
100
AcDb2dVertex
 10
-92.31047608375552
 20
-31.0038640499115
 30
0.0
  0
VERTEX
  5
1FF6
330
1FEC
100
AcDbEntity
  8
LW 3520-32-00
100
AcDbVertex
100
AcDb2dVertex
 10
-92.41900243282321
 20
-30.76566958427429
 30
0.0
  0
VERTEX
  5
1FF7
330
1FEC
100
AcDbEntity
  8
LW 3520-32-00
100
AcDbVertex
100
AcDb2dVertex
 10
-92.49709882259372
 20
-30.51353359222412
 30
0.0
  0
VERTEX
  5
1FF8
330
1FEC
100
AcDbEntity
  8
LW 3520-32-00
100
AcDbVertex
100
AcDb2dVertex
 10
-92.54383780479434
 20
-30.25547885894776
 30
0.0
  0
VERTEX
  5
1FF9
330
1FEC
100
AcDbEntity
  8
LW 3520-32-00
100
AcDbVertex
100
AcDb2dVertex
 10
-92.55938150405887
 20
-30.00000023841858
 30
0.0
  0
VERTEX
  5
1FFA
330
1FEC
100
AcDbEntity
  8
LW 3520-32-00
100
AcDbVertex
100
AcDb2dVertex
 10
-92.54383780479434
 20
-29.74452042579651
 30
0.0
  0
VERTEX
  5
1FFB
330
1FEC
100
AcDbEntity
  8
LW 3520-32-00
100
AcDbVertex
100
AcDb2dVertex
 10
-92.49709882259372
 20
-29.48646688461304
 30
0.0
  0
VERTEX
  5
1FFC
330
1FEC
100
AcDbEntity
  8
LW 3520-32-00
100
AcDbVertex
100
AcDb2dVertex
 10
-92.41900243282321
 20
-29.23433089256287
 30
0.0
  0
VERTEX
  5
1FFD
330
1FEC
100
AcDbEntity
  8
LW 3520-32-00
100
AcDbVertex
100
AcDb2dVertex
 10
-92.31047608375552
 20
-28.99613642692566
 30
0.0
  0
VERTEX
  5
1FFE
330
1FEC
100
AcDbEntity
  8
LW 3520-32-00
100
AcDbVertex
100
AcDb2dVertex
 10
-92.17658378601077
 20
-28.77805137634278
 30
0.0
  0
VERTEX
  5
1FFF
330
1FEC
100
AcDbEntity
  8
LW 3520-32-00
100
AcDbVertex
100
AcDb2dVertex
 10
-92.0233658742905
 20
-28.58578944206238
 30
0.0
  0
VERTEX
  5
2000
330
1FEC
100
AcDbEntity
  8
LW 3520-32-00
100
AcDbVertex
100
AcDb2dVertex
 10
-91.84961654663089
 20
-28.41724181175232
 30
0.0
  0
VERTEX
  5
2001
330
1FEC
100
AcDbEntity
  8
LW 3520-32-00
100
AcDbVertex
100
AcDb2dVertex
 10
-91.65380217552188
 20
-28.27067637443543
 30
0.0
  0
VERTEX
  5
2002
330
1FEC
100
AcDbEntity
  8
LW 3520-32-00
100
AcDbVertex
100
AcDb2dVertex
 10
-91.44147195339206
 20
-28.15236830711365
 30
0.0
  0
VERTEX
  5
2003
330
1FEC
100
AcDbEntity
  8
LW 3520-32-00
100
AcDbVertex
100
AcDb2dVertex
 10
-91.21854402542117
 20
-28.06749248504639
 30
0.0
  0
VERTEX
  5
2004
330
1FEC
100
AcDbEntity
  8
LW 3520-32-00
100
AcDbVertex
100
AcDb2dVertex
 10
-90.99222578525546
 20
-28.01681661605835
 30
0.0
  0
VERTEX
  5
2005
330
1FEC
100
AcDbEntity
  8
LW 3520-32-00
100
AcDbVertex
100
AcDb2dVertex
 10
-90.77000000000003
 20
-27.99999976158142
 30
0.0
  0
SEQEND
  5
2006
330
1FEC
100
AcDbEntity
  8
LW 3520-32-00
  0
POLYLINE
  5
2007
330
1DED
100
AcDbEntity
  8
LW 3520-32-00
100
AcDb2dPolyline
 66
     1
 10
0.0
 20
0.0
 30
0.0
 70
   128
  0
VERTEX
  5
2008
330
2007
100
AcDbEntity
  8
LW 3520-32-00
100
AcDbVertex
100
AcDb2dVertex
 10
-90.77000000000003
 20
-27.99999976158142
 30
0.0
  0
VERTEX
  5
2009
330
2007
100
AcDbEntity
  8
LW 3520-32-00
100
AcDbVertex
100
AcDb2dVertex
 10
-90.54972149848941
 20
-28.01681661605835
 30
0.0
  0
VERTEX
  5
200A
330
2007
100
AcDbEntity
  8
LW 3520-32-00
100
AcDbVertex
100
AcDb2dVertex
 10
-90.32907404422763
 20
-28.06749248504639
 30
0.0
  0
VERTEX
  5
200B
330
2007
100
AcDbEntity
  8
LW 3520-32-00
100
AcDbVertex
100
AcDb2dVertex
 10
-90.11528648853305
 20
-28.15236830711365
 30
0.0
  0
VERTEX
  5
200C
330
2007
100
AcDbEntity
  8
LW 3520-32-00
100
AcDbVertex
100
AcDb2dVertex
 10
-89.91504826068881
 20
-28.27067637443543
 30
0.0
  0
VERTEX
  5
200D
330
2007
100
AcDbEntity
  8
LW 3520-32-00
100
AcDbVertex
100
AcDb2dVertex
 10
-89.73312892436984
 20
-28.41724181175232
 30
0.0
  0
VERTEX
  5
200E
330
2007
100
AcDbEntity
  8
LW 3520-32-00
100
AcDbVertex
100
AcDb2dVertex
 10
-89.57387067794803
 20
-28.58578944206238
 30
0.0
  0
VERTEX
  5
200F
330
2007
100
AcDbEntity
  8
LW 3520-32-00
100
AcDbVertex
100
AcDb2dVertex
 10
-89.43515755653384
 20
-28.77805137634278
 30
0.0
  0
VERTEX
  5
2010
330
2007
100
AcDbEntity
  8
LW 3520-32-00
100
AcDbVertex
100
AcDb2dVertex
 10
-89.31519367218021
 20
-28.99613642692566
 30
0.0
  0
VERTEX
  5
2011
330
2007
100
AcDbEntity
  8
LW 3520-32-00
100
AcDbVertex
100
AcDb2dVertex
 10
-89.21880700111392
 20
-29.23433089256287
 30
0.0
  0
VERTEX
  5
2012
330
2007
100
AcDbEntity
  8
LW 3520-32-00
100
AcDbVertex
100
AcDb2dVertex
 10
-89.1498968791962
 20
-29.48646688461304
 30
0.0
  0
VERTEX
  5
2013
330
2007
100
AcDbEntity
  8
LW 3520-32-00
100
AcDbVertex
100
AcDb2dVertex
 10
-89.10886265754703
 20
-29.74452042579651
 30
0.0
  0
VERTEX
  5
2014
330
2007
100
AcDbEntity
  8
LW 3520-32-00
100
AcDbVertex
100
AcDb2dVertex
 10
-89.09527995109561
 20
-30.00000023841858
 30
0.0
  0
VERTEX
  5
2015
330
2007
100
AcDbEntity
  8
LW 3520-32-00
100
AcDbVertex
100
AcDb2dVertex
 10
-89.10886265754703
 20
-30.25547885894776
 30
0.0
  0
VERTEX
  5
2016
330
2007
100
AcDbEntity
  8
LW 3520-32-00
100
AcDbVertex
100
AcDb2dVertex
 10
-89.1498968791962
 20
-30.51353359222412
 30
0.0
  0
VERTEX
  5
2017
330
2007
100
AcDbEntity
  8
LW 3520-32-00
100
AcDbVertex
100
AcDb2dVertex
 10
-89.21880700111392
 20
-30.76566958427429
 30
0.0
  0
VERTEX
  5
2018
330
2007
100
AcDbEntity
  8
LW 3520-32-00
100
AcDbVertex
100
AcDb2dVertex
 10
-89.31519367218021
 20
-31.0038640499115
 30
0.0
  0
VERTEX
  5
2019
330
2007
100
AcDbEntity
  8
LW 3520-32-00
100
AcDbVertex
100
AcDb2dVertex
 10
-89.43515755653384
 20
-31.22194790840149
 30
0.0
  0
VERTEX
  5
201A
330
2007
100
AcDbEntity
  8
LW 3520-32-00
100
AcDbVertex
100
AcDb2dVertex
 10
-89.57387067794803
 20
-31.41421103477478
 30
0.0
  0
VERTEX
  5
201B
330
2007
100
AcDbEntity
  8
LW 3520-32-00
100
AcDbVertex
100
AcDb2dVertex
 10
-89.73312892436984
 20
-31.58275866508484
 30
0.0
  0
VERTEX
  5
201C
330
2007
100
AcDbEntity
  8
LW 3520-32-00
100
AcDbVertex
100
AcDb2dVertex
 10
-89.91504826068881
 20
-31.72932291030884
 30
0.0
  0
VERTEX
  5
201D
330
2007
100
AcDbEntity
  8
LW 3520-32-00
100
AcDbVertex
100
AcDb2dVertex
 10
-90.11528648853305
 20
-31.84763216972351
 30
0.0
  0
VERTEX
  5
201E
330
2007
100
AcDbEntity
  8
LW 3520-32-00
100
AcDbVertex
100
AcDb2dVertex
 10
-90.32907404422763
 20
-31.93250799179077
 30
0.0
  0
VERTEX
  5
201F
330
2007
100
AcDbEntity
  8
LW 3520-32-00
100
AcDbVertex
100
AcDb2dVertex
 10
-90.54972149848941
 20
-31.98318386077881
 30
0.0
  0
VERTEX
  5
2020
330
2007
100
AcDbEntity
  8
LW 3520-32-00
100
AcDbVertex
100
AcDb2dVertex
 10
-90.77000000000003
 20
-31.99999952316284
 30
0.0
  0
SEQEND
  5
2021
330
2007
100
AcDbEntity
  8
LW 3520-32-00
  0
POLYLINE
  5
2022
330
1DED
100
AcDbEntity
  8
LW 3520-32-00
100
AcDb2dPolyline
 66
     1
 10
0.0
 20
0.0
 30
0.0
 70
   128
  0
VERTEX
  5
2023
330
2022
100
AcDbEntity
  8
LW 3520-32-00
100
AcDbVertex
100
AcDb2dVertex
 10
-117.02
 20
-27.99999976158142
 30
0.0
  0
VERTEX
  5
2024
330
2022
100
AcDbEntity
  8
LW 3520-32-00
100
AcDbVertex
100
AcDb2dVertex
 10
-117.0180533123017
 20
-28.01681661605835
 30
0.0
  0
VERTEX
  5
2025
330
2022
100
AcDbEntity
  8
LW 3520-32-00
100
AcDbVertex
100
AcDb2dVertex
 10
-117.0123813343048
 20
-28.06749248504639
 30
0.0
  0
VERTEX
  5
2026
330
2022
100
AcDbEntity
  8
LW 3520-32-00
100
AcDbVertex
100
AcDb2dVertex
 10
-117.003241558075
 20
-28.15236830711365
 30
0.0
  0
VERTEX
  5
2027
330
2022
100
AcDbEntity
  8
LW 3520-32-00
100
AcDbVertex
100
AcDb2dVertex
 10
-116.9911489677429
 20
-28.27067637443543
 30
0.0
  0
VERTEX
  5
2028
330
2022
100
AcDbEntity
  8
LW 3520-32-00
100
AcDbVertex
100
AcDb2dVertex
 10
-116.9772539329529
 20
-28.41724181175232
 30
0.0
  0
VERTEX
  5
2029
330
2022
100
AcDbEntity
  8
LW 3520-32-00
100
AcDbVertex
100
AcDb2dVertex
 10
-116.9627628517151
 20
-28.58578944206238
 30
0.0
  0
VERTEX
  5
202A
330
2022
100
AcDbEntity
  8
LW 3520-32-00
100
AcDbVertex
100
AcDb2dVertex
 10
-116.9482586574555
 20
-28.77805137634278
 30
0.0
  0
VERTEX
  5
202B
330
2022
100
AcDbEntity
  8
LW 3520-32-00
100
AcDbVertex
100
AcDb2dVertex
 10
-116.9343302440643
 20
-28.99613642692566
 30
0.0
  0
VERTEX
  5
202C
330
2022
100
AcDbEntity
  8
LW 3520-32-00
100
AcDbVertex
100
AcDb2dVertex
 10
-116.9221911621094
 20
-29.23433089256287
 30
0.0
  0
VERTEX
  5
202D
330
2022
100
AcDbEntity
  8
LW 3520-32-00
100
AcDbVertex
100
AcDb2dVertex
 10
-116.9130048942566
 20
-29.48646688461304
 30
0.0
  0
VERTEX
  5
202E
330
2022
100
AcDbEntity
  8
LW 3520-32-00
100
AcDbVertex
100
AcDb2dVertex
 10
-116.9072995376587
 20
-29.74452042579651
 30
0.0
  0
VERTEX
  5
202F
330
2022
100
AcDbEntity
  8
LW 3520-32-00
100
AcDbVertex
100
AcDb2dVertex
 10
-116.9053385448456
 20
-30.00000023841858
 30
0.0
  0
VERTEX
  5
2030
330
2022
100
AcDbEntity
  8
LW 3520-32-00
100
AcDbVertex
100
AcDb2dVertex
 10
-116.9072995376587
 20
-30.25547885894776
 30
0.0
  0
VERTEX
  5
2031
330
2022
100
AcDbEntity
  8
LW 3520-32-00
100
AcDbVertex
100
AcDb2dVertex
 10
-116.9130048942566
 20
-30.51353359222412
 30
0.0
  0
VERTEX
  5
2032
330
2022
100
AcDbEntity
  8
LW 3520-32-00
100
AcDbVertex
100
AcDb2dVertex
 10
-116.9221911621094
 20
-30.76566958427429
 30
0.0
  0
VERTEX
  5
2033
330
2022
100
AcDbEntity
  8
LW 3520-32-00
100
AcDbVertex
100
AcDb2dVertex
 10
-116.9343302440643
 20
-31.0038640499115
 30
0.0
  0
VERTEX
  5
2034
330
2022
100
AcDbEntity
  8
LW 3520-32-00
100
AcDbVertex
100
AcDb2dVertex
 10
-116.9482586574555
 20
-31.22194790840149
 30
0.0
  0
VERTEX
  5
2035
330
2022
100
AcDbEntity
  8
LW 3520-32-00
100
AcDbVertex
100
AcDb2dVertex
 10
-116.9627628517151
 20
-31.41421103477478
 30
0.0
  0
VERTEX
  5
2036
330
2022
100
AcDbEntity
  8
LW 3520-32-00
100
AcDbVertex
100
AcDb2dVertex
 10
-116.9772539329529
 20
-31.58275866508484
 30
0.0
  0
VERTEX
  5
2037
330
2022
100
AcDbEntity
  8
LW 3520-32-00
100
AcDbVertex
100
AcDb2dVertex
 10
-116.9911489677429
 20
-31.72932291030884
 30
0.0
  0
VERTEX
  5
2038
330
2022
100
AcDbEntity
  8
LW 3520-32-00
100
AcDbVertex
100
AcDb2dVertex
 10
-117.003241558075
 20
-31.84763216972351
 30
0.0
  0
VERTEX
  5
2039
330
2022
100
AcDbEntity
  8
LW 3520-32-00
100
AcDbVertex
100
AcDb2dVertex
 10
-117.0123813343048
 20
-31.93250799179077
 30
0.0
  0
VERTEX
  5
203A
330
2022
100
AcDbEntity
  8
LW 3520-32-00
100
AcDbVertex
100
AcDb2dVertex
 10
-117.0180533123017
 20
-31.98318386077881
 30
0.0
  0
VERTEX
  5
203B
330
2022
100
AcDbEntity
  8
LW 3520-32-00
100
AcDbVertex
100
AcDb2dVertex
 10
-117.02
 20
-31.99999952316284
 30
0.0
  0
SEQEND
  5
203C
330
2022
100
AcDbEntity
  8
LW 3520-32-00
  0
LINE
  5
203D
330
1DED
100
AcDbEntity
  8
LW 3520-32-00
100
AcDbLine
 10
-117.02
 20
-34.0
 30
0.0
 11
-82.02000000000003
 21
-34.0
 31
0.0
  0
LINE
  5
203E
330
1DED
100
AcDbEntity
  8
LW 3520-32-00
100
AcDbLine
 10
-114.02
 20
-37.0
 30
0.0
 11
-85.02000000000004
 21
-37.0
 31
0.0
  0
LINE
  5
203F
330
1DED
100
AcDbEntity
  8
LW 3520-32-00
100
AcDbLine
 10
-82.02000000000003
 20
-14.0
 30
0.0
 11
-82.02000000000003
 21
-34.0
 31
0.0
  0
LINE
  5
2040
330
1DED
100
AcDbEntity
  8
LW 3520-32-00
100
AcDbLine
 10
-117.02
 20
-14.0
 30
0.0
 11
-117.02
 21
-28.0
 31
0.0
  0
LINE
  5
2041
330
1DED
100
AcDbEntity
  8
LW 3520-32-00
100
AcDbLine
 10
-117.02
 20
-32.0
 30
0.0
 11
-117.02
 21
-34.0
 31
0.0
  0
LINE
  5
2042
330
1DED
100
AcDbEntity
  8
LW 3520-32-00
100
AcDbLine
 10
-114.02
 20
-37.0
 30
0.0
 11
-117.02
 21
-34.0
 31
0.0
  0
LINE
  5
2043
330
1DED
100
AcDbEntity
  8
LW 3520-32-00
100
AcDbLine
 10
-85.02000000000004
 20
-37.0
 30
0.0
 11
-82.02000000000003
 21
-34.0
 31
0.0
  0
LINE
  5
2044
330
1DED
100
AcDbEntity
  8
LW 3520-32-00
100
AcDbLine
 10
-17.52000000000001
 20
-139.9999999999999
 30
0.0
 11
-17.52000000000001
 21
-172.9999999999999
 31
0.0
  0
LINE
  5
2045
330
1DED
100
AcDbEntity
  8
LW 3520-32-00
100
AcDbLine
 10
-17.52000000000001
 20
-139.9999999999999
 30
0.0
 11
-17.52000000000001
 21
-1.999999999999943
 31
0.0
  0
LINE
  5
2046
330
1DED
100
AcDbEntity
  8
LW 3520-32-00
100
AcDbLine
 10
-19.52000000000001
 20
-1.999999999999943
 30
0.0
 11
-17.52000000000001
 21
-1.999999999999943
 31
0.0
  0
LINE
  5
2047
330
1DED
100
AcDbEntity
  8
LW 3520-32-00
100
AcDbLine
 10
-19.52000000000001
 20
-172.9999999999999
 30
0.0
 11
-17.52000000000001
 21
-172.9999999999999
 31
0.0
  0
LINE
  5
2048
330
1DED
100
AcDbEntity
  8
LW 3520-32-00
100
AcDbLine
 10
17.51999999999998
 20
-172.9999999999999
 30
0.0
 11
17.51999999999998
 21
-139.9999999999999
 31
0.0
  0
LINE
  5
2049
330
1DED
100
AcDbEntity
  8
LW 3520-32-00
100
AcDbLine
 10
17.51999999999998
 20
-1.999999999999943
 30
0.0
 11
19.51999999999998
 21
-1.999999999999943
 31
0.0
  0
LINE
  5
204A
330
1DED
100
AcDbEntity
  8
LW 3520-32-00
100
AcDbLine
 10
17.51999999999998
 20
-1.999999999999943
 30
0.0
 11
17.51999999999998
 21
-139.9999999999999
 31
0.0
  0
LINE
  5
204B
330
1DED
100
AcDbEntity
  8
LW 3520-32-00
100
AcDbLine
 10
17.51999999999998
 20
-172.9999999999999
 30
0.0
 11
19.51999999999998
 21
-172.9999999999999
 31
0.0
  0
HATCH
  5
204C
330
1DED
100
AcDbEntity
  8
LW 3520-32-00
 62
     8
100
AcDbHatch
 10
0.0
 20
0.0
 30
0.0
210
0.0
220
0.0
230
1.0
  2
ANSI37
 70
     0
 71
     0
 91
        4
 92
        7
 72
     0
 73
     1
 93
        4
 10
0.0
 20
-47.99999999999994
 10
-16.00000000000003
 20
-48.0
 10
-16.0
 20
-52.74999999999995
 10
0.0
 20
-52.75
 97
        0
 92
        7
 72
     0
 73
     1
 93
        4
 10
15.99999999999994
 20
-47.99999999999994
 10
0.0
 20
-47.99999999999994
 10
0.0
 20
-52.75
 10
16.0
 20
-52.75
 97
        0
 92
        7
 72
     0
 73
     1
 93
        4
 10
16.0
 20
-67.24999999999994
 10
0.0
 20
-67.25
 10
0.0
 20
-71.99999999999994
 10
16.0
 20
-72.0
 97
        0
 92
        7
 72
     0
 73
     1
 93
        4
 10
0.0
 20
-67.24999999999994
 10
-16.00000000000003
 20
-67.25
 10
-16.00000000000003
 20
-71.99999999999994
 10
0.0
 20
-71.99999999999994
 97
        0
 75
     0
 76
     1
 52
0.0
 41
0.5
 77
     0
 78
     2
 53
45.0
 43
-270.1401696236951
 44
-335.1866254961618
 45
-1.122532015133643
 46
1.122532015133644
 79
     0
 53
135.0
 43
-270.1401696236951
 44
-335.1866254961618
 45
-1.122532015133644
 46
-1.122532015133643
 79
     0
 47
0.1919075143079147
 98
        4
 10
-7.251174951791881
 20
-50.97813488954272
 10
5.614929154943865
 20
-51.17004201342354
 10
5.998990421829375
 20
-69.78507187651428
 10
-8.211331158186339
 20
-70.7446086384665
1001
ACAD
1010
0.0
1020
0.0
1030
0.0
  0
LINE
  5
204D
330
1DED
100
AcDbEntity
  8
LW 3520-32-00
100
AcDbLine
 10
16.0
 20
-71.99999999999994
 30
0.0
 11
-16.0
 21
-71.99999999999994
 31
0.0
  0
LINE
  5
204E
330
1DED
100
AcDbEntity
  8
LW 3520-32-00
100
AcDbLine
 10
16.0
 20
-67.24999999999994
 30
0.0
 11
16.0
 21
-71.99999999999994
 31
0.0
  0
LINE
  5
204F
330
1DED
100
AcDbEntity
  8
LW 3520-32-00
100
AcDbLine
 10
-16.0
 20
-67.24999999999994
 30
0.0
 11
16.0
 21
-67.24999999999994
 31
0.0
  0
LINE
  5
2050
330
1DED
100
AcDbEntity
  8
LW 3520-32-00
100
AcDbLine
 10
-16.0
 20
-71.99999999999994
 30
0.0
 11
-16.0
 21
-67.24999999999994
 31
0.0
  0
LINE
  5
2051
330
1DED
100
AcDbEntity
  8
LW 3520-32-00
100
AcDbLine
 10
-16.0
 20
-47.99999999999994
 30
0.0
 11
16.0
 21
-47.99999999999994
 31
0.0
  0
LINE
  5
2052
330
1DED
100
AcDbEntity
  8
LW 3520-32-00
100
AcDbLine
 10
-16.0
 20
-52.74999999999995
 30
0.0
 11
-16.0
 21
-47.99999999999994
 31
0.0
  0
LINE
  5
2053
330
1DED
100
AcDbEntity
  8
LW 3520-32-00
100
AcDbLine
 10
16.0
 20
-52.74999999999995
 30
0.0
 11
-16.0
 21
-52.74999999999995
 31
0.0
  0
LINE
  5
2054
330
1DED
100
AcDbEntity
  8
LW 3520-32-00
100
AcDbLine
 10
16.0
 20
-47.99999999999994
 30
0.0
 11
16.0
 21
-52.74999999999995
 31
0.0
  0
LINE
  5
2055
330
1DED
100
AcDbEntity
  8
LW 3520-32-00
100
AcDbLine
 10
-16.0
 20
-67.24999999999994
 30
0.0
 11
-16.0
 21
-66.99999999999994
 31
0.0
  0
LINE
  5
2056
330
1DED
100
AcDbEntity
  8
LW 3520-32-00
100
AcDbLine
 10
-16.0
 20
-53.0
 30
0.0
 11
-16.0
 21
-52.74999999999995
 31
0.0
  0
LINE
  5
2057
330
1DED
100
AcDbEntity
  8
LW 3520-32-00
100
AcDbLine
 10
16.0
 20
-52.74999999999988
 30
0.0
 11
16.0
 21
-52.99999999999994
 31
0.0
  0
LINE
  5
2058
330
1DED
100
AcDbEntity
  8
LW 3520-32-00
100
AcDbLine
 10
16.0
 20
-67.0
 30
0.0
 11
16.0
 21
-67.24999999999994
 31
0.0
  0
HATCH
  5
2059
330
1DED
100
AcDbEntity
  8
LW 3520-32-00
 62
     8
100
AcDbHatch
 10
0.0
 20
0.0
 30
0.0
210
0.0
220
0.0
230
1.0
  2
ANSI37
 70
     0
 71
     0
 91
        4
 92
        7
 72
     0
 73
     1
 93
        4
 10
16.00000000000006
 20
-127.9999999999998
 10
0.0
 20
-127.9999999999998
 10
0.0
 20
-132.7499999999997
 10
16.00000000000006
 20
-132.7499999999998
 97
        0
 92
        7
 72
     0
 73
     1
 93
        4
 10
0.0
 20
-127.9999999999998
 10
-15.99999999999997
 20
-127.9999999999998
 10
-15.99999999999991
 20
-132.7499999999998
 10
0.0
 20
-132.7499999999998
 97
        0
 92
        7
 72
     0
 73
     1
 93
        4
 10
0.0
 20
-147.2499999999998
 10
-15.99999999999994
 20
-147.2499999999997
 10
-15.99999999999986
 20
-151.9999999999997
 10
0.0
 20
-151.9999999999997
 97
        0
 92
        7
 72
     0
 73
     1
 93
        4
 10
16.00000000000006
 20
-147.2499999999998
 10
0.0
 20
-147.2499999999998
 10
0.0
 20
-151.9999999999997
 10
16.0
 20
-151.9999999999997
 97
        0
 75
     0
 76
     1
 52
0.0
 41
0.5
 77
     0
 78
     2
 53
45.0
 43
-270.1401696236951
 44
-335.1866254961618
 45
-1.122532015133643
 46
1.122532015133644
 79
     0
 53
135.0
 43
-270.1401696236951
 44
-335.1866254961618
 45
-1.122532015133644
 46
-1.122532015133643
 79
     0
 47
0.1919075143079147
 98
        4
 10
5.998990421829375
 20
-130.0440321703359
 10
-7.251174951791881
 20
-131.5792914464792
 10
-7.635238244797847
 20
-148.6590608908779
 10
8.11133650724173
 20
-149.6185987953792
1001
ACAD
1010
0.0
1020
0.0
1030
0.0
  0
LINE
  5
205A
330
1DED
100
AcDbEntity
  8
LW 3520-32-00
100
AcDbLine
 10
16.00000000000006
 20
-151.9999999999997
 30
0.0
 11
-15.99999999999988
 21
-151.9999999999997
 31
0.0
  0
LINE
  5
205B
330
1DED
100
AcDbEntity
  8
LW 3520-32-00
100
AcDbLine
 10
16.00000000000006
 20
-147.2499999999997
 30
0.0
 11
16.00000000000006
 21
-151.9999999999997
 31
0.0
  0
LINE
  5
205C
330
1DED
100
AcDbEntity
  8
LW 3520-32-00
100
AcDbLine
 10
-15.99999999999994
 20
-147.2499999999997
 30
0.0
 11
16.00000000000006
 21
-147.2499999999998
 31
0.0
  0
LINE
  5
205D
330
1DED
100
AcDbEntity
  8
LW 3520-32-00
100
AcDbLine
 10
-15.99999999999988
 20
-151.9999999999997
 30
0.0
 11
-15.99999999999994
 21
-147.2499999999997
 31
0.0
  0
LINE
  5
205E
330
1DED
100
AcDbEntity
  8
LW 3520-32-00
100
AcDbLine
 10
-15.99999999999994
 20
-127.9999999999998
 30
0.0
 11
16.00000000000006
 21
-127.9999999999998
 31
0.0
  0
LINE
  5
205F
330
1DED
100
AcDbEntity
  8
LW 3520-32-00
100
AcDbLine
 10
-15.99999999999994
 20
-132.7499999999998
 30
0.0
 11
-15.99999999999994
 21
-127.9999999999998
 31
0.0
  0
LINE
  5
2060
330
1DED
100
AcDbEntity
  8
LW 3520-32-00
100
AcDbLine
 10
16.00000000000006
 20
-132.7499999999998
 30
0.0
 11
-15.99999999999994
 21
-132.7499999999998
 31
0.0
  0
LINE
  5
2061
330
1DED
100
AcDbEntity
  8
LW 3520-32-00
100
AcDbLine
 10
16.00000000000006
 20
-127.9999999999998
 30
0.0
 11
16.00000000000006
 21
-132.7499999999998
 31
0.0
  0
LINE
  5
2062
330
1DED
100
AcDbEntity
  8
LW 3520-32-00
100
AcDbLine
 10
-15.99999999999994
 20
-147.2499999999997
 30
0.0
 11
-15.99999999999994
 21
-146.9999999999999
 31
0.0
  0
LINE
  5
2063
330
1DED
100
AcDbEntity
  8
LW 3520-32-00
100
AcDbLine
 10
-15.99999999999994
 20
-133.0
 30
0.0
 11
-15.99999999999994
 21
-132.7499999999997
 31
0.0
  0
LINE
  5
2064
330
1DED
100
AcDbEntity
  8
LW 3520-32-00
100
AcDbLine
 10
16.00000000000006
 20
-132.7499999999997
 30
0.0
 11
16.00000000000006
 21
-133.0
 31
0.0
  0
LINE
  5
2065
330
1DED
100
AcDbEntity
  8
LW 3520-32-00
100
AcDbLine
 10
16.00000000000006
 20
-146.9999999999999
 30
0.0
 11
16.00000000000006
 21
-147.2499999999997
 31
0.0
  0
LINE
  5
2066
330
1DED
100
AcDbEntity
  8
LW 3520-32-00
100
AcDbLine
 10
17.51999999999998
 20
-146.9999999999999
 30
0.0
 11
-17.52000000000001
 21
-146.9999999999999
 31
0.0
  0
LINE
  5
2067
330
1DED
100
AcDbEntity
  8
LW 3520-32-00
100
AcDbLine
 10
17.51999999999998
 20
-133.0
 30
0.0
 11
-17.52000000000001
 21
-133.0
 31
0.0
  0
LINE
  5
2068
330
1DED
100
AcDbEntity
  8
LW 3520-32-00
 62
     3
100
AcDbLine
 10
-17.52000000000001
 20
-145.7945
 30
0.0
 11
17.51999999999998
 21
-145.7945
 31
0.0
  0
LINE
  5
2069
330
1DED
100
AcDbEntity
  8
LW 3520-32-00
 62
     3
100
AcDbLine
 10
17.51999999999998
 20
-134.2054999999999
 30
0.0
 11
-17.52000000000001
 21
-134.2054999999999
 31
0.0
  0
LINE
  5
206A
330
1DED
100
AcDbEntity
  8
LW 3520-32-00
100
AcDbLine
 10
17.51999999999998
 20
-66.99999999999994
 30
0.0
 11
-17.52000000000001
 21
-66.99999999999994
 31
0.0
  0
LINE
  5
206B
330
1DED
100
AcDbEntity
  8
LW 3520-32-00
100
AcDbLine
 10
17.51999999999998
 20
-53.0
 30
0.0
 11
-17.52000000000001
 21
-53.0
 31
0.0
  0
LINE
  5
206C
330
1DED
100
AcDbEntity
  8
LW 3520-32-00
 62
     3
100
AcDbLine
 10
-17.52000000000001
 20
-65.79449999999997
 30
0.0
 11
17.51999999999998
 21
-65.79449999999997
 31
0.0
  0
LINE
  5
206D
330
1DED
100
AcDbEntity
  8
LW 3520-32-00
 62
     3
100
AcDbLine
 10
17.51999999999998
 20
-54.20549999999991
 30
0.0
 11
-17.52000000000001
 21
-54.20549999999991
 31
0.0
  0
LINE
  5
206E
330
1DED
100
AcDbEntity
  8
LW 3520-32-00
  6
MITTE2
 62
     3
100
AcDbLine
 10
99.51999999999998
 20
27.30489739875702
 30
0.0
 11
99.51999999999998
 21
-41.6303604871004
 31
0.0
  0
LINE
  5
206F
330
1DED
100
AcDbEntity
  8
LW 3520-32-00
  6
MITTE2
 62
     3
100
AcDbLine
 10
0.0
 20
-200.232621264322
 30
0.0
 11
0.0
 21
21.38032543962169
 31
0.0
  0
LINE
  5
2070
330
1DED
100
AcDbEntity
  8
LW 3520-32-00
  6
MITTE2
 62
     3
100
AcDbLine
 10
55.61802267868478
 20
-140.0
 30
0.0
 11
-55.61802267868481
 21
-140.0
 31
0.0
  0
LINE
  5
2071
330
1DED
100
AcDbEntity
  8
LW 3520-32-00
  6
MITTE2
 62
     3
100
AcDbLine
 10
55.85902532515905
 20
-60.0
 30
0.0
 11
-55.85902532515911
 21
-60.0
 31
0.0
  0
LINE
  5
2072
330
1DED
100
AcDbEntity
  8
LW 3520-32-00
  6
MITTE2
 62
     3
100
AcDbLine
 10
-99.51999999999991
 20
27.30489739875702
 30
0.0
 11
-99.51999999999991
 21
-41.6303604871004
 31
0.0
  0
INSERT
  5
2073
330
1DED
100
AcDbEntity
  8
LW 3520-32-00
100
AcDbBlockReference
 66
     1
  2
insertpoint-ECKELT
 10
0.0
 20
0.0
 30
0.0
  0
ATTRIB
  5
2074
330
2073
100
AcDbEntity
  8
insertpoint_ECKELT
100
AcDbText
 10
-6.931514324693087
 20
0.0
 30
0.0
 40
0.6
  1
LW 3520/32-00
 72
     2
 11
-1.200000000000045
 21
0.0
 31
0.0
100
AcDbAttribute
  2
LINKS
 70
     0
  0
ATTRIB
  5
2075
330
2073
100
AcDbEntity
  8
insertpoint_ECKELT
100
AcDbText
 10
1.200000000000045
 20
0.0
 30
0.0
 40
0.6
  1

100
AcDbAttribute
  2
RECHTS
 70
     0
  0
SEQEND
  5
2076
330
2073
100
AcDbEntity
  8
LW 3520-32-00
  0
HATCH
  5
2077
330
1DED
100
AcDbEntity
  8
LW 3520-32-00
 62
     1
100
AcDbHatch
 10
0.0
 20
0.0
 30
0.0
210
0.0
220
0.0
230
1.0
  2
SOLID
 70
     1
 71
     0
 91
        5
 92
        7
 72
     0
 73
     1
 93
       76
 10
-46.34432087502358
 20
-17.73042025943835
 10
-46.28788523442028
 20
-17.70827078758862
 10
-46.10261329562575
 20
-17.65817174291453
 10
-45.910776357298
 20
-17.62651928383218
 10
-45.71692969510076
 20
-17.61142357833842
 10
-45.51585088848571
 20
-17.61609982965501
 10
-45.314234596701
 20
-17.63958969621649
 10
-45.11402124287099
 20
-17.67556011211041
 10
-44.92737510703068
 20
-17.72864682343288
 10
-46.73308545759073
 20
-16.3743640605129
 10
-46.90861649263076
 20
-16.25357785323297
 10
-47.08588545871072
 20
-16.15321233567295
 10
-47.26706476963079
 20
-16.06892268023296
 10
-47.44737511503069
 20
-16.001577852433
 10
-47.62985787423082
 20
-15.9516123350329
 10
-47.81320959895083
 20
-15.91728819699301
 10
-47.99085951951463
 20
-15.90320765349997
 10
-48.1690509793907
 20
-15.90295026591309
 10
-48.34083294959135
 20
-15.92292413356273
 10
-48.50680049770438
 20
-15.95877261091778
 10
-48.66914063615076
 20
-16.00852957659299
 10
-48.82251305043081
 20
-16.07543992163312
 10
-48.96545787847083
 20
-16.16103302535316
 10
-49.10188546511062
 20
-16.25966061187307
 10
-49.22354063791073
 20
-16.37479854327307
 10
-49.33476822447073
 20
-16.50861923335304
 10
-49.43035443167071
 20
-16.65417095795317
 10
-49.50638891467076
 20
-16.80623992395306
 10
-49.55939581139069
 20
-16.9674330279131
 10
-49.59763029427074
 20
-17.13427440775308
 10
-49.61500960467072
 20
-17.30589509795322
 10
-49.61457512191066
 20
-17.48272958127302
 10
-49.59514505288353
 20
-17.6613193749435
 10
-49.5588660900097
 20
-17.83994583895878
 10
-49.5072578801907
 20
-18.01670889331308
 10
-49.43730615583053
 20
-18.19137096283305
 10
-49.34774361761526
 20
-18.36466528062465
 10
-49.24743718971069
 20
-18.532005446673
 10
-49.12838891347064
 20
-18.6918951023531
 10
-48.99456822339061
 20
-18.8465709649131
 10
-48.84336822291072
 20
-18.99255717227305
 10
-48.68000270515074
 20
-19.12594337959302
 10
-46.98466583654851
 20
-20.39744603104452
 10
-47.07525844554959
 20
-20.25066306962515
 10
-47.16773759647788
 20
-20.0680283645255
 10
-47.23979290565501
 20
-19.88332476647815
 10
-47.30068827840841
 20
-19.69313043888132
 10
-47.33794441518057
 20
-19.50295134062736
 10
-47.35628092003088
 20
-19.3150068579539
 10
-47.35695225699806
 20
-19.12639304933788
 10
-47.34801845689434
 20
-19.02786259678521
 10
-48.1707889104307
 20
-18.41078475663301
 10
-48.27193997282063
 20
-18.3254714598105
 10
-48.36434229035552
 20
-18.23075248019938
 10
-48.44711994579063
 20
-18.12750199711308
 10
-48.51185787703059
 20
-18.02192268643307
 10
-48.56192419443096
 20
-17.91376949988285
 10
-48.59988060834462
 20
-17.80079529262764
 10
-48.62525787739071
 20
-17.68432958191312
 10
-48.63177511879064
 20
-17.57353647811311
 10
-47.24975806738359
 20
-18.61004926666828
 10
-47.23864437674706
 20
-18.57759023369783
 10
-47.15630945458786
 20
-18.40762399087828
 10
-47.05177054844279
 20
-18.24816602804867
 10
-46.92530255448628
 20
-18.0995781568223
 10
-46.78443635438623
 20
-17.97226609281426
 10
-46.74167809629529
 20
-17.94291958648466
 10
-48.15818891039072
 20
-16.880536475913
 10
-48.04522339279078
 20
-16.84577785511305
 10
-47.92965097863072
 20
-16.82926751023302
 10
-47.81165936446313
 20
-16.83043018609879
 10
-47.69459580547072
 20
-16.845343372353
 10
-47.57326041198211
 20
-16.88138284832951
 10
-47.45606477023068
 20
-16.92919854503304
 10
-47.33484408019075
 20
-16.99567440731306
 10
-47.2162302867107
 20
-17.076488200673
 97
        0
 92
        7
 72
     0
 73
     1
 93
       72
 10
-44.97030895544293
 20
-18.77917747504386
 10
-44.86117383785506
 20
-18.8384357097147
 10
-44.7587957961507
 20
-18.90870199959289
 10
-43.74384406879062
 20
-19.66991579511284
 10
-44.91043027939054
 20
-19.81329510591286
 10
-44.52851993335047
 20
-22.24770201019294
 10
-43.47359579207057
 20
-23.03889511615285
 10
-43.79945786207054
 20
-20.61665372915286
 10
-41.47410613055058
 20
-20.31859855579279
 10
-44.22525096687064
 20
-18.25523992855295
 10
-44.3981055881091
 20
-18.13906792818409
 10
-44.57875656799302
 20
-18.03540555544123
 10
-44.76618200307064
 20
-17.9445847551529
 10
-44.9547475209107
 20
-17.87376406527289
 10
-45.14722338359075
 20
-17.81901923751286
 10
-45.3357680462583
 20
-17.78514522361223
 10
-45.5260923503107
 20
-17.762970961473
 10
-45.71291993711065
 20
-17.75862613387295
 10
-45.89306344113083
 20
-17.77265471322789
 10
-46.07136821411063
 20
-17.80207440987306
 10
-46.24168545603083
 20
-17.84812958243299
 10
-46.4033130427506
 20
-17.91156406539289
 10
-46.55320959495071
 20
-17.99194337599294
 10
-46.69311304367067
 20
-18.08796406595297
 10
-46.81954752683066
 20
-18.20223303183303
 10
-46.93381649271072
 20
-18.33648820467306
 10
-47.02809925163058
 20
-18.48030199823302
 10
-47.10239580359064
 20
-18.63367441251296
 10
-47.15714063135055
 20
-18.79356406819301
 10
-47.19407166595067
 20
-18.95866751699299
 10
-47.20985903151791
 20
-19.13278561409743
 10
-47.20923685220571
 20
-19.30758845603179
 10
-47.19225726594475
 20
-19.48162487037734
 10
-47.15800959687061
 20
-19.65644682955292
 10
-47.10112016220728
 20
-19.83412942322059
 10
-47.03331304475063
 20
-20.00794338239302
 10
-46.94685097551058
 20
-20.17869510707305
 10
-46.84387856139051
 20
-20.34553648691304
 10
-46.72092341617269
 20
-20.50531491500647
 10
-46.58970614679065
 20
-20.65836407411302
 10
-46.4385061463106
 20
-20.80435028147304
 10
-46.27514062855062
 20
-20.93773648879301
 10
-44.75271303751049
 20
-22.07955718207291
 10
-44.93780269327055
 20
-20.84910200575291
 10
-45.75115441999059
 20
-20.23908821071296
 10
-45.80223967198264
 20
-20.19609015554477
 10
-45.87700843418327
 20
-20.12753563104855
 10
-45.96023795168878
 20
-20.03828418248929
 10
-46.03333880709334
 20
-19.94055336838608
 10
-46.08997797968686
 20
-19.84691364395075
 10
-46.11799342805176
 20
-19.79070895411706
 10
-46.14138945571215
 20
-19.73242917462164
 10
-46.1878443524115
 20
-19.57343455342737
 10
-46.20470228349939
 20
-19.47324282897136
 10
-46.20803563523418
 20
-19.38591005628046
 10
-46.20346487659901
 20
-19.29863984910673
 10
-46.18865770413828
 20
-19.21329005573227
 10
-46.16334300060953
 20
-19.13049849684887
 10
-46.12760766256508
 20
-19.04835344831212
 10
-46.08002311068992
 20
-18.97237979289861
 10
-46.04155574505051
 20
-18.92334928239813
 10
-45.99947348284797
 20
-18.87724718570012
 10
-45.95184374476559
 20
-18.8340022476317
 10
-45.90025499977435
 20
-18.79557311647522
 10
-45.80610779947562
 20
-18.74279041285939
 10
-45.73216578544759
 20
-18.7134141644903
 10
-45.63488335755261
 20
-18.6888346057915
 10
-45.45544816302856
 20
-18.66525758036743
 10
-45.38399910848016
 20
-18.66877192986578
 10
-45.29637262544349
 20
-18.67909524024344
 10
-45.20386950790845
 20
-18.69579154374457
 10
-45.08493593511707
 20
-18.73144172316813
 97
        0
 92
        7
 72
     0
 73
     1
 93
       57
 10
-41.33712240597765
 20
-21.5316570424024
 10
-41.20795937108494
 20
-21.57856380117198
 10
-41.08394061207059
 20
-21.63768821515271
 10
-40.9640233703106
 20
-21.71676407747276
 10
-39.97166474647054
 20
-22.46103304535274
 10
-39.47635440007053
 20
-21.80061925015275
 10
-40.4634992307906
 20
-21.06026062711283
 10
-40.63729233479057
 20
-20.94077786811283
 10
-40.81934061123059
 20
-20.83954338503281
 10
-41.00225785319048
 20
-20.75395028131277
 10
-41.18604406067049
 20
-20.68399855695282
 10
-41.37678199231049
 20
-20.63055717747284
 10
-41.55949068254597
 20
-20.59682393598632
 10
-41.7444204486502
 20
-20.57869557730817
 10
-41.93017746992945
 20
-20.57623988074874
 10
-42.1093581601533
 20
-20.59088194976073
 10
-42.28267854691057
 20
-20.62186752227285
 10
-42.44951992675055
 20
-20.67052959139283
 10
-42.60463027207061
 20
-20.73613648815285
 10
-42.75452682427072
 20
-20.8165157987529
 10
-42.89095441091046
 20
-20.91514338527281
 10
-43.0173888940705
 20
-21.02941235115281
 10
-43.13035441167051
 20
-21.1619295929529
 10
-43.22594061887059
 20
-21.30748131755286
 10
-43.30023717083054
 20
-21.46085373183286
 10
-43.35498199859069
 20
-21.6207433875129
 10
-43.39147855043046
 20
-21.78888821563294
 10
-43.41059579187048
 20
-21.95920545755291
 10
-43.40725201254952
 20
-22.13615812018361
 10
-43.38957377801068
 20
-22.31234783108766
 10
-43.35321626065388
 20
-22.4912504523453
 10
-43.30154061911059
 20
-22.66828132187288
 10
-43.23158889475059
 20
-22.84294339139291
 10
-43.1433888944706
 20
-23.01499856435282
 10
-43.03998199759042
 20
-23.18488132351285
 10
-42.92093372135048
 20
-23.34477097919284
 10
-42.78711303127045
 20
-23.49944684175284
 10
-42.6363475135505
 20
-23.64239166979292
 10
-42.47124406475046
 20
-23.77708132539289
 10
-41.50321647547047
 20
-24.50310201735283
 10
-40.98835440487045
 20
-23.81661925655283
 10
-41.97549923559063
 20
-23.07626063351279
 10
-42.07621233935856
 20
-22.98779994357687
 10
-42.16882668448
 20
-22.89085815016563
 10
-42.24472213299691
 20
-22.79103139122799
 10
-42.30874751251042
 20
-22.68305373571286
 10
-42.35992958163854
 20
-22.56852408017676
 10
-42.39701703003214
 20
-22.45620159706164
 10
-42.41908875424008
 20
-22.33993401048565
 10
-42.42736130599047
 20
-22.22684683771285
 10
-40.74330612823041
 20
-23.4898882210328
 10
-40.24669233355041
 20
-22.82773649479282
 10
-41.9602923389906
 20
-21.54253649071279
 10
-41.84602337311059
 20
-21.50603993887285
 10
-41.7230647520306
 20
-21.48692269743287
 10
-41.59636957921452
 20
-21.48657511122485
 10
-41.47019578571053
 20
-21.49735028367286
 97
        0
 92
        7
 72
     0
 73
     1
 93
        6
 10
-39.2999543995104
 20
-21.94921235407276
 10
-41.32160268179046
 20
-24.64474339711279
 10
-39.53153371059034
 20
-25.98729512551279
 10
-39.01145784687037
 20
-25.29386064055268
 10
-39.98296129823041
 20
-24.56523305203268
 10
-38.48138887967048
 20
-22.5631364939527
 97
        0
 92
        7
 72
     0
 73
     1
 93
        8
 10
-38.29543025839053
 20
-22.70260545991266
 10
-38.79074060479059
 20
-23.3630192551127
 10
-37.8035957740704
 20
-24.10337787815263
 10
-39.33384405479035
 20
-26.14370891911278
 10
-38.51354060391037
 20
-26.75893650727272
 10
-36.98329232319049
 20
-24.71860546631262
 10
-35.98919576831048
 20
-25.46417788247266
 10
-35.49388542191048
 20
-24.80376408727261
 97
        0
 75
     0
 76
     1
 47
0.0142553043587597
 98
        5
 10
-46.651110850164
 20
-16.98890710306943
 10
-44.92264487049328
 20
-18.46344781907953
 10
-41.29466278120339
 20
-21.1131579203622
 10
-38.97017937932265
 20
-22.55359519090723
 10
-37.90058127298926
 20
-23.48052768617401
450
        0
451
        0
460
0.0
461
0.0
452
        0
462
0.0
453
        0
470

  0
LWPOLYLINE
  5
2078
330
1DED
100
AcDbEntity
  8
LW 3520-32-00
 62
     1
100
AcDbPolyline
 90
        8
 70
     1
 43
0.0
 10
-36.98329232319049
 20
-24.71860546631262
 10
-38.51354060391037
 20
-26.75893650727272
 10
-39.33384405479035
 20
-26.14370891911278
 10
-37.8035957740704
 20
-24.10337787815263
 10
-38.79074060479059
 20
-23.3630192551127
 10
-38.29543025839053
 20
-22.70260545991266
 10
-35.49388542191048
 20
-24.80376408727261
 10
-35.98919576831048
 20
-25.46417788247266
  0
LWPOLYLINE
  5
2079
330
1DED
100
AcDbEntity
  8
LW 3520-32-00
 62
     1
100
AcDbPolyline
 90
       73
 70
     1
 43
0.0
 10
-45.75115441999059
 20
-20.23908821071296
 10
-44.93780269327055
 20
-20.84910200575291
 10
-44.75271303751049
 20
-22.07955718207291
 10
-46.27514062855062
 20
-20.93773648879301
 10
-46.4385061463106
 20
-20.80435028147304
 10
-46.5897061467906
 20
-20.65836407411297
 10
-46.72092341617269
 20
-20.50531491500647
 10
-46.84387856139051
 20
-20.34553648691304
 10
-46.94685097551058
 20
-20.17869510707305
 10
-47.03331304475057
 20
-20.00794338239302
 10
-47.10112016220716
 20
-19.83412942322053
 10
-47.15800959687061
 20
-19.65644682955292
 10
-47.19225726594493
 20
-19.48162487037734
 10
-47.20923685220571
 20
-19.30758845603179
 10
-47.20985903151801
 20
-19.13278561409743
 10
-47.19407166595067
 20
-18.95866751699299
 10
-47.15714063135055
 20
-18.79356406819301
 10
-47.10239580359064
 20
-18.63367441251296
 10
-47.02809925163058
 20
-18.48030199823302
 10
-46.93381649271066
 20
-18.336488204673
 10
-46.81954752683066
 20
-18.20223303183303
 10
-46.69311304367067
 20
-18.08796406595297
 10
-46.55320959495066
 20
-17.991943375993
 10
-46.40331304275065
 20
-17.91156406539295
 10
-46.24168545603072
 20
-17.84812958243299
 10
-46.07136821411063
 20
-17.80207440987306
 10
-45.89306344113078
 20
-17.77265471322784
 10
-45.71291993711077
 20
-17.75862613387289
 10
-45.5260923503107
 20
-17.762970961473
 10
-45.33576804625823
 20
-17.7851452236124
 10
-45.14722338359081
 20
-17.81901923751297
 10
-44.9547475209107
 20
-17.87376406527289
 10
-44.76618200307064
 20
-17.94458475515284
 10
-44.5787565679929
 20
-18.03540555544123
 10
-44.3981055881091
 20
-18.13906792818409
 10
-44.2252509668707
 20
-18.25523992855289
 10
-41.47410613055058
 20
-20.31859855579279
 10
-43.79945786207054
 20
-20.61665372915286
 10
-43.47359579207057
 20
-23.03889511615285
 10
-44.52851993335047
 20
-22.24770201019294
 10
-44.91043027939054
 20
-19.81329510591286
 10
-43.74384406879062
 20
-19.66991579511284
 10
-44.7587957961507
 20
-18.90870199959289
 10
-44.86117383785506
 20
-18.8384357097147
 10
-44.97030895544293
 20
-18.77917747504386
 10
-45.08493593511707
 20
-18.73144172316813
 10
-45.2038695079085
 20
-18.69579154374469
 10
-45.29637262544349
 20
-18.67909524024327
 10
-45.38399910848028
 20
-18.66877192986573
 10
-45.43251171553083
 20
-18.66638575054782
 10
-45.48108341223667
 20
-18.66862594365841
 10
-45.63488335755261
 20
-18.6888346057915
 10
-45.73216578544759
 20
-18.7134141644903
 10
-45.80610779947551
 20
-18.74279041285933
 10
-45.90025499977435
 20
-18.79557311647522
 10
-45.95184374476559
 20
-18.8340022476317
 10
-45.99947348284792
 20
-18.87724718570007
 10
-46.04155574505045
 20
-18.92334928239808
 10
-46.08002311068981
 20
-18.97237979289855
 10
-46.12760766256508
 20
-19.04835344831212
 10
-46.16334300060941
 20
-19.13049849684887
 10
-46.18865770413816
 20
-19.21329005573239
 10
-46.20346487659901
 20
-19.29863984910673
 10
-46.20803563523418
 20
-19.38591005628029
 10
-46.20470228349939
 20
-19.47324282897136
 10
-46.1878443524115
 20
-19.57343455342737
 10
-46.1413894557121
 20
-19.73242917462176
 10
-46.1179934280517
 20
-19.79070895411712
 10
-46.08997797968686
 20
-19.84691364395075
 10
-46.03333880709334
 20
-19.94055336838608
 10
-45.96023795168878
 20
-20.03828418248929
 10
-45.87700843418327
 20
-20.12753563104855
 10
-45.80223967198253
 20
-20.19609015554483
  0
LWPOLYLINE
  5
207A
330
1DED
100
AcDbEntity
  8
LW 3520-32-00
 62
     1
100
AcDbPolyline
 90
       76
 70
     1
 43
0.0
 10
-45.314234596701
 20
-17.63958969621649
 10
-45.51585088848582
 20
-17.61609982965501
 10
-45.71692969510081
 20
-17.6114235783383
 10
-45.910776357298
 20
-17.62651928383218
 10
-46.10261329562575
 20
-17.65817174291453
 10
-46.28788523442023
 20
-17.70827078758856
 10
-46.34432087502358
 20
-17.73042025943835
 10
-47.2162302867107
 20
-17.076488200673
 10
-47.33484408019075
 20
-16.99567440731306
 10
-47.4560647702308
 20
-16.92919854503299
 10
-47.57326041198211
 20
-16.88138284832951
 10
-47.69459580547072
 20
-16.845343372353
 10
-47.81165936446302
 20
-16.83043018609885
 10
-47.92965097863077
 20
-16.82926751023308
 10
-48.04522339279083
 20
-16.845777855113
 10
-48.15818891039072
 20
-16.880536475913
 10
-46.74167809629529
 20
-17.94291958648466
 10
-46.78443635438623
 20
-17.97226609281426
 10
-46.92530255448651
 20
-18.0995781568223
 10
-47.05177054844279
 20
-18.24816602804867
 10
-47.15630945458786
 20
-18.40762399087828
 10
-47.23864437674694
 20
-18.57759023369783
 10
-47.24975806738359
 20
-18.61004926666828
 10
-48.63177511879064
 20
-17.57353647811311
 10
-48.62525787739071
 20
-17.68432958191312
 10
-48.59988060834462
 20
-17.80079529262764
 10
-48.56192419443096
 20
-17.91376949988285
 10
-48.51185787703059
 20
-18.02192268643307
 10
-48.44711994579063
 20
-18.12750199711308
 10
-48.36434229035552
 20
-18.23075248019938
 10
-48.27193997282063
 20
-18.3254714598105
 10
-48.1707889104307
 20
-18.41078475663301
 10
-47.34801845689434
 20
-19.02786259678521
 10
-47.35695225699799
 20
-19.12639304933782
 10
-47.35628092003088
 20
-19.3150068579539
 10
-47.33794441518057
 20
-19.50295134062736
 10
-47.30068827840819
 20
-19.69313043888132
 10
-47.23979290565501
 20
-19.88332476647815
 10
-47.16773759647788
 20
-20.0680283645255
 10
-47.07525844554959
 20
-20.25066306962515
 10
-46.98466583654851
 20
-20.39744603104452
 10
-48.68000270515068
 20
-19.12594337959308
 10
-48.84336822291072
 20
-18.99255717227305
 10
-48.99456822339061
 20
-18.8465709649131
 10
-49.1283889134707
 20
-18.6918951023531
 10
-49.24743718971069
 20
-18.53200544667316
 10
-49.34774361761538
 20
-18.36466528062453
 10
-49.43730615583053
 20
-18.19137096283305
 10
-49.5072578801907
 20
-18.01670889331308
 10
-49.55886609000959
 20
-17.83994583895889
 10
-49.59514505288353
 20
-17.6613193749435
 10
-49.61457512191066
 20
-17.48272958127308
 10
-49.61500960467072
 20
-17.30589509795311
 10
-49.59763029427063
 20
-17.13427440775308
 10
-49.55939581139069
 20
-16.9674330279131
 10
-49.50638891467076
 20
-16.80623992395306
 10
-49.43035443167071
 20
-16.65417095795305
 10
-49.33476822447073
 20
-16.5086192333531
 10
-49.2235406379109
 20
-16.37479854327307
 10
-49.10188546511074
 20
-16.25966061187307
 10
-48.96545787847077
 20
-16.16103302535305
 10
-48.82251305043081
 20
-16.07543992163312
 10
-48.66914063615076
 20
-16.00852957659299
 10
-48.50680049770426
 20
-15.95877261091789
 10
-48.34083294959128
 20
-15.92292413356267
 10
-48.16905097939081
 20
-15.90295026591309
 10
-47.99085951951474
 20
-15.90320765350003
 10
-47.81320959895071
 20
-15.91728819699301
 10
-47.62985787423076
 20
-15.95161233503302
 10
-47.44737511503069
 20
-16.001577852433
 10
-47.26706476963079
 20
-16.06892268023307
 10
-47.08588545871072
 20
-16.15321233567295
 10
-46.90861649263076
 20
-16.25357785323297
 10
-46.73308545759073
 20
-16.37436406051302
 10
-44.92737510703057
 20
-17.72864682343288
 10
-45.11402124287099
 20
-17.67556011211041
  0
LWPOLYLINE
  5
207B
330
1DED
100
AcDbEntity
  8
LW 3520-32-00
 62
     1
100
AcDbPolyline
 90
        6
 70
     1
 43
0.0
 10
-39.53153371059034
 20
-25.98729512551279
 10
-41.32160268179046
 20
-24.64474339711279
 10
-39.2999543995104
 20
-21.94921235407276
 10
-38.48138887967048
 20
-22.5631364939527
 10
-39.98296129823041
 20
-24.56523305203268
 10
-39.01145784687037
 20
-25.29386064055268
  0
LWPOLYLINE
  5
207C
330
1DED
100
AcDbEntity
  8
LW 3520-32-00
 62
     1
100
AcDbPolyline
 90
       57
 70
     1
 43
0.0
 10
-43.38957377801068
 20
-22.31234783108766
 10
-43.40725201254963
 20
-22.13615812018361
 10
-43.4105957918706
 20
-21.95920545755291
 10
-43.39147855043046
 20
-21.78888821563294
 10
-43.35498199859069
 20
-21.6207433875129
 10
-43.30023717083054
 20
-21.46085373183286
 10
-43.22594061887059
 20
-21.30748131755286
 10
-43.13035441167051
 20
-21.1619295929529
 10
-43.01738889407056
 20
-21.02941235115281
 10
-42.89095441091058
 20
-20.91514338527293
 10
-42.75452682427072
 20
-20.8165157987529
 10
-42.60463027207061
 20
-20.7361364881528
 10
-42.44951992675066
 20
-20.67052959139289
 10
-42.28267854691057
 20
-20.62186752227274
 10
-42.10935816015353
 20
-20.59088194976061
 10
-41.93017746992945
 20
-20.57623988074874
 10
-41.74442044865009
 20
-20.57869557730817
 10
-41.55949068254563
 20
-20.59682393598643
 10
-41.37678199231049
 20
-20.63055717747284
 10
-41.18604406067061
 20
-20.68399855695282
 10
-41.00225785319048
 20
-20.75395028131277
 10
-40.81934061123059
 20
-20.83954338503281
 10
-40.63729233479057
 20
-20.94077786811283
 10
-40.4634992307906
 20
-21.06026062711283
 10
-39.47635440007053
 20
-21.80061925015275
 10
-39.97166474647054
 20
-22.46103304535274
 10
-40.96402337031054
 20
-21.71676407747282
 10
-41.08394061207053
 20
-21.63768821515282
 10
-41.20795937108494
 20
-21.57856380117198
 10
-41.33712240597776
 20
-21.5316570424024
 10
-41.47019578571053
 20
-21.49735028367286
 10
-41.59636957921452
 20
-21.48657511122485
 10
-41.7230647520306
 20
-21.48692269743276
 10
-41.84602337311059
 20
-21.50603993887285
 10
-41.9602923389906
 20
-21.54253649071279
 10
-40.24669233355041
 20
-22.82773649479282
 10
-40.74330612823041
 20
-23.4898882210328
 10
-42.42736130599047
 20
-22.22684683771285
 10
-42.41908875424008
 20
-22.33993401048565
 10
-42.39701703003214
 20
-22.45620159706164
 10
-42.35992958163854
 20
-22.56852408017676
 10
-42.30874751251042
 20
-22.68305373571286
 10
-42.24472213299691
 20
-22.79103139122799
 10
-42.16882668448
 20
-22.89085815016563
 10
-42.07621233935856
 20
-22.98779994357687
 10
-41.97549923559063
 20
-23.07626063351279
 10
-40.98835440487045
 20
-23.81661925655283
 10
-41.50321647547047
 20
-24.50310201735283
 10
-42.47124406475046
 20
-23.77708132539289
 10
-42.6363475135505
 20
-23.64239166979292
 10
-42.78711303127045
 20
-23.49944684175284
 10
-42.92093372135048
 20
-23.34477097919284
 10
-43.03998199759042
 20
-23.18488132351285
 10
-43.1433888944706
 20
-23.01499856435282
 10
-43.23158889475053
 20
-22.84294339139285
 10
-43.30154061911059
 20
-22.66828132187288
 10
-43.35321626065388
 20
-22.4912504523453
  0
ENDBLK
  5
1DEF
330
1DED
100
AcDbEntity
  8
0
100
AcDbBlockEnd
  0
BLOCK
  5
207F
330
207E
100
AcDbEntity
  8
0
100
AcDbBlockBegin
  2
LW 3520-32-00_b
 70
     0
 10
0.0
 20
0.0
 30
0.0
  3
LW 3520-32-00_b
  1

  0
LINE
  5
2081
330
207E
100
AcDbEntity
  8
LW 3520-32-00
100
AcDbLine
 10
-62.52000000000006
 20
-1.999999999961744
 30
0.0
 11
-51.52000000000004
 21
-1.999999999964245
 31
0.0
  0
LINE
  5
2082
330
207E
100
AcDbEntity
  8
LW 3520-32-00
100
AcDbLine
 10
-51.52000000000004
 20
2.000000000035868
 30
0.0
 11
-62.52000000000009
 21
2.000000000038255
 31
0.0
  0
LINE
  5
2083
330
207E
100
AcDbEntity
  8
LW 3520-32-00
100
AcDbLine
 10
-28.52000000000004
 20
-32.99999999999994
 30
0.0
 11
-28.52000000000004
 21
32.99999999999994
 31
0.0
  0
ARC
  5
2084
330
207E
100
AcDbEntity
  8
LW 3520-32-00
100
AcDbCircle
 10
-26.52000000000001
 20
32.99999999999994
 30
0.0
 40
2.00000000000001
100
AcDbArc
 50
90.0
 51
180.0
  0
ARC
  5
2085
330
207E
100
AcDbEntity
  8
LW 3520-32-00
100
AcDbCircle
 10
-26.52000000000004
 20
-33.00000000000006
 30
0.0
 40
2.000000000000003
100
AcDbArc
 50
180.0
 51
270.0
  0
LINE
  5
2086
330
207E
100
AcDbEntity
  8
LW 3520-32-00
100
AcDbLine
 10
-26.52000000000007
 20
35.00000000003826
 30
0.0
 11
-30.52000000000007
 21
35.00000000003945
 31
0.0
  0
LINE
  5
2087
330
207E
100
AcDbEntity
  8
LW 3520-32-00
100
AcDbLine
 10
-30.52000000000007
 20
-34.99999999996055
 30
0.0
 11
-26.52000000000007
 21
-34.99999999996175
 31
0.0
  0
LINE
  5
2088
330
207E
100
AcDbEntity
  8
LW 3520-32-00
100
AcDbLine
 10
-30.52000000000007
 20
35.00000000003945
 30
0.0
 11
-99.52000000000007
 21
35.00000000003945
 31
0.0
  0
LINE
  5
2089
330
207E
100
AcDbEntity
  8
LW 3520-32-00
100
AcDbLine
 10
-99.52000000000007
 20
-34.99999999996055
 30
0.0
 11
-30.52000000000007
 21
-34.99999999996055
 31
0.0
  0
ARC
  5
208A
330
207E
100
AcDbEntity
  8
LW 3520-32-00
100
AcDbCircle
 10
-99.52000000000007
 20
0.0000000000394493
 30
0.0
 40
35.0
100
AcDbArc
 50
90.0
 51
270.0
  0
LINE
  5
208B
330
207E
100
AcDbEntity
  8
LW 3520-32-00
100
AcDbLine
 10
-19.52000000000007
 20
35.0
 30
0.0
 11
-26.52000000000004
 21
35.0
 31
0.0
  0
LINE
  5
208C
330
207E
100
AcDbEntity
  8
LW 3520-32-00
100
AcDbLine
 10
-26.52000000000004
 20
-35.0
 30
0.0
 11
-19.52000000000007
 21
-35.0
 31
0.0
  0
LINE
  5
208D
330
207E
100
AcDbEntity
  8
LW 3520-32-00
100
AcDbLine
 10
-19.52000000000007
 20
35.0
 30
0.0
 11
-19.52000000000007
 21
-35.0
 31
0.0
  0
LINE
  5
208E
330
207E
100
AcDbEntity
  8
LW 3520-32-00
100
AcDbLine
 10
62.51999999999992
 20
2.000000000038255
 30
0.0
 11
51.51999999999993
 21
2.000000000035868
 31
0.0
  0
LINE
  5
208F
330
207E
100
AcDbEntity
  8
LW 3520-32-00
100
AcDbLine
 10
51.51999999999993
 20
-1.999999999964245
 30
0.0
 11
62.51999999999992
 21
-1.999999999961744
 31
0.0
  0
LINE
  5
2090
330
207E
100
AcDbEntity
  8
LW 3520-32-00
100
AcDbLine
 10
28.51999999999998
 20
32.99999999999994
 30
0.0
 11
28.51999999999998
 21
-32.99999999999994
 31
0.0
  0
ARC
  5
2091
330
207E
100
AcDbEntity
  8
LW 3520-32-00
100
AcDbCircle
 10
26.51999999999998
 20
-33.00000000000006
 30
0.0
 40
1.999999999999992
100
AcDbArc
 50
270.0
 51
0.0
  0
ARC
  5
2092
330
207E
100
AcDbEntity
  8
LW 3520-32-00
100
AcDbCircle
 10
26.51999999999998
 20
32.99999999999994
 30
0.0
 40
2.000000000000005
100
AcDbArc
 50
0.0
 51
90.0
  0
LINE
  5
2093
330
207E
100
AcDbEntity
  8
LW 3520-32-00
100
AcDbLine
 10
26.51999999999998
 20
-34.99999999996175
 30
0.0
 11
30.51999999999998
 21
-34.99999999996055
 31
0.0
  0
LINE
  5
2094
330
207E
100
AcDbEntity
  8
LW 3520-32-00
100
AcDbLine
 10
30.51999999999998
 20
35.00000000003945
 30
0.0
 11
26.51999999999998
 21
35.00000000003826
 31
0.0
  0
LINE
  5
2095
330
207E
100
AcDbEntity
  8
LW 3520-32-00
100
AcDbLine
 10
30.51999999999998
 20
-34.99999999996055
 30
0.0
 11
99.51999999999998
 21
-34.99999999996055
 31
0.0
  0
LINE
  5
2096
330
207E
100
AcDbEntity
  8
LW 3520-32-00
100
AcDbLine
 10
99.51999999999998
 20
35.00000000003945
 30
0.0
 11
30.51999999999998
 21
35.00000000003945
 31
0.0
  0
ARC
  5
2097
330
207E
100
AcDbEntity
  8
LW 3520-32-00
100
AcDbCircle
 10
99.51999999999998
 20
0.0000000000394493
 30
0.0
 40
35.0
100
AcDbArc
 50
270.0
 51
90.0
  0
LINE
  5
2098
330
207E
100
AcDbEntity
  8
LW 3520-32-00
100
AcDbLine
 10
19.51999999999992
 20
-35.0
 30
0.0
 11
26.51999999999998
 21
-35.0
 31
0.0
  0
LINE
  5
2099
330
207E
100
AcDbEntity
  8
LW 3520-32-00
100
AcDbLine
 10
26.51999999999998
 20
35.0
 30
0.0
 11
19.51999999999992
 21
35.0
 31
0.0
  0
LINE
  5
209A
330
207E
100
AcDbEntity
  8
LW 3520-32-00
100
AcDbLine
 10
19.51999999999992
 20
-35.0
 30
0.0
 11
19.51999999999992
 21
35.0
 31
0.0
  0
CIRCLE
  5
209B
330
207E
100
AcDbEntity
  8
LW 3520-32-00
100
AcDbCircle
 10
-99.52000000000007
 20
0.0000000000373461
 30
0.0
 40
22.5
  0
CIRCLE
  5
209C
330
207E
100
AcDbEntity
  8
LW 3520-32-00
100
AcDbCircle
 10
99.51999999999998
 20
0.0000000000373461
 30
0.0
 40
22.5
  0
CIRCLE
  5
209D
330
207E
100
AcDbEntity
  8
LW 3520-32-00
100
AcDbCircle
 10
99.51999999999998
 20
0.0000000000314344
 30
0.0
 40
17.5
  0
CIRCLE
  5
209E
330
207E
100
AcDbEntity
  8
LW 3520-32-00
100
AcDbCircle
 10
99.51999999999998
 20
0.0000000000305249
 30
0.0
 40
14.5
  0
POLYLINE
  5
209F
330
207E
100
AcDbEntity
  8
LW 3520-32-00
100
AcDb2dPolyline
 66
     1
 10
0.0
 20
0.0
 30
0.0
 70
   128
  0
VERTEX
  5
20A0
330
209F
100
AcDbEntity
  8
LW 3520-32-00
100
AcDbVertex
100
AcDb2dVertex
 10
46.51999952316282
 20
-15.15544414520525
 30
0.0
  0
VERTEX
  5
20A1
330
209F
100
AcDbEntity
  8
LW 3520-32-00
100
AcDbVertex
100
AcDb2dVertex
 10
46.50318386077879
 20
-15.28149843216198
 30
0.0
  0
VERTEX
  5
20A2
330
209F
100
AcDbEntity
  8
LW 3520-32-00
100
AcDbVertex
100
AcDb2dVertex
 10
46.45250799179075
 20
-15.40561437607061
 30
0.0
  0
VERTEX
  5
20A3
330
209F
100
AcDbEntity
  8
LW 3520-32-00
100
AcDbVertex
100
AcDb2dVertex
 10
46.36763216972349
 20
-15.52376866340881
 30
0.0
  0
VERTEX
  5
20A4
330
209F
100
AcDbEntity
  8
LW 3520-32-00
100
AcDbVertex
100
AcDb2dVertex
 10
46.24932291030882
 20
-15.63239455223316
 30
0.0
  0
VERTEX
  5
20A5
330
209F
100
AcDbEntity
  8
LW 3520-32-00
100
AcDbVertex
100
AcDb2dVertex
 10
46.10275866508482
 20
-15.72940349579084
 30
0.0
  0
VERTEX
  5
20A6
330
209F
100
AcDbEntity
  8
LW 3520-32-00
100
AcDbVertex
100
AcDb2dVertex
 10
45.93421103477476
 20
-15.81298470497353
 30
0.0
  0
VERTEX
  5
20A7
330
209F
100
AcDbEntity
  8
LW 3520-32-00
100
AcDbVertex
100
AcDb2dVertex
 10
45.74194790840147
 20
-15.8846962451957
 30
0.0
  0
VERTEX
  5
20A8
330
209F
100
AcDbEntity
  8
LW 3520-32-00
100
AcDbVertex
100
AcDb2dVertex
 10
45.52386404991148
 20
-15.94591498375149
 30
0.0
  0
VERTEX
  5
20A9
330
209F
100
AcDbEntity
  8
LW 3520-32-00
100
AcDbVertex
100
AcDb2dVertex
 10
45.28566958427427
 20
-15.9945559501669
 30
0.0
  0
VERTEX
  5
20AA
330
209F
100
AcDbEntity
  8
LW 3520-32-00
100
AcDbVertex
100
AcDb2dVertex
 10
45.0335335922241
 20
-16.0290384292623
 30
0.0
  0
VERTEX
  5
20AB
330
209F
100
AcDbEntity
  8
LW 3520-32-00
100
AcDbVertex
100
AcDb2dVertex
 10
44.77547885894773
 20
-16.04943513870444
 30
0.0
  0
VERTEX
  5
20AC
330
209F
100
AcDbEntity
  8
LW 3520-32-00
100
AcDbVertex
100
AcDb2dVertex
 10
44.52000023841856
 20
-16.05614542961325
 30
0.0
  0
VERTEX
  5
20AD
330
209F
100
AcDbEntity
  8
LW 3520-32-00
100
AcDbVertex
100
AcDb2dVertex
 10
44.26452042579649
 20
-16.04943513870444
 30
0.0
  0
VERTEX
  5
20AE
330
209F
100
AcDbEntity
  8
LW 3520-32-00
100
AcDbVertex
100
AcDb2dVertex
 10
44.00646688461302
 20
-16.0290384292623
 30
0.0
  0
VERTEX
  5
20AF
330
209F
100
AcDbEntity
  8
LW 3520-32-00
100
AcDbVertex
100
AcDb2dVertex
 10
43.75433089256285
 20
-15.9945559501669
 30
0.0
  0
VERTEX
  5
20B0
330
209F
100
AcDbEntity
  8
LW 3520-32-00
100
AcDbVertex
100
AcDb2dVertex
 10
43.51613642692564
 20
-15.94591498375149
 30
0.0
  0
VERTEX
  5
20B1
330
209F
100
AcDbEntity
  8
LW 3520-32-00
100
AcDbVertex
100
AcDb2dVertex
 10
43.29805137634275
 20
-15.8846962451957
 30
0.0
  0
VERTEX
  5
20B2
330
209F
100
AcDbEntity
  8
LW 3520-32-00
100
AcDbVertex
100
AcDb2dVertex
 10
43.10578944206236
 20
-15.81298470497353
 30
0.0
  0
VERTEX
  5
20B3
330
209F
100
AcDbEntity
  8
LW 3520-32-00
100
AcDbVertex
100
AcDb2dVertex
 10
42.9372418117523
 20
-15.72940349579084
 30
0.0
  0
VERTEX
  5
20B4
330
209F
100
AcDbEntity
  8
LW 3520-32-00
100
AcDbVertex
100
AcDb2dVertex
 10
42.79067637443541
 20
-15.63239455223316
 30
0.0
  0
VERTEX
  5
20B5
330
209F
100
AcDbEntity
  8
LW 3520-32-00
100
AcDbVertex
100
AcDb2dVertex
 10
42.67236830711363
 20
-15.52376866340881
 30
0.0
  0
VERTEX
  5
20B6
330
209F
100
AcDbEntity
  8
LW 3520-32-00
100
AcDbVertex
100
AcDb2dVertex
 10
42.58749248504637
 20
-15.40561437607061
 30
0.0
  0
VERTEX
  5
20B7
330
209F
100
AcDbEntity
  8
LW 3520-32-00
100
AcDbVertex
100
AcDb2dVertex
 10
42.53681661605833
 20
-15.28149843216198
 30
0.0
  0
VERTEX
  5
20B8
330
209F
100
AcDbEntity
  8
LW 3520-32-00
100
AcDbVertex
100
AcDb2dVertex
 10
42.5199997615814
 20
-15.15544414520525
 30
0.0
  0
SEQEND
  5
20B9
330
209F
100
AcDbEntity
  8
LW 3520-32-00
  0
POLYLINE
  5
20BA
330
207E
100
AcDbEntity
  8
LW 3520-32-00
100
AcDb2dPolyline
 66
     1
 10
0.0
 20
0.0
 30
0.0
 70
   128
  0
VERTEX
  5
20BB
330
20BA
100
AcDbEntity
  8
LW 3520-32-00
100
AcDbVertex
100
AcDb2dVertex
 10
42.5199997615814
 20
-15.15544414520525
 30
0.0
  0
VERTEX
  5
20BC
330
20BA
100
AcDbEntity
  8
LW 3520-32-00
100
AcDbVertex
100
AcDb2dVertex
 10
42.53681661605833
 20
-15.02601861953997
 30
0.0
  0
VERTEX
  5
20BD
330
20BA
100
AcDbEntity
  8
LW 3520-32-00
100
AcDbVertex
100
AcDb2dVertex
 10
42.58749248504637
 20
-14.89207863807945
 30
0.0
  0
VERTEX
  5
20BE
330
20BA
100
AcDbEntity
  8
LW 3520-32-00
100
AcDbVertex
100
AcDb2dVertex
 10
42.67236830711363
 20
-14.75809454918186
 30
0.0
  0
VERTEX
  5
20BF
330
20BA
100
AcDbEntity
  8
LW 3520-32-00
100
AcDbVertex
100
AcDb2dVertex
 10
42.79067637443541
 20
-14.62852478027628
 30
0.0
  0
VERTEX
  5
20C0
330
20BA
100
AcDbEntity
  8
LW 3520-32-00
100
AcDbVertex
100
AcDb2dVertex
 10
42.9372418117523
 20
-14.50744867325119
 30
0.0
  0
VERTEX
  5
20C1
330
20BA
100
AcDbEntity
  8
LW 3520-32-00
100
AcDbVertex
100
AcDb2dVertex
 10
43.10578944206236
 20
-14.39876794815365
 30
0.0
  0
VERTEX
  5
20C2
330
20BA
100
AcDbEntity
  8
LW 3520-32-00
100
AcDbVertex
100
AcDb2dVertex
 10
43.29805137634275
 20
-14.30193305015865
 30
0.0
  0
VERTEX
  5
20C3
330
20BA
100
AcDbEntity
  8
LW 3520-32-00
100
AcDbVertex
100
AcDb2dVertex
 10
43.51613642692564
 20
-14.21658873558351
 30
0.0
  0
VERTEX
  5
20C4
330
20BA
100
AcDbEntity
  8
LW 3520-32-00
100
AcDbVertex
100
AcDb2dVertex
 10
43.75433089256285
 20
-14.14692282677004
 30
0.0
  0
VERTEX
  5
20C5
330
20BA
100
AcDbEntity
  8
LW 3520-32-00
100
AcDbVertex
100
AcDb2dVertex
 10
44.00646688461302
 20
-14.09652948379823
 30
0.0
  0
VERTEX
  5
20C6
330
20BA
100
AcDbEntity
  8
LW 3520-32-00
100
AcDbVertex
100
AcDb2dVertex
 10
44.26452042579649
 20
-14.06625151634523
 30
0.0
  0
VERTEX
  5
20C7
330
20BA
100
AcDbEntity
  8
LW 3520-32-00
100
AcDbVertex
100
AcDb2dVertex
 10
44.52000023841856
 20
-14.05614495277717
 30
0.0
  0
VERTEX
  5
20C8
330
20BA
100
AcDbEntity
  8
LW 3520-32-00
100
AcDbVertex
100
AcDb2dVertex
 10
44.77547885894773
 20
-14.06625151634523
 30
0.0
  0
VERTEX
  5
20C9
330
20BA
100
AcDbEntity
  8
LW 3520-32-00
100
AcDbVertex
100
AcDb2dVertex
 10
45.0335335922241
 20
-14.09652948379823
 30
0.0
  0
VERTEX
  5
20CA
330
20BA
100
AcDbEntity
  8
LW 3520-32-00
100
AcDbVertex
100
AcDb2dVertex
 10
45.28566958427427
 20
-14.14692282677004
 30
0.0
  0
VERTEX
  5
20CB
330
20BA
100
AcDbEntity
  8
LW 3520-32-00
100
AcDbVertex
100
AcDb2dVertex
 10
45.52386404991148
 20
-14.21658873558351
 30
0.0
  0
VERTEX
  5
20CC
330
20BA
100
AcDbEntity
  8
LW 3520-32-00
100
AcDbVertex
100
AcDb2dVertex
 10
45.74194790840147
 20
-14.30193305015865
 30
0.0
  0
VERTEX
  5
20CD
330
20BA
100
AcDbEntity
  8
LW 3520-32-00
100
AcDbVertex
100
AcDb2dVertex
 10
45.93421103477476
 20
-14.39876794815365
 30
0.0
  0
VERTEX
  5
20CE
330
20BA
100
AcDbEntity
  8
LW 3520-32-00
100
AcDbVertex
100
AcDb2dVertex
 10
46.10275866508482
 20
-14.50744867325119
 30
0.0
  0
VERTEX
  5
20CF
330
20BA
100
AcDbEntity
  8
LW 3520-32-00
100
AcDbVertex
100
AcDb2dVertex
 10
46.24932291030882
 20
-14.62852478027628
 30
0.0
  0
VERTEX
  5
20D0
330
20BA
100
AcDbEntity
  8
LW 3520-32-00
100
AcDbVertex
100
AcDb2dVertex
 10
46.36763216972349
 20
-14.75809454918186
 30
0.0
  0
VERTEX
  5
20D1
330
20BA
100
AcDbEntity
  8
LW 3520-32-00
100
AcDbVertex
100
AcDb2dVertex
 10
46.45250799179075
 20
-14.89207863807945
 30
0.0
  0
VERTEX
  5
20D2
330
20BA
100
AcDbEntity
  8
LW 3520-32-00
100
AcDbVertex
100
AcDb2dVertex
 10
46.50318386077879
 20
-15.02601861953997
 30
0.0
  0
VERTEX
  5
20D3
330
20BA
100
AcDbEntity
  8
LW 3520-32-00
100
AcDbVertex
100
AcDb2dVertex
 10
46.51999952316282
 20
-15.15544414520525
 30
0.0
  0
SEQEND
  5
20D4
330
20BA
100
AcDbEntity
  8
LW 3520-32-00
  0
POLYLINE
  5
20D5
330
207E
100
AcDbEntity
  8
LW 3520-32-00
100
AcDb2dPolyline
 66
     1
 10
0.0
 20
0.0
 30
0.0
 70
   128
  0
VERTEX
  5
20D6
330
20D5
100
AcDbEntity
  8
LW 3520-32-00
100
AcDbVertex
100
AcDb2dVertex
 10
46.51999952316282
 20
15.15544414520002
 30
0.0
  0
VERTEX
  5
20D7
330
20D5
100
AcDbEntity
  8
LW 3520-32-00
100
AcDbVertex
100
AcDb2dVertex
 10
46.50318386077879
 20
15.02601861953474
 30
0.0
  0
VERTEX
  5
20D8
330
20D5
100
AcDbEntity
  8
LW 3520-32-00
100
AcDbVertex
100
AcDb2dVertex
 10
46.45250799179075
 20
14.89207863807411
 30
0.0
  0
VERTEX
  5
20D9
330
20D5
100
AcDbEntity
  8
LW 3520-32-00
100
AcDbVertex
100
AcDb2dVertex
 10
46.36763216972349
 20
14.75809454917629
 30
0.0
  0
VERTEX
  5
20DA
330
20D5
100
AcDbEntity
  8
LW 3520-32-00
100
AcDbVertex
100
AcDb2dVertex
 10
46.24932291030882
 20
14.62852478027059
 30
0.0
  0
VERTEX
  5
20DB
330
20D5
100
AcDbEntity
  8
LW 3520-32-00
100
AcDbVertex
100
AcDb2dVertex
 10
46.10275866508482
 20
14.50744867324539
 30
0.0
  0
VERTEX
  5
20DC
330
20D5
100
AcDbEntity
  8
LW 3520-32-00
100
AcDbVertex
100
AcDb2dVertex
 10
45.93421103477476
 20
14.39876794814762
 30
0.0
  0
VERTEX
  5
20DD
330
20D5
100
AcDbEntity
  8
LW 3520-32-00
100
AcDbVertex
100
AcDb2dVertex
 10
45.74194790840147
 20
14.30193305015263
 30
0.0
  0
VERTEX
  5
20DE
330
20D5
100
AcDbEntity
  8
LW 3520-32-00
100
AcDbVertex
100
AcDb2dVertex
 10
45.52386404991148
 20
14.21658873557737
 30
0.0
  0
VERTEX
  5
20DF
330
20D5
100
AcDbEntity
  8
LW 3520-32-00
100
AcDbVertex
100
AcDb2dVertex
 10
45.28566958427427
 20
14.1469228267639
 30
0.0
  0
VERTEX
  5
20E0
330
20D5
100
AcDbEntity
  8
LW 3520-32-00
100
AcDbVertex
100
AcDb2dVertex
 10
45.0335335922241
 20
14.0965294837921
 30
0.0
  0
VERTEX
  5
20E1
330
20D5
100
AcDbEntity
  8
LW 3520-32-00
100
AcDbVertex
100
AcDb2dVertex
 10
44.77547885894773
 20
14.06625151633909
 30
0.0
  0
VERTEX
  5
20E2
330
20D5
100
AcDbEntity
  8
LW 3520-32-00
100
AcDbVertex
100
AcDb2dVertex
 10
44.52000023841856
 20
14.05614495277092
 30
0.0
  0
VERTEX
  5
20E3
330
20D5
100
AcDbEntity
  8
LW 3520-32-00
100
AcDbVertex
100
AcDb2dVertex
 10
44.26452042579649
 20
14.06625151633909
 30
0.0
  0
VERTEX
  5
20E4
330
20D5
100
AcDbEntity
  8
LW 3520-32-00
100
AcDbVertex
100
AcDb2dVertex
 10
44.00646688461302
 20
14.0965294837921
 30
0.0
  0
VERTEX
  5
20E5
330
20D5
100
AcDbEntity
  8
LW 3520-32-00
100
AcDbVertex
100
AcDb2dVertex
 10
43.75433089256285
 20
14.1469228267639
 30
0.0
  0
VERTEX
  5
20E6
330
20D5
100
AcDbEntity
  8
LW 3520-32-00
100
AcDbVertex
100
AcDb2dVertex
 10
43.51613642692564
 20
14.21658873557737
 30
0.0
  0
VERTEX
  5
20E7
330
20D5
100
AcDbEntity
  8
LW 3520-32-00
100
AcDbVertex
100
AcDb2dVertex
 10
43.29805137634275
 20
14.30193305015263
 30
0.0
  0
VERTEX
  5
20E8
330
20D5
100
AcDbEntity
  8
LW 3520-32-00
100
AcDbVertex
100
AcDb2dVertex
 10
43.10578944206236
 20
14.39876794814762
 30
0.0
  0
VERTEX
  5
20E9
330
20D5
100
AcDbEntity
  8
LW 3520-32-00
100
AcDbVertex
100
AcDb2dVertex
 10
42.9372418117523
 20
14.50744867324539
 30
0.0
  0
VERTEX
  5
20EA
330
20D5
100
AcDbEntity
  8
LW 3520-32-00
100
AcDbVertex
100
AcDb2dVertex
 10
42.79067637443541
 20
14.62852478027059
 30
0.0
  0
VERTEX
  5
20EB
330
20D5
100
AcDbEntity
  8
LW 3520-32-00
100
AcDbVertex
100
AcDb2dVertex
 10
42.67236830711363
 20
14.75809454917629
 30
0.0
  0
VERTEX
  5
20EC
330
20D5
100
AcDbEntity
  8
LW 3520-32-00
100
AcDbVertex
100
AcDb2dVertex
 10
42.58749248504637
 20
14.89207863807411
 30
0.0
  0
VERTEX
  5
20ED
330
20D5
100
AcDbEntity
  8
LW 3520-32-00
100
AcDbVertex
100
AcDb2dVertex
 10
42.53681661605833
 20
15.02601861953474
 30
0.0
  0
VERTEX
  5
20EE
330
20D5
100
AcDbEntity
  8
LW 3520-32-00
100
AcDbVertex
100
AcDb2dVertex
 10
42.5199997615814
 20
15.15544414520002
 30
0.0
  0
SEQEND
  5
20EF
330
20D5
100
AcDbEntity
  8
LW 3520-32-00
  0
POLYLINE
  5
20F0
330
207E
100
AcDbEntity
  8
LW 3520-32-00
100
AcDb2dPolyline
 66
     1
 10
0.0
 20
0.0
 30
0.0
 70
   128
  0
VERTEX
  5
20F1
330
20F0
100
AcDbEntity
  8
LW 3520-32-00
100
AcDbVertex
100
AcDb2dVertex
 10
42.5199997615814
 20
15.15544414520002
 30
0.0
  0
VERTEX
  5
20F2
330
20F0
100
AcDbEntity
  8
LW 3520-32-00
100
AcDbVertex
100
AcDb2dVertex
 10
42.53681661605833
 20
15.28149843215686
 30
0.0
  0
VERTEX
  5
20F3
330
20F0
100
AcDbEntity
  8
LW 3520-32-00
100
AcDbVertex
100
AcDb2dVertex
 10
42.58749248504637
 20
15.40561437606561
 30
0.0
  0
VERTEX
  5
20F4
330
20F0
100
AcDbEntity
  8
LW 3520-32-00
100
AcDbVertex
100
AcDb2dVertex
 10
42.67236830711363
 20
15.52376866340393
 30
0.0
  0
VERTEX
  5
20F5
330
20F0
100
AcDbEntity
  8
LW 3520-32-00
100
AcDbVertex
100
AcDb2dVertex
 10
42.79067637443541
 20
15.6323945522285
 30
0.0
  0
VERTEX
  5
20F6
330
20F0
100
AcDbEntity
  8
LW 3520-32-00
100
AcDbVertex
100
AcDb2dVertex
 10
42.9372418117523
 20
15.7294034957863
 30
0.0
  0
VERTEX
  5
20F7
330
20F0
100
AcDbEntity
  8
LW 3520-32-00
100
AcDbVertex
100
AcDb2dVertex
 10
43.10578944206236
 20
15.8129847049691
 30
0.0
  0
VERTEX
  5
20F8
330
20F0
100
AcDbEntity
  8
LW 3520-32-00
100
AcDbVertex
100
AcDb2dVertex
 10
43.29805137634275
 20
15.88469624519126
 30
0.0
  0
VERTEX
  5
20F9
330
20F0
100
AcDbEntity
  8
LW 3520-32-00
100
AcDbVertex
100
AcDb2dVertex
 10
43.51613642692564
 20
15.94591498374728
 30
0.0
  0
VERTEX
  5
20FA
330
20F0
100
AcDbEntity
  8
LW 3520-32-00
100
AcDbVertex
100
AcDb2dVertex
 10
43.75433089256285
 20
15.99455595016269
 30
0.0
  0
VERTEX
  5
20FB
330
20F0
100
AcDbEntity
  8
LW 3520-32-00
100
AcDbVertex
100
AcDb2dVertex
 10
44.00646688461302
 20
16.02903842925821
 30
0.0
  0
VERTEX
  5
20FC
330
20F0
100
AcDbEntity
  8
LW 3520-32-00
100
AcDbVertex
100
AcDb2dVertex
 10
44.26452042579649
 20
16.04943513870034
 30
0.0
  0
VERTEX
  5
20FD
330
20F0
100
AcDbEntity
  8
LW 3520-32-00
100
AcDbVertex
100
AcDb2dVertex
 10
44.52000023841856
 20
16.05614542960916
 30
0.0
  0
VERTEX
  5
20FE
330
20F0
100
AcDbEntity
  8
LW 3520-32-00
100
AcDbVertex
100
AcDb2dVertex
 10
44.77547885894773
 20
16.04943513870034
 30
0.0
  0
VERTEX
  5
20FF
330
20F0
100
AcDbEntity
  8
LW 3520-32-00
100
AcDbVertex
100
AcDb2dVertex
 10
45.0335335922241
 20
16.02903842925821
 30
0.0
  0
VERTEX
  5
2100
330
20F0
100
AcDbEntity
  8
LW 3520-32-00
100
AcDbVertex
100
AcDb2dVertex
 10
45.28566958427427
 20
15.99455595016269
 30
0.0
  0
VERTEX
  5
2101
330
20F0
100
AcDbEntity
  8
LW 3520-32-00
100
AcDbVertex
100
AcDb2dVertex
 10
45.52386404991148
 20
15.94591498374728
 30
0.0
  0
VERTEX
  5
2102
330
20F0
100
AcDbEntity
  8
LW 3520-32-00
100
AcDbVertex
100
AcDb2dVertex
 10
45.74194790840147
 20
15.88469624519126
 30
0.0
  0
VERTEX
  5
2103
330
20F0
100
AcDbEntity
  8
LW 3520-32-00
100
AcDbVertex
100
AcDb2dVertex
 10
45.93421103477476
 20
15.8129847049691
 30
0.0
  0
VERTEX
  5
2104
330
20F0
100
AcDbEntity
  8
LW 3520-32-00
100
AcDbVertex
100
AcDb2dVertex
 10
46.10275866508482
 20
15.7294034957863
 30
0.0
  0
VERTEX
  5
2105
330
20F0
100
AcDbEntity
  8
LW 3520-32-00
100
AcDbVertex
100
AcDb2dVertex
 10
46.24932291030882
 20
15.6323945522285
 30
0.0
  0
VERTEX
  5
2106
330
20F0
100
AcDbEntity
  8
LW 3520-32-00
100
AcDbVertex
100
AcDb2dVertex
 10
46.36763216972349
 20
15.52376866340393
 30
0.0
  0
VERTEX
  5
2107
330
20F0
100
AcDbEntity
  8
LW 3520-32-00
100
AcDbVertex
100
AcDb2dVertex
 10
46.45250799179075
 20
15.40561437606561
 30
0.0
  0
VERTEX
  5
2108
330
20F0
100
AcDbEntity
  8
LW 3520-32-00
100
AcDbVertex
100
AcDb2dVertex
 10
46.50318386077879
 20
15.28149843215686
 30
0.0
  0
VERTEX
  5
2109
330
20F0
100
AcDbEntity
  8
LW 3520-32-00
100
AcDbVertex
100
AcDb2dVertex
 10
46.51999952316282
 20
15.15544414520002
 30
0.0
  0
SEQEND
  5
210A
330
20F0
100
AcDbEntity
  8
LW 3520-32-00
  0
LINE
  5
210B
330
207E
100
AcDbEntity
  8
LW 3520-32-00
100
AcDbLine
 10
48.51999999999998
 20
-17.5
 30
0.0
 11
48.51999999999998
 21
17.5
 31
0.0
  0
LINE
  5
210C
330
207E
100
AcDbEntity
  8
LW 3520-32-00
100
AcDbLine
 10
51.51999999999998
 20
-14.50000000000005
 30
0.0
 11
51.51999999999998
 21
14.50000000000005
 31
0.0
  0
LINE
  5
210D
330
207E
100
AcDbEntity
  8
LW 3520-32-00
100
AcDbLine
 10
28.51999999999998
 20
17.5
 30
0.0
 11
48.51999999999998
 21
17.5
 31
0.0
  0
LINE
  5
210E
330
207E
100
AcDbEntity
  8
LW 3520-32-00
100
AcDbLine
 10
28.51999999999998
 20
-17.5
 30
0.0
 11
48.51999999999998
 21
-17.5
 31
0.0
  0
LINE
  5
210F
330
207E
100
AcDbEntity
  8
LW 3520-32-00
100
AcDbLine
 10
51.51999999999998
 20
-14.50000000000005
 30
0.0
 11
48.51999999999998
 21
-17.5
 31
0.0
  0
LINE
  5
2110
330
207E
100
AcDbEntity
  8
LW 3520-32-00
100
AcDbLine
 10
51.51999999999998
 20
14.50000000000005
 30
0.0
 11
48.51999999999998
 21
17.5
 31
0.0
  0
POLYLINE
  5
2111
330
207E
100
AcDbEntity
  8
LW 3520-32-00
100
AcDb2dPolyline
 66
     1
 10
0.0
 20
0.0
 30
0.0
 70
   128
  0
VERTEX
  5
2112
330
2111
100
AcDbEntity
  8
LW 3520-32-00
100
AcDbVertex
100
AcDb2dVertex
 10
-46.51999952316285
 20
15.15544414520002
 30
0.0
  0
VERTEX
  5
2113
330
2111
100
AcDbEntity
  8
LW 3520-32-00
100
AcDbVertex
100
AcDb2dVertex
 10
-46.50318386077882
 20
15.28149843215686
 30
0.0
  0
VERTEX
  5
2114
330
2111
100
AcDbEntity
  8
LW 3520-32-00
100
AcDbVertex
100
AcDb2dVertex
 10
-46.45250799179078
 20
15.40561437606561
 30
0.0
  0
VERTEX
  5
2115
330
2111
100
AcDbEntity
  8
LW 3520-32-00
100
AcDbVertex
100
AcDb2dVertex
 10
-46.36763216972352
 20
15.52376866340393
 30
0.0
  0
VERTEX
  5
2116
330
2111
100
AcDbEntity
  8
LW 3520-32-00
100
AcDbVertex
100
AcDb2dVertex
 10
-46.24932291030884
 20
15.6323945522285
 30
0.0
  0
VERTEX
  5
2117
330
2111
100
AcDbEntity
  8
LW 3520-32-00
100
AcDbVertex
100
AcDb2dVertex
 10
-46.10275866508485
 20
15.7294034957863
 30
0.0
  0
VERTEX
  5
2118
330
2111
100
AcDbEntity
  8
LW 3520-32-00
100
AcDbVertex
100
AcDb2dVertex
 10
-45.93421103477479
 20
15.8129847049691
 30
0.0
  0
VERTEX
  5
2119
330
2111
100
AcDbEntity
  8
LW 3520-32-00
100
AcDbVertex
100
AcDb2dVertex
 10
-45.7419479084015
 20
15.88469624519126
 30
0.0
  0
VERTEX
  5
211A
330
2111
100
AcDbEntity
  8
LW 3520-32-00
100
AcDbVertex
100
AcDb2dVertex
 10
-45.52386404991151
 20
15.94591498374728
 30
0.0
  0
VERTEX
  5
211B
330
2111
100
AcDbEntity
  8
LW 3520-32-00
100
AcDbVertex
100
AcDb2dVertex
 10
-45.2856695842743
 20
15.99455595016269
 30
0.0
  0
VERTEX
  5
211C
330
2111
100
AcDbEntity
  8
LW 3520-32-00
100
AcDbVertex
100
AcDb2dVertex
 10
-45.03353359222413
 20
16.02903842925821
 30
0.0
  0
VERTEX
  5
211D
330
2111
100
AcDbEntity
  8
LW 3520-32-00
100
AcDbVertex
100
AcDb2dVertex
 10
-44.77547885894776
 20
16.04943513870034
 30
0.0
  0
VERTEX
  5
211E
330
2111
100
AcDbEntity
  8
LW 3520-32-00
100
AcDbVertex
100
AcDb2dVertex
 10
-44.52000023841859
 20
16.05614542960916
 30
0.0
  0
VERTEX
  5
211F
330
2111
100
AcDbEntity
  8
LW 3520-32-00
100
AcDbVertex
100
AcDb2dVertex
 10
-44.26452042579652
 20
16.04943513870034
 30
0.0
  0
VERTEX
  5
2120
330
2111
100
AcDbEntity
  8
LW 3520-32-00
100
AcDbVertex
100
AcDb2dVertex
 10
-44.00646688461304
 20
16.02903842925821
 30
0.0
  0
VERTEX
  5
2121
330
2111
100
AcDbEntity
  8
LW 3520-32-00
100
AcDbVertex
100
AcDb2dVertex
 10
-43.75433089256287
 20
15.99455595016269
 30
0.0
  0
VERTEX
  5
2122
330
2111
100
AcDbEntity
  8
LW 3520-32-00
100
AcDbVertex
100
AcDb2dVertex
 10
-43.51613642692567
 20
15.94591498374728
 30
0.0
  0
VERTEX
  5
2123
330
2111
100
AcDbEntity
  8
LW 3520-32-00
100
AcDbVertex
100
AcDb2dVertex
 10
-43.29805137634278
 20
15.88469624519126
 30
0.0
  0
VERTEX
  5
2124
330
2111
100
AcDbEntity
  8
LW 3520-32-00
100
AcDbVertex
100
AcDb2dVertex
 10
-43.10578944206238
 20
15.8129847049691
 30
0.0
  0
VERTEX
  5
2125
330
2111
100
AcDbEntity
  8
LW 3520-32-00
100
AcDbVertex
100
AcDb2dVertex
 10
-42.93724181175233
 20
15.7294034957863
 30
0.0
  0
VERTEX
  5
2126
330
2111
100
AcDbEntity
  8
LW 3520-32-00
100
AcDbVertex
100
AcDb2dVertex
 10
-42.79067637443543
 20
15.6323945522285
 30
0.0
  0
VERTEX
  5
2127
330
2111
100
AcDbEntity
  8
LW 3520-32-00
100
AcDbVertex
100
AcDb2dVertex
 10
-42.67236830711365
 20
15.52376866340393
 30
0.0
  0
VERTEX
  5
2128
330
2111
100
AcDbEntity
  8
LW 3520-32-00
100
AcDbVertex
100
AcDb2dVertex
 10
-42.58749248504639
 20
15.40561437606561
 30
0.0
  0
VERTEX
  5
2129
330
2111
100
AcDbEntity
  8
LW 3520-32-00
100
AcDbVertex
100
AcDb2dVertex
 10
-42.53681661605836
 20
15.28149843215686
 30
0.0
  0
VERTEX
  5
212A
330
2111
100
AcDbEntity
  8
LW 3520-32-00
100
AcDbVertex
100
AcDb2dVertex
 10
-42.51999976158143
 20
15.15544414520002
 30
0.0
  0
SEQEND
  5
212B
330
2111
100
AcDbEntity
  8
LW 3520-32-00
  0
POLYLINE
  5
212C
330
207E
100
AcDbEntity
  8
LW 3520-32-00
100
AcDb2dPolyline
 66
     1
 10
0.0
 20
0.0
 30
0.0
 70
   128
  0
VERTEX
  5
212D
330
212C
100
AcDbEntity
  8
LW 3520-32-00
100
AcDbVertex
100
AcDb2dVertex
 10
-42.51999976158143
 20
15.15544414520002
 30
0.0
  0
VERTEX
  5
212E
330
212C
100
AcDbEntity
  8
LW 3520-32-00
100
AcDbVertex
100
AcDb2dVertex
 10
-42.53681661605836
 20
15.02601861953474
 30
0.0
  0
VERTEX
  5
212F
330
212C
100
AcDbEntity
  8
LW 3520-32-00
100
AcDbVertex
100
AcDb2dVertex
 10
-42.58749248504639
 20
14.89207863807411
 30
0.0
  0
VERTEX
  5
2130
330
212C
100
AcDbEntity
  8
LW 3520-32-00
100
AcDbVertex
100
AcDb2dVertex
 10
-42.67236830711365
 20
14.75809454917629
 30
0.0
  0
VERTEX
  5
2131
330
212C
100
AcDbEntity
  8
LW 3520-32-00
100
AcDbVertex
100
AcDb2dVertex
 10
-42.79067637443543
 20
14.62852478027059
 30
0.0
  0
VERTEX
  5
2132
330
212C
100
AcDbEntity
  8
LW 3520-32-00
100
AcDbVertex
100
AcDb2dVertex
 10
-42.93724181175233
 20
14.50744867324539
 30
0.0
  0
VERTEX
  5
2133
330
212C
100
AcDbEntity
  8
LW 3520-32-00
100
AcDbVertex
100
AcDb2dVertex
 10
-43.10578944206238
 20
14.39876794814762
 30
0.0
  0
VERTEX
  5
2134
330
212C
100
AcDbEntity
  8
LW 3520-32-00
100
AcDbVertex
100
AcDb2dVertex
 10
-43.29805137634278
 20
14.30193305015263
 30
0.0
  0
VERTEX
  5
2135
330
212C
100
AcDbEntity
  8
LW 3520-32-00
100
AcDbVertex
100
AcDb2dVertex
 10
-43.51613642692567
 20
14.21658873557737
 30
0.0
  0
VERTEX
  5
2136
330
212C
100
AcDbEntity
  8
LW 3520-32-00
100
AcDbVertex
100
AcDb2dVertex
 10
-43.75433089256287
 20
14.1469228267639
 30
0.0
  0
VERTEX
  5
2137
330
212C
100
AcDbEntity
  8
LW 3520-32-00
100
AcDbVertex
100
AcDb2dVertex
 10
-44.00646688461304
 20
14.0965294837921
 30
0.0
  0
VERTEX
  5
2138
330
212C
100
AcDbEntity
  8
LW 3520-32-00
100
AcDbVertex
100
AcDb2dVertex
 10
-44.26452042579652
 20
14.06625151633909
 30
0.0
  0
VERTEX
  5
2139
330
212C
100
AcDbEntity
  8
LW 3520-32-00
100
AcDbVertex
100
AcDb2dVertex
 10
-44.52000023841859
 20
14.05614495277092
 30
0.0
  0
VERTEX
  5
213A
330
212C
100
AcDbEntity
  8
LW 3520-32-00
100
AcDbVertex
100
AcDb2dVertex
 10
-44.77547885894776
 20
14.06625151633909
 30
0.0
  0
VERTEX
  5
213B
330
212C
100
AcDbEntity
  8
LW 3520-32-00
100
AcDbVertex
100
AcDb2dVertex
 10
-45.03353359222413
 20
14.0965294837921
 30
0.0
  0
VERTEX
  5
213C
330
212C
100
AcDbEntity
  8
LW 3520-32-00
100
AcDbVertex
100
AcDb2dVertex
 10
-45.2856695842743
 20
14.1469228267639
 30
0.0
  0
VERTEX
  5
213D
330
212C
100
AcDbEntity
  8
LW 3520-32-00
100
AcDbVertex
100
AcDb2dVertex
 10
-45.52386404991151
 20
14.21658873557737
 30
0.0
  0
VERTEX
  5
213E
330
212C
100
AcDbEntity
  8
LW 3520-32-00
100
AcDbVertex
100
AcDb2dVertex
 10
-45.7419479084015
 20
14.30193305015263
 30
0.0
  0
VERTEX
  5
213F
330
212C
100
AcDbEntity
  8
LW 3520-32-00
100
AcDbVertex
100
AcDb2dVertex
 10
-45.93421103477479
 20
14.39876794814762
 30
0.0
  0
VERTEX
  5
2140
330
212C
100
AcDbEntity
  8
LW 3520-32-00
100
AcDbVertex
100
AcDb2dVertex
 10
-46.10275866508485
 20
14.50744867324539
 30
0.0
  0
VERTEX
  5
2141
330
212C
100
AcDbEntity
  8
LW 3520-32-00
100
AcDbVertex
100
AcDb2dVertex
 10
-46.24932291030884
 20
14.62852478027059
 30
0.0
  0
VERTEX
  5
2142
330
212C
100
AcDbEntity
  8
LW 3520-32-00
100
AcDbVertex
100
AcDb2dVertex
 10
-46.36763216972352
 20
14.75809454917629
 30
0.0
  0
VERTEX
  5
2143
330
212C
100
AcDbEntity
  8
LW 3520-32-00
100
AcDbVertex
100
AcDb2dVertex
 10
-46.45250799179078
 20
14.89207863807411
 30
0.0
  0
VERTEX
  5
2144
330
212C
100
AcDbEntity
  8
LW 3520-32-00
100
AcDbVertex
100
AcDb2dVertex
 10
-46.50318386077882
 20
15.02601861953474
 30
0.0
  0
VERTEX
  5
2145
330
212C
100
AcDbEntity
  8
LW 3520-32-00
100
AcDbVertex
100
AcDb2dVertex
 10
-46.51999952316285
 20
15.15544414520002
 30
0.0
  0
SEQEND
  5
2146
330
212C
100
AcDbEntity
  8
LW 3520-32-00
  0
POLYLINE
  5
2147
330
207E
100
AcDbEntity
  8
LW 3520-32-00
100
AcDb2dPolyline
 66
     1
 10
0.0
 20
0.0
 30
0.0
 70
   128
  0
VERTEX
  5
2148
330
2147
100
AcDbEntity
  8
LW 3520-32-00
100
AcDbVertex
100
AcDb2dVertex
 10
-46.51999952316285
 20
-15.15544414520525
 30
0.0
  0
VERTEX
  5
2149
330
2147
100
AcDbEntity
  8
LW 3520-32-00
100
AcDbVertex
100
AcDb2dVertex
 10
-46.50318386077882
 20
-15.02601861953997
 30
0.0
  0
VERTEX
  5
214A
330
2147
100
AcDbEntity
  8
LW 3520-32-00
100
AcDbVertex
100
AcDb2dVertex
 10
-46.45250799179078
 20
-14.89207863807945
 30
0.0
  0
VERTEX
  5
214B
330
2147
100
AcDbEntity
  8
LW 3520-32-00
100
AcDbVertex
100
AcDb2dVertex
 10
-46.36763216972352
 20
-14.75809454918186
 30
0.0
  0
VERTEX
  5
214C
330
2147
100
AcDbEntity
  8
LW 3520-32-00
100
AcDbVertex
100
AcDb2dVertex
 10
-46.24932291030884
 20
-14.62852478027628
 30
0.0
  0
VERTEX
  5
214D
330
2147
100
AcDbEntity
  8
LW 3520-32-00
100
AcDbVertex
100
AcDb2dVertex
 10
-46.10275866508485
 20
-14.50744867325119
 30
0.0
  0
VERTEX
  5
214E
330
2147
100
AcDbEntity
  8
LW 3520-32-00
100
AcDbVertex
100
AcDb2dVertex
 10
-45.93421103477479
 20
-14.39876794815365
 30
0.0
  0
VERTEX
  5
214F
330
2147
100
AcDbEntity
  8
LW 3520-32-00
100
AcDbVertex
100
AcDb2dVertex
 10
-45.7419479084015
 20
-14.30193305015865
 30
0.0
  0
VERTEX
  5
2150
330
2147
100
AcDbEntity
  8
LW 3520-32-00
100
AcDbVertex
100
AcDb2dVertex
 10
-45.52386404991151
 20
-14.21658873558351
 30
0.0
  0
VERTEX
  5
2151
330
2147
100
AcDbEntity
  8
LW 3520-32-00
100
AcDbVertex
100
AcDb2dVertex
 10
-45.2856695842743
 20
-14.14692282677004
 30
0.0
  0
VERTEX
  5
2152
330
2147
100
AcDbEntity
  8
LW 3520-32-00
100
AcDbVertex
100
AcDb2dVertex
 10
-45.03353359222413
 20
-14.09652948379823
 30
0.0
  0
VERTEX
  5
2153
330
2147
100
AcDbEntity
  8
LW 3520-32-00
100
AcDbVertex
100
AcDb2dVertex
 10
-44.77547885894776
 20
-14.06625151634523
 30
0.0
  0
VERTEX
  5
2154
330
2147
100
AcDbEntity
  8
LW 3520-32-00
100
AcDbVertex
100
AcDb2dVertex
 10
-44.52000023841859
 20
-14.05614495277717
 30
0.0
  0
VERTEX
  5
2155
330
2147
100
AcDbEntity
  8
LW 3520-32-00
100
AcDbVertex
100
AcDb2dVertex
 10
-44.26452042579652
 20
-14.06625151634523
 30
0.0
  0
VERTEX
  5
2156
330
2147
100
AcDbEntity
  8
LW 3520-32-00
100
AcDbVertex
100
AcDb2dVertex
 10
-44.00646688461304
 20
-14.09652948379823
 30
0.0
  0
VERTEX
  5
2157
330
2147
100
AcDbEntity
  8
LW 3520-32-00
100
AcDbVertex
100
AcDb2dVertex
 10
-43.75433089256287
 20
-14.14692282677004
 30
0.0
  0
VERTEX
  5
2158
330
2147
100
AcDbEntity
  8
LW 3520-32-00
100
AcDbVertex
100
AcDb2dVertex
 10
-43.51613642692567
 20
-14.21658873558351
 30
0.0
  0
VERTEX
  5
2159
330
2147
100
AcDbEntity
  8
LW 3520-32-00
100
AcDbVertex
100
AcDb2dVertex
 10
-43.29805137634278
 20
-14.30193305015865
 30
0.0
  0
VERTEX
  5
215A
330
2147
100
AcDbEntity
  8
LW 3520-32-00
100
AcDbVertex
100
AcDb2dVertex
 10
-43.10578944206238
 20
-14.39876794815365
 30
0.0
  0
VERTEX
  5
215B
330
2147
100
AcDbEntity
  8
LW 3520-32-00
100
AcDbVertex
100
AcDb2dVertex
 10
-42.93724181175233
 20
-14.50744867325119
 30
0.0
  0
VERTEX
  5
215C
330
2147
100
AcDbEntity
  8
LW 3520-32-00
100
AcDbVertex
100
AcDb2dVertex
 10
-42.79067637443543
 20
-14.62852478027628
 30
0.0
  0
VERTEX
  5
215D
330
2147
100
AcDbEntity
  8
LW 3520-32-00
100
AcDbVertex
100
AcDb2dVertex
 10
-42.67236830711365
 20
-14.75809454918186
 30
0.0
  0
VERTEX
  5
215E
330
2147
100
AcDbEntity
  8
LW 3520-32-00
100
AcDbVertex
100
AcDb2dVertex
 10
-42.58749248504639
 20
-14.89207863807945
 30
0.0
  0
VERTEX
  5
215F
330
2147
100
AcDbEntity
  8
LW 3520-32-00
100
AcDbVertex
100
AcDb2dVertex
 10
-42.53681661605836
 20
-15.02601861953997
 30
0.0
  0
VERTEX
  5
2160
330
2147
100
AcDbEntity
  8
LW 3520-32-00
100
AcDbVertex
100
AcDb2dVertex
 10
-42.51999976158143
 20
-15.15544414520525
 30
0.0
  0
SEQEND
  5
2161
330
2147
100
AcDbEntity
  8
LW 3520-32-00
  0
POLYLINE
  5
2162
330
207E
100
AcDbEntity
  8
LW 3520-32-00
100
AcDb2dPolyline
 66
     1
 10
0.0
 20
0.0
 30
0.0
 70
   128
  0
VERTEX
  5
2163
330
2162
100
AcDbEntity
  8
LW 3520-32-00
100
AcDbVertex
100
AcDb2dVertex
 10
-42.51999976158143
 20
-15.15544414520525
 30
0.0
  0
VERTEX
  5
2164
330
2162
100
AcDbEntity
  8
LW 3520-32-00
100
AcDbVertex
100
AcDb2dVertex
 10
-42.53681661605836
 20
-15.28149843216198
 30
0.0
  0
VERTEX
  5
2165
330
2162
100
AcDbEntity
  8
LW 3520-32-00
100
AcDbVertex
100
AcDb2dVertex
 10
-42.58749248504639
 20
-15.40561437607061
 30
0.0
  0
VERTEX
  5
2166
330
2162
100
AcDbEntity
  8
LW 3520-32-00
100
AcDbVertex
100
AcDb2dVertex
 10
-42.67236830711365
 20
-15.52376866340881
 30
0.0
  0
VERTEX
  5
2167
330
2162
100
AcDbEntity
  8
LW 3520-32-00
100
AcDbVertex
100
AcDb2dVertex
 10
-42.79067637443543
 20
-15.63239455223316
 30
0.0
  0
VERTEX
  5
2168
330
2162
100
AcDbEntity
  8
LW 3520-32-00
100
AcDbVertex
100
AcDb2dVertex
 10
-42.93724181175233
 20
-15.72940349579084
 30
0.0
  0
VERTEX
  5
2169
330
2162
100
AcDbEntity
  8
LW 3520-32-00
100
AcDbVertex
100
AcDb2dVertex
 10
-43.10578944206238
 20
-15.81298470497353
 30
0.0
  0
VERTEX
  5
216A
330
2162
100
AcDbEntity
  8
LW 3520-32-00
100
AcDbVertex
100
AcDb2dVertex
 10
-43.29805137634278
 20
-15.8846962451957
 30
0.0
  0
VERTEX
  5
216B
330
2162
100
AcDbEntity
  8
LW 3520-32-00
100
AcDbVertex
100
AcDb2dVertex
 10
-43.51613642692567
 20
-15.94591498375149
 30
0.0
  0
VERTEX
  5
216C
330
2162
100
AcDbEntity
  8
LW 3520-32-00
100
AcDbVertex
100
AcDb2dVertex
 10
-43.75433089256287
 20
-15.9945559501669
 30
0.0
  0
VERTEX
  5
216D
330
2162
100
AcDbEntity
  8
LW 3520-32-00
100
AcDbVertex
100
AcDb2dVertex
 10
-44.00646688461304
 20
-16.0290384292623
 30
0.0
  0
VERTEX
  5
216E
330
2162
100
AcDbEntity
  8
LW 3520-32-00
100
AcDbVertex
100
AcDb2dVertex
 10
-44.26452042579652
 20
-16.04943513870444
 30
0.0
  0
VERTEX
  5
216F
330
2162
100
AcDbEntity
  8
LW 3520-32-00
100
AcDbVertex
100
AcDb2dVertex
 10
-44.52000023841859
 20
-16.05614542961325
 30
0.0
  0
VERTEX
  5
2170
330
2162
100
AcDbEntity
  8
LW 3520-32-00
100
AcDbVertex
100
AcDb2dVertex
 10
-44.77547885894776
 20
-16.04943513870444
 30
0.0
  0
VERTEX
  5
2171
330
2162
100
AcDbEntity
  8
LW 3520-32-00
100
AcDbVertex
100
AcDb2dVertex
 10
-45.03353359222413
 20
-16.0290384292623
 30
0.0
  0
VERTEX
  5
2172
330
2162
100
AcDbEntity
  8
LW 3520-32-00
100
AcDbVertex
100
AcDb2dVertex
 10
-45.2856695842743
 20
-15.9945559501669
 30
0.0
  0
VERTEX
  5
2173
330
2162
100
AcDbEntity
  8
LW 3520-32-00
100
AcDbVertex
100
AcDb2dVertex
 10
-45.52386404991151
 20
-15.94591498375149
 30
0.0
  0
VERTEX
  5
2174
330
2162
100
AcDbEntity
  8
LW 3520-32-00
100
AcDbVertex
100
AcDb2dVertex
 10
-45.7419479084015
 20
-15.8846962451957
 30
0.0
  0
VERTEX
  5
2175
330
2162
100
AcDbEntity
  8
LW 3520-32-00
100
AcDbVertex
100
AcDb2dVertex
 10
-45.93421103477479
 20
-15.81298470497353
 30
0.0
  0
VERTEX
  5
2176
330
2162
100
AcDbEntity
  8
LW 3520-32-00
100
AcDbVertex
100
AcDb2dVertex
 10
-46.10275866508485
 20
-15.72940349579084
 30
0.0
  0
VERTEX
  5
2177
330
2162
100
AcDbEntity
  8
LW 3520-32-00
100
AcDbVertex
100
AcDb2dVertex
 10
-46.24932291030884
 20
-15.63239455223316
 30
0.0
  0
VERTEX
  5
2178
330
2162
100
AcDbEntity
  8
LW 3520-32-00
100
AcDbVertex
100
AcDb2dVertex
 10
-46.36763216972352
 20
-15.52376866340881
 30
0.0
  0
VERTEX
  5
2179
330
2162
100
AcDbEntity
  8
LW 3520-32-00
100
AcDbVertex
100
AcDb2dVertex
 10
-46.45250799179078
 20
-15.40561437607061
 30
0.0
  0
VERTEX
  5
217A
330
2162
100
AcDbEntity
  8
LW 3520-32-00
100
AcDbVertex
100
AcDb2dVertex
 10
-46.50318386077882
 20
-15.28149843216198
 30
0.0
  0
VERTEX
  5
217B
330
2162
100
AcDbEntity
  8
LW 3520-32-00
100
AcDbVertex
100
AcDb2dVertex
 10
-46.51999952316285
 20
-15.15544414520525
 30
0.0
  0
SEQEND
  5
217C
330
2162
100
AcDbEntity
  8
LW 3520-32-00
  0
LINE
  5
217D
330
207E
100
AcDbEntity
  8
LW 3520-32-00
100
AcDbLine
 10
-48.52000000000001
 20
17.5
 30
0.0
 11
-48.52000000000001
 21
-17.5
 31
0.0
  0
LINE
  5
217E
330
207E
100
AcDbEntity
  8
LW 3520-32-00
100
AcDbLine
 10
-51.52000000000001
 20
14.50000000000005
 30
0.0
 11
-51.52000000000001
 21
-14.50000000000005
 31
0.0
  0
LINE
  5
217F
330
207E
100
AcDbEntity
  8
LW 3520-32-00
100
AcDbLine
 10
-28.52000000000001
 20
-17.5
 30
0.0
 11
-48.52000000000001
 21
-17.5
 31
0.0
  0
LINE
  5
2180
330
207E
100
AcDbEntity
  8
LW 3520-32-00
100
AcDbLine
 10
-28.52000000000001
 20
17.5
 30
0.0
 11
-48.52000000000001
 21
17.5
 31
0.0
  0
LINE
  5
2181
330
207E
100
AcDbEntity
  8
LW 3520-32-00
100
AcDbLine
 10
-51.52000000000001
 20
14.50000000000005
 30
0.0
 11
-48.52000000000001
 21
17.5
 31
0.0
  0
LINE
  5
2182
330
207E
100
AcDbEntity
  8
LW 3520-32-00
100
AcDbLine
 10
-51.52000000000001
 20
-14.50000000000005
 30
0.0
 11
-48.52000000000001
 21
-17.5
 31
0.0
  0
CIRCLE
  5
2183
330
207E
100
AcDbEntity
  8
LW 3520-32-00
100
AcDbCircle
 10
-99.52000000000007
 20
0.0000000000314344
 30
0.0
 40
17.5
  0
CIRCLE
  5
2184
330
207E
100
AcDbEntity
  8
LW 3520-32-00
100
AcDbCircle
 10
-99.52000000000007
 20
0.0000000000305249
 30
0.0
 40
14.5
  0
LINE
  5
2185
330
207E
100
AcDbEntity
  8
LW 3520-32-00
100
AcDbLine
 10
-19.52000000000007
 20
-32.99999999999994
 30
0.0
 11
-17.52000000000007
 21
-32.99999999999994
 31
0.0
  0
LINE
  5
2186
330
207E
100
AcDbEntity
  8
LW 3520-32-00
100
AcDbLine
 10
-17.52000000000007
 20
32.99999999999994
 30
0.0
 11
-17.52000000000007
 21
-32.99999999999994
 31
0.0
  0
LINE
  5
2187
330
207E
100
AcDbEntity
  8
LW 3520-32-00
100
AcDbLine
 10
-19.52000000000007
 20
32.99999999999994
 30
0.0
 11
-17.52000000000007
 21
32.99999999999994
 31
0.0
  0
LINE
  5
2188
330
207E
100
AcDbEntity
  8
LW 3520-32-00
100
AcDbLine
 10
17.51999999999992
 20
-32.99999999999994
 30
0.0
 11
19.51999999999998
 21
-32.99999999999994
 31
0.0
  0
LINE
  5
2189
330
207E
100
AcDbEntity
  8
LW 3520-32-00
100
AcDbLine
 10
17.51999999999992
 20
32.99999999999994
 30
0.0
 11
19.51999999999998
 21
32.99999999999994
 31
0.0
  0
LINE
  5
218A
330
207E
100
AcDbEntity
  8
LW 3520-32-00
100
AcDbLine
 10
17.51999999999992
 20
-32.99999999999994
 30
0.0
 11
17.51999999999992
 21
32.99999999999994
 31
0.0
  0
LINE
  5
218B
330
207E
100
AcDbEntity
  8
LW 3520-32-00
100
AcDbLine
 10
16.0
 20
12.00000000000005
 30
0.0
 11
16.0
 21
7.000000000000056
 31
0.0
  0
HATCH
  5
218C
330
207E
100
AcDbEntity
  8
LW 3520-32-00
 62
     8
100
AcDbHatch
 10
0.0
 20
0.0
 30
0.0
210
0.0
220
0.0
230
1.0
  2
ANSI37
 70
     0
 71
     0
 91
        4
 92
        7
 72
     0
 73
     1
 93
        4
 10
16.0
 20
12.00000000000005
 10
0.0
 20
12.0
 10
0.0
 20
7.250000000000113
 10
16.0
 20
7.25000000000017
 97
        0
 92
        7
 72
     0
 73
     1
 93
        4
 10
0.0
 20
12.00000000000005
 10
-16.0
 20
12.00000000000005
 10
-16.00000000000003
 20
7.250000000000056
 10
0.0
 20
7.250000000000056
 97
        0
 92
        7
 72
     0
 73
     1
 93
        4
 10
0.0
 20
-7.249999999999943
 10
-16.00000000000003
 20
-7.249999999999886
 10
-16.00000000000006
 20
-12.00000000000011
 10
0.0
 20
-12.00000000000005
 97
        0
 92
        7
 72
     0
 73
     1
 93
        4
 10
15.99999999999994
 20
-7.25
 10
-0.0000000000000568
 20
-7.250000000000056
 10
-0.0000000000000568
 20
-12.00000000000005
 10
16.0
 20
-12.00000000000005
 97
        0
 75
     0
 76
     1
 52
0.0
 41
0.5
 77
     0
 78
     2
 53
45.0
 43
-270.1401696238897
 44
-465.3278722640312
 45
-1.122532015133643
 46
1.122532015133644
 79
     0
 53
135.0
 43
-270.1401696238897
 44
-465.3278722640312
 45
-1.122532015133644
 46
-1.122532015133643
 79
     0
 47
0.1361020491611641
 98
        4
 10
7.678954292922071
 20
10.36255170086218
 10
-6.484796907945337
 20
10.36255170086218
 10
-4.441948780990742
 20
-9.23614327693582
 10
8.496092733255636
 20
-10.18885787796858
1001
ACAD
1010
0.0
1020
0.0
1030
0.0
  0
LINE
  5
218D
330
207E
100
AcDbEntity
  8
LW 3520-32-00
100
AcDbLine
 10
16.0
 20
-6.999999999999943
 30
0.0
 11
16.0
 21
-12.00000000000005
 31
0.0
  0
LINE
  5
218E
330
207E
100
AcDbEntity
  8
LW 3520-32-00
100
AcDbLine
 10
-16.0
 20
12.00000000000005
 30
0.0
 11
-16.00000000000006
 21
7.000000000000056
 31
0.0
  0
LINE
  5
218F
330
207E
100
AcDbEntity
  8
LW 3520-32-00
100
AcDbLine
 10
-16.00000000000006
 20
-6.999999999999943
 30
0.0
 11
-16.0
 21
-12.00000000000005
 31
0.0
  0
LINE
  5
2190
330
207E
100
AcDbEntity
  8
LW 3520-32-00
100
AcDbLine
 10
-16.0
 20
12.00000000000005
 30
0.0
 11
16.0
 21
12.00000000000005
 31
0.0
  0
LINE
  5
2191
330
207E
100
AcDbEntity
  8
LW 3520-32-00
100
AcDbLine
 10
-16.0
 20
-12.00000000000005
 30
0.0
 11
16.0
 21
-12.00000000000005
 31
0.0
  0
LINE
  5
2192
330
207E
100
AcDbEntity
  8
LW 3520-32-00
  6
MITTE2
 62
     3
100
AcDbLine
 10
99.51999999999998
 20
27.50000000003735
 30
0.0
 11
99.51999999999998
 21
-27.49999999996266
 31
0.0
  0
LINE
  5
2193
330
207E
100
AcDbEntity
  8
LW 3520-32-00
  6
MITTE2
 62
     3
100
AcDbLine
 10
-99.52000000000007
 20
27.50000000003735
 30
0.0
 11
-99.52000000000007
 21
-27.49999999996266
 31
0.0
  0
LINE
  5
2194
330
207E
100
AcDbEntity
  8
LW 3520-32-00
  6
MITTE2
 62
     3
100
AcDbLine
 10
142.0280524954373
 20
0.0
 30
0.0
 11
-139.4468040422329
 21
0.0
 31
0.0
  0
LINE
  5
2195
330
207E
100
AcDbEntity
  8
LW 3520-32-00
  6
MITTE2
 62
     3
100
AcDbLine
 10
0.0
 20
-44.69743157691124
 30
0.0
 11
0.0
 21
44.69743157691124
 31
0.0
  0
LINE
  5
2196
330
207E
100
AcDbEntity
  8
LW 3520-32-00
100
AcDbLine
 10
-16.0
 20
-7.249999999999943
 30
0.0
 11
16.0
 21
-7.249999999999943
 31
0.0
  0
LINE
  5
2197
330
207E
100
AcDbEntity
  8
LW 3520-32-00
100
AcDbLine
 10
16.0
 20
7.250000000000056
 30
0.0
 11
-16.0
 21
7.250000000000056
 31
0.0
  0
LINE
  5
2198
330
207E
100
AcDbEntity
  8
LW 3520-32-00
100
AcDbLine
 10
17.51999999999998
 20
-6.999999999999943
 30
0.0
 11
-17.52000000000001
 21
-6.999999999999943
 31
0.0
  0
LINE
  5
2199
330
207E
100
AcDbEntity
  8
LW 3520-32-00
100
AcDbLine
 10
17.51999999999998
 20
7.000000000000056
 30
0.0
 11
-17.52000000000001
 21
7.000000000000056
 31
0.0
  0
LINE
  5
219A
330
207E
100
AcDbEntity
  8
LW 3520-32-00
 62
     3
100
AcDbLine
 10
-17.52000000000001
 20
-5.79449999999997
 30
0.0
 11
17.51999999999998
 21
-5.79449999999997
 31
0.0
  0
LINE
  5
219B
330
207E
100
AcDbEntity
  8
LW 3520-32-00
 62
     3
100
AcDbLine
 10
17.51999999999998
 20
5.794500000000027
 30
0.0
 11
-17.52000000000001
 21
5.794500000000027
 31
0.0
  0
INSERT
  5
219C
330
207E
100
AcDbEntity
  8
LW 3520-32-00
100
AcDbBlockReference
 66
     1
  2
insertpoint-ECKELT
 10
0.0
 20
0.0
 30
0.0
  0
ATTRIB
  5
219D
330
219C
100
AcDbEntity
  8
insertpoint_ECKELT
100
AcDbText
 10
-6.931514324693087
 20
0.0
 30
0.0
 40
0.6
  1
LW 3520/32-00
 72
     2
 11
-1.200000000000045
 21
0.0
 31
0.0
100
AcDbAttribute
  2
LINKS
 70
     0
  0
ATTRIB
  5
219E
330
219C
100
AcDbEntity
  8
insertpoint_ECKELT
100
AcDbText
 10
1.200000000000045
 20
0.0
 30
0.0
 40
0.6
  1

100
AcDbAttribute
  2
RECHTS
 70
     0
  0
SEQEND
  5
219F
330
219C
100
AcDbEntity
  8
LW 3520-32-00
  0
HATCH
  5
21A0
330
207E
100
AcDbEntity
  8
LW 3520-32-00
 62
     1
100
AcDbHatch
 10
0.0
 20
0.0
 30
0.0
210
0.0
220
0.0
230
1.0
  2
SOLID
 70
     1
 71
     0
 91
        5
 92
        7
 72
     0
 73
     1
 93
       76
 10
61.38239256914954
 20
26.92799040657082
 10
61.41425139852237
 20
26.97957136841251
 10
61.53240952275353
 20
27.13081376742849
 10
61.66688759796631
 20
27.27123789769104
 10
61.81290750442787
 20
27.39962245940438
 10
61.97657630050986
 20
27.51652874232013
 10
62.1519632538745
 20
27.61870662414179
 10
62.33371618647487
 20
27.71005830372468
 10
62.51488512194061
 20
27.77957661617086
 10
60.2577471837406
 20
27.7795766161708
 10
60.04485063134058
 20
27.77088696097076
 10
59.8428161479406
 20
27.7448179953708
 10
59.64729890594054
 20
27.70354213317074
 10
59.46264373294065
 20
27.64923178817077
 10
59.28667821514051
 20
27.57971454657076
 10
59.11940235254059
 20
27.49716282217065
 10
58.96883408999366
 20
27.40183730462684
 10
58.82612648954074
 20
27.29512833877072
 10
58.70068523396998
 20
27.17608006253062
 10
58.58942028189261
 20
27.04782075177872
 10
58.48940235054062
 20
26.91061109617073
 10
58.40685062614062
 20
26.76505937157066
 10
58.34385062594066
 20
26.61081799177055
 10
58.29388510854079
 20
26.45005937057078
 10
58.26564372914067
 20
26.28495592177069
 10
58.25695407394068
 20
26.11116281777072
 10
58.26781614294072
 20
25.93736971377064
 10
58.29822993614067
 20
25.77009385117066
 10
58.35254028114076
 20
25.60933522997073
 10
58.42205752274066
 20
25.45292143637067
 10
58.51112648854081
 20
25.30519729797061
 10
58.61757476474071
 20
25.16399040097076
 10
58.74027269616471
 20
25.03277660745067
 10
58.87647174487296
 20
24.91164281396277
 10
59.02381614534073
 20
24.80119729637067
 10
59.18457476654083
 20
24.70343867537082
 10
59.36020138778798
 20
24.61854074406677
 10
59.54085062974065
 20
24.54485246797077
 10
59.73202304414082
 20
24.48836970917074
 10
59.93188511374075
 20
24.44492143317075
 10
60.14043683854066
 20
24.41885246757073
 10
60.35116097714063
 20
24.41016281237074
 10
62.4703320628933
 20
24.41016281237086
 10
62.30978819884086
 20
24.47323361610575
 10
62.12622405503845
 20
24.56385388962849
 10
61.95775764886827
 20
24.66838358256007
 10
61.79492475410751
 20
24.78400182098551
 10
61.65101238573737
 20
24.91379141752537
 10
61.52357649225308
 20
25.05314510075391
 10
61.4098711375097
 20
25.20363334546647
 10
61.35789990606105
 20
25.2878179875708
 10
60.32943683914067
 20
25.28781798757075
 10
60.19732801113519
 20
25.29537798759481
 10
60.06657476934066
 20
25.31571178076274
 10
59.93840235514079
 20
25.34864557397071
 10
59.8232644237408
 20
25.39426626377082
 10
59.71831945789034
 20
25.45074902257074
 10
59.62016980240633
 20
25.51835454002674
 10
59.52998856074072
 20
25.59630074717069
 10
59.45829890534077
 20
25.68102488537074
 10
61.18582021959952
 20
25.68102488537079
 10
61.1752357523265
 20
25.71366032612912
 10
61.13912394436209
 20
25.89903427368023
 10
61.1270802915804
 20
26.08932398763097
 10
61.13910196400974
 20
26.28407508098599
 10
61.175407685685
 20
26.47044445225248
 10
61.19200638835997
 20
26.51957661217074
 10
59.42136787074066
 20
26.51957661217074
 10
59.49088511234066
 20
26.61516281937065
 10
59.57343683674065
 20
26.69771454377076
 10
59.6685277335942
 20
26.76757937157868
 10
59.77112649254064
 20
26.82588695797079
 10
59.88981849291741
 20
26.86985661328271
 10
60.01226442434068
 20
26.90192144097074
 10
60.14912649374065
 20
26.92147316517071
 10
60.29250580454067
 20
26.92799040657076
 97
        0
 92
        7
 72
     0
 73
     1
 93
       72
 10
63.11085643417738
 20
26.91339178583479
 10
63.23371946905019
 20
26.93146626865081
 10
63.3577816763406
 20
26.93668006177086
 10
64.62647133554066
 20
26.93668006177091
 10
63.77922995354066
 20
26.12202488677099
 10
65.54540237294083
 20
24.40364557097098
 10
66.86405754954063
 20
24.40364557097098
 10
65.15002306134073
 20
26.14592143857095
 10
66.83147134254062
 20
27.77957661617103
 10
63.39254029714067
 20
27.77957661617086
 10
63.18455339992858
 20
27.76880144372291
 10
62.97783519237572
 20
27.74334075398679
 10
62.77340236414062
 20
27.70354213317086
 10
62.58005753594062
 20
27.64705937437083
 10
62.39322994914056
 20
27.57536971897082
 10
62.22206981066614
 20
27.48934213249083
 10
62.05650581014066
 20
27.39288695977081
 10
61.90443684414066
 20
27.28426626977086
 10
61.7687391885375
 20
27.16495730387482
 10
61.6437471881407
 20
27.03443868277077
 10
61.53512649814053
 20
26.89540419957075
 10
61.44388511854066
 20
26.74768006117091
 10
61.3721954631406
 20
26.5934386813708
 10
61.31788511814062
 20
26.43268006017081
 10
61.28529891114073
 20
26.26540419757077
 10
61.27443684214068
 20
26.0894386797707
 10
61.28529891114073
 20
25.91781798957084
 10
61.31788511814074
 20
25.75054212697086
 10
61.37002304934077
 20
25.58978350577087
 10
61.43954029094067
 20
25.43554212597082
 10
61.53138125674951
 20
25.28677522894691
 10
61.6367607053599
 20
25.14730626298677
 10
61.754766222976
 20
25.01826488326691
 10
61.88705753374069
 20
24.89895591737087
 10
62.03917863767191
 20
24.79094350323476
 10
62.19771270714073
 20
24.69257660637078
 10
62.36933339734076
 20
24.60785246817085
 10
62.55181615654084
 20
24.53616281277084
 10
62.74604732957112
 20
24.48211315742685
 10
62.94285064054071
 20
24.43840419177082
 10
63.15140236534074
 20
24.41233522617086
 10
63.36212650394071
 20
24.40364557097087
 10
65.26516099274073
 20
24.40364557097098
 10
64.37881616234069
 20
25.27695591857094
 10
63.36212650394071
 20
25.27695591857088
 10
63.29545946924617
 20
25.28070321151017
 10
63.19451174478792
 20
25.29068557378685
 10
63.07437726164796
 20
25.31214902213088
 10
62.95725808886238
 20
25.34647316017077
 10
62.85576291612636
 20
25.38740143616286
 10
62.79962774353425
 20
25.4155559190109
 10
62.74594305370868
 20
25.44814212601096
 10
62.61338236363264
 20
25.54746488494681
 10
62.53978098408873
 20
25.61750350585885
 10
62.48471463908635
 20
25.68536971297073
 10
62.43600912169023
 20
25.75792833389079
 10
62.39664498363419
 20
25.83509247206678
 10
62.36722181112708
 20
25.91651454129078
 10
62.34652305244066
 20
26.00367178294687
 10
62.33900650069262
 20
26.09300143840272
 10
62.34036208690389
 20
26.15530626618681
 10
62.34636663864711
 20
26.21743730086672
 10
62.35852346627194
 20
26.28061109417087
 10
62.3767369835711
 20
26.34230764609083
 10
62.42038512164055
 20
26.44102212916272
 10
62.4619129838415
 20
26.50888833627476
 10
62.52499119093823
 20
26.58692143997081
 10
62.65439313130304
 20
26.71344417702449
 10
62.71366098464074
 20
26.75350213015486
 10
62.78995615729667
 20
26.79781937167479
 10
62.87397643342541
 20
26.83996419939485
 10
62.99051339931264
 20
26.88280419953088
 97
        0
 92
        7
 72
     0
 73
     1
 93
       57
 10
67.66889341416476
 20
26.89132006162708
 10
67.80036789734066
 20
26.93129247554708
 10
67.93505755294058
 20
26.95840419977111
 10
68.07843686374059
 20
26.96709385497104
 10
69.31888514354063
 20
26.9670938549711
 10
69.31888514354063
 20
27.79261109897112
 10
68.08495410514064
 20
27.79261109897101
 10
67.87422996654067
 20
27.78392144377102
 10
67.66785065554069
 20
27.75568006437101
 10
67.4701609997407
 20
27.71440420217107
 10
67.28116099914069
 20
27.66009385717103
 10
67.09650582614068
 20
27.58840420177103
 10
66.93009892906042
 20
27.50576558081895
 10
66.77127810097016
 20
27.40931040809892
 10
66.62119906601112
 20
27.29982075257897
 10
66.4866397552392
 20
27.18059868323502
 10
66.36657478934063
 20
27.05181799317097
 10
66.26229892694067
 20
26.91278350997101
 10
66.17757478874063
 20
26.76723178537094
 10
66.10588513334056
 20
26.61299040557088
 10
66.05591961594069
 20
26.45223178437106
 10
66.02333340894069
 20
26.28495592177109
 10
66.01247133994076
 20
26.111162817771
 10
66.02333340894069
 20
25.93736971377098
 10
66.05591961594069
 20
25.770093851171
 10
66.10805754714061
 20
25.60933522997089
 10
66.17974720254079
 20
25.45292143637102
 10
66.26664375454078
 20
25.30519729797101
 10
66.3754903755759
 20
25.16564143545901
 10
66.49534678974948
 20
25.03529660745903
 10
66.6317743763895
 20
24.91398902086701
 10
66.7793334113407
 20
24.80336971017095
 10
66.94009203254069
 20
24.70561108917093
 10
67.11388513654066
 20
24.620886950971
 10
67.29854030954078
 20
24.54702488177111
 10
67.48971272394072
 20
24.49054212297102
 10
67.68957479354077
 20
24.44709384697109
 10
67.89595410454075
 20
24.42319729517095
 10
68.10885065694077
 20
24.41450763997102
 10
69.31888514354074
 20
24.41450763997108
 10
69.31888514354074
 20
25.27261109097106
 10
68.08495410514064
 20
25.272611090971
 10
67.95130720816468
 20
25.28295178065895
 10
67.81905065602081
 20
25.30493660831508
 10
67.69843824184471
 20
25.33926074635502
 10
67.58243134492483
 20
25.38722764305908
 10
67.4727678963007
 20
25.44814212601108
 10
67.37570444771671
 20
25.51574764346697
 10
67.28828651640475
 20
25.59551867820301
 10
67.21381617134074
 20
25.68102488537102
 10
69.31888514354074
 20
25.68102488537107
 10
69.31888514354074
 20
26.5087145431711
 10
67.17688513674062
 20
26.50871454317098
 10
67.24640237834063
 20
26.60647316417101
 10
67.33329893034062
 20
26.69554212997093
 10
67.43444651686871
 20
26.77183730262703
 10
67.54185065514064
 20
26.83892144077101
 97
        0
 92
        7
 72
     0
 73
     1
 93
        6
 10
69.54916100634074
 20
27.77957661617114
 10
69.54916100634074
 20
24.41016281237109
 10
71.78674722034083
 20
24.4101628123712
 10
71.78674722034071
 20
25.27695591857122
 10
70.57236790614076
 20
25.27695591857122
 10
70.57236790614064
 20
27.77957661617114
 97
        0
 92
        7
 72
     0
 73
     1
 93
        8
 10
70.80481618274058
 20
27.77957661617114
 10
70.80481618274058
 20
26.95405937217112
 10
72.03874722114068
 20
26.95405937217123
 10
72.03874722114079
 20
24.40364557097121
 10
73.06412653474075
 20
24.40364557097121
 10
73.06412653474064
 20
26.95405937217117
 10
74.30674722834061
 20
26.95405937217123
 10
74.30674722834061
 20
27.77957661617126
 97
        0
 75
     0
 76
     1
 47
0.0142553043587597
 98
        5
 10
60.69205269521586
 20
27.33712694658169
 10
62.95954990855847
 20
27.194573961576
 10
67.45176164076003
 20
27.25159513412382
 10
70.17561072459165
 20
27.49393535881626
 10
71.5874487068184
 20
27.39414822640288
450
        0
451
        0
460
0.0
461
0.0
452
        0
462
0.0
453
        0
470

  0
LWPOLYLINE
  5
21A1
330
207E
100
AcDbEntity
  8
LW 3520-32-00
 62
     1
100
AcDbPolyline
 90
        8
 70
     1
 43
0.0
 10
73.06412653474064
 20
26.95405937217117
 10
73.06412653474075
 20
24.40364557097121
 10
72.03874722114079
 20
24.40364557097121
 10
72.03874722114068
 20
26.95405937217123
 10
70.80481618274058
 20
26.95405937217112
 10
70.80481618274058
 20
27.77957661617114
 10
74.30674722834061
 20
27.77957661617126
 10
74.30674722834061
 20
26.95405937217123
  0
LWPOLYLINE
  5
21A2
330
207E
100
AcDbEntity
  8
LW 3520-32-00
 62
     1
100
AcDbPolyline
 90
       73
 70
     1
 43
0.0
 10
63.36212650394071
 20
25.27695591857088
 10
64.37881616234069
 20
25.27695591857094
 10
65.26516099274073
 20
24.40364557097098
 10
63.36212650394071
 20
24.40364557097081
 10
63.15140236534074
 20
24.41233522617086
 10
62.94285064054071
 20
24.43840419177087
 10
62.74604732957112
 20
24.48211315742685
 10
62.55181615654084
 20
24.53616281277084
 10
62.36933339734076
 20
24.60785246817085
 10
62.19771270714073
 20
24.69257660637083
 10
62.03917863767202
 20
24.79094350323487
 10
61.88705753374069
 20
24.89895591737087
 10
61.75476622297589
 20
25.0182648832668
 10
61.6367607053599
 20
25.14730626298677
 10
61.53138125674951
 20
25.28677522894685
 10
61.43954029094067
 20
25.43554212597082
 10
61.37002304934077
 20
25.58978350577087
 10
61.31788511814074
 20
25.75054212697086
 10
61.28529891114073
 20
25.91781798957084
 10
61.27443684214068
 20
26.08943867977081
 10
61.28529891114073
 20
26.26540419757077
 10
61.31788511814062
 20
26.43268006017081
 10
61.37219546314071
 20
26.5934386813708
 10
61.44388511854066
 20
26.74768006117086
 10
61.53512649814064
 20
26.89540419957081
 10
61.6437471881407
 20
27.03443868277077
 10
61.7687391885375
 20
27.16495730387487
 10
61.90443684414055
 20
27.2842662697708
 10
62.05650581014066
 20
27.39288695977081
 10
62.22206981066626
 20
27.48934213249078
 10
62.39322994914056
 20
27.57536971897077
 10
62.58005753594062
 20
27.64705937437083
 10
62.77340236414062
 20
27.70354213317091
 10
62.97783519237583
 20
27.74334075398684
 10
63.18455339992858
 20
27.76880144372291
 10
63.39254029714055
 20
27.77957661617086
 10
66.83147134254062
 20
27.77957661617103
 10
65.15002306134073
 20
26.14592143857095
 10
66.86405754954063
 20
24.40364557097098
 10
65.54540237294083
 20
24.40364557097098
 10
63.77922995354066
 20
26.12202488677099
 10
64.62647133554066
 20
26.93668006177091
 10
63.3577816763406
 20
26.93668006177086
 10
63.23371946905019
 20
26.93146626865081
 10
63.11085643417738
 20
26.91339178583479
 10
62.99051339931264
 20
26.88280419953088
 10
62.87397643342541
 20
26.83996419939479
 10
62.78995615729655
 20
26.79781937167485
 10
62.71366098464063
 20
26.75350213015486
 10
62.67341919140943
 20
26.72630350937885
 10
62.63590594991109
 20
26.69536833686687
 10
62.52499119093823
 20
26.58692143997081
 10
62.4619129838415
 20
26.50888833627476
 10
62.42038512164066
 20
26.44102212916283
 10
62.3767369835711
 20
26.34230764609083
 10
62.35852346627194
 20
26.28061109417087
 10
62.34636663864711
 20
26.21743730086683
 10
62.34036208690389
 20
26.15530626618687
 10
62.33900650069273
 20
26.09300143840284
 10
62.34652305244066
 20
26.00367178294687
 10
62.36722181112719
 20
25.91651454129084
 10
62.3966449836343
 20
25.83509247206683
 10
62.43600912169023
 20
25.75792833389079
 10
62.48471463908623
 20
25.68536971297084
 10
62.53978098408873
 20
25.61750350585885
 10
62.61338236363264
 20
25.54746488494681
 10
62.7459430537088
 20
25.44814212601091
 10
62.79962774353435
 20
25.41555591901084
 10
62.85576291612636
 20
25.38740143616286
 10
62.95725808886238
 20
25.34647316017077
 10
63.07437726164796
 20
25.31214902213088
 10
63.19451174478792
 20
25.29068557378685
 10
63.29545946924628
 20
25.28070321151023
  0
LWPOLYLINE
  5
21A3
330
207E
100
AcDbEntity
  8
LW 3520-32-00
 62
     1
100
AcDbPolyline
 90
       76
 70
     1
 43
0.0
 10
62.1519632538745
 20
27.61870662414179
 10
61.97657630050975
 20
27.51652874232008
 10
61.81290750442776
 20
27.39962245940444
 10
61.66688759796631
 20
27.27123789769104
 10
61.53240952275353
 20
27.13081376742849
 10
61.41425139852237
 20
26.97957136841262
 10
61.38239256914954
 20
26.92799040657082
 10
60.29250580454067
 20
26.92799040657082
 10
60.14912649374065
 20
26.92147316517071
 10
60.01226442434057
 20
26.90192144097074
 10
59.88981849291741
 20
26.86985661328271
 10
59.77112649254064
 20
26.82588695797079
 10
59.66852773359431
 20
26.76757937157873
 10
59.57343683674065
 20
26.6977145437707
 10
59.49088511234055
 20
26.61516281937071
 10
59.42136787074066
 20
26.51957661217074
 10
61.19200638835997
 20
26.51957661217074
 10
61.175407685685
 20
26.47044445225248
 10
61.13910196400962
 20
26.28407508098587
 10
61.1270802915804
 20
26.08932398763097
 10
61.13912394436209
 20
25.89903427368023
 10
61.17523575232661
 20
25.71366032612917
 10
61.18582021959952
 20
25.68102488537079
 10
59.45829890534077
 20
25.68102488537074
 10
59.52998856074072
 20
25.59630074717069
 10
59.62016980240633
 20
25.51835454002674
 10
59.71831945789034
 20
25.45074902257074
 10
59.8232644237408
 20
25.39426626377082
 10
59.93840235514079
 20
25.34864557397077
 10
60.06657476934066
 20
25.31571178076274
 10
60.19732801113519
 20
25.29537798759481
 10
60.32943683914067
 20
25.28781798757075
 10
61.35789990606105
 20
25.2878179875708
 10
61.4098711375097
 20
25.20363334546653
 10
61.52357649225308
 20
25.05314510075391
 10
61.65101238573737
 20
24.91379141752537
 10
61.79492475410762
 20
24.78400182098563
 10
61.95775764886827
 20
24.66838358256007
 10
62.12622405503845
 20
24.56385388962849
 10
62.30978819884086
 20
24.47323361610575
 10
62.4703320628933
 20
24.41016281237086
 10
60.35116097714075
 20
24.41016281237069
 10
60.14043683854066
 20
24.41885246757073
 10
59.93188511374075
 20
24.44492143317075
 10
59.7320230441407
 20
24.48836970917074
 10
59.54085062974076
 20
24.54485246797066
 10
59.36020138778786
 20
24.61854074406671
 10
59.18457476654083
 20
24.70343867537082
 10
59.02381614534073
 20
24.80119729637067
 10
58.87647174487307
 20
24.91164281396271
 10
58.74027269616471
 20
25.03277660745067
 10
58.61757476474071
 20
25.1639904009707
 10
58.51112648854069
 20
25.30519729797067
 10
58.42205752274077
 20
25.45292143637073
 10
58.35254028114076
 20
25.60933522997073
 10
58.29822993614067
 20
25.77009385117066
 10
58.26781614294072
 20
25.93736971377075
 10
58.25695407394068
 20
26.11116281777067
 10
58.26564372914055
 20
26.28495592177063
 10
58.29388510854068
 20
26.45005937057073
 10
58.34385062594066
 20
26.61081799177066
 10
58.40685062614062
 20
26.76505937157066
 10
58.48940235054062
 20
26.91061109617073
 10
58.58942028189273
 20
27.04782075177872
 10
58.70068523396998
 20
27.17608006253068
 10
58.82612648954062
 20
27.29512833877067
 10
58.96883408999366
 20
27.40183730462673
 10
59.1194023525407
 20
27.49716282217077
 10
59.28667821514062
 20
27.5797145465707
 10
59.46264373294065
 20
27.64923178817077
 10
59.64729890594066
 20
27.70354213317069
 10
59.8428161479406
 20
27.7448179953708
 10
60.04485063134058
 20
27.77088696097076
 10
60.2577471837406
 20
27.77957661617075
 10
62.51488512194072
 20
27.77957661617092
 10
62.33371618647487
 20
27.71005830372468
  0
LWPOLYLINE
  5
21A4
330
207E
100
AcDbEntity
  8
LW 3520-32-00
 62
     1
100
AcDbPolyline
 90
        6
 70
     1
 43
0.0
 10
71.78674722034083
 20
24.4101628123712
 10
69.54916100634074
 20
24.41016281237109
 10
69.54916100634074
 20
27.77957661617114
 10
70.57236790614064
 20
27.77957661617114
 10
70.57236790614076
 20
25.27695591857122
 10
71.78674722034071
 20
25.27695591857122
  0
LWPOLYLINE
  5
21A5
330
207E
100
AcDbEntity
  8
LW 3520-32-00
 62
     1
100
AcDbPolyline
 90
       57
 70
     1
 43
0.0
 10
66.49534678974948
 20
25.03529660745903
 10
66.3754903755759
 20
25.16564143545895
 10
66.26664375454066
 20
25.30519729797095
 10
66.17974720254079
 20
25.45292143637102
 10
66.10805754714061
 20
25.60933522997089
 10
66.05591961594069
 20
25.770093851171
 10
66.02333340894069
 20
25.93736971377098
 10
66.01247133994076
 20
26.111162817771
 10
66.02333340894069
 20
26.28495592177103
 10
66.05591961594069
 20
26.45223178437095
 10
66.10588513334056
 20
26.61299040557088
 10
66.17757478874063
 20
26.767231785371
 10
66.26229892694055
 20
26.9127835099709
 10
66.36657478934063
 20
27.05181799317103
 10
66.48663975523897
 20
27.18059868323496
 10
66.62119906601112
 20
27.29982075257897
 10
66.77127810097028
 20
27.40931040809897
 10
66.93009892906076
 20
27.50576558081906
 10
67.09650582614068
 20
27.58840420177103
 10
67.28116099914058
 20
27.66009385717098
 10
67.4701609997407
 20
27.71440420217107
 10
67.66785065554069
 20
27.75568006437101
 10
67.87422996654067
 20
27.78392144377102
 10
68.08495410514064
 20
27.79261109897101
 10
69.31888514354063
 20
27.79261109897112
 10
69.31888514354063
 20
26.9670938549711
 10
68.0784368637407
 20
26.96709385497104
 10
67.93505755294069
 20
26.95840419977105
 10
67.80036789734066
 20
26.93129247554708
 10
67.66889341416464
 20
26.89132006162703
 10
67.54185065514064
 20
26.83892144077101
 10
67.43444651686871
 20
26.77183730262703
 10
67.33329893034062
 20
26.69554212997105
 10
67.24640237834063
 20
26.60647316417101
 10
67.17688513674062
 20
26.50871454317098
 10
69.31888514354074
 20
26.5087145431711
 10
69.31888514354074
 20
25.68102488537107
 10
67.21381617134074
 20
25.68102488537102
 10
67.28828651640475
 20
25.59551867820301
 10
67.37570444771671
 20
25.51574764346697
 10
67.4727678963007
 20
25.44814212601108
 10
67.58243134492483
 20
25.38722764305908
 10
67.69843824184471
 20
25.33926074635502
 10
67.81905065602081
 20
25.30493660831508
 10
67.95130720816468
 20
25.28295178065895
 10
68.08495410514064
 20
25.272611090971
 10
69.31888514354074
 20
25.27261109097106
 10
69.31888514354074
 20
24.41450763997108
 10
68.10885065694077
 20
24.41450763997102
 10
67.89595410454075
 20
24.42319729517095
 10
67.68957479354077
 20
24.44709384697103
 10
67.48971272394072
 20
24.49054212297102
 10
67.29854030954078
 20
24.54702488177111
 10
67.11388513654066
 20
24.620886950971
 10
66.94009203254069
 20
24.70561108917105
 10
66.7793334113407
 20
24.80336971017095
 10
66.6317743763895
 20
24.91398902086701
  0
ENDBLK
  5
2080
330
207E
100
AcDbEntity
  8
0
100
AcDbBlockEnd
  0
BLOCK
  5
21A8
330
21A7
100
AcDbEntity
  8
0
100
AcDbBlockBegin
  2
LW 3520-32-00_c
 70
     0
 10
0.0
 20
0.0
 30
0.0
  3
LW 3520-32-00_c
  1

  0
LINE
  5
21AA
330
21A7
100
AcDbEntity
  8
LW 3520-32-00
100
AcDbLine
 10
14.00000000000978
 20
32.99999999999585
 30
0.0
 11
13.99999999999022
 21
-33.00000000000409
 31
0.0
  0
ARC
  5
21AB
330
21A7
100
AcDbEntity
  8
LW 3520-32-00
100
AcDbCircle
 10
145.0000000000216
 20
-0.0000000000429736
 30
0.0
 40
35.0
100
AcDbArc
 50
269.9999999999804
 51
89.99999999998046
  0
LINE
  5
21AC
330
21A7
100
AcDbEntity
  8
LW 3520-32-00
100
AcDbLine
 10
145.000000000032
 20
34.99999999995703
 30
0.0
 11
16.00000000003206
 21
34.99999999999523
 31
0.0
  0
LINE
  5
21AD
330
21A7
100
AcDbEntity
  8
LW 3520-32-00
100
AcDbLine
 10
16.00000000001125
 20
-35.00000000000478
 30
0.0
 11
145.0000000000112
 21
-35.00000000004297
 31
0.0
  0
LINE
  5
21AE
330
21A7
100
AcDbEntity
  8
LW 3520-32-00
100
AcDbLine
 10
16.00000000003206
 20
34.99999999999523
 30
0.0
 11
12.00000000003081
 21
34.99999999999648
 31
0.0
  0
LINE
  5
21AF
330
21A7
100
AcDbEntity
  8
LW 3520-32-00
100
AcDbLine
 10
12.00000000001012
 20
-35.00000000000353
 30
0.0
 11
16.00000000001125
 21
-35.00000000000478
 31
0.0
  0
ARC
  5
21B0
330
21A7
100
AcDbEntity
  8
LW 3520-32-00
100
AcDbCircle
 10
12.00000000000978
 20
32.99999999999642
 30
0.0
 40
2.00000000000001
100
AcDbArc
 50
0.0
 51
89.99999999998046
  0
ARC
  5
21B1
330
21A7
100
AcDbEntity
  8
LW 3520-32-00
100
AcDbCircle
 10
11.99999999999022
 20
-33.00000000000352
 30
0.0
 40
1.999999999999997
100
AcDbArc
 50
269.9999999999804
 51
0.0
  0
LINE
  5
21B2
330
21A7
100
AcDbEntity
  8
LW 3520-32-00
100
AcDbLine
 10
4.999999999989654
 20
-35.00000000000148
 30
0.0
 11
5.000000000010345
 21
34.99999999999853
 31
0.0
  0
LINE
  5
21B3
330
21A7
100
AcDbEntity
  8
LW 3520-32-00
100
AcDbLine
 10
12.00000000001034
 20
34.99999999999648
 30
0.0
 11
5.000000000010345
 21
34.99999999999853
 31
0.0
  0
LINE
  5
21B4
330
21A7
100
AcDbEntity
  8
LW 3520-32-00
100
AcDbLine
 10
4.999999999989654
 20
-35.00000000000148
 30
0.0
 11
11.99999999998954
 21
-35.00000000000353
 31
0.0
  0
LINE
  5
21B5
330
21A7
100
AcDbEntity
  8
LW 3520-32-00
100
AcDbLine
 10
19.00000000000659
 20
22.49999999999443
 30
0.0
 11
18.99999999999329
 21
-22.50000000000557
 31
0.0
  0
LINE
  5
21B6
330
21A7
100
AcDbEntity
  8
LW 3520-32-00
100
AcDbLine
 10
14.00000000000659
 20
22.49999999999591
 30
0.0
 11
19.00000000000659
 21
22.49999999999443
 31
0.0
  0
LINE
  5
21B7
330
21A7
100
AcDbEntity
  8
LW 3520-32-00
100
AcDbLine
 10
13.99999999999329
 20
-22.50000000000409
 30
0.0
 11
18.99999999999329
 21
-22.50000000000557
 31
0.0
  0
LINE
  5
21B8
330
21A7
100
AcDbEntity
  8
LW 3520-32-00
100
AcDbLine
 10
-0.0000000000067075
 20
-22.5
 30
0.0
 11
0.0000000000067075
 21
22.5
 31
0.0
  0
LINE
  5
21B9
330
21A7
100
AcDbEntity
  8
LW 3520-32-00
100
AcDbLine
 10
4.999999999993292
 20
-22.50000000000148
 30
0.0
 11
-0.0000000000067075
 21
-22.5
 31
0.0
  0
LINE
  5
21BA
330
21A7
100
AcDbEntity
  8
LW 3520-32-00
100
AcDbLine
 10
5.000000000006707
 20
22.49999999999852
 30
0.0
 11
0.0000000000067075
 21
22.5
 31
0.0
  0
CIRCLE
  5
21BB
330
21A7
100
AcDbEntity
  8
LW 3520-32-00
100
AcDbCircle
 10
145.0000000000151
 20
-0.0000000000429736
 30
0.0
 40
17.5
  0
CIRCLE
  5
21BC
330
21A7
100
AcDbEntity
  8
LW 3520-32-00
100
AcDbCircle
 10
145.0000000000143
 20
-0.0000000000429736
 30
0.0
 40
14.5
  0
CIRCLE
  5
21BD
330
21A7
100
AcDbEntity
  8
LW 3520-32-00
100
AcDbCircle
 10
65.00000000001512
 20
-0.0000000000192131
 30
0.0
 40
17.5
  0
CIRCLE
  5
21BE
330
21A7
100
AcDbEntity
  8
LW 3520-32-00
100
AcDbCircle
 10
65.00000000001432
 20
-0.0000000000192131
 30
0.0
 40
14.5
  0
POLYLINE
  5
21BF
330
21A7
100
AcDbEntity
  8
LW 3520-32-00
100
AcDb2dPolyline
 66
     1
 10
0.0
 20
0.0
 30
0.0
 70
   128
  0
VERTEX
  5
21C0
330
21BF
100
AcDbEntity
  8
LW 3520-32-00
100
AcDbVertex
100
AcDb2dVertex
 10
36.99999952315761
 20
-0.0000000000109139
 30
0.0
  0
VERTEX
  5
21C1
330
21BF
100
AcDbEntity
  8
LW 3520-32-00
100
AcDbVertex
100
AcDb2dVertex
 10
36.98318386077358
 20
-0.2554797381271783
 30
0.0
  0
VERTEX
  5
21C2
330
21BF
100
AcDbEntity
  8
LW 3520-32-00
100
AcDbVertex
100
AcDb2dVertex
 10
36.93250799178543
 20
-0.513535626243538
 30
0.0
  0
VERTEX
  5
21C3
330
21BF
100
AcDbEntity
  8
LW 3520-32-00
100
AcDbVertex
100
AcDb2dVertex
 10
36.84763216971806
 20
-0.7656736672033731
 30
0.0
  0
VERTEX
  5
21C4
330
21BF
100
AcDbEntity
  8
LW 3520-32-00
100
AcDbVertex
100
AcDb2dVertex
 10
36.72932291030338
 20
-1.003869771968254
 30
0.0
  0
VERTEX
  5
21C5
330
21BF
100
AcDbEntity
  8
LW 3520-32-00
100
AcDbVertex
100
AcDb2dVertex
 10
36.58275866507927
 20
-1.221954673539471
 30
0.0
  0
VERTEX
  5
21C6
330
21BF
100
AcDbEntity
  8
LW 3520-32-00
100
AcDbVertex
100
AcDb2dVertex
 10
36.4142110347691
 20
-1.414216607819867
 30
0.0
  0
VERTEX
  5
21C7
330
21BF
100
AcDbEntity
  8
LW 3520-32-00
100
AcDbVertex
100
AcDb2dVertex
 10
36.22194790839581
 20
-1.58276334406014
 30
0.0
  0
VERTEX
  5
21C8
330
21BF
100
AcDbEntity
  8
LW 3520-32-00
100
AcDbVertex
100
AcDb2dVertex
 10
36.00386404990582
 20
-1.729326844226022
 30
0.0
  0
VERTEX
  5
21C9
330
21BF
100
AcDbEntity
  8
LW 3520-32-00
100
AcDbVertex
100
AcDb2dVertex
 10
35.76566958426861
 20
-1.847633719454847
 30
0.0
  0
VERTEX
  5
21CA
330
21BF
100
AcDbEntity
  8
LW 3520-32-00
100
AcDbVertex
100
AcDb2dVertex
 10
35.51353359221832
 20
-1.932508051405932
 30
0.0
  0
VERTEX
  5
21CB
330
21BF
100
AcDbEntity
  8
LW 3520-32-00
100
AcDbVertex
100
AcDb2dVertex
 10
35.25547885894196
 20
-1.983183622370688
 30
0.0
  0
VERTEX
  5
21CC
330
21BF
100
AcDbEntity
  8
LW 3520-32-00
100
AcDbVertex
100
AcDb2dVertex
 10
35.00000023841278
 20
-2.000000029812667
 30
0.0
  0
VERTEX
  5
21CD
330
21BF
100
AcDbEntity
  8
LW 3520-32-00
100
AcDbVertex
100
AcDb2dVertex
 10
34.74452042579071
 20
-1.983183622370518
 30
0.0
  0
VERTEX
  5
21CE
330
21BF
100
AcDbEntity
  8
LW 3520-32-00
100
AcDbVertex
100
AcDb2dVertex
 10
34.48646688460724
 20
-1.932508051405648
 30
0.0
  0
VERTEX
  5
21CF
330
21BF
100
AcDbEntity
  8
LW 3520-32-00
100
AcDbVertex
100
AcDb2dVertex
 10
34.23433089255718
 20
-1.847633719454393
 30
0.0
  0
VERTEX
  5
21D0
330
21BF
100
AcDbEntity
  8
LW 3520-32-00
100
AcDbVertex
100
AcDb2dVertex
 10
33.99613642691998
 20
-1.729326844225454
 30
0.0
  0
VERTEX
  5
21D1
330
21BF
100
AcDbEntity
  8
LW 3520-32-00
100
AcDbVertex
100
AcDb2dVertex
 10
33.77805137633709
 20
-1.582763344059458
 30
0.0
  0
VERTEX
  5
21D2
330
21BF
100
AcDbEntity
  8
LW 3520-32-00
100
AcDbVertex
100
AcDb2dVertex
 10
33.5857894420567
 20
-1.414216607819014
 30
0.0
  0
VERTEX
  5
21D3
330
21BF
100
AcDbEntity
  8
LW 3520-32-00
100
AcDbVertex
100
AcDb2dVertex
 10
33.41724181174675
 20
-1.221954673538562
 30
0.0
  0
VERTEX
  5
21D4
330
21BF
100
AcDbEntity
  8
LW 3520-32-00
100
AcDbVertex
100
AcDb2dVertex
 10
33.27067637442997
 20
-1.003869771967288
 30
0.0
  0
VERTEX
  5
21D5
330
21BF
100
AcDbEntity
  8
LW 3520-32-00
100
AcDbVertex
100
AcDb2dVertex
 10
33.15236830710819
 20
-0.7656736672022362
 30
0.0
  0
VERTEX
  5
21D6
330
21BF
100
AcDbEntity
  8
LW 3520-32-00
100
AcDbVertex
100
AcDb2dVertex
 10
33.06749248504104
 20
-0.5135356262424012
 30
0.0
  0
VERTEX
  5
21D7
330
21BF
100
AcDbEntity
  8
LW 3520-32-00
100
AcDbVertex
100
AcDb2dVertex
 10
33.01681661605312
 20
-0.2554797381260414
 30
0.0
  0
VERTEX
  5
21D8
330
21BF
100
AcDbEntity
  8
LW 3520-32-00
100
AcDbVertex
100
AcDb2dVertex
 10
32.99999976157619
 20
-0.0000000000097202
 30
0.0
  0
SEQEND
  5
21D9
330
21BF
100
AcDbEntity
  8
LW 3520-32-00
  0
POLYLINE
  5
21DA
330
21A7
100
AcDbEntity
  8
LW 3520-32-00
100
AcDb2dPolyline
 66
     1
 10
0.0
 20
0.0
 30
0.0
 70
   128
  0
VERTEX
  5
21DB
330
21DA
100
AcDbEntity
  8
LW 3520-32-00
100
AcDbVertex
100
AcDb2dVertex
 10
32.99999976157619
 20
-0.0000000000097202
 30
0.0
  0
VERTEX
  5
21DC
330
21DA
100
AcDbEntity
  8
LW 3520-32-00
100
AcDbVertex
100
AcDb2dVertex
 10
33.01681661605324
 20
0.2554797381064873
 30
0.0
  0
VERTEX
  5
21DD
330
21DA
100
AcDbEntity
  8
LW 3520-32-00
100
AcDbVertex
100
AcDb2dVertex
 10
33.06749248504127
 20
0.513535626222847
 30
0.0
  0
VERTEX
  5
21DE
330
21DA
100
AcDbEntity
  8
LW 3520-32-00
100
AcDbVertex
100
AcDb2dVertex
 10
33.15236830710865
 20
0.7656736671826821
 30
0.0
  0
VERTEX
  5
21DF
330
21DA
100
AcDbEntity
  8
LW 3520-32-00
100
AcDbVertex
100
AcDb2dVertex
 10
33.27067637443054
 20
1.003869771947506
 30
0.0
  0
VERTEX
  5
21E0
330
21DA
100
AcDbEntity
  8
LW 3520-32-00
100
AcDbVertex
100
AcDb2dVertex
 10
33.41724181174743
 20
1.22195467351878
 30
0.0
  0
VERTEX
  5
21E1
330
21DA
100
AcDbEntity
  8
LW 3520-32-00
100
AcDbVertex
100
AcDb2dVertex
 10
33.5857894420576
 20
1.414216607799119
 30
0.0
  0
VERTEX
  5
21E2
330
21DA
100
AcDbEntity
  8
LW 3520-32-00
100
AcDbVertex
100
AcDb2dVertex
 10
33.778051376338
 20
1.582763344039449
 30
0.0
  0
VERTEX
  5
21E3
330
21DA
100
AcDbEntity
  8
LW 3520-32-00
100
AcDbVertex
100
AcDb2dVertex
 10
33.996136426921
 20
1.729326844205331
 30
0.0
  0
VERTEX
  5
21E4
330
21DA
100
AcDbEntity
  8
LW 3520-32-00
100
AcDbVertex
100
AcDb2dVertex
 10
34.23433089255821
 20
1.847633719434156
 30
0.0
  0
VERTEX
  5
21E5
330
21DA
100
AcDbEntity
  8
LW 3520-32-00
100
AcDbVertex
100
AcDb2dVertex
 10
34.48646688460849
 20
1.932508051385184
 30
0.0
  0
VERTEX
  5
21E6
330
21DA
100
AcDbEntity
  8
LW 3520-32-00
100
AcDbVertex
100
AcDb2dVertex
 10
34.74452042579196
 20
1.98318362234994
 30
0.0
  0
VERTEX
  5
21E7
330
21DA
100
AcDbEntity
  8
LW 3520-32-00
100
AcDbVertex
100
AcDb2dVertex
 10
35.00000023841403
 20
2.000000029791976
 30
0.0
  0
VERTEX
  5
21E8
330
21DA
100
AcDbEntity
  8
LW 3520-32-00
100
AcDbVertex
100
AcDb2dVertex
 10
35.25547885894321
 20
1.98318362234977
 30
0.0
  0
VERTEX
  5
21E9
330
21DA
100
AcDbEntity
  8
LW 3520-32-00
100
AcDbVertex
100
AcDb2dVertex
 10
35.51353359221958
 20
1.9325080513849
 30
0.0
  0
VERTEX
  5
21EA
330
21DA
100
AcDbEntity
  8
LW 3520-32-00
100
AcDbVertex
100
AcDb2dVertex
 10
35.76566958426963
 20
1.847633719433702
 30
0.0
  0
VERTEX
  5
21EB
330
21DA
100
AcDbEntity
  8
LW 3520-32-00
100
AcDbVertex
100
AcDb2dVertex
 10
36.00386404990684
 20
1.729326844204763
 30
0.0
  0
VERTEX
  5
21EC
330
21DA
100
AcDbEntity
  8
LW 3520-32-00
100
AcDbVertex
100
AcDb2dVertex
 10
36.22194790839671
 20
1.582763344038767
 30
0.0
  0
VERTEX
  5
21ED
330
21DA
100
AcDbEntity
  8
LW 3520-32-00
100
AcDbVertex
100
AcDb2dVertex
 10
36.41421103477
 20
1.414216607798266
 30
0.0
  0
VERTEX
  5
21EE
330
21DA
100
AcDbEntity
  8
LW 3520-32-00
100
AcDbVertex
100
AcDb2dVertex
 10
36.58275866507995
 20
1.221954673517871
 30
0.0
  0
VERTEX
  5
21EF
330
21DA
100
AcDbEntity
  8
LW 3520-32-00
100
AcDbVertex
100
AcDb2dVertex
 10
36.72932291030395
 20
1.00386977194654
 30
0.0
  0
VERTEX
  5
21F0
330
21DA
100
AcDbEntity
  8
LW 3520-32-00
100
AcDbVertex
100
AcDb2dVertex
 10
36.84763216971851
 20
0.7656736671815452
 30
0.0
  0
VERTEX
  5
21F1
330
21DA
100
AcDbEntity
  8
LW 3520-32-00
100
AcDbVertex
100
AcDb2dVertex
 10
36.93250799178566
 20
0.5135356262217102
 30
0.0
  0
VERTEX
  5
21F2
330
21DA
100
AcDbEntity
  8
LW 3520-32-00
100
AcDbVertex
100
AcDb2dVertex
 10
36.9831838607737
 20
0.2554797381053504
 30
0.0
  0
VERTEX
  5
21F3
330
21DA
100
AcDbEntity
  8
LW 3520-32-00
100
AcDbVertex
100
AcDb2dVertex
 10
36.99999952315761
 20
-0.0000000000109139
 30
0.0
  0
SEQEND
  5
21F4
330
21DA
100
AcDbEntity
  8
LW 3520-32-00
  0
LINE
  5
21F5
330
21A7
100
AcDbEntity
  8
LW 3520-32-00
100
AcDbLine
 10
38.99999999999477
 20
-17.50000000001148
 30
0.0
 11
39.00000000000512
 21
17.49999999998852
 31
0.0
  0
LINE
  5
21F6
330
21A7
100
AcDbEntity
  8
LW 3520-32-00
100
AcDbLine
 10
41.99999999999556
 20
-14.50000000001245
 30
0.0
 11
42.00000000000431
 21
14.49999999998761
 31
0.0
  0
LINE
  5
21F7
330
21A7
100
AcDbEntity
  8
LW 3520-32-00
100
AcDbLine
 10
19.00000000000511
 20
17.49999999999443
 30
0.0
 11
39.00000000000512
 21
17.4999999999884
 31
0.0
  0
LINE
  5
21F8
330
21A7
100
AcDbEntity
  8
LW 3520-32-00
100
AcDbLine
 10
18.99999999999477
 20
-17.50000000000557
 30
0.0
 11
38.99999999999477
 21
-17.50000000001159
 31
0.0
  0
LINE
  5
21F9
330
21A7
100
AcDbEntity
  8
LW 3520-32-00
100
AcDbLine
 10
41.99999999999568
 20
-14.50000000001245
 30
0.0
 11
38.99999999999477
 21
-17.50000000001148
 31
0.0
  0
LINE
  5
21FA
330
21A7
100
AcDbEntity
  8
LW 3520-32-00
100
AcDbLine
 10
42.00000000000431
 20
14.49999999998761
 30
0.0
 11
39.00000000000512
 21
17.4999999999884
 31
0.0
  0
LINE
  5
21FB
330
21A7
100
AcDbEntity
  8
LW 3520-32-00
100
AcDbLine
 10
70.00000000001512
 20
-0.0000000000192131
 30
0.0
 11
60.00000000001512
 21
-0.0000000000192131
 31
0.0
  0
LINE
  5
21FC
330
21A7
100
AcDbEntity
  8
LW 3520-32-00
  6
MITTE2
 62
     3
100
AcDbLine
 10
65.00000000001512
 20
22.49999999998079
 30
0.0
 11
65.00000000001512
 21
-22.50000000001922
 31
0.0
  0
LINE
  5
21FD
330
21A7
100
AcDbEntity
  8
LW 3520-32-00
  6
MITTE2
 62
     3
100
AcDbLine
 10
145.0000000000151
 20
22.49999999995702
 30
0.0
 11
145.0000000000151
 21
-22.50000000004297
 31
0.0
  0
LINE
  5
21FE
330
21A7
100
AcDbEntity
  8
LW 3520-32-00
  6
MITTE2
 62
     3
100
AcDbLine
 10
187.3663674569925
 20
-0.000000000055536
 30
0.0
 11
-23.30038640845748
 21
0.0000000000069349
 31
0.0
  0
LINE
  5
21FF
330
21A7
100
AcDbEntity
  8
LW 3520-32-00
100
AcDbLine
 10
-15.99999999999795
 20
7.000000000005059
 30
0.0
 11
-15.99999999999795
 21
-6.99999999999494
 31
0.0
  0
LINE
  5
2200
330
21A7
100
AcDbEntity
  8
LW 3520-32-00
100
AcDbLine
 10
-16.99999999999795
 20
6.000000000005059
 30
0.0
 11
-16.99999999999795
 21
-5.99999999999494
 31
0.0
  0
LINE
  5
2201
330
21A7
100
AcDbEntity
  8
LW 3520-32-00
100
AcDbLine
 10
0.0000000000020464
 20
-6.99999999999494
 30
0.0
 11
-15.99999999999795
 21
-6.99999999999494
 31
0.0
  0
LINE
  5
2202
330
21A7
100
AcDbEntity
  8
LW 3520-32-00
100
AcDbLine
 10
0.0000000000020464
 20
7.000000000005059
 30
0.0
 11
-15.99999999999795
 21
7.000000000005059
 31
0.0
  0
LINE
  5
2203
330
21A7
100
AcDbEntity
  8
LW 3520-32-00
100
AcDbLine
 10
-16.99999999999795
 20
6.000000000005059
 30
0.0
 11
-15.99999999999795
 21
7.000000000005059
 31
0.0
  0
LINE
  5
2204
330
21A7
100
AcDbEntity
  8
LW 3520-32-00
100
AcDbLine
 10
-16.99999999999795
 20
-5.99999999999494
 30
0.0
 11
-15.99999999999795
 21
-6.99999999999494
 31
0.0
  0
LINE
  5
2205
330
21A7
100
AcDbEntity
  8
LW 3520-32-00
 62
     3
100
AcDbLine
 10
-16.99999999999795
 20
-5.794499999994911
 30
0.0
 11
0.0000000000020464
 21
-5.794499999994911
 31
0.0
  0
LINE
  5
2206
330
21A7
100
AcDbEntity
  8
LW 3520-32-00
 62
     3
100
AcDbLine
 10
0.0000000000020464
 20
5.794500000005029
 30
0.0
 11
-16.99999999999795
 21
5.794500000005029
 31
0.0
  0
LINE
  5
2207
330
21A7
100
AcDbEntity
  8
LW 3520-32-00
100
AcDbLine
 10
-15.99999999999795
 20
7.000000000005059
 30
0.0
 11
-15.99999999999795
 21
-6.99999999999494
 31
0.0
  0
INSERT
  5
2208
330
21A7
100
AcDbEntity
  8
LW 3520-32-00
100
AcDbBlockReference
 66
     1
  2
insertpoint-ECKELT
 10
0.0
 20
0.0
 30
0.0
  0
ATTRIB
  5
2209
330
2208
100
AcDbEntity
  8
insertpoint_ECKELT
100
AcDbText
 10
-6.931514324693087
 20
0.0
 30
0.0
 40
0.6
  1
LW 3520/32-00
 72
     2
 11
-1.200000000000045
 21
0.0
 31
0.0
100
AcDbAttribute
  2
LINKS
 70
     0
  0
ATTRIB
  5
220A
330
2208
100
AcDbEntity
  8
insertpoint_ECKELT
100
AcDbText
 10
1.200000000000045
 20
0.0
 30
0.0
 40
0.6
  1

100
AcDbAttribute
  2
RECHTS
 70
     0
  0
SEQEND
  5
220B
330
2208
100
AcDbEntity
  8
LW 3520-32-00
  0
HATCH
  5
220C
330
21A7
100
AcDbEntity
  8
LW 3520-32-00
 62
     1
100
AcDbHatch
 10
0.0
 20
0.0
 30
0.0
210
0.0
220
0.0
230
1.0
  2
SOLID
 70
     1
 71
     0
 91
        5
 92
        7
 72
     0
 73
     1
 93
       76
 10
101.6198830459461
 20
19.76920546873941
 10
101.651741875319
 20
19.82078643058111
 10
101.7698999995501
 20
19.97202882959709
 10
101.9043780747629
 20
20.11245295985964
 10
102.0503979812245
 20
20.24083752157299
 10
102.2140667773064
 20
20.35774380448874
 10
102.3894537306711
 20
20.45992168631039
 10
102.5712066632715
 20
20.55127336589328
 10
102.7523755987372
 20
20.62079167833946
 10
100.4952376605372
 20
20.6207916783394
 10
100.2823411081372
 20
20.61210202313936
 10
100.0803066247372
 20
20.5860330575394
 10
99.88478938273715
 20
20.54475719533934
 10
99.70013420973726
 20
20.49044685033937
 10
99.52416869193712
 20
20.42092960873936
 10
99.3568928293372
 20
20.33837788433925
 10
99.20632456679028
 20
20.24305236679544
 10
99.06361696633736
 20
20.13634340093933
 10
98.9381757107666
 20
20.01729512469922
 10
98.82691075868923
 20
19.88903581394732
 10
98.72689282733723
 20
19.75182615833933
 10
98.64434110293723
 20
19.60627443373926
 10
98.58134110273727
 20
19.45203305393915
 10
98.5313755853374
 20
19.29127443273938
 10
98.50313420593728
 20
19.12617098393929
 10
98.49444455073729
 20
18.95237787993932
 10
98.50530661973733
 20
18.77858477593924
 10
98.53572041293729
 20
18.61130891333926
 10
98.59003075793737
 20
18.45055029213932
 10
98.65954799953726
 20
18.29413649853927
 10
98.74861696533741
 20
18.14641236013921
 10
98.85506524153733
 20
18.00520546313936
 10
98.97776317296132
 20
17.87399166961927
 10
99.11396222166956
 20
17.75285787613137
 10
99.26130662213735
 20
17.64241235853927
 10
99.42206524333744
 20
17.54465373753942
 10
99.59769186458458
 20
17.45975580623536
 10
99.77834110653725
 20
17.38606753013937
 10
99.96951352093743
 20
17.32958477133934
 10
100.1693755905373
 20
17.28613649533935
 10
100.3779273153373
 20
17.26006752973933
 10
100.5886514539372
 20
17.25137787453934
 10
102.7078225396899
 20
17.25137787453945
 10
102.5472786756374
 20
17.31444867827434
 10
102.363714531835
 20
17.40506895179709
 10
102.1952481256648
 20
17.50959864472867
 10
102.0324152309041
 20
17.62521688315411
 10
101.888502862534
 20
17.75500647969397
 10
101.7610669690497
 20
17.89436016292251
 10
101.6473616143063
 20
18.04484840763507
 10
101.5953903828576
 20
18.1290330497394
 10
100.5669273159373
 20
18.12903304973935
 10
100.4348184879318
 20
18.1365930497634
 10
100.3040652461372
 20
18.15692684293134
 10
100.1758928319374
 20
18.18986063613931
 10
100.0607549005374
 20
18.23548132593941
 10
99.95580993468696
 20
18.29196408473933
 10
99.85766027920295
 20
18.35956960219533
 10
99.76747903753732
 20
18.43751580933929
 10
99.69578938213738
 20
18.52223994753933
 10
101.4233106963961
 20
18.52223994753939
 10
101.4127262291231
 20
18.55487538829772
 10
101.3766144211587
 20
18.74024933584883
 10
101.364570768377
 20
18.93053904979956
 10
101.3765924408063
 20
19.12529014315459
 10
101.4128981624816
 20
19.31165951442108
 10
101.4294968651566
 20
19.36079167433934
 10
99.65885834753727
 20
19.36079167433934
 10
99.72837558913727
 20
19.45637788153925
 10
99.81092731353726
 20
19.53892960593936
 10
99.90601821039081
 20
19.60879443374728
 10
100.0086169693372
 20
19.66710202013939
 10
100.127308969714
 20
19.71107167545131
 10
100.2497549011373
 20
19.74313650313934
 10
100.3866169705372
 20
19.76268822733931
 10
100.5299962813372
 20
19.76920546873936
 97
        0
 92
        7
 72
     0
 73
     1
 93
       72
 10
103.348346910974
 20
19.75460684800339
 10
103.4712099458468
 20
19.77268133081941
 10
103.5952721531372
 20
19.77789512393946
 10
104.8639618123372
 20
19.77789512393951
 10
104.0167204303372
 20
18.96323994893959
 10
105.7828928497374
 20
17.24486063313958
 10
107.1015480263372
 20
17.24486063313958
 10
105.3875135381373
 20
18.98713650073955
 10
107.0689618193372
 20
20.62079167833963
 10
103.6300307739373
 20
20.62079167833946
 10
103.4220438767252
 20
20.61001650589151
 10
103.2153256691723
 20
20.58455581615539
 10
103.0108928409372
 20
20.54475719533946
 10
102.8175480127372
 20
20.48827443653943
 10
102.6307204259371
 20
20.41658478113942
 10
102.4595602874627
 20
20.33055719465943
 10
102.2939962869372
 20
20.23410202193941
 10
102.1419273209372
 20
20.12548133193945
 10
102.0062296653341
 20
20.00617236604341
 10
101.8812376649373
 20
19.87565374493937
 10
101.7726169749371
 20
19.73661926173935
 10
101.6813755953372
 20
19.58889512333951
 10
101.6096859399372
 20
19.4346537435394
 10
101.5553755949372
 20
19.27389512233941
 10
101.5227893879373
 20
19.10661925973937
 10
101.5119273189373
 20
18.93065374193929
 10
101.5227893879373
 20
18.75903305173943
 10
101.5553755949373
 20
18.59175718913945
 10
101.6075135261374
 20
18.43099856793947
 10
101.6770307677373
 20
18.27675718813941
 10
101.7688717335461
 20
18.12799029111551
 10
101.8742511821565
 20
17.98852132515537
 10
101.9922566997726
 20
17.85947994543551
 10
102.1245480105373
 20
17.74017097953947
 10
102.2766691144685
 20
17.63215856540336
 10
102.4352031839373
 20
17.53379166853938
 10
102.6068238741373
 20
17.44906753033945
 10
102.7893066333374
 20
17.37737787493944
 10
102.9835378063677
 20
17.32332821959545
 10
103.1803411173373
 20
17.27961925393941
 10
103.3888928421373
 20
17.25355028833945
 10
103.5996169807373
 20
17.24486063313946
 10
105.5026514695373
 20
17.24486063313958
 10
104.6163066391373
 20
18.11817098073953
 10
103.5996169807373
 20
18.11817098073948
 10
103.5329499460428
 20
18.12191827367877
 10
103.4320022215845
 20
18.13190063595544
 10
103.3118677384445
 20
18.15336408429948
 10
103.194748565659
 20
18.18768822233937
 10
103.0932533929229
 20
18.22861649833146
 10
103.0371182203308
 20
18.2567709811795
 10
102.9834335305053
 20
18.28935718817956
 10
102.8508728404292
 20
18.3886799471154
 10
102.7772714608853
 20
18.45871856802745
 10
102.7222051158829
 20
18.52658477513933
 10
102.6734995984868
 20
18.59914339605939
 10
102.6341354604308
 20
18.67630753423538
 10
102.6047122879237
 20
18.75772960345938
 10
102.5840135292372
 20
18.84488684511547
 10
102.5764969774892
 20
18.93421650057132
 10
102.5778525637005
 20
18.99652132835541
 10
102.5838571154437
 20
19.05865236303532
 10
102.5960139430685
 20
19.12182615633946
 10
102.6142274603677
 20
19.18352270825943
 10
102.6578755984371
 20
19.28223719133132
 10
102.6994034606381
 20
19.35010339844336
 10
102.7624816677348
 20
19.42813650213941
 10
102.8918836080996
 20
19.55465923919308
 10
102.9511514614373
 20
19.59471719232346
 10
103.0274466340933
 20
19.63903443384339
 10
103.111466910222
 20
19.68117926156344
 10
103.2280038761092
 20
19.72401926169948
 97
        0
 92
        7
 72
     0
 73
     1
 93
       57
 10
107.9063838909613
 20
19.73253512379568
 10
108.0378583741373
 20
19.77250753771568
 10
108.1725480297372
 20
19.79961926193971
 10
108.3159273405372
 20
19.80830891713964
 10
109.5563756203372
 20
19.8083089171397
 10
109.5563756203372
 20
20.63382616113973
 10
108.3224445819372
 20
20.63382616113961
 10
108.1117204433373
 20
20.62513650593962
 10
107.9053411323373
 20
20.59689512653961
 10
107.7076514765373
 20
20.55561926433967
 10
107.5186514759373
 20
20.50130891933964
 10
107.3339963029373
 20
20.42961926393963
 10
107.167589405857
 20
20.34698064298755
 10
107.0087685777667
 20
20.25052547026752
 10
106.8586895428077
 20
20.14103581474757
 10
106.7241302320358
 20
20.02181374540362
 10
106.6040652661372
 20
19.89303305533957
 10
106.4997894037372
 20
19.75399857213961
 10
106.4150652655372
 20
19.60844684753954
 10
106.3433756101372
 20
19.45420546773948
 10
106.2934100927373
 20
19.29344684653966
 10
106.2608238857373
 20
19.12617098393969
 10
106.2499618167373
 20
18.9523778799396
 10
106.2608238857373
 20
18.77858477593958
 10
106.2934100927373
 20
18.6113089133396
 10
106.3455480239372
 20
18.45055029213949
 10
106.4172376793374
 20
18.29413649853961
 10
106.5041342313374
 20
18.14641236013961
 10
106.6129808523725
 20
18.00685649762761
 10
106.732837266546
 20
17.87651166962763
 10
106.8692648531861
 20
17.75520408303561
 10
107.0168238881373
 20
17.64458477233955
 10
107.1775825093373
 20
17.54682615133953
 10
107.3513756133372
 20
17.4621020131396
 10
107.5360307863374
 20
17.38823994393971
 10
107.7272032007373
 20
17.33175718513962
 10
107.9270652703373
 20
17.28830890913968
 10
108.1334445813373
 20
17.26441235733955
 10
108.3463411337374
 20
17.25572270213962
 10
109.5563756203373
 20
17.25572270213968
 10
109.5563756203373
 20
18.11382615313965
 10
108.3224445819372
 20
18.1138261531396
 10
108.1887976849613
 20
18.12416684282755
 10
108.0565411328174
 20
18.14615167048367
 10
107.9359287186413
 20
18.18047580852362
 10
107.8199218217214
 20
18.22844270522768
 10
107.7102583730973
 20
18.28935718817968
 10
107.6131949245133
 20
18.35696270563557
 10
107.5257769932013
 20
18.43673374037161
 10
107.4513066481373
 20
18.52223994753962
 10
109.5563756203373
 20
18.52223994753967
 10
109.5563756203373
 20
19.34992960533969
 10
107.4143756135372
 20
19.34992960533958
 10
107.4838928551372
 20
19.4476882263396
 10
107.5707894071372
 20
19.53675719213953
 10
107.6719369936653
 20
19.61305236479563
 10
107.7793411319372
 20
19.6801365029396
 97
        0
 92
        7
 72
     0
 73
     1
 93
        6
 10
109.7866514831373
 20
20.62079167833974
 10
109.7866514831373
 20
17.25137787453968
 10
112.0242376971374
 20
17.2513778745398
 10
112.0242376971373
 20
18.11817098073982
 10
110.8098583829373
 20
18.11817098073982
 10
110.8098583829372
 20
20.62079167833974
 97
        0
 92
        7
 72
     0
 73
     1
 93
        8
 10
111.0423066595372
 20
20.62079167833974
 10
111.0423066595372
 20
19.79527443433972
 10
112.2762376979373
 20
19.79527443433983
 10
112.2762376979374
 20
17.24486063313981
 10
113.3016170115373
 20
17.24486063313981
 10
113.3016170115372
 20
19.79527443433977
 10
114.5442377051372
 20
19.79527443433983
 10
114.5442377051372
 20
20.62079167833986
 97
        0
 75
     0
 76
     1
 47
0.0142553043587597
 98
        5
 10
100.9295431720125
 20
20.17834200875029
 10
103.1970403853551
 20
20.0357890237446
 10
107.6892521175566
 20
20.09281019629242
 10
110.4131012013882
 20
20.33515042098486
 10
111.824939183615
 20
20.23536328857148
450
        0
451
        0
460
0.0
461
0.0
452
        0
462
0.0
453
        0
470

  0
LWPOLYLINE
  5
220D
330
21A7
100
AcDbEntity
  8
LW 3520-32-00
 62
     1
100
AcDbPolyline
 90
        8
 70
     1
 43
0.0
 10
113.3016170115372
 20
19.79527443433977
 10
113.3016170115373
 20
17.24486063313981
 10
112.2762376979374
 20
17.24486063313981
 10
112.2762376979373
 20
19.79527443433983
 10
111.0423066595372
 20
19.79527443433972
 10
111.0423066595372
 20
20.62079167833974
 10
114.5442377051372
 20
20.62079167833986
 10
114.5442377051372
 20
19.79527443433983
  0
LWPOLYLINE
  5
220E
330
21A7
100
AcDbEntity
  8
LW 3520-32-00
 62
     1
100
AcDbPolyline
 90
       73
 70
     1
 43
0.0
 10
103.5996169807373
 20
18.11817098073948
 10
104.6163066391373
 20
18.11817098073953
 10
105.5026514695373
 20
17.24486063313958
 10
103.5996169807373
 20
17.24486063313941
 10
103.3888928421373
 20
17.25355028833945
 10
103.1803411173373
 20
17.27961925393947
 10
102.9835378063677
 20
17.32332821959545
 10
102.7893066333374
 20
17.37737787493944
 10
102.6068238741373
 20
17.44906753033945
 10
102.4352031839373
 20
17.53379166853943
 10
102.2766691144686
 20
17.63215856540347
 10
102.1245480105373
 20
17.74017097953947
 10
101.9922566997725
 20
17.85947994543539
 10
101.8742511821565
 20
17.98852132515537
 10
101.7688717335461
 20
18.12799029111545
 10
101.6770307677373
 20
18.27675718813941
 10
101.6075135261374
 20
18.43099856793947
 10
101.5553755949373
 20
18.59175718913945
 10
101.5227893879373
 20
18.75903305173943
 10
101.5119273189373
 20
18.93065374193941
 10
101.5227893879373
 20
19.10661925973937
 10
101.5553755949372
 20
19.27389512233941
 10
101.6096859399373
 20
19.4346537435394
 10
101.6813755953372
 20
19.58889512333945
 10
101.7726169749372
 20
19.7366192617394
 10
101.8812376649373
 20
19.87565374493937
 10
102.0062296653341
 20
20.00617236604347
 10
102.1419273209371
 20
20.1254813319394
 10
102.2939962869372
 20
20.23410202193941
 10
102.4595602874628
 20
20.33055719465938
 10
102.6307204259371
 20
20.41658478113936
 10
102.8175480127372
 20
20.48827443653943
 10
103.0108928409372
 20
20.54475719533952
 10
103.2153256691724
 20
20.58455581615544
 10
103.4220438767252
 20
20.61001650589151
 10
103.6300307739371
 20
20.62079167833946
 10
107.0689618193372
 20
20.62079167833963
 10
105.3875135381373
 20
18.98713650073955
 10
107.1015480263372
 20
17.24486063313958
 10
105.7828928497374
 20
17.24486063313958
 10
104.0167204303372
 20
18.96323994893959
 10
104.8639618123372
 20
19.77789512393951
 10
103.5952721531372
 20
19.77789512393946
 10
103.4712099458468
 20
19.77268133081941
 10
103.348346910974
 20
19.75460684800339
 10
103.2280038761092
 20
19.72401926169948
 10
103.111466910222
 20
19.68117926156338
 10
103.0274466340932
 20
19.63903443384345
 10
102.9511514614372
 20
19.59471719232346
 10
102.910909668206
 20
19.56751857154745
 10
102.8733964267077
 20
19.53658339903546
 10
102.7624816677348
 20
19.42813650213941
 10
102.6994034606381
 20
19.35010339844336
 10
102.6578755984372
 20
19.28223719133143
 10
102.6142274603677
 20
19.18352270825943
 10
102.5960139430685
 20
19.12182615633946
 10
102.5838571154437
 20
19.05865236303543
 10
102.5778525637005
 20
18.99652132835547
 10
102.5764969774893
 20
18.93421650057144
 10
102.5840135292372
 20
18.84488684511547
 10
102.6047122879238
 20
18.75772960345944
 10
102.6341354604309
 20
18.67630753423543
 10
102.6734995984868
 20
18.59914339605939
 10
102.7222051158828
 20
18.52658477513944
 10
102.7772714608853
 20
18.45871856802745
 10
102.8508728404292
 20
18.3886799471154
 10
102.9834335305054
 20
18.28935718817951
 10
103.0371182203309
 20
18.25677098117944
 10
103.0932533929229
 20
18.22861649833146
 10
103.194748565659
 20
18.18768822233937
 10
103.3118677384445
 20
18.15336408429948
 10
103.4320022215845
 20
18.13190063595544
 10
103.5329499460429
 20
18.12191827367883
  0
LWPOLYLINE
  5
220F
330
21A7
100
AcDbEntity
  8
LW 3520-32-00
 62
     1
100
AcDbPolyline
 90
       76
 70
     1
 43
0.0
 10
102.3894537306711
 20
20.45992168631039
 10
102.2140667773063
 20
20.35774380448868
 10
102.0503979812243
 20
20.24083752157304
 10
101.9043780747629
 20
20.11245295985964
 10
101.7698999995501
 20
19.97202882959709
 10
101.651741875319
 20
19.82078643058122
 10
101.6198830459461
 20
19.76920546873941
 10
100.5299962813372
 20
19.76920546873941
 10
100.3866169705372
 20
19.76268822733931
 10
100.2497549011372
 20
19.74313650313934
 10
100.127308969714
 20
19.71107167545131
 10
100.0086169693372
 20
19.66710202013939
 10
99.90601821039092
 20
19.60879443374733
 10
99.81092731353726
 20
19.5389296059393
 10
99.72837558913717
 20
19.45637788153931
 10
99.65885834753727
 20
19.36079167433934
 10
101.4294968651566
 20
19.36079167433934
 10
101.4128981624816
 20
19.31165951442108
 10
101.3765924408062
 20
19.12529014315447
 10
101.364570768377
 20
18.93053904979956
 10
101.3766144211587
 20
18.74024933584883
 10
101.4127262291232
 20
18.55487538829777
 10
101.4233106963961
 20
18.52223994753939
 10
99.69578938213738
 20
18.52223994753933
 10
99.76747903753732
 20
18.43751580933929
 10
99.85766027920295
 20
18.35956960219533
 10
99.95580993468696
 20
18.29196408473933
 10
100.0607549005374
 20
18.23548132593941
 10
100.1758928319374
 20
18.18986063613937
 10
100.3040652461372
 20
18.15692684293134
 10
100.4348184879318
 20
18.1365930497634
 10
100.5669273159373
 20
18.12903304973935
 10
101.5953903828576
 20
18.1290330497394
 10
101.6473616143063
 20
18.04484840763513
 10
101.7610669690497
 20
17.89436016292251
 10
101.888502862534
 20
17.75500647969397
 10
102.0324152309042
 20
17.62521688315422
 10
102.1952481256648
 20
17.50959864472867
 10
102.363714531835
 20
17.40506895179709
 10
102.5472786756374
 20
17.31444867827434
 10
102.7078225396899
 20
17.25137787453945
 10
100.5886514539373
 20
17.25137787453929
 10
100.3779273153373
 20
17.26006752973933
 10
100.1693755905373
 20
17.28613649533935
 10
99.96951352093731
 20
17.32958477133934
 10
99.77834110653738
 20
17.38606753013925
 10
99.59769186458448
 20
17.45975580623531
 10
99.42206524333744
 20
17.54465373753942
 10
99.26130662213735
 20
17.64241235853927
 10
99.11396222166969
 20
17.75285787613131
 10
98.97776317296132
 20
17.87399166961927
 10
98.85506524153733
 20
18.0052054631393
 10
98.74861696533731
 20
18.14641236013926
 10
98.65954799953739
 20
18.29413649853933
 10
98.59003075793737
 20
18.45055029213932
 10
98.53572041293729
 20
18.61130891333926
 10
98.50530661973733
 20
18.77858477593935
 10
98.49444455073729
 20
18.95237787993926
 10
98.50313420593716
 20
19.12617098393923
 10
98.53137558533729
 20
19.29127443273933
 10
98.58134110273727
 20
19.45203305393926
 10
98.64434110293723
 20
19.60627443373926
 10
98.72689282733723
 20
19.75182615833933
 10
98.82691075868933
 20
19.88903581394732
 10
98.9381757107666
 20
20.01729512469927
 10
99.06361696633723
 20
20.13634340093927
 10
99.20632456679028
 20
20.24305236679532
 10
99.35689282933731
 20
20.33837788433936
 10
99.52416869193724
 20
20.4209296087393
 10
99.70013420973726
 20
20.49044685033937
 10
99.88478938273727
 20
20.54475719533929
 10
100.0803066247372
 20
20.5860330575394
 10
100.2823411081372
 20
20.61210202313936
 10
100.4952376605372
 20
20.62079167833934
 10
102.7523755987373
 20
20.62079167833951
 10
102.5712066632715
 20
20.55127336589328
  0
LWPOLYLINE
  5
2210
330
21A7
100
AcDbEntity
  8
LW 3520-32-00
 62
     1
100
AcDbPolyline
 90
        6
 70
     1
 43
0.0
 10
112.0242376971374
 20
17.2513778745398
 10
109.7866514831373
 20
17.25137787453968
 10
109.7866514831373
 20
20.62079167833974
 10
110.8098583829372
 20
20.62079167833974
 10
110.8098583829373
 20
18.11817098073982
 10
112.0242376971373
 20
18.11817098073982
  0
LWPOLYLINE
  5
2211
330
21A7
100
AcDbEntity
  8
LW 3520-32-00
 62
     1
100
AcDbPolyline
 90
       57
 70
     1
 43
0.0
 10
106.732837266546
 20
17.87651166962763
 10
106.6129808523725
 20
18.00685649762755
 10
106.5041342313372
 20
18.14641236013955
 10
106.4172376793374
 20
18.29413649853961
 10
106.3455480239372
 20
18.45055029213949
 10
106.2934100927373
 20
18.6113089133396
 10
106.2608238857373
 20
18.77858477593958
 10
106.2499618167373
 20
18.9523778799396
 10
106.2608238857373
 20
19.12617098393963
 10
106.2934100927373
 20
19.29344684653955
 10
106.3433756101372
 20
19.45420546773948
 10
106.4150652655372
 20
19.6084468475396
 10
106.4997894037371
 20
19.75399857213949
 10
106.6040652661372
 20
19.89303305533963
 10
106.7241302320355
 20
20.02181374540356
 10
106.8586895428077
 20
20.14103581474757
 10
107.0087685777669
 20
20.25052547026758
 10
107.1675894058573
 20
20.34698064298766
 10
107.3339963029373
 20
20.42961926393963
 10
107.5186514759372
 20
20.50130891933958
 10
107.7076514765373
 20
20.55561926433967
 10
107.9053411323373
 20
20.59689512653961
 10
108.1117204433373
 20
20.62513650593962
 10
108.3224445819372
 20
20.63382616113961
 10
109.5563756203372
 20
20.63382616113973
 10
109.5563756203372
 20
19.8083089171397
 10
108.3159273405373
 20
19.80830891713964
 10
108.1725480297373
 20
19.79961926193965
 10
108.0378583741373
 20
19.77250753771568
 10
107.9063838909612
 20
19.73253512379563
 10
107.7793411319372
 20
19.6801365029396
 10
107.6719369936653
 20
19.61305236479563
 10
107.5707894071372
 20
19.53675719213964
 10
107.4838928551372
 20
19.4476882263396
 10
107.4143756135372
 20
19.34992960533958
 10
109.5563756203373
 20
19.34992960533969
 10
109.5563756203373
 20
18.52223994753967
 10
107.4513066481373
 20
18.52223994753962
 10
107.5257769932013
 20
18.43673374037161
 10
107.6131949245133
 20
18.35696270563557
 10
107.7102583730973
 20
18.28935718817968
 10
107.8199218217214
 20
18.22844270522768
 10
107.9359287186413
 20
18.18047580852362
 10
108.0565411328174
 20
18.14615167048367
 10
108.1887976849613
 20
18.12416684282755
 10
108.3224445819372
 20
18.1138261531396
 10
109.5563756203373
 20
18.11382615313965
 10
109.5563756203373
 20
17.25572270213968
 10
108.3463411337374
 20
17.25572270213962
 10
108.1334445813373
 20
17.26441235733955
 10
107.9270652703373
 20
17.28830890913963
 10
107.7272032007373
 20
17.33175718513962
 10
107.5360307863374
 20
17.38823994393971
 10
107.3513756133372
 20
17.4621020131396
 10
107.1775825093373
 20
17.54682615133964
 10
107.0168238881373
 20
17.64458477233955
 10
106.8692648531861
 20
17.75520408303561
  0
ENDBLK
  5
21A9
330
21A7
100
AcDbEntity
  8
0
100
AcDbBlockEnd
  0
BLOCK
  5
2214
330
2213
100
AcDbEntity
  8
0
100
AcDbBlockBegin
  2
LW 3520-32-00_d
 70
     0
 10
0.0
 20
0.0
 30
0.0
  3
LW 3520-32-00_d
  1

  0
LINE
  5
2216
330
2213
100
AcDbEntity
  8
LW 3520-32-00
100
AcDbLine
 10
-14.00000000000978
 20
32.99999999999585
 30
0.0
 11
-13.99999999999022
 21
-33.00000000000409
 31
0.0
  0
ARC
  5
2217
330
2213
100
AcDbEntity
  8
LW 3520-32-00
100
AcDbCircle
 10
-145.0000000000216
 20
-0.0000000000429736
 30
0.0
 40
35.0
100
AcDbArc
 50
90.00000000001953
 51
270.0000000000196
  0
LINE
  5
2218
330
2213
100
AcDbEntity
  8
LW 3520-32-00
100
AcDbLine
 10
-145.000000000032
 20
34.99999999995703
 30
0.0
 11
-16.00000000003206
 21
34.99999999999523
 31
0.0
  0
LINE
  5
2219
330
2213
100
AcDbEntity
  8
LW 3520-32-00
100
AcDbLine
 10
-16.00000000001125
 20
-35.00000000000478
 30
0.0
 11
-145.0000000000112
 21
-35.00000000004297
 31
0.0
  0
LINE
  5
221A
330
2213
100
AcDbEntity
  8
LW 3520-32-00
100
AcDbLine
 10
-16.00000000003206
 20
34.99999999999523
 30
0.0
 11
-12.00000000003081
 21
34.99999999999648
 31
0.0
  0
LINE
  5
221B
330
2213
100
AcDbEntity
  8
LW 3520-32-00
100
AcDbLine
 10
-12.00000000001012
 20
-35.00000000000353
 30
0.0
 11
-16.00000000001125
 21
-35.00000000000478
 31
0.0
  0
ARC
  5
221C
330
2213
100
AcDbEntity
  8
LW 3520-32-00
100
AcDbCircle
 10
-12.00000000000978
 20
32.99999999999642
 30
0.0
 40
2.00000000000001
100
AcDbArc
 50
90.00000000001953
 51
180.0
  0
ARC
  5
221D
330
2213
100
AcDbEntity
  8
LW 3520-32-00
100
AcDbCircle
 10
-11.99999999999022
 20
-33.00000000000352
 30
0.0
 40
1.999999999999996
100
AcDbArc
 50
180.0
 51
270.0000000000196
  0
LINE
  5
221E
330
2213
100
AcDbEntity
  8
LW 3520-32-00
100
AcDbLine
 10
-4.999999999989654
 20
-35.00000000000148
 30
0.0
 11
-5.000000000010345
 21
34.99999999999853
 31
0.0
  0
LINE
  5
221F
330
2213
100
AcDbEntity
  8
LW 3520-32-00
100
AcDbLine
 10
-12.00000000001034
 20
34.99999999999648
 30
0.0
 11
-5.000000000010345
 21
34.99999999999853
 31
0.0
  0
LINE
  5
2220
330
2213
100
AcDbEntity
  8
LW 3520-32-00
100
AcDbLine
 10
-4.999999999989654
 20
-35.00000000000148
 30
0.0
 11
-11.99999999998954
 21
-35.00000000000353
 31
0.0
  0
LINE
  5
2221
330
2213
100
AcDbEntity
  8
LW 3520-32-00
100
AcDbLine
 10
-19.00000000000659
 20
22.49999999999443
 30
0.0
 11
-18.99999999999329
 21
-22.50000000000557
 31
0.0
  0
LINE
  5
2222
330
2213
100
AcDbEntity
  8
LW 3520-32-00
100
AcDbLine
 10
-14.00000000000659
 20
22.49999999999591
 30
0.0
 11
-19.00000000000659
 21
22.49999999999443
 31
0.0
  0
LINE
  5
2223
330
2213
100
AcDbEntity
  8
LW 3520-32-00
100
AcDbLine
 10
-13.99999999999329
 20
-22.50000000000409
 30
0.0
 11
-18.99999999999329
 21
-22.50000000000557
 31
0.0
  0
LINE
  5
2224
330
2213
100
AcDbEntity
  8
LW 3520-32-00
100
AcDbLine
 10
0.0000000000067075
 20
-22.5
 30
0.0
 11
-0.0000000000067075
 21
22.5
 31
0.0
  0
LINE
  5
2225
330
2213
100
AcDbEntity
  8
LW 3520-32-00
100
AcDbLine
 10
-4.999999999993292
 20
-22.50000000000148
 30
0.0
 11
0.0000000000067075
 21
-22.5
 31
0.0
  0
LINE
  5
2226
330
2213
100
AcDbEntity
  8
LW 3520-32-00
100
AcDbLine
 10
-5.000000000006707
 20
22.49999999999852
 30
0.0
 11
-0.0000000000067075
 21
22.5
 31
0.0
  0
CIRCLE
  5
2227
330
2213
100
AcDbEntity
  8
LW 3520-32-00
100
AcDbCircle
 10
-145.0000000000151
 20
-0.0000000000429736
 30
0.0
 40
17.49999999999999
  0
CIRCLE
  5
2228
330
2213
100
AcDbEntity
  8
LW 3520-32-00
100
AcDbCircle
 10
-145.0000000000143
 20
-0.0000000000429736
 30
0.0
 40
14.49999999999999
  0
CIRCLE
  5
2229
330
2213
100
AcDbEntity
  8
LW 3520-32-00
100
AcDbCircle
 10
-65.00000000001512
 20
-0.0000000000192131
 30
0.0
 40
17.49999999999999
  0
CIRCLE
  5
222A
330
2213
100
AcDbEntity
  8
LW 3520-32-00
100
AcDbCircle
 10
-65.00000000001432
 20
-0.0000000000192131
 30
0.0
 40
14.49999999999999
  0
POLYLINE
  5
222B
330
2213
100
AcDbEntity
  8
LW 3520-32-00
100
AcDb2dPolyline
 66
     1
 10
0.0
 20
0.0
 30
0.0
 70
   128
  0
VERTEX
  5
222C
330
222B
100
AcDbEntity
  8
LW 3520-32-00
100
AcDbVertex
100
AcDb2dVertex
 10
-36.99999952315761
 20
-0.0000000000109139
 30
0.0
  0
VERTEX
  5
222D
330
222B
100
AcDbEntity
  8
LW 3520-32-00
100
AcDbVertex
100
AcDb2dVertex
 10
-36.98318386077358
 20
-0.2554797381271783
 30
0.0
  0
VERTEX
  5
222E
330
222B
100
AcDbEntity
  8
LW 3520-32-00
100
AcDbVertex
100
AcDb2dVertex
 10
-36.93250799178543
 20
-0.513535626243538
 30
0.0
  0
VERTEX
  5
222F
330
222B
100
AcDbEntity
  8
LW 3520-32-00
100
AcDbVertex
100
AcDb2dVertex
 10
-36.84763216971806
 20
-0.7656736672033731
 30
0.0
  0
VERTEX
  5
2230
330
222B
100
AcDbEntity
  8
LW 3520-32-00
100
AcDbVertex
100
AcDb2dVertex
 10
-36.72932291030338
 20
-1.003869771968254
 30
0.0
  0
VERTEX
  5
2231
330
222B
100
AcDbEntity
  8
LW 3520-32-00
100
AcDbVertex
100
AcDb2dVertex
 10
-36.58275866507927
 20
-1.221954673539471
 30
0.0
  0
VERTEX
  5
2232
330
222B
100
AcDbEntity
  8
LW 3520-32-00
100
AcDbVertex
100
AcDb2dVertex
 10
-36.4142110347691
 20
-1.414216607819867
 30
0.0
  0
VERTEX
  5
2233
330
222B
100
AcDbEntity
  8
LW 3520-32-00
100
AcDbVertex
100
AcDb2dVertex
 10
-36.22194790839581
 20
-1.58276334406014
 30
0.0
  0
VERTEX
  5
2234
330
222B
100
AcDbEntity
  8
LW 3520-32-00
100
AcDbVertex
100
AcDb2dVertex
 10
-36.00386404990582
 20
-1.729326844226022
 30
0.0
  0
VERTEX
  5
2235
330
222B
100
AcDbEntity
  8
LW 3520-32-00
100
AcDbVertex
100
AcDb2dVertex
 10
-35.76566958426861
 20
-1.847633719454847
 30
0.0
  0
VERTEX
  5
2236
330
222B
100
AcDbEntity
  8
LW 3520-32-00
100
AcDbVertex
100
AcDb2dVertex
 10
-35.51353359221832
 20
-1.932508051405932
 30
0.0
  0
VERTEX
  5
2237
330
222B
100
AcDbEntity
  8
LW 3520-32-00
100
AcDbVertex
100
AcDb2dVertex
 10
-35.25547885894196
 20
-1.983183622370688
 30
0.0
  0
VERTEX
  5
2238
330
222B
100
AcDbEntity
  8
LW 3520-32-00
100
AcDbVertex
100
AcDb2dVertex
 10
-35.00000023841278
 20
-2.000000029812667
 30
0.0
  0
VERTEX
  5
2239
330
222B
100
AcDbEntity
  8
LW 3520-32-00
100
AcDbVertex
100
AcDb2dVertex
 10
-34.74452042579071
 20
-1.983183622370518
 30
0.0
  0
VERTEX
  5
223A
330
222B
100
AcDbEntity
  8
LW 3520-32-00
100
AcDbVertex
100
AcDb2dVertex
 10
-34.48646688460724
 20
-1.932508051405648
 30
0.0
  0
VERTEX
  5
223B
330
222B
100
AcDbEntity
  8
LW 3520-32-00
100
AcDbVertex
100
AcDb2dVertex
 10
-34.23433089255718
 20
-1.847633719454393
 30
0.0
  0
VERTEX
  5
223C
330
222B
100
AcDbEntity
  8
LW 3520-32-00
100
AcDbVertex
100
AcDb2dVertex
 10
-33.99613642691998
 20
-1.729326844225454
 30
0.0
  0
VERTEX
  5
223D
330
222B
100
AcDbEntity
  8
LW 3520-32-00
100
AcDbVertex
100
AcDb2dVertex
 10
-33.77805137633709
 20
-1.582763344059458
 30
0.0
  0
VERTEX
  5
223E
330
222B
100
AcDbEntity
  8
LW 3520-32-00
100
AcDbVertex
100
AcDb2dVertex
 10
-33.5857894420567
 20
-1.414216607819014
 30
0.0
  0
VERTEX
  5
223F
330
222B
100
AcDbEntity
  8
LW 3520-32-00
100
AcDbVertex
100
AcDb2dVertex
 10
-33.41724181174675
 20
-1.221954673538562
 30
0.0
  0
VERTEX
  5
2240
330
222B
100
AcDbEntity
  8
LW 3520-32-00
100
AcDbVertex
100
AcDb2dVertex
 10
-33.27067637442997
 20
-1.003869771967288
 30
0.0
  0
VERTEX
  5
2241
330
222B
100
AcDbEntity
  8
LW 3520-32-00
100
AcDbVertex
100
AcDb2dVertex
 10
-33.15236830710819
 20
-0.7656736672022362
 30
0.0
  0
VERTEX
  5
2242
330
222B
100
AcDbEntity
  8
LW 3520-32-00
100
AcDbVertex
100
AcDb2dVertex
 10
-33.06749248504104
 20
-0.5135356262424012
 30
0.0
  0
VERTEX
  5
2243
330
222B
100
AcDbEntity
  8
LW 3520-32-00
100
AcDbVertex
100
AcDb2dVertex
 10
-33.01681661605312
 20
-0.2554797381260414
 30
0.0
  0
VERTEX
  5
2244
330
222B
100
AcDbEntity
  8
LW 3520-32-00
100
AcDbVertex
100
AcDb2dVertex
 10
-32.99999976157619
 20
-0.0000000000097202
 30
0.0
  0
SEQEND
  5
2245
330
222B
100
AcDbEntity
  8
LW 3520-32-00
  0
POLYLINE
  5
2246
330
2213
100
AcDbEntity
  8
LW 3520-32-00
100
AcDb2dPolyline
 66
     1
 10
0.0
 20
0.0
 30
0.0
 70
   128
  0
VERTEX
  5
2247
330
2246
100
AcDbEntity
  8
LW 3520-32-00
100
AcDbVertex
100
AcDb2dVertex
 10
-32.99999976157619
 20
-0.0000000000097202
 30
0.0
  0
VERTEX
  5
2248
330
2246
100
AcDbEntity
  8
LW 3520-32-00
100
AcDbVertex
100
AcDb2dVertex
 10
-33.01681661605324
 20
0.2554797381064873
 30
0.0
  0
VERTEX
  5
2249
330
2246
100
AcDbEntity
  8
LW 3520-32-00
100
AcDbVertex
100
AcDb2dVertex
 10
-33.06749248504127
 20
0.513535626222847
 30
0.0
  0
VERTEX
  5
224A
330
2246
100
AcDbEntity
  8
LW 3520-32-00
100
AcDbVertex
100
AcDb2dVertex
 10
-33.15236830710865
 20
0.7656736671826821
 30
0.0
  0
VERTEX
  5
224B
330
2246
100
AcDbEntity
  8
LW 3520-32-00
100
AcDbVertex
100
AcDb2dVertex
 10
-33.27067637443054
 20
1.003869771947506
 30
0.0
  0
VERTEX
  5
224C
330
2246
100
AcDbEntity
  8
LW 3520-32-00
100
AcDbVertex
100
AcDb2dVertex
 10
-33.41724181174743
 20
1.22195467351878
 30
0.0
  0
VERTEX
  5
224D
330
2246
100
AcDbEntity
  8
LW 3520-32-00
100
AcDbVertex
100
AcDb2dVertex
 10
-33.5857894420576
 20
1.414216607799119
 30
0.0
  0
VERTEX
  5
224E
330
2246
100
AcDbEntity
  8
LW 3520-32-00
100
AcDbVertex
100
AcDb2dVertex
 10
-33.778051376338
 20
1.582763344039449
 30
0.0
  0
VERTEX
  5
224F
330
2246
100
AcDbEntity
  8
LW 3520-32-00
100
AcDbVertex
100
AcDb2dVertex
 10
-33.996136426921
 20
1.729326844205331
 30
0.0
  0
VERTEX
  5
2250
330
2246
100
AcDbEntity
  8
LW 3520-32-00
100
AcDbVertex
100
AcDb2dVertex
 10
-34.23433089255821
 20
1.847633719434156
 30
0.0
  0
VERTEX
  5
2251
330
2246
100
AcDbEntity
  8
LW 3520-32-00
100
AcDbVertex
100
AcDb2dVertex
 10
-34.48646688460849
 20
1.932508051385184
 30
0.0
  0
VERTEX
  5
2252
330
2246
100
AcDbEntity
  8
LW 3520-32-00
100
AcDbVertex
100
AcDb2dVertex
 10
-34.74452042579196
 20
1.98318362234994
 30
0.0
  0
VERTEX
  5
2253
330
2246
100
AcDbEntity
  8
LW 3520-32-00
100
AcDbVertex
100
AcDb2dVertex
 10
-35.00000023841403
 20
2.000000029791976
 30
0.0
  0
VERTEX
  5
2254
330
2246
100
AcDbEntity
  8
LW 3520-32-00
100
AcDbVertex
100
AcDb2dVertex
 10
-35.25547885894321
 20
1.98318362234977
 30
0.0
  0
VERTEX
  5
2255
330
2246
100
AcDbEntity
  8
LW 3520-32-00
100
AcDbVertex
100
AcDb2dVertex
 10
-35.51353359221958
 20
1.9325080513849
 30
0.0
  0
VERTEX
  5
2256
330
2246
100
AcDbEntity
  8
LW 3520-32-00
100
AcDbVertex
100
AcDb2dVertex
 10
-35.76566958426963
 20
1.847633719433702
 30
0.0
  0
VERTEX
  5
2257
330
2246
100
AcDbEntity
  8
LW 3520-32-00
100
AcDbVertex
100
AcDb2dVertex
 10
-36.00386404990684
 20
1.729326844204763
 30
0.0
  0
VERTEX
  5
2258
330
2246
100
AcDbEntity
  8
LW 3520-32-00
100
AcDbVertex
100
AcDb2dVertex
 10
-36.22194790839671
 20
1.582763344038767
 30
0.0
  0
VERTEX
  5
2259
330
2246
100
AcDbEntity
  8
LW 3520-32-00
100
AcDbVertex
100
AcDb2dVertex
 10
-36.41421103477
 20
1.414216607798266
 30
0.0
  0
VERTEX
  5
225A
330
2246
100
AcDbEntity
  8
LW 3520-32-00
100
AcDbVertex
100
AcDb2dVertex
 10
-36.58275866507995
 20
1.221954673517871
 30
0.0
  0
VERTEX
  5
225B
330
2246
100
AcDbEntity
  8
LW 3520-32-00
100
AcDbVertex
100
AcDb2dVertex
 10
-36.72932291030395
 20
1.00386977194654
 30
0.0
  0
VERTEX
  5
225C
330
2246
100
AcDbEntity
  8
LW 3520-32-00
100
AcDbVertex
100
AcDb2dVertex
 10
-36.84763216971851
 20
0.7656736671815452
 30
0.0
  0
VERTEX
  5
225D
330
2246
100
AcDbEntity
  8
LW 3520-32-00
100
AcDbVertex
100
AcDb2dVertex
 10
-36.93250799178566
 20
0.5135356262217102
 30
0.0
  0
VERTEX
  5
225E
330
2246
100
AcDbEntity
  8
LW 3520-32-00
100
AcDbVertex
100
AcDb2dVertex
 10
-36.9831838607737
 20
0.2554797381053504
 30
0.0
  0
VERTEX
  5
225F
330
2246
100
AcDbEntity
  8
LW 3520-32-00
100
AcDbVertex
100
AcDb2dVertex
 10
-36.99999952315761
 20
-0.0000000000109139
 30
0.0
  0
SEQEND
  5
2260
330
2246
100
AcDbEntity
  8
LW 3520-32-00
  0
LINE
  5
2261
330
2213
100
AcDbEntity
  8
LW 3520-32-00
100
AcDbLine
 10
-38.99999999999477
 20
-17.50000000001148
 30
0.0
 11
-39.00000000000512
 21
17.49999999998852
 31
0.0
  0
LINE
  5
2262
330
2213
100
AcDbEntity
  8
LW 3520-32-00
100
AcDbLine
 10
-41.99999999999556
 20
-14.50000000001245
 30
0.0
 11
-42.00000000000431
 21
14.49999999998761
 31
0.0
  0
LINE
  5
2263
330
2213
100
AcDbEntity
  8
LW 3520-32-00
100
AcDbLine
 10
-19.00000000000511
 20
17.49999999999443
 30
0.0
 11
-39.00000000000512
 21
17.4999999999884
 31
0.0
  0
LINE
  5
2264
330
2213
100
AcDbEntity
  8
LW 3520-32-00
100
AcDbLine
 10
-18.99999999999477
 20
-17.50000000000557
 30
0.0
 11
-38.99999999999477
 21
-17.50000000001159
 31
0.0
  0
LINE
  5
2265
330
2213
100
AcDbEntity
  8
LW 3520-32-00
100
AcDbLine
 10
-41.99999999999568
 20
-14.50000000001245
 30
0.0
 11
-38.99999999999477
 21
-17.50000000001148
 31
0.0
  0
LINE
  5
2266
330
2213
100
AcDbEntity
  8
LW 3520-32-00
100
AcDbLine
 10
-42.00000000000431
 20
14.49999999998761
 30
0.0
 11
-39.00000000000512
 21
17.4999999999884
 31
0.0
  0
LINE
  5
2267
330
2213
100
AcDbEntity
  8
LW 3520-32-00
100
AcDbLine
 10
-70.00000000001512
 20
-0.0000000000192131
 30
0.0
 11
-60.00000000001512
 21
-0.0000000000192131
 31
0.0
  0
LINE
  5
2268
330
2213
100
AcDbEntity
  8
LW 3520-32-00
  6
MITTE2
 62
     3
100
AcDbLine
 10
-65.00000000001512
 20
22.49999999998079
 30
0.0
 11
-65.00000000001512
 21
-22.50000000001922
 31
0.0
  0
LINE
  5
2269
330
2213
100
AcDbEntity
  8
LW 3520-32-00
  6
MITTE2
 62
     3
100
AcDbLine
 10
-145.0000000000151
 20
22.49999999995702
 30
0.0
 11
-145.0000000000151
 21
-22.50000000004297
 31
0.0
  0
LINE
  5
226A
330
2213
100
AcDbEntity
  8
LW 3520-32-00
  6
MITTE2
 62
     3
100
AcDbLine
 10
-187.3663674569925
 20
-0.000000000055536
 30
0.0
 11
23.30038640845748
 21
0.0000000000069349
 31
0.0
  0
LINE
  5
226B
330
2213
100
AcDbEntity
  8
LW 3520-32-00
100
AcDbLine
 10
15.99999999999795
 20
7.000000000005059
 30
0.0
 11
15.99999999999795
 21
-6.99999999999494
 31
0.0
  0
LINE
  5
226C
330
2213
100
AcDbEntity
  8
LW 3520-32-00
100
AcDbLine
 10
16.99999999999795
 20
6.000000000005059
 30
0.0
 11
16.99999999999795
 21
-5.99999999999494
 31
0.0
  0
LINE
  5
226D
330
2213
100
AcDbEntity
  8
LW 3520-32-00
100
AcDbLine
 10
-0.0000000000020464
 20
-6.99999999999494
 30
0.0
 11
15.99999999999795
 21
-6.99999999999494
 31
0.0
  0
LINE
  5
226E
330
2213
100
AcDbEntity
  8
LW 3520-32-00
100
AcDbLine
 10
-0.0000000000020464
 20
7.000000000005059
 30
0.0
 11
15.99999999999795
 21
7.000000000005059
 31
0.0
  0
LINE
  5
226F
330
2213
100
AcDbEntity
  8
LW 3520-32-00
100
AcDbLine
 10
16.99999999999795
 20
6.000000000005059
 30
0.0
 11
15.99999999999795
 21
7.000000000005059
 31
0.0
  0
LINE
  5
2270
330
2213
100
AcDbEntity
  8
LW 3520-32-00
100
AcDbLine
 10
16.99999999999795
 20
-5.99999999999494
 30
0.0
 11
15.99999999999795
 21
-6.99999999999494
 31
0.0
  0
LINE
  5
2271
330
2213
100
AcDbEntity
  8
LW 3520-32-00
 62
     3
100
AcDbLine
 10
16.99999999999795
 20
-5.794499999994911
 30
0.0
 11
-0.0000000000020464
 21
-5.794499999994911
 31
0.0
  0
LINE
  5
2272
330
2213
100
AcDbEntity
  8
LW 3520-32-00
 62
     3
100
AcDbLine
 10
-0.0000000000020464
 20
5.794500000005029
 30
0.0
 11
16.99999999999795
 21
5.794500000005029
 31
0.0
  0
LINE
  5
2273
330
2213
100
AcDbEntity
  8
LW 3520-32-00
100
AcDbLine
 10
15.99999999999795
 20
7.000000000005059
 30
0.0
 11
15.99999999999795
 21
-6.99999999999494
 31
0.0
  0
INSERT
  5
2274
330
2213
100
AcDbEntity
  8
LW 3520-32-00
100
AcDbBlockReference
 66
     1
  2
insertpoint-ECKELT
 10
0.0
 20
0.0
 30
0.0
  0
ATTRIB
  5
2275
330
2274
100
AcDbEntity
  8
insertpoint_ECKELT
100
AcDbText
 10
-1.200000000000045
 20
0.0
 30
0.0
 40
0.6
  1

 72
     2
 11
-1.200000000000045
 21
0.0
 31
0.0
100
AcDbAttribute
  2
LINKS
 70
     0
  0
ATTRIB
  5
2276
330
2274
100
AcDbEntity
  8
insertpoint_ECKELT
100
AcDbText
 10
1.200000000000045
 20
0.0
 30
0.0
 40
0.6
  1
LW 3520/32-00
100
AcDbAttribute
  2
RECHTS
 70
     0
  0
SEQEND
  5
2277
330
2274
100
AcDbEntity
  8
LW 3520-32-00
  0
HATCH
  5
2278
330
2213
100
AcDbEntity
  8
LW 3520-32-00
 62
     1
100
AcDbHatch
 10
0.0
 20
0.0
 30
0.0
210
0.0
220
0.0
230
1.0
  2
SOLID
 70
     1
 71
     0
 91
        5
 92
        7
 72
     0
 73
     1
 93
       76
 10
-108.3801169540833
 20
19.76920546871565
 10
-108.3482581247104
 20
19.82078643055735
 10
-108.2301000004793
 20
19.97202882957333
 10
-108.0956219252665
 20
20.11245295983588
 10
-107.9496020188049
 20
20.24083752154922
 10
-107.785933222723
 20
20.35774380446497
 10
-107.6105462693583
 20
20.45992168628663
 10
-107.4287933367579
 20
20.55127336586952
 10
-107.2476244012922
 20
20.6207916783157
 10
-109.5047623394922
 20
20.62079167831564
 10
-109.7176588918922
 20
20.6121020231156
 10
-109.9196933752922
 20
20.58603305751564
 10
-110.1152106172923
 20
20.54475719531558
 10
-110.2998657902922
 20
20.49044685031561
 10
-110.4758313080923
 20
20.4209296087156
 10
-110.6431071706922
 20
20.33837788431549
 10
-110.7936754332391
 20
20.24305236677168
 10
-110.9363830336921
 20
20.13634340091556
 10
-111.0618242892628
 20
20.01729512467546
 10
-111.1730892413402
 20
19.88903581392355
 10
-111.2731071726922
 20
19.75182615831556
 10
-111.3556588970922
 20
19.60627443371549
 10
-111.4186588972922
 20
19.45203305391538
 10
-111.468624414692
 20
19.29127443271562
 10
-111.4968657940921
 20
19.12617098391553
 10
-111.5055554492921
 20
18.95237787991556
 10
-111.4946933802921
 20
18.77858477591547
 10
-111.4642795870921
 20
18.6113089133155
 10
-111.409969242092
 20
18.45055029211556
 10
-111.3404520004922
 20
18.29413649851551
 10
-111.251383034692
 20
18.14641236011545
 10
-111.1449347584921
 20
18.0052054631156
 10
-111.0222368270681
 20
17.87399166959551
 10
-110.8860377783599
 20
17.75285787610761
 10
-110.7386933778921
 20
17.64241235851551
 10
-110.577934756692
 20
17.54465373751566
 10
-110.4023081354448
 20
17.4597558062116
 10
-110.2216588934922
 20
17.38606753011561
 10
-110.030486479092
 20
17.32958477131558
 10
-109.8306244094921
 20
17.28613649531559
 10
-109.6220726846921
 20
17.26006752971557
 10
-109.4113485460922
 20
17.25137787451558
 10
-107.2921774603395
 20
17.2513778745157
 10
-107.452721324392
 20
17.31444867825058
 10
-107.6362854681944
 20
17.40506895177333
 10
-107.8047518743646
 20
17.50959864470491
 10
-107.9675847691253
 20
17.62521688313035
 10
-108.1114971374954
 20
17.75500647967021
 10
-108.2389330309797
 20
17.89436016289875
 10
-108.3526383857231
 20
18.04484840761131
 10
-108.4046096171718
 20
18.12903304971564
 10
-109.4330726840921
 20
18.12903304971559
 10
-109.5651815120976
 20
18.13659304973964
 10
-109.6959347538922
 20
18.15692684290758
 10
-109.824107168092
 20
18.18986063611555
 10
-109.939245099492
 20
18.23548132591566
 10
-110.0441900653425
 20
18.29196408471557
 10
-110.1423397208265
 20
18.35956960217157
 10
-110.2325209624921
 20
18.43751580931552
 10
-110.304210617892
 20
18.52223994751557
 10
-108.5766893036333
 20
18.52223994751563
 10
-108.5872737709063
 20
18.55487538827395
 10
-108.6233855788707
 20
18.74024933582507
 10
-108.6354292316524
 20
18.9305390497758
 10
-108.6234075592231
 20
19.12529014313082
 10
-108.5871018375478
 20
19.31165951439732
 10
-108.5705031348728
 20
19.36079167431558
 10
-110.3411416524922
 20
19.36079167431558
 10
-110.2716244108921
 20
19.45637788151549
 10
-110.1890726864922
 20
19.53892960591559
 10
-110.0939817896386
 20
19.60879443372352
 10
-109.9913830306922
 20
19.66710202011563
 10
-109.8726910303154
 20
19.71107167542754
 10
-109.7502450988921
 20
19.74313650311558
 10
-109.6133830294922
 20
19.76268822731555
 10
-109.4700037186921
 20
19.7692054687156
 97
        0
 92
        7
 72
     0
 73
     1
 93
       72
 10
-106.6516530890554
 20
19.75460684797963
 10
-106.5287900541826
 20
19.77268133079565
 10
-106.4047278468922
 20
19.7778951239157
 10
-105.1360381876921
 20
19.77789512391575
 10
-105.9832795696922
 20
18.96323994891583
 10
-104.217107150292
 20
17.24486063311582
 10
-102.8984519736922
 20
17.24486063311582
 10
-104.6124864618921
 20
18.98713650071579
 10
-102.9310381806922
 20
20.62079167831587
 10
-106.3699692260921
 20
20.6207916783157
 10
-106.5779561233042
 20
20.61001650586775
 10
-106.7846743308571
 20
20.58455581613163
 10
-106.9891071590922
 20
20.5447571953157
 10
-107.1824519872922
 20
20.48827443651567
 10
-107.3692795740923
 20
20.41658478111566
 10
-107.5404397125667
 20
20.33055719463567
 10
-107.7060037130922
 20
20.23410202191564
 10
-107.8580726790921
 20
20.12548133191569
 10
-107.9937703346953
 20
20.00617236601966
 10
-108.1187623350921
 20
19.87565374491561
 10
-108.2273830250923
 20
19.73661926171559
 10
-108.3186244046921
 20
19.58889512331575
 10
-108.3903140600922
 20
19.43465374351564
 10
-108.4446244050922
 20
19.27389512231565
 10
-108.4772106120921
 20
19.10661925971561
 10
-108.4880726810921
 20
18.93065374191553
 10
-108.4772106120921
 20
18.75903305171567
 10
-108.4446244050921
 20
18.5917571891157
 10
-108.392486473892
 20
18.43099856791571
 10
-108.3229692322921
 20
18.27675718811565
 10
-108.2311282664833
 20
18.12799029109175
 10
-108.1257488178729
 20
17.98852132513161
 10
-108.0077433002568
 20
17.85947994541175
 10
-107.8754519894921
 20
17.74017097951571
 10
-107.7233308855609
 20
17.6321585653796
 10
-107.5647968160921
 20
17.53379166851562
 10
-107.393176125892
 20
17.44906753031569
 10
-107.210693366692
 20
17.37737787491568
 10
-107.0164621936617
 20
17.32332821957169
 10
-106.8196588826921
 20
17.27961925391565
 10
-106.6111071578921
 20
17.25355028831569
 10
-106.4003830192921
 20
17.24486063311571
 10
-104.4973485304921
 20
17.24486063311582
 10
-105.3836933608921
 20
18.11817098071577
 10
-106.4003830192921
 20
18.11817098071571
 10
-106.4670500539866
 20
18.12191827365501
 10
-106.5679977784449
 20
18.13190063593168
 10
-106.6881322615849
 20
18.15336408427572
 10
-106.8052514343704
 20
18.18768822231561
 10
-106.9067466071064
 20
18.2286164983077
 10
-106.9628817796986
 20
18.25677098115574
 10
-107.0165664695241
 20
18.2893571881558
 10
-107.1491271596002
 20
18.38867994709164
 10
-107.2227285391441
 20
18.45871856800369
 10
-107.2777948841465
 20
18.52658477511556
 10
-107.3265004015426
 20
18.59914339603563
 10
-107.3658645395986
 20
18.67630753421162
 10
-107.3952877121057
 20
18.75772960343562
 10
-107.4159864707922
 20
18.84488684509171
 10
-107.4235030225402
 20
18.93421650054756
 10
-107.4221474363289
 20
18.99652132833165
 10
-107.4161428845857
 20
19.05865236301156
 10
-107.4039860569609
 20
19.1218261563157
 10
-107.3857725396617
 20
19.18352270823567
 10
-107.3421244015923
 20
19.28223719130756
 10
-107.3005965393913
 20
19.3501033984196
 10
-107.2375183322946
 20
19.42813650211565
 10
-107.1081163919298
 20
19.55465923916932
 10
-107.0488485385921
 20
19.5947171922997
 10
-106.9725533659361
 20
19.63903443381963
 10
-106.8885330898074
 20
19.68117926153968
 10
-106.7719961239202
 20
19.72401926167572
 97
        0
 92
        7
 72
     0
 73
     1
 93
       57
 10
-102.0936161090681
 20
19.73253512377192
 10
-101.9621416258921
 20
19.77250753769192
 10
-101.8274519702922
 20
19.79961926191595
 10
-101.6840726594922
 20
19.80830891711588
 10
-100.4436243796922
 20
19.80830891711594
 10
-100.4436243796922
 20
20.63382616111596
 10
-101.6775554180922
 20
20.63382616111585
 10
-101.8882795566921
 20
20.62513650591586
 10
-102.0946588676921
 20
20.59689512651585
 10
-102.2923485234921
 20
20.55561926431591
 10
-102.4813485240921
 20
20.50130891931587
 10
-102.6660036970921
 20
20.42961926391587
 10
-102.8324105941724
 20
20.34698064296379
 10
-102.9912314222626
 20
20.25052547024376
 10
-103.1413104572217
 20
20.14103581472381
 10
-103.2758697679936
 20
20.02181374537986
 10
-103.3959347338922
 20
19.89303305531581
 10
-103.5002105962921
 20
19.75399857211584
 10
-103.5849347344922
 20
19.60844684751578
 10
-103.6566243898922
 20
19.45420546771572
 10
-103.7065899072921
 20
19.2934468465159
 10
-103.7391761142921
 20
19.12617098391592
 10
-103.750038183292
 20
18.95237787991584
 10
-103.7391761142921
 20
18.77858477591582
 10
-103.7065899072921
 20
18.61130891331584
 10
-103.6544519760922
 20
18.45055029211573
 10
-103.582762320692
 20
18.29413649851585
 10
-103.495865768692
 20
18.14641236011584
 10
-103.3870191476569
 20
18.00685649760385
 10
-103.2671627334833
 20
17.87651166960387
 10
-103.1307351468433
 20
17.75520408301185
 10
-102.9831761118921
 20
17.64458477231579
 10
-102.8224174906921
 20
17.54682615131577
 10
-102.6486243866921
 20
17.46210201311584
 10
-102.463969213692
 20
17.38823994391595
 10
-102.2727967992921
 20
17.33175718511586
 10
-102.072934729692
 20
17.28830890911592
 10
-101.8665554186921
 20
17.26441235731579
 10
-101.653658866292
 20
17.25572270211586
 10
-100.4436243796921
 20
17.25572270211592
 10
-100.4436243796921
 20
18.11382615311589
 10
-101.6775554180922
 20
18.11382615311584
 10
-101.8112023150681
 20
18.12416684280379
 10
-101.943458867212
 20
18.14615167045991
 10
-102.0640712813881
 20
18.18047580849986
 10
-102.180078178308
 20
18.22844270520391
 10
-102.2897416269321
 20
18.28935718815592
 10
-102.3868050755161
 20
18.35696270561181
 10
-102.4742230068281
 20
18.43673374034785
 10
-102.5486933518921
 20
18.52223994751586
 10
-100.4436243796921
 20
18.52223994751591
 10
-100.4436243796921
 20
19.34992960531593
 10
-102.5856243864922
 20
19.34992960531582
 10
-102.5161071448922
 20
19.44768822631585
 10
-102.4292105928922
 20
19.53675719211577
 10
-102.3280630063641
 20
19.61305236477187
 10
-102.2206588680922
 20
19.68013650291584
 97
        0
 92
        7
 72
     0
 73
     1
 93
        6
 10
-100.2133485168921
 20
20.62079167831598
 10
-100.2133485168921
 20
17.25137787451592
 10
-97.97576230289202
 20
17.25137787451604
 10
-97.97576230289212
 20
18.11817098071606
 10
-99.19014161709208
 20
18.11817098071606
 10
-99.1901416170922
 20
20.62079167831598
 97
        0
 92
        7
 72
     0
 73
     1
 93
        8
 10
-98.95769334049226
 20
20.62079167831598
 10
-98.95769334049226
 20
19.79527443431596
 10
-97.72376230209216
 20
19.79527443431607
 10
-97.72376230209204
 20
17.24486063311605
 10
-96.69838298849208
 20
17.24486063311605
 10
-96.69838298849221
 20
19.79527443431601
 10
-95.45576229489222
 20
19.79527443431607
 10
-95.45576229489222
 20
20.6207916783161
 97
        0
 75
     0
 76
     1
 47
0.0142553043587597
 98
        5
 10
-109.0704568280169
 20
20.17834200872653
 10
-106.8029596146743
 20
20.03578902372084
 10
-102.3107478824728
 20
20.09281019626866
 10
-99.58689879864119
 20
20.3351504209611
 10
-98.17506081641443
 20
20.23536328854772
450
        0
451
        0
460
0.0
461
0.0
452
        0
462
0.0
453
        0
470

  0
LWPOLYLINE
  5
2279
330
2213
100
AcDbEntity
  8
LW 3520-32-00
 62
     1
100
AcDbPolyline
 90
        8
 70
     1
 43
0.0
 10
-96.69838298849221
 20
19.79527443431601
 10
-96.69838298849208
 20
17.24486063311605
 10
-97.72376230209204
 20
17.24486063311605
 10
-97.72376230209216
 20
19.79527443431607
 10
-98.95769334049226
 20
19.79527443431596
 10
-98.95769334049226
 20
20.62079167831598
 10
-95.45576229489222
 20
20.6207916783161
 10
-95.45576229489222
 20
19.79527443431607
  0
LWPOLYLINE
  5
227A
330
2213
100
AcDbEntity
  8
LW 3520-32-00
 62
     1
100
AcDbPolyline
 90
       73
 70
     1
 43
0.0
 10
-106.4003830192921
 20
18.11817098071571
 10
-105.3836933608921
 20
18.11817098071577
 10
-104.4973485304921
 20
17.24486063311582
 10
-106.4003830192921
 20
17.24486063311565
 10
-106.6111071578921
 20
17.25355028831569
 10
-106.8196588826921
 20
17.27961925391571
 10
-107.0164621936617
 20
17.32332821957169
 10
-107.210693366692
 20
17.37737787491568
 10
-107.393176125892
 20
17.44906753031569
 10
-107.5647968160921
 20
17.53379166851567
 10
-107.7233308855608
 20
17.63215856537971
 10
-107.8754519894921
 20
17.74017097951571
 10
-108.0077433002569
 20
17.85947994541163
 10
-108.1257488178729
 20
17.98852132513161
 10
-108.2311282664833
 20
18.12799029109169
 10
-108.3229692322921
 20
18.27675718811565
 10
-108.392486473892
 20
18.43099856791571
 10
-108.4446244050921
 20
18.5917571891157
 10
-108.4772106120921
 20
18.75903305171567
 10
-108.4880726810921
 20
18.93065374191565
 10
-108.4772106120921
 20
19.10661925971561
 10
-108.4446244050922
 20
19.27389512231565
 10
-108.3903140600921
 20
19.43465374351564
 10
-108.3186244046921
 20
19.58889512331569
 10
-108.2273830250922
 20
19.73661926171564
 10
-108.1187623350921
 20
19.87565374491561
 10
-107.9937703346953
 20
20.00617236601971
 10
-107.8580726790923
 20
20.12548133191564
 10
-107.7060037130922
 20
20.23410202191564
 10
-107.5404397125666
 20
20.33055719463562
 10
-107.3692795740923
 20
20.4165847811156
 10
-107.1824519872922
 20
20.48827443651567
 10
-106.9891071590922
 20
20.54475719531575
 10
-106.784674330857
 20
20.58455581613168
 10
-106.5779561233042
 20
20.61001650586775
 10
-106.3699692260922
 20
20.6207916783157
 10
-102.9310381806922
 20
20.62079167831587
 10
-104.6124864618921
 20
18.98713650071579
 10
-102.8984519736922
 20
17.24486063311582
 10
-104.217107150292
 20
17.24486063311582
 10
-105.9832795696922
 20
18.96323994891583
 10
-105.1360381876921
 20
19.77789512391575
 10
-106.4047278468922
 20
19.7778951239157
 10
-106.5287900541826
 20
19.77268133079565
 10
-106.6516530890554
 20
19.75460684797963
 10
-106.7719961239202
 20
19.72401926167572
 10
-106.8885330898074
 20
19.68117926153962
 10
-106.9725533659362
 20
19.63903443381969
 10
-107.0488485385922
 20
19.5947171922997
 10
-107.0890903318234
 20
19.56751857152369
 10
-107.1266035733217
 20
19.5365833990117
 10
-107.2375183322946
 20
19.42813650211565
 10
-107.3005965393913
 20
19.3501033984196
 10
-107.3421244015921
 20
19.28223719130767
 10
-107.3857725396617
 20
19.18352270823567
 10
-107.4039860569609
 20
19.1218261563157
 10
-107.4161428845857
 20
19.05865236301167
 10
-107.4221474363289
 20
18.99652132833171
 10
-107.4235030225401
 20
18.93421650054768
 10
-107.4159864707922
 20
18.84488684509171
 10
-107.3952877121056
 20
18.75772960343567
 10
-107.3658645395985
 20
18.67630753421167
 10
-107.3265004015426
 20
18.59914339603563
 10
-107.2777948841466
 20
18.52658477511568
 10
-107.2227285391441
 20
18.45871856800369
 10
-107.1491271596002
 20
18.38867994709164
 10
-107.016566469524
 20
18.28935718815575
 10
-106.9628817796985
 20
18.25677098115568
 10
-106.9067466071064
 20
18.2286164983077
 10
-106.8052514343704
 20
18.18768822231561
 10
-106.6881322615849
 20
18.15336408427572
 10
-106.5679977784449
 20
18.13190063593168
 10
-106.4670500539865
 20
18.12191827365507
  0
LWPOLYLINE
  5
227B
330
2213
100
AcDbEntity
  8
LW 3520-32-00
 62
     1
100
AcDbPolyline
 90
       76
 70
     1
 43
0.0
 10
-107.6105462693583
 20
20.45992168628663
 10
-107.7859332227231
 20
20.35774380446492
 10
-107.9496020188051
 20
20.24083752154928
 10
-108.0956219252665
 20
20.11245295983588
 10
-108.2301000004793
 20
19.97202882957333
 10
-108.3482581247104
 20
19.82078643055746
 10
-108.3801169540833
 20
19.76920546871565
 10
-109.4700037186921
 20
19.76920546871565
 10
-109.6133830294922
 20
19.76268822731555
 10
-109.7502450988922
 20
19.74313650311558
 10
-109.8726910303154
 20
19.71107167542754
 10
-109.9913830306922
 20
19.66710202011563
 10
-110.0939817896385
 20
19.60879443372357
 10
-110.1890726864922
 20
19.53892960591554
 10
-110.2716244108923
 20
19.45637788151555
 10
-110.3411416524922
 20
19.36079167431558
 10
-108.5705031348728
 20
19.36079167431558
 10
-108.5871018375478
 20
19.31165951439732
 10
-108.6234075592232
 20
19.12529014313071
 10
-108.6354292316524
 20
18.9305390497758
 10
-108.6233855788707
 20
18.74024933582507
 10
-108.5872737709062
 20
18.55487538827401
 10
-108.5766893036333
 20
18.52223994751563
 10
-110.304210617892
 20
18.52223994751557
 10
-110.2325209624921
 20
18.43751580931552
 10
-110.1423397208265
 20
18.35956960217157
 10
-110.0441900653425
 20
18.29196408471557
 10
-109.939245099492
 20
18.23548132591566
 10
-109.824107168092
 20
18.18986063611561
 10
-109.6959347538922
 20
18.15692684290758
 10
-109.5651815120976
 20
18.13659304973964
 10
-109.4330726840921
 20
18.12903304971559
 10
-108.4046096171718
 20
18.12903304971564
 10
-108.3526383857231
 20
18.04484840761137
 10
-108.2389330309797
 20
17.89436016289875
 10
-108.1114971374954
 20
17.75500647967021
 10
-107.9675847691252
 20
17.62521688313046
 10
-107.8047518743646
 20
17.50959864470491
 10
-107.6362854681944
 20
17.40506895177333
 10
-107.452721324392
 20
17.31444867825058
 10
-107.2921774603395
 20
17.2513778745157
 10
-109.4113485460921
 20
17.25137787451552
 10
-109.6220726846921
 20
17.26006752971557
 10
-109.8306244094921
 20
17.28613649531559
 10
-110.0304864790921
 20
17.32958477131558
 10
-110.221658893492
 20
17.3860675301155
 10
-110.402308135445
 20
17.45975580621155
 10
-110.577934756692
 20
17.54465373751566
 10
-110.7386933778921
 20
17.64241235851551
 10
-110.8860377783597
 20
17.75285787610755
 10
-111.0222368270681
 20
17.87399166959551
 10
-111.1449347584921
 20
18.00520546311554
 10
-111.2513830346921
 20
18.1464123601155
 10
-111.340452000492
 20
18.29413649851557
 10
-111.409969242092
 20
18.45055029211556
 10
-111.4642795870921
 20
18.6113089133155
 10
-111.4946933802921
 20
18.77858477591559
 10
-111.5055554492921
 20
18.9523778799155
 10
-111.4968657940923
 20
19.12617098391547
 10
-111.4686244146921
 20
19.29127443271557
 10
-111.4186588972922
 20
19.4520330539155
 10
-111.3556588970922
 20
19.60627443371549
 10
-111.2731071726922
 20
19.75182615831556
 10
-111.1730892413401
 20
19.88903581392355
 10
-111.0618242892628
 20
20.01729512467552
 10
-110.9363830336922
 20
20.13634340091551
 10
-110.7936754332391
 20
20.24305236677157
 10
-110.6431071706921
 20
20.33837788431561
 10
-110.4758313080922
 20
20.42092960871554
 10
-110.2998657902922
 20
20.49044685031561
 10
-110.1152106172921
 20
20.54475719531553
 10
-109.9196933752922
 20
20.58603305751564
 10
-109.7176588918922
 20
20.6121020231156
 10
-109.5047623394922
 20
20.62079167831559
 10
-107.2476244012921
 20
20.62079167831575
 10
-107.4287933367579
 20
20.55127336586952
  0
LWPOLYLINE
  5
227C
330
2213
100
AcDbEntity
  8
LW 3520-32-00
 62
     1
100
AcDbPolyline
 90
        6
 70
     1
 43
0.0
 10
-97.97576230289202
 20
17.25137787451604
 10
-100.2133485168921
 20
17.25137787451592
 10
-100.2133485168921
 20
20.62079167831598
 10
-99.1901416170922
 20
20.62079167831598
 10
-99.19014161709208
 20
18.11817098071606
 10
-97.97576230289212
 20
18.11817098071606
  0
LWPOLYLINE
  5
227D
330
2213
100
AcDbEntity
  8
LW 3520-32-00
 62
     1
100
AcDbPolyline
 90
       57
 70
     1
 43
0.0
 10
-103.2671627334833
 20
17.87651166960387
 10
-103.3870191476569
 20
18.00685649760379
 10
-103.4958657686921
 20
18.14641236011579
 10
-103.582762320692
 20
18.29413649851585
 10
-103.6544519760922
 20
18.45055029211573
 10
-103.7065899072921
 20
18.61130891331584
 10
-103.7391761142921
 20
18.77858477591582
 10
-103.750038183292
 20
18.95237787991584
 10
-103.7391761142921
 20
19.12617098391587
 10
-103.7065899072921
 20
19.29344684651579
 10
-103.6566243898922
 20
19.45420546771572
 10
-103.5849347344922
 20
19.60844684751583
 10
-103.5002105962923
 20
19.75399857211573
 10
-103.3959347338922
 20
19.89303305531587
 10
-103.2758697679938
 20
20.0218137453798
 10
-103.1413104572217
 20
20.14103581472381
 10
-102.9912314222625
 20
20.25052547024381
 10
-102.832410594172
 20
20.3469806429639
 10
-102.6660036970921
 20
20.42961926391587
 10
-102.4813485240922
 20
20.50130891931582
 10
-102.2923485234921
 20
20.55561926431591
 10
-102.0946588676921
 20
20.59689512651585
 10
-101.8882795566921
 20
20.62513650591586
 10
-101.6775554180922
 20
20.63382616111585
 10
-100.4436243796922
 20
20.63382616111596
 10
-100.4436243796922
 20
19.80830891711594
 10
-101.6840726594921
 20
19.80830891711588
 10
-101.8274519702921
 20
19.79961926191589
 10
-101.9621416258921
 20
19.77250753769192
 10
-102.0936161090682
 20
19.73253512377187
 10
-102.2206588680922
 20
19.68013650291584
 10
-102.3280630063641
 20
19.61305236477187
 10
-102.4292105928922
 20
19.53675719211588
 10
-102.5161071448922
 20
19.44768822631585
 10
-102.5856243864922
 20
19.34992960531582
 10
-100.4436243796921
 20
19.34992960531593
 10
-100.4436243796921
 20
18.52223994751591
 10
-102.5486933518921
 20
18.52223994751586
 10
-102.4742230068281
 20
18.43673374034785
 10
-102.3868050755161
 20
18.35696270561181
 10
-102.2897416269321
 20
18.28935718815592
 10
-102.180078178308
 20
18.22844270520391
 10
-102.0640712813881
 20
18.18047580849986
 10
-101.943458867212
 20
18.14615167045991
 10
-101.8112023150681
 20
18.12416684280379
 10
-101.6775554180922
 20
18.11382615311584
 10
-100.4436243796921
 20
18.11382615311589
 10
-100.4436243796921
 20
17.25572270211592
 10
-101.653658866292
 20
17.25572270211586
 10
-101.8665554186921
 20
17.26441235731579
 10
-102.072934729692
 20
17.28830890911587
 10
-102.2727967992921
 20
17.33175718511586
 10
-102.463969213692
 20
17.38823994391595
 10
-102.6486243866921
 20
17.46210201311584
 10
-102.8224174906921
 20
17.54682615131588
 10
-102.9831761118921
 20
17.64458477231579
 10
-103.1307351468433
 20
17.75520408301185
  0
ENDBLK
  5
2215
330
2213
100
AcDbEntity
  8
0
100
AcDbBlockEnd
  0
ENDSEC
  0
SECTION
  2
ENTITIES
  0
INSERT
  5
207D
330
23
100
AcDbEntity
  8
0
100
AcDbBlockReference
  2
LW 3520-32-00_a
 10
270.1401696236951
 20
335.1866254961618
 30
0.0
  0
INSERT
  5
21A6
330
23
100
AcDbEntity
  8
0
100
AcDbBlockReference
  2
LW 3520-32-00_b
 10
270.1401696238897
 20
465.3278722640312
 30
0.0
  0
INSERT
  5
2212
330
23
100
AcDbEntity
  8
0
100
AcDbBlockReference
  2
LW 3520-32-00_c
 10
515.667533200067
 20
465.3278722639973
 30
0.0
  0
INSERT
  5
227E
330
23
100
AcDbEntity
  8
0
100
AcDbBlockReference
  2
LW 3520-32-00_d
 10
24.6128060477098
 20
465.3278722639973
 30
0.0
  0
ENDSEC
  0
SECTION
  2
OBJECTS
  0
DICTIONARY
  5
C
330
0
100
AcDbDictionary
281
     1
  3
ACAD_COLOR
350
1C
  3
ACAD_GROUP
350
D
  3
ACAD_LAYOUT
350
1A
  3
ACAD_MATERIAL
350
1B
  3
ACAD_MLINESTYLE
350
17
  3
ACAD_PLOTSETTINGS
350
19
  3
ACAD_PLOTSTYLENAME
350
E
  3
ACAD_TABLESTYLE
350
1D
  3
AcDbVariableDictionary
350
61C
  0
DICTIONARY
  5
9C6
330
2
100
AcDbDictionary
280
     1
281
     1
  3
ACAD_LAYERFILTERS
360
1DEB
  3
ACLYDICTIONARY
360
1DEA
  0
DICTIONARY
  5
9A6
330
23
100
AcDbDictionary
280
     1
281
     1
  3
ACAD_SORTENTS
360
9A7
  0
DICTIONARY
  5
627
330
626
100
AcDbDictionary
280
     1
281
     1
  3
ACAD_SORTENTS
360
628
  0
DICTIONARY
  5
1C
102
{ACAD_REACTORS
330
C
102
}
330
C
100
AcDbDictionary
281
     1
  0
DICTIONARY
  5
D
102
{ACAD_REACTORS
330
C
102
}
330
C
100
AcDbDictionary
281
     1
  0
DICTIONARY
  5
1A
102
{ACAD_REACTORS
330
C
102
}
330
C
100
AcDbDictionary
281
     1
  3
Layout1
350
22
  3
Layout2
350
2A
  3
Model
350
26
  0
DICTIONARY
  5
1B
102
{ACAD_REACTORS
330
C
102
}
330
C
100
AcDbDictionary
281
     1
  0
DICTIONARY
  5
17
102
{ACAD_REACTORS
330
C
102
}
330
C
100
AcDbDictionary
281
     1
  3
Standard
350
18
  0
DICTIONARY
  5
19
102
{ACAD_REACTORS
330
C
102
}
330
C
100
AcDbDictionary
281
     1
  0
ACDBDICTIONARYWDFLT
  5
E
102
{ACAD_REACTORS
330
C
102
}
330
C
100
AcDbDictionary
281
     1
  3
Normal
350
F
100
AcDbDictionaryWithDefault
340
F
  0
DICTIONARY
  5
1D
102
{ACAD_REACTORS
330
C
102
}
330
C
100
AcDbDictionary
281
     1
  3
Standard
350
1E
  0
DICTIONARY
  5
61C
102
{ACAD_REACTORS
330
C
102
}
330
C
100
AcDbDictionary
281
     1
  3
CTABLESTYLE
350
61D
  0
DICTIONARY
  5
1DEB
102
{ACAD_REACTORS
330
9C6
102
}
330
9C6
100
AcDbDictionary
281
     1
  0
DICTIONARY
  5
1DEA
102
{ACAD_REACTORS
330
9C6
102
}
330
9C6
100
AcDbDictionary
281
     1
1001
ACAD
1000
<All
  0
SORTENTSTABLE
  5
9A7
102
{ACAD_REACTORS
330
9A6
102
}
330
9A6
100
AcDbSortentsTable
330
23
  0
SORTENTSTABLE
  5
628
102
{ACAD_REACTORS
330
627
102
}
330
627
100
AcDbSortentsTable
330
626
  0
LAYOUT
  5
22
102
{ACAD_REACTORS
330
1A
102
}
330
1A
100
AcDbPlotSettings
  1

  2

  4

  6

 40
0.0
 41
0.0
 42
0.0
 43
0.0
 44
0.0
 45
0.0
 46
0.0
 47
0.0
 48
0.0
 49
0.0
140
0.0
141
0.0
142
1.0
143
1.0
 70
   688
 72
     0
 73
     0
 74
     5
  7

 75
    16
147
1.0
 76
     0
 77
     2
 78
   300
148
0.0
149
0.0
100
AcDbLayout
  1
Layout1
 70
     1
 71
     1
 10
0.0
 20
0.0
 11
840.0
 21
594.0
 12
0.0
 22
0.0
 32
0.0
 14
0.0
 24
0.0
 34
0.0
 15
840.0
 25
594.0
 35
0.0
146
0.0
 13
0.0
 23
0.0
 33
0.0
 16
1.0
 26
0.0
 36
0.0
 17
0.0
 27
1.0
 37
0.0
 76
     0
330
1F
  0
LAYOUT
  5
2A
102
{ACAD_REACTORS
330
1A
102
}
330
1A
100
AcDbPlotSettings
  1

  2

  4

  6

 40
0.0
 41
0.0
 42
0.0
 43
0.0
 44
0.0
 45
0.0
 46
0.0
 47
0.0
 48
0.0
 49
0.0
140
0.0
141
0.0
142
1.0
143
1.0
 70
   688
 72
     0
 73
     0
 74
     5
  7

 75
    16
147
1.0
 76
     0
 77
     2
 78
   300
148
0.0
149
0.0
100
AcDbLayout
  1
Layout2
 70
     1
 71
     2
 10
0.0
 20
0.0
 11
12.0
 21
9.0
 12
0.0
 22
0.0
 32
0.0
 14
0.0
 24
0.0
 34
0.0
 15
0.0
 25
0.0
 35
0.0
146
0.0
 13
0.0
 23
0.0
 33
0.0
 16
1.0
 26
0.0
 36
0.0
 17
0.0
 27
1.0
 37
0.0
 76
     0
330
27
  0
LAYOUT
  5
26
102
{ACAD_REACTORS
330
1A
102
}
330
1A
100
AcDbPlotSettings
  1

  2

  4

  6

 40
0.0
 41
0.0
 42
0.0
 43
0.0
 44
0.0
 45
0.0
 46
0.0
 47
0.0
 48
0.0
 49
0.0
140
0.0
141
0.0
142
1.0
143
1.0
 70
  1712
 72
     0
 73
     0
 74
     0
  7

 75
     0
147
1.0
 76
     0
 77
     2
 78
   300
148
0.0
149
0.0
100
AcDbLayout
  1
Model
 70
     1
 71
     0
 10
0.0
 20
0.0
 11
12.0
 21
9.0
 12
0.0
 22
0.0
 32
0.0
 14
0.0
 24
0.0
 34
0.0
 15
0.0
 25
0.0
 35
0.0
146
0.0
 13
0.0
 23
0.0
 33
0.0
 16
1.0
 26
0.0
 36
0.0
 17
0.0
 27
1.0
 37
0.0
 76
     0
330
23
  0
MLINESTYLE
  5
18
102
{ACAD_REACTORS
330
17
102
}
330
17
100
AcDbMlineStyle
  2
STANDARD
 70
     0
  3

 62
   256
 51
90.0
 52
90.0
 71
     2
 49
0.5
 62
   256
  6
BYLAYER
 49
-0.5
 62
   256
  6
BYLAYER
  0
ACDBPLACEHOLDER
  5
F
102
{ACAD_REACTORS
330
E
102
}
330
E
  0
TABLESTYLE
  5
1E
102
{ACAD_REACTORS
330
1D
102
}
330
1D
100
AcDbTableStyle
  3
Standard
 70
     0
 71
     0
 40
0.06
 41
0.06
280
     0
281
     0
  7
Standard
140
0.18
170
     2
 62
     0
 63
     7
283
     0
274
    -2
284
     1
 64
     0
275
    -2
285
     1
 65
     0
276
    -2
286
     1
 66
     0
277
    -2
287
     1
 67
     0
278
    -2
288
     1
 68
     0
279
    -2
289
     1
 69
     0
  7
Standard
140
0.25
170
     5
 62
     0
 63
     7
283
     0
274
    -2
284
     1
 64
     0
275
    -2
285
     1
 65
     0
276
    -2
286
     1
 66
     0
277
    -2
287
     1
 67
     0
278
    -2
288
     1
 68
     0
279
    -2
289
     1
 69
     0
  7
Standard
140
0.18
170
     5
 62
     0
 63
     7
283
     0
274
    -2
284
     1
 64
     0
275
    -2
285
     1
 65
     0
276
    -2
286
     1
 66
     0
277
    -2
287
     1
 67
     0
278
    -2
288
     1
 68
     0
279
    -2
289
     1
 69
     0
  0
DICTIONARYVAR
  5
61D
102
{ACAD_REACTORS
330
61C
102
}
330
61C
100
DictionaryVariables
280
     0
  1
STANDARD
  0
ENDSEC
  0
EOF
