  0
SECTION
  2
HEADER
  9
$ACADVER
  1
AC1018
  9
$ACADMAINTVER
 70
    76
  9
$DWGCODEPAGE
  3
ANSI_1252
  9
$AUTHOR
  1
Grandl
  9
$CUSTOMPROPERTYTAG
  1
Manager
  9
$CUSTOMPROPERTY
  1

  9
$CUSTOMPROPERTYTAG
  1
Firma
  9
$CUSTOMPROPERTY
  1

  9
$CUSTOMPROPERTYTAG
  1
Kategorie
  9
$CUSTOMPROPERTY
  1

  9
$CUSTOMPROPERTYTAG
  1
Bauteilnummer
  9
$CUSTOMPROPERTY
  1
3500-19-01
  9
$CUSTOMPROPERTYTAG
  1
Bezeichnung
  9
$CUSTOMPROPERTY
  1

  9
$CUSTOMPROPERTYTAG
  1
Projekt
  9
$CUSTOMPROPERTY
  1

  9
$CUSTOMPROPERTYTAG
  1
Konstrukteur
  9
$CUSTOMPROPERTY
  1
Grandl
  9
$CUSTOMPROPERTYTAG
  1
Ingenieur
  9
$CUSTOMPROPERTY
  1

  9
$CUSTOMPROPERTYTAG
  1
Bevollmächtigter
  9
$CUSTOMPROPERTY
  1

  9
$CUSTOMPROPERTYTAG
  1
Kostenstelle
  9
$CUSTOMPROPERTY
  1

  9
$CUSTOMPROPERTYTAG
  1
Händler
  9
$CUSTOMPROPERTY
  1

  9
$CUSTOMPROPERTYTAG
  1
Benutzerstatus
  9
$CUSTOMPROPERTY
  1

  9
$CUSTOMPROPERTYTAG
  1
Konstruktionsstatus
  9
$CUSTOMPROPERTY
  1
InBearbeitung
  9
$CUSTOMPROPERTYTAG
  1
Überprüft von
  9
$CUSTOMPROPERTY
  1

  9
$CUSTOMPROPERTYTAG
  1
Konstruktion genehmigt von
  9
$CUSTOMPROPERTY
  1

  9
$CUSTOMPROPERTYTAG
  1
Fertigung genehmigt von
  9
$CUSTOMPROPERTY
  1

  9
$INSBASE
 10
0.0
 20
0.0
 30
0.0
  9
$EXTMIN
 10
-162.7535614092827
 20
134.9540042318398
 30
0.0
  9
$EXTMAX
 10
703.0339006570596
 20
510.0253038409424
 30
0.0
  9
$LIMMIN
 10
0.0
 20
0.0
  9
$LIMMAX
 10
840.0
 20
594.0
  9
$ORTHOMODE
 70
     1
  9
$REGENMODE
 70
     1
  9
$FILLMODE
 70
     1
  9
$QTEXTMODE
 70
     0
  9
$MIRRTEXT
 70
     0
  9
$LTSCALE
 40
2.0
  9
$ATTMODE
 70
     1
  9
$TEXTSIZE
 40
0.2
  9
$TRACEWID
 40
0.05
  9
$TEXTSTYLE
  7
Standard
  9
$CLAYER
  8
0
  9
$CELTYPE
  6
ByLayer
  9
$CECOLOR
 62
   256
  9
$CELTSCALE
 40
1.0
  9
$DISPSILH
 70
     0
  9
$DIMSCALE
 40
1.0
  9
$DIMASZ
 40
1.799999999999999
  9
$DIMEXO
 40
0.0625
  9
$DIMDLI
 40
0.38
  9
$DIMRND
 40
0.0
  9
$DIMDLE
 40
0.0
  9
$DIMEXE
 40
0.18
  9
$DIMTP
 40
0.0
  9
$DIMTM
 40
0.0
  9
$DIMTXT
 40
0.3000000119209289
  9
$DIMCEN
 40
0.09
  9
$DIMTSZ
 40
0.0
  9
$DIMTOL
 70
     0
  9
$DIMLIM
 70
     0
  9
$DIMTIH
 70
     1
  9
$DIMTOH
 70
     1
  9
$DIMSE1
 70
     0
  9
$DIMSE2
 70
     0
  9
$DIMTAD
 70
     0
  9
$DIMZIN
 70
     0
  9
$DIMBLK
  1

  9
$DIMASO
 70
     1
  9
$DIMSHO
 70
     1
  9
$DIMPOST
  1

  9
$DIMAPOST
  1

  9
$DIMALT
 70
     0
  9
$DIMALTD
 70
     2
  9
$DIMALTF
 40
25.4
  9
$DIMLFAC
 40
1.0
  9
$DIMTOFL
 70
     0
  9
$DIMTVP
 40
0.0
  9
$DIMTIX
 70
     0
  9
$DIMSOXD
 70
     0
  9
$DIMSAH
 70
     0
  9
$DIMBLK1
  1

  9
$DIMBLK2
  1

  9
$DIMSTYLE
  2
Standard
  9
$DIMCLRD
 70
     0
  9
$DIMCLRE
 70
     0
  9
$DIMCLRT
 70
     0
  9
$DIMTFAC
 40
1.0
  9
$DIMGAP
 40
0.09
  9
$DIMJUST
 70
     0
  9
$DIMSD1
 70
     0
  9
$DIMSD2
 70
     0
  9
$DIMTOLJ
 70
     1
  9
$DIMTZIN
 70
     0
  9
$DIMALTZ
 70
     0
  9
$DIMALTTZ
 70
     0
  9
$DIMUPT
 70
     0
  9
$DIMDEC
 70
     4
  9
$DIMTDEC
 70
     4
  9
$DIMALTU
 70
     2
  9
$DIMALTTD
 70
     2
  9
$DIMTXSTY
  7
Standard
  9
$DIMAUNIT
 70
     0
  9
$DIMADEC
 70
     0
  9
$DIMALTRND
 40
0.0
  9
$DIMAZIN
 70
     0
  9
$DIMDSEP
 70
    46
  9
$DIMATFIT
 70
     3
  9
$DIMFRAC
 70
     0
  9
$DIMLDRBLK
  1

  9
$DIMLUNIT
 70
     2
  9
$DIMLWD
 70
    -2
  9
$DIMLWE
 70
    -2
  9
$DIMTMOVE
 70
     0
  9
$LUNITS
 70
     2
  9
$LUPREC
 70
     4
  9
$SKETCHINC
 40
0.1
  9
$FILLETRAD
 40
2.0
  9
$AUNITS
 70
     0
  9
$AUPREC
 70
     0
  9
$MENU
  1
.
  9
$ELEVATION
 40
0.0
  9
$PELEVATION
 40
0.0
  9
$THICKNESS
 40
0.0
  9
$LIMCHECK
 70
     0
  9
$CHAMFERA
 40
0.0
  9
$CHAMFERB
 40
0.0
  9
$CHAMFERC
 40
0.0
  9
$CHAMFERD
 40
0.0
  9
$SKPOLY
 70
     0
  9
$TDCREATE
 40
2453706.351795776
  9
$TDUCREATE
 40
2453706.310129109
  9
$TDUPDATE
 40
2453710.472083484
  9
$TDUUPDATE
 40
2453710.430416817
  9
$TDINDWG
 40
0.2954131481
  9
$TDUSRTIMER
 40
0.2954131481
  9
$USRTIMER
 70
     1
  9
$ANGBASE
 50
0.0
  9
$ANGDIR
 70
     0
  9
$PDMODE
 70
     0
  9
$PDSIZE
 40
0.0
  9
$PLINEWID
 40
0.0
  9
$SPLFRAME
 70
     0
  9
$SPLINETYPE
 70
     6
  9
$SPLINESEGS
 70
     8
  9
$HANDSEED
  5
3A10
  9
$SURFTAB1
 70
     6
  9
$SURFTAB2
 70
     6
  9
$SURFTYPE
 70
     6
  9
$SURFU
 70
     6
  9
$SURFV
 70
     6
  9
$UCSBASE
  2

  9
$UCSNAME
  2

  9
$UCSORG
 10
0.0
 20
0.0
 30
0.0
  9
$UCSXDIR
 10
1.0
 20
0.0
 30
0.0
  9
$UCSYDIR
 10
0.0
 20
1.0
 30
0.0
  9
$UCSORTHOREF
  2

  9
$UCSORTHOVIEW
 70
     0
  9
$UCSORGTOP
 10
0.0
 20
0.0
 30
0.0
  9
$UCSORGBOTTOM
 10
0.0
 20
0.0
 30
0.0
  9
$UCSORGLEFT
 10
0.0
 20
0.0
 30
0.0
  9
$UCSORGRIGHT
 10
0.0
 20
0.0
 30
0.0
  9
$UCSORGFRONT
 10
0.0
 20
0.0
 30
0.0
  9
$UCSORGBACK
 10
0.0
 20
0.0
 30
0.0
  9
$PUCSBASE
  2

  9
$PUCSNAME
  2

  9
$PUCSORG
 10
0.0
 20
0.0
 30
0.0
  9
$PUCSXDIR
 10
1.0
 20
0.0
 30
0.0
  9
$PUCSYDIR
 10
0.0
 20
1.0
 30
0.0
  9
$PUCSORTHOREF
  2

  9
$PUCSORTHOVIEW
 70
     0
  9
$PUCSORGTOP
 10
0.0
 20
0.0
 30
0.0
  9
$PUCSORGBOTTOM
 10
0.0
 20
0.0
 30
0.0
  9
$PUCSORGLEFT
 10
0.0
 20
0.0
 30
0.0
  9
$PUCSORGRIGHT
 10
0.0
 20
0.0
 30
0.0
  9
$PUCSORGFRONT
 10
0.0
 20
0.0
 30
0.0
  9
$PUCSORGBACK
 10
0.0
 20
0.0
 30
0.0
  9
$USERI1
 70
     0
  9
$USERI2
 70
     0
  9
$USERI3
 70
     0
  9
$USERI4
 70
     0
  9
$USERI5
 70
     0
  9
$USERR1
 40
0.0
  9
$USERR2
 40
0.0
  9
$USERR3
 40
0.0
  9
$USERR4
 40
0.0
  9
$USERR5
 40
0.0
  9
$WORLDVIEW
 70
     1
  9
$SHADEDGE
 70
     3
  9
$SHADEDIF
 70
    70
  9
$TILEMODE
 70
     1
  9
$MAXACTVP
 70
    64
  9
$PINSBASE
 10
0.0
 20
0.0
 30
0.0
  9
$PLIMCHECK
 70
     0
  9
$PEXTMIN
 10
0.0
 20
0.0
 30
0.0
  9
$PEXTMAX
 10
840.0
 20
594.0
 30
0.0
  9
$PLIMMIN
 10
0.0
 20
0.0
  9
$PLIMMAX
 10
840.0
 20
594.0
  9
$UNITMODE
 70
     0
  9
$VISRETAIN
 70
     1
  9
$PLINEGEN
 70
     0
  9
$PSLTSCALE
 70
     1
  9
$TREEDEPTH
 70
  3020
  9
$CMLSTYLE
  2
Standard
  9
$CMLJUST
 70
     0
  9
$CMLSCALE
 40
1.0
  9
$PROXYGRAPHICS
 70
     1
  9
$MEASUREMENT
 70
     1
  9
$CELWEIGHT
370
    -1
  9
$ENDCAPS
280
     0
  9
$JOINSTYLE
280
     0
  9
$LWDISPLAY
290
     0
  9
$INSUNITS
 70
     0
  9
$HYPERLINKBASE
  1

  9
$STYLESHEET
  1

  9
$XEDIT
290
     1
  9
$CEPSNTYPE
380
     0
  9
$PSTYLEMODE
290
     1
  9
$FINGERPRINTGUID
  2
{CD339A04-B85F-4A73-AC85-5D4F30B09856}
  9
$VERSIONGUID
  2
{3BAA1CD6-B595-4211-90BE-169BBC29F182}
  9
$EXTNAMES
290
     1
  9
$PSVPSCALE
 40
0.0
  9
$OLESTARTUP
290
     0
  9
$SORTENTS
280
   127
  9
$INDEXCTL
280
     0
  9
$HIDETEXT
280
     1
  9
$XCLIPFRAME
290
     0
  9
$HALOGAP
280
     0
  9
$OBSCOLOR
 70
   257
  9
$OBSLTYPE
280
     0
  9
$INTERSECTIONDISPLAY
280
     0
  9
$INTERSECTIONCOLOR
 70
   257
  9
$DIMASSOC
280
     1
  9
$PROJECTNAME
  1

  0
ENDSEC
  0
SECTION
  2
CLASSES
  0
CLASS
  1
ACDBDICTIONARYWDFLT
  2
AcDbDictionaryWithDefault
  3
ObjectDBX Classes
 90
        0
 91
        1
280
     0
281
     0
  0
CLASS
  1
TABLESTYLE
  2
AcDbTableStyle
  3
ObjectDBX Classes
 90
     2047
 91
        1
280
     0
281
     0
  0
CLASS
  1
DICTIONARYVAR
  2
AcDbDictionaryVar
  3
ObjectDBX Classes
 90
        0
 91
        4
280
     0
281
     0
  0
CLASS
  1
SORTENTSTABLE
  2
AcDbSortentsTable
  3
ObjectDBX Classes
 90
        0
 91
        2
280
     0
281
     0
  0
ENDSEC
  0
SECTION
  2
TABLES
  0
TABLE
  2
VPORT
  5
8
330
0
100
AcDbSymbolTable
 70
     3
  0
VPORT
  5
3A0F
330
8
100
AcDbSymbolTableRecord
100
AcDbViewportTableRecord
  2
*Active
 70
     0
 10
0.0
 20
0.0
 11
1.0
 21
1.0
 12
270.1469044607193
 22
322.4917158902294
 13
0.0
 23
0.0
 14
1.0
 24
1.0
 15
0.0
 25
0.0
 16
0.0
 26
0.0
 36
1.0
 17
0.0
 27
0.0
 37
0.0
 40
490.7818898251068
 41
1.773333333333333
 42
50.0
 43
0.0
 44
0.0
 50
0.0
 51
0.0
 71
     0
 72
   100
 73
     1
 74
     1
 75
     0
 76
     0
 77
     0
 78
     0
281
     0
 65
     1
110
0.0
120
0.0
130
0.0
111
1.0
121
0.0
131
0.0
112
0.0
122
1.0
132
0.0
 79
     0
146
0.0
  0
ENDTAB
  0
TABLE
  2
LTYPE
  5
5
330
0
100
AcDbSymbolTable
 70
     2
  0
LTYPE
  5
14
330
5
100
AcDbSymbolTableRecord
100
AcDbLinetypeTableRecord
  2
ByBlock
 70
     0
  3

 72
    65
 73
     0
 40
0.0
  0
LTYPE
  5
15
330
5
100
AcDbSymbolTableRecord
100
AcDbLinetypeTableRecord
  2
ByLayer
 70
     0
  3

 72
    65
 73
     0
 40
0.0
  0
LTYPE
  5
16
330
5
100
AcDbSymbolTableRecord
100
AcDbLinetypeTableRecord
  2
Continuous
 70
     0
  3
Solid line
 72
    65
 73
     0
 40
0.0
  0
LTYPE
  5
7E7
330
5
100
AcDbSymbolTableRecord
100
AcDbLinetypeTableRecord
  2
MITTE2
 70
     0
  3
Mitte (.5x) ___ _ ___ _ ___ _ ___ _ ___ _ ___
 72
    65
 73
     4
 40
28.575
 49
19.05
 74
     0
 49
-3.174999999999999
 74
     0
 49
3.174999999999999
 74
     0
 49
-3.174999999999999
 74
     0
  0
ENDTAB
  0
TABLE
  2
LAYER
  5
2
102
{ACAD_XDICTIONARY
360
9C6
102
}
330
0
100
AcDbSymbolTable
 70
     3
  0
LAYER
  5
10
330
2
100
AcDbSymbolTableRecord
100
AcDbLayerTableRecord
  2
0
 70
     0
 62
     7
  6
Continuous
370
    -3
390
F
  0
LAYER
  5
7E9
330
2
100
AcDbSymbolTableRecord
100
AcDbLayerTableRecord
  2
LW 3540-32-00
 70
     0
 62
     7
  6
Continuous
370
    -3
390
F
  0
LAYER
  5
7EA
330
2
100
AcDbSymbolTableRecord
100
AcDbLayerTableRecord
  2
insertpoint_ECKELT
 70
     0
 62
   141
  6
Continuous
370
    -3
390
F
  0
ENDTAB
  0
TABLE
  2
STYLE
  5
3
330
0
100
AcDbSymbolTable
 70
     1
  0
STYLE
  5
11
330
3
100
AcDbSymbolTableRecord
100
AcDbTextStyleTableRecord
  2
Standard
 70
     0
 40
0.0
 41
1.0
 50
0.0
 71
     0
 42
0.2
  3
ARIAL.TTF
  4

1001
ACAD
1000
Arial
1071
      256
  0
ENDTAB
  0
TABLE
  2
VIEW
  5
6
330
0
100
AcDbSymbolTable
 70
     0
  0
ENDTAB
  0
TABLE
  2
UCS
  5
7
330
0
100
AcDbSymbolTable
 70
     0
  0
ENDTAB
  0
TABLE
  2
APPID
  5
9
330
0
100
AcDbSymbolTable
 70
     3
  0
APPID
  5
12
330
9
100
AcDbSymbolTableRecord
100
AcDbRegAppTableRecord
  2
ACAD
 70
     0
  0
APPID
  5
A3E
330
9
100
AcDbSymbolTableRecord
100
AcDbRegAppTableRecord
  2
ACAD_PSEXT
 70
     0
  0
APPID
  5
270D
330
9
100
AcDbSymbolTableRecord
100
AcDbRegAppTableRecord
  2
ACAD_EXEMPT_FROM_CAD_STANDARDS
 70
     0
  0
ENDTAB
  0
TABLE
  2
DIMSTYLE
  5
A
330
0
100
AcDbSymbolTable
 70
     1
100
AcDbDimStyleTable
 71
     1
340
2B
  0
DIMSTYLE
105
2B
330
A
100
AcDbSymbolTableRecord
100
AcDbDimStyleTableRecord
  2
Standard
 70
     0
340
11
  0
ENDTAB
  0
TABLE
  2
BLOCK_RECORD
  5
1
330
0
100
AcDbSymbolTable
 70
     6
  0
BLOCK_RECORD
  5
23
102
{ACAD_XDICTIONARY
360
9A6
102
}
330
1
100
AcDbSymbolTableRecord
100
AcDbBlockTableRecord
  2
*Model_Space
340
26
  0
BLOCK_RECORD
  5
1F
330
1
100
AcDbSymbolTableRecord
100
AcDbBlockTableRecord
  2
*Paper_Space
340
22
  0
BLOCK_RECORD
  5
27
330
1
100
AcDbSymbolTableRecord
100
AcDbBlockTableRecord
  2
*Paper_Space0
340
2A
  0
BLOCK_RECORD
  5
626
102
{ACAD_XDICTIONARY
360
627
102
}
330
1
100
AcDbSymbolTableRecord
100
AcDbBlockTableRecord
  2
insertpoint-ECKELT
340
0
102
{BLKREFS
331
384A
331
3968
331
39D4
331
39F2
102
}
  0
BLOCK_RECORD
  5
3635
330
1
100
AcDbSymbolTableRecord
100
AcDbBlockTableRecord
  2
LW 3540-32-00_a
340
0
310
2800000020000000200000000100080000000000000400000000000000000000000000000000000000000000000080000080000000808000800000008000800080800000C0C0C000C0DCC000F0CAA6000020400000206000002080000020A0000020C0000020E00000400000004020000040400000406000004080000040A0
310
000040C0000040E00000600000006020000060400000606000006080000060A0000060C0000060E00000800000008020000080400000806000008080000080A0000080C0000080E00000A0000000A0200000A0400000A0600000A0800000A0A00000A0C00000A0E00000C0000000C0200000C0400000C0600000C0800000C0
310
A00000C0C00000C0E00000E0000000E0200000E0400000E0600000E0800000E0A00000E0C00000E0E00040000000400020004000400040006000400080004000A0004000C0004000E00040200000402020004020400040206000402080004020A0004020C0004020E000404000004040200040404000404060004040800040
310
40A0004040C0004040E00040600000406020004060400040606000406080004060A0004060C0004060E00040800000408020004080400040806000408080004080A0004080C0004080E00040A0000040A0200040A0400040A0600040A0800040A0A00040A0C00040A0E00040C0000040C0200040C0400040C0600040C08000
310
40C0A00040C0C00040C0E00040E0000040E0200040E0400040E0600040E0800040E0A00040E0C00040E0E00080000000800020008000400080006000800080008000A0008000C0008000E00080200000802020008020400080206000802080008020A0008020C0008020E00080400000804020008040400080406000804080
310
008040A0008040C0008040E00080600000806020008060400080606000806080008060A0008060C0008060E00080800000808020008080400080806000808080008080A0008080C0008080E00080A0000080A0200080A0400080A0600080A0800080A0A00080A0C00080A0E00080C0000080C0200080C0400080C0600080C0
310
800080C0A00080C0C00080C0E00080E0000080E0200080E0400080E0600080E0800080E0A00080E0C00080E0E000C0000000C0002000C0004000C0006000C0008000C000A000C000C000C000E000C0200000C0202000C0204000C0206000C0208000C020A000C020C000C020E000C0400000C0402000C0404000C0406000C0
310
408000C040A000C040C000C040E000C0600000C0602000C0604000C0606000C0608000C060A000C060C000C060E000C0800000C0802000C0804000C0806000C0808000C080A000C080C000C080E000C0A00000C0A02000C0A04000C0A06000C0A08000C0A0A000C0A0C000C0A0E000C0C00000C0C02000C0C04000C0C06000
310
C0C08000C0C0A000F0FBFF00A4A0A000808080000000FF0000FF000000FFFF00FF000000FF00FF00FFFF0000FFFFFF0000000000000000000000000000000000000000000000000000000000000000000000000000000000000000000000000000000000FA0000000000000000000000000000000000000000000000000000
310
0000000000FA00000000000000000000000000000000000000000000000000000000000000FA00000000000000000000000000000000000000000000000000000000000000FA00000000000000000000000000000000000000000000000000000000FFFF00FA0000FFFF000000000000000000000000000000000000000000
310
000000FFFF00FA0000FFFF000000000000000000000000000000000000000000FFFFFFFFFFFFFAFFFFFFFFFFFFFF000000000000000000000000000000000000FFFF00FFFAFAFAFAFAFAFF00FFFF0000000000000000000000000000000000FAFAFAFAFAFAFAFAFAFAFAFAFAFAFA0000000000000000000000000000000000
310
00FF0000FFFAFAFAFAFAFAFF00FFFF000000000000000000000000000000000000FFFFFFFFFF00FA0000FFFFFFFFFF000000000000000000000000000000000000000000FFFF00FA0000FFFF000000000000000000000000000000000000000000000000FFFF00FA0000FFFF00000000000000000000000000000000000000
310
0000000000FFFF00FA0000FFFF000000000000000000000000000000000000000000000000FFFF00FA0000FFFF000000000000000000000000000000000000000000000000FFFF00FA0000FFFF000000000000000000000000000000000000000000FFFFFFFFFFFFFAFFFFFFFFFFFFFF000000000000000000000000000000
310
000000FFFF00FFFAFAFAFAFAFAFF00FFFF0000000000000000000000000000000000FAFAFAFAFAFAFAFAFAFAFAFAFAFAFA000000000000000000000000000000000000FF0000FFFFFFFAFFFFFFFF00FFFF000000000000000000000000FA0000000000FFFFFFFFFF00FA0000FFFFFFFFFF00000000000000000000FFFFFAFF
310
FF0000000000FFFFFF00FA0000FFFF00000000000000000000000000FF00FAFFFF000000FFF9F9FFFF00FA0000FFFF000000000000000000000000FFFFFFFAFFFFFF00FFF9F900FFFF00FA0000FFFF0000000000000000000000FFFFFFFFFAFFFFFFFFFFFFFFFFFFFF00FA0000FFFF0000000000000000000000FFFFFFFFFA
310
FFFFFFFFFFFFFFFFFFFF00090900FFFF000000000000000000000000FFFFFAFAFAFFFF0000000000000000FA000000000000000000000000000000000000FAFAFA00000000000000000000FA000000000000000000000000000000000000FFFAFF00000000000000000000FA00000000000000000000000000000000000000
310
FA00000000000000000000000000000000000000000000000000000000000000000000000000000000000000000000000000000000000000
102
{BLKREFS
331
3854
102
}
  0
BLOCK_RECORD
  5
3855
330
1
100
AcDbSymbolTableRecord
100
AcDbBlockTableRecord
  2
LW 3540-32-00_b
340
0
310
2800000020000000200000000100080000000000000400000000000000000000000000000000000000000000000080000080000000808000800000008000800080800000C0C0C000C0DCC000F0CAA6000020400000206000002080000020A0000020C0000020E00000400000004020000040400000406000004080000040A0
310
000040C0000040E00000600000006020000060400000606000006080000060A0000060C0000060E00000800000008020000080400000806000008080000080A0000080C0000080E00000A0000000A0200000A0400000A0600000A0800000A0A00000A0C00000A0E00000C0000000C0200000C0400000C0600000C0800000C0
310
A00000C0C00000C0E00000E0000000E0200000E0400000E0600000E0800000E0A00000E0C00000E0E00040000000400020004000400040006000400080004000A0004000C0004000E00040200000402020004020400040206000402080004020A0004020C0004020E000404000004040200040404000404060004040800040
310
40A0004040C0004040E00040600000406020004060400040606000406080004060A0004060C0004060E00040800000408020004080400040806000408080004080A0004080C0004080E00040A0000040A0200040A0400040A0600040A0800040A0A00040A0C00040A0E00040C0000040C0200040C0400040C0600040C08000
310
40C0A00040C0C00040C0E00040E0000040E0200040E0400040E0600040E0800040E0A00040E0C00040E0E00080000000800020008000400080006000800080008000A0008000C0008000E00080200000802020008020400080206000802080008020A0008020C0008020E00080400000804020008040400080406000804080
310
008040A0008040C0008040E00080600000806020008060400080606000806080008060A0008060C0008060E00080800000808020008080400080806000808080008080A0008080C0008080E00080A0000080A0200080A0400080A0600080A0800080A0A00080A0C00080A0E00080C0000080C0200080C0400080C0600080C0
310
800080C0A00080C0C00080C0E00080E0000080E0200080E0400080E0600080E0800080E0A00080E0C00080E0E000C0000000C0002000C0004000C0006000C0008000C000A000C000C000C000E000C0200000C0202000C0204000C0206000C0208000C020A000C020C000C020E000C0400000C0402000C0404000C0406000C0
310
408000C040A000C040C000C040E000C0600000C0602000C0604000C0606000C0608000C060A000C060C000C060E000C0800000C0802000C0804000C0806000C0808000C080A000C080C000C080E000C0A00000C0A02000C0A04000C0A06000C0A08000C0A0A000C0A0C000C0A0E000C0C00000C0C02000C0C04000C0C06000
310
C0C08000C0C0A000F0FBFF00A4A0A000808080000000FF0000FF000000FFFF00FF000000FF00FF00FFFF0000FFFFFF0000000000000000000000000000000000000000000000000000000000000000000000000000000000000000000000000000000000000000000000000000000000000000000000000000000000000000
310
00000000000000000000000000000000000000000000000000000000000000000000000000000000000000000000000000000000000000000000000000000000000000000000000000000000000000000000000000000000000000000000000000000000000000000000000000000000000000000000000000000000000000
310
00000000000000000000000000000000000000000000000000000000000000000000000000000000000000000000000000000000000000000000000000000000000000000000000000000000000000000000000000000000000000000000000000000000000000FA00000000000000000000000000000000FFFFFFFFFFFFFF
310
FFFFFFFFFFFFFF00FA0000FFFF00000000000000000000FFFF0000000000000000000000FF00FF00FA0000FFFF000000000000000000FF000000FAFF0000000000000000FF00FF00FA0000FFFF000000000000000000FF0000FFFA00FFFF000000FFFFFFFF00FF00FA0000FFFFFFFFFFFF00000000FF00FFFFFFFAFFFFFF00
310
0000FF0000FF00FFFFFFFFFFFFFF0000FFFF000000FAFAFAFAFAFAFAFAFAFAFAFAFAFAFAFAFAFAFA090909FAFAFAFAFAFAFAFA000000FF00FFFF00FA00FFFF00FFFFFF0000FF00FA0909FAFAFAFF0000FFFF00000000FF00FFFFFFFA00FFFF000000FF0000FF00FFFFFFFFFFFFFF0000FFFF0000000000FF00FFFFFAFF00FF
310
000000FFFFFFFF00FF00FA0000FFFFFFFFFFFF0000000000FF000000FAFFFFF9F9F9F9000000FF00FF00FA0000FFFF00000000000000000000FFFF0000000000000000000000FF00FF00FA0000FFFF000000000000000000000000FFFFFFFFFFFFFFFFFFFFFFFFFFFF00FA0000FFFF00000000000000000000000000000000
310
0000000000000000000000FA00000000000000000000000000000000000000000000000000000000000000000000000000000000000000000000000000000000000000000000000000000000000000000000000000000000000000000000000000000000000000000000000000000000000000000000000000000000000000
310
00000000000000000000000000000000000000000000000000000000000000000000000000000000000000000000000000000000000000000000000000000000000000000000000000000000000000000000000000000000000000000000000000000000000000000000000000000000000000000000000000000000000000
310
0000000000000000000000000000000000000000000000000000000000000000000000000000000000000000000000000000000000000000
102
{BLKREFS
331
3972
102
}
  0
BLOCK_RECORD
  5
3973
330
1
100
AcDbSymbolTableRecord
100
AcDbBlockTableRecord
  2
LW 3540-32-00_c
340
0
310
2800000020000000200000000100080000000000000400000000000000000000000000000000000000000000000080000080000000808000800000008000800080800000C0C0C000C0DCC000F0CAA6000020400000206000002080000020A0000020C0000020E00000400000004020000040400000406000004080000040A0
310
000040C0000040E00000600000006020000060400000606000006080000060A0000060C0000060E00000800000008020000080400000806000008080000080A0000080C0000080E00000A0000000A0200000A0400000A0600000A0800000A0A00000A0C00000A0E00000C0000000C0200000C0400000C0600000C0800000C0
310
A00000C0C00000C0E00000E0000000E0200000E0400000E0600000E0800000E0A00000E0C00000E0E00040000000400020004000400040006000400080004000A0004000C0004000E00040200000402020004020400040206000402080004020A0004020C0004020E000404000004040200040404000404060004040800040
310
40A0004040C0004040E00040600000406020004060400040606000406080004060A0004060C0004060E00040800000408020004080400040806000408080004080A0004080C0004080E00040A0000040A0200040A0400040A0600040A0800040A0A00040A0C00040A0E00040C0000040C0200040C0400040C0600040C08000
310
40C0A00040C0C00040C0E00040E0000040E0200040E0400040E0600040E0800040E0A00040E0C00040E0E00080000000800020008000400080006000800080008000A0008000C0008000E00080200000802020008020400080206000802080008020A0008020C0008020E00080400000804020008040400080406000804080
310
008040A0008040C0008040E00080600000806020008060400080606000806080008060A0008060C0008060E00080800000808020008080400080806000808080008080A0008080C0008080E00080A0000080A0200080A0400080A0600080A0800080A0A00080A0C00080A0E00080C0000080C0200080C0400080C0600080C0
310
800080C0A00080C0C00080C0E00080E0000080E0200080E0400080E0600080E0800080E0A00080E0C00080E0E000C0000000C0002000C0004000C0006000C0008000C000A000C000C000C000E000C0200000C0202000C0204000C0206000C0208000C020A000C020C000C020E000C0400000C0402000C0404000C0406000C0
310
408000C040A000C040C000C040E000C0600000C0602000C0604000C0606000C0608000C060A000C060C000C060E000C0800000C0802000C0804000C0806000C0808000C080A000C080C000C080E000C0A00000C0A02000C0A04000C0A06000C0A08000C0A0A000C0A0C000C0A0E000C0C00000C0C02000C0C04000C0C06000
310
C0C08000C0C0A000F0FBFF00A4A0A000808080000000FF0000FF000000FFFF00FF000000FF00FF00FFFF0000FFFFFF0000000000000000000000000000000000000000000000000000000000000000000000000000000000000000000000000000000000000000000000000000000000000000000000000000000000000000
310
00000000000000000000000000000000000000000000000000000000000000000000000000000000000000000000000000000000000000000000000000000000000000000000000000000000000000000000000000000000000000000000000000000000000000000000000000000000000000000000000000000000000000
310
00000000000000000000000000000000000000000000000000000000000000000000000000000000000000000000000000000000000000000000000000000000000000000000000000000000000000000000000000000000000000000000000000000000000000000000000000000000000000000000000000000000000000
310
000000000000000000000000000000000000000000000000FFFFFFFFFFFFFFFFFFFFFFFFFFFFFFFFFFFFFFFFFF0000000000000000000000FFFFFF0000000000FA00000000000000000000FA00FFFF000000000000000000FFFFFFFFFFFF0000FA00000000000000000000FA000000FF0000000000000000FFFFFF0000FF00
310
FFFAFFFF000000000000FFFFFAFFFF00FF0000000000FFFAFA09FFFF00FFFFFFFFFA00FFFAFAFAFAFAFAFAFAFAFAFAFAFAFAFA0000FAFFFA0909FAFAFAFAFAFAFAFAFAFAFF0000000000FF00FA00FF00FF0000000000000000FFFFFF0000FF00FFFAFFFF000000000000FFFFFAFFFF00FF0000000000000000FFFFFFFFFFFF
310
0000FAFF000000F9F9F90000FFFAFF0000FF0000000000000000FFFFFF0000000000FA00000000000000000000FA00FFFF000000000000000000FFFFFFFFFFFFFFFFFFFFFFFFFFFFFFFFFFFFFFFFFF000000000000000000000000000000000000000000000000000000000000000000000000000000000000000000000000
310
00000000000000000000000000000000000000000000000000000000000000000000000000000000000000000000000000000000000000000000000000000000000000000000000000000000000000000000000000000000000000000000000000000000000000000000000000000000000000000000000000000000000000
310
00000000000000000000000000000000000000000000000000000000000000000000000000000000000000000000000000000000000000000000000000000000000000000000000000000000000000000000000000000000000000000000000000000000000000000000000000000000000000000000000000000000000000
310
0000000000000000000000000000000000000000000000000000000000000000000000000000000000000000000000000000000000000000
102
{BLKREFS
331
39DE
102
}
  0
BLOCK_RECORD
  5
39DF
330
1
100
AcDbSymbolTableRecord
100
AcDbBlockTableRecord
  2
LW 3540-32-00_d
340
0
310
2800000020000000200000000100080000000000000400000000000000000000000000000000000000000000000080000080000000808000800000008000800080800000C0C0C000C0DCC000F0CAA6000020400000206000002080000020A0000020C0000020E00000400000004020000040400000406000004080000040A0
310
000040C0000040E00000600000006020000060400000606000006080000060A0000060C0000060E00000800000008020000080400000806000008080000080A0000080C0000080E00000A0000000A0200000A0400000A0600000A0800000A0A00000A0C00000A0E00000C0000000C0200000C0400000C0600000C0800000C0
310
A00000C0C00000C0E00000E0000000E0200000E0400000E0600000E0800000E0A00000E0C00000E0E00040000000400020004000400040006000400080004000A0004000C0004000E00040200000402020004020400040206000402080004020A0004020C0004020E000404000004040200040404000404060004040800040
310
40A0004040C0004040E00040600000406020004060400040606000406080004060A0004060C0004060E00040800000408020004080400040806000408080004080A0004080C0004080E00040A0000040A0200040A0400040A0600040A0800040A0A00040A0C00040A0E00040C0000040C0200040C0400040C0600040C08000
310
40C0A00040C0C00040C0E00040E0000040E0200040E0400040E0600040E0800040E0A00040E0C00040E0E00080000000800020008000400080006000800080008000A0008000C0008000E00080200000802020008020400080206000802080008020A0008020C0008020E00080400000804020008040400080406000804080
310
008040A0008040C0008040E00080600000806020008060400080606000806080008060A0008060C0008060E00080800000808020008080400080806000808080008080A0008080C0008080E00080A0000080A0200080A0400080A0600080A0800080A0A00080A0C00080A0E00080C0000080C0200080C0400080C0600080C0
310
800080C0A00080C0C00080C0E00080E0000080E0200080E0400080E0600080E0800080E0A00080E0C00080E0E000C0000000C0002000C0004000C0006000C0008000C000A000C000C000C000E000C0200000C0202000C0204000C0206000C0208000C020A000C020C000C020E000C0400000C0402000C0404000C0406000C0
310
408000C040A000C040C000C040E000C0600000C0602000C0604000C0606000C0608000C060A000C060C000C060E000C0800000C0802000C0804000C0806000C0808000C080A000C080C000C080E000C0A00000C0A02000C0A04000C0A06000C0A08000C0A0A000C0A0C000C0A0E000C0C00000C0C02000C0C04000C0C06000
310
C0C08000C0C0A000F0FBFF00A4A0A000808080000000FF0000FF000000FFFF00FF000000FF00FF00FFFF0000FFFFFF0000000000000000000000000000000000000000000000000000000000000000000000000000000000000000000000000000000000000000000000000000000000000000000000000000000000000000
310
00000000000000000000000000000000000000000000000000000000000000000000000000000000000000000000000000000000000000000000000000000000000000000000000000000000000000000000000000000000000000000000000000000000000000000000000000000000000000000000000000000000000000
310
00000000000000000000000000000000000000000000000000000000000000000000000000000000000000000000000000000000000000000000000000000000000000000000000000000000000000000000000000000000000000000000000000000000000000000000000000000000000000000000000000000000000000
310
00000000000000000000000000000000000000000000000000FFFFFFFFFFFFFFFFFFFFFFFFFFFFFFFFFFFFFFFFFF000000000000000000FFFF00FA00000000000000000000FA00000000000000FF000000000000000000FF0000FA00000000000000000000FA00000000000000FF0000000000000000FF00FFFFFAFFFF0000
310
00000000FFFFFAFF000000000000FF000000000000FAFAFAFAFAFAFAFAFAFAFAFAFAFAFAFF00FA00FF0000000000090900000000000000FF00FF00FA00FF0000000000FFFAFAFAFAFAFAFAFAFAFA0909FAFAFA00000000FF00FFFFFAFFFF000000000000FFFFFAFF000000000000FF000000000000000000FF00FFFAFF0000
310
00F9F9F90000FFFA00000000000000FF000000000000000000FFFF00FA00000000000000000000FA00000000000000FF0000000000000000000000FFFFFFFFFFFFFFFFFFFFFFFFFFFFFFFFFFFFFFFFFF0000000000000000000000000000000000000000000000000000000000000000000000000000000000000000000000
310
00000000000000000000000000000000000000000000000000000000000000000000000000000000000000000000000000000000000000000000000000000000000000000000000000000000000000000000000000000000000000000000000000000000000000000000000000000000000000000000000000000000000000
310
00000000000000000000000000000000000000000000000000000000000000000000000000000000000000000000000000000000000000000000000000000000000000000000000000000000000000000000000000000000000000000000000000000000000000000000000000000000000000000000000000000000000000
310
0000000000000000000000000000000000000000000000000000000000000000000000000000000000000000000000000000000000000000
102
{BLKREFS
331
39FC
102
}
  0
ENDTAB
  0
ENDSEC
  0
SECTION
  2
BLOCKS
  0
BLOCK
  5
24
330
23
100
AcDbEntity
  8
0
100
AcDbBlockBegin
  2
*Model_Space
 70
     0
 10
0.0
 20
0.0
 30
0.0
  3
*Model_Space
  1

  0
ENDBLK
  5
25
330
23
100
AcDbEntity
  8
0
100
AcDbBlockEnd
  0
BLOCK
  5
20
330
1F
100
AcDbEntity
 67
     1
  8
0
100
AcDbBlockBegin
  2
*Paper_Space
 70
     0
 10
0.0
 20
0.0
 30
0.0
  3
*Paper_Space
  1

  0
ENDBLK
  5
21
330
1F
100
AcDbEntity
 67
     1
  8
0
100
AcDbBlockEnd
  0
BLOCK
  5
28
330
27
100
AcDbEntity
 67
     1
  8
0
100
AcDbBlockBegin
  2
*Paper_Space0
 70
     0
 10
0.0
 20
0.0
 30
0.0
  3
*Paper_Space0
  1

  0
ENDBLK
  5
29
330
27
100
AcDbEntity
 67
     1
  8
0
100
AcDbBlockEnd
  0
BLOCK
  5
629
330
626
100
AcDbEntity
  8
0
100
AcDbBlockBegin
  2
insertpoint-ECKELT
 70
     2
 10
0.0
 20
0.0
 30
0.0
  3
insertpoint-ECKELT
  1

  0
ATTDEF
  5
62A
330
626
100
AcDbEntity
  8
insertpoint_ECKELT
100
AcDbText
 10
-2.457298772169167
 20
-0.0000000000000284
 30
0.0
 40
0.6
  1
LW
 72
     2
 11
-1.199999999999999
 21
-0.0000000000000284
 31
0.0
100
AcDbAttributeDefinition
  3
Nr. links
  2
LINKS
 70
     0
  0
ATTDEF
  5
62B
330
626
100
AcDbEntity
  8
insertpoint_ECKELT
100
AcDbText
 10
1.199999999999999
 20
-0.0000000000000284
 30
0.0
 40
0.6
  1
LW
100
AcDbAttributeDefinition
  3
Nr. rechts
  2
RECHTS
 70
     0
  0
LINE
  5
62C
102
{ACAD_REACTORS
330
62F
102
}
330
626
100
AcDbEntity
  8
insertpoint_ECKELT
100
AcDbLine
 10
0.0
 20
1.799999999999997
 30
0.0
 11
0.0
 21
-1.799999999999997
 31
0.0
  0
LINE
  5
62D
102
{ACAD_REACTORS
330
62F
102
}
330
626
100
AcDbEntity
  8
insertpoint_ECKELT
100
AcDbLine
 10
-1.8
 20
-0.0000000000000284
 30
0.0
 11
1.8
 21
-0.0000000000000284
 31
0.0
  0
CIRCLE
  5
62E
102
{ACAD_REACTORS
330
62F
102
}
330
626
100
AcDbEntity
  8
insertpoint_ECKELT
100
AcDbCircle
 10
0.0
 20
0.0
 30
0.0
 40
1.199999999999999
  0
HATCH
  5
62F
330
626
100
AcDbEntity
  8
insertpoint_ECKELT
100
AcDbHatch
 10
0.0
 20
0.0
 30
0.0
210
0.0
220
0.0
230
1.0
  2
SOLID
 70
     1
 71
     1
 91
        2
 92
        7
 72
     1
 73
     1
 93
        3
 10
0.0
 20
-0.0000000000000284
 42
0.0
 10
0.0
 20
1.200000000000002
 42
0.4142135623731013
 10
-1.199999999999999
 20
-0.0000000000000284
 42
0.0
 97
        3
330
62E
330
62D
330
62C
 92
        7
 72
     1
 73
     1
 93
        3
 10
1.199999999999999
 20
-0.0000000000000284
 42
0.0
 10
0.0
 20
-0.0000000000000284
 42
0.0
 10
0.0
 20
-1.200000000000002
 42
0.4142135623730888
 97
        3
330
62D
330
62C
330
62E
 75
     0
 76
     1
 47
0.0223086566480813
 98
        2
 10
-0.3163651093721391
 20
0.271413292077348
 10
0.7415965996738798
 20
-0.4513871917946233
450
        0
451
        0
460
0.0
461
0.0
452
        0
462
0.0
453
        0
470

  0
ENDBLK
  5
630
330
626
100
AcDbEntity
  8
0
100
AcDbBlockEnd
  0
BLOCK
  5
3636
330
3635
100
AcDbEntity
  8
0
100
AcDbBlockBegin
  2
LW 3540-32-00_a
 70
     0
 10
0.0
 20
0.0
 30
0.0
  3
LW 3540-32-00_a
  1

  0
LINE
  5
3638
330
3635
100
AcDbEntity
  8
LW 3540-32-00
100
AcDbLine
 10
-28.52000000000001
 20
-172.9999999999999
 30
0.0
 11
-28.52000000000001
 21
-139.9999999999999
 31
0.0
  0
LINE
  5
3639
330
3635
100
AcDbEntity
  8
LW 3540-32-00
100
AcDbLine
 10
-28.52000000000007
 20
-11.0
 30
0.0
 11
-28.52000000000001
 21
-139.9999999999999
 31
0.0
  0
LINE
  5
363A
330
3635
100
AcDbEntity
  8
LW 3540-32-00
100
AcDbLine
 10
-99.52000000000005
 20
-9.0
 30
0.0
 11
-30.52000000000004
 21
-9.0
 31
0.0
  0
LINE
  5
363B
330
3635
100
AcDbEntity
  8
LW 3540-32-00
100
AcDbLine
 10
-99.52000000000005
 20
-9.0
 30
0.0
 11
-132.52
 21
-9.0
 31
0.0
  0
ARC
  5
363C
330
3635
100
AcDbEntity
  8
LW 3540-32-00
100
AcDbCircle
 10
-30.52000000000004
 20
-11.0
 30
0.0
 40
1.999999999999988
100
AcDbArc
 50
0.0
 51
90.0
  0
ARC
  5
363D
330
3635
100
AcDbEntity
  8
LW 3540-32-00
100
AcDbCircle
 10
-26.51999999999998
 20
-172.9999999999999
 30
0.0
 40
2.0
100
AcDbArc
 50
180.0
 51
270.0
  0
ARC
  5
363E
330
3635
100
AcDbEntity
  8
LW 3540-32-00
100
AcDbCircle
 10
-132.52
 20
-7.0
 30
0.0
 40
2.0
100
AcDbArc
 50
180.0
 51
270.0
  0
LINE
  5
363F
330
3635
100
AcDbEntity
  8
LW 3540-32-00
100
AcDbLine
 10
-134.52
 20
0.0
 30
0.0
 11
-99.52000000000007
 21
0.0
 31
0.0
  0
LINE
  5
3640
330
3635
100
AcDbEntity
  8
LW 3540-32-00
100
AcDbLine
 10
-19.52000000000001
 20
-139.9999999999999
 30
0.0
 11
-19.52000000000001
 21
-175.0
 31
0.0
  0
LINE
  5
3641
330
3635
100
AcDbEntity
  8
LW 3540-32-00
100
AcDbLine
 10
-19.52000000000001
 20
-175.0
 30
0.0
 11
-26.52000000000001
 21
-175.0
 31
0.0
  0
LINE
  5
3642
330
3635
100
AcDbEntity
  8
LW 3540-32-00
100
AcDbLine
 10
-134.52
 20
-7.0
 30
0.0
 11
-134.52
 21
0.0
 31
0.0
  0
LINE
  5
3643
330
3635
100
AcDbEntity
  8
LW 3540-32-00
100
AcDbLine
 10
-99.52000000000005
 20
0.0
 30
0.0
 11
-19.52000000000001
 21
0.0
 31
0.0
  0
LINE
  5
3644
330
3635
100
AcDbEntity
  8
LW 3540-32-00
100
AcDbLine
 10
-19.52000000000001
 20
0.0
 30
0.0
 11
-19.52000000000001
 21
-139.9999999999999
 31
0.0
  0
ARC
  5
3645
330
3635
100
AcDbEntity
  8
LW 3540-32-00
100
AcDbCircle
 10
-30.52000000000004
 20
-40.0
 30
0.0
 40
1.99999999999998
100
AcDbArc
 50
0.0
 51
53.13010235415793
  0
ARC
  5
3646
330
3635
100
AcDbEntity
  8
LW 3540-32-00
100
AcDbCircle
 10
-69.18666666666672
 20
-11.00000000000005
 30
0.0
 40
2.000000000000055
100
AcDbArc
 50
53.13010235415793
 51
90.0
  0
LINE
  5
3647
330
3635
100
AcDbEntity
  8
LW 3540-32-00
100
AcDbLine
 10
-67.98666666666671
 20
-9.399999999999977
 30
0.0
 11
-29.32000000000002
 21
-38.39999999999998
 31
0.0
  0
LINE
  5
3648
330
3635
100
AcDbEntity
  8
LW 3540-32-00
100
AcDbLine
 10
28.51999999999998
 20
-139.9999999999999
 30
0.0
 11
28.51999999999993
 21
-2.0
 31
0.0
  0
ARC
  5
3649
330
3635
100
AcDbEntity
  8
LW 3540-32-00
100
AcDbCircle
 10
26.51999999999993
 20
-2.0
 30
0.0
 40
2.0
100
AcDbArc
 50
0.0
 51
90.0
  0
LINE
  5
364A
330
3635
100
AcDbEntity
  8
LW 3540-32-00
100
AcDbLine
 10
28.51999999999998
 20
-139.9999999999999
 30
0.0
 11
28.51999999999998
 21
-172.9999999999999
 31
0.0
  0
ARC
  5
364B
330
3635
100
AcDbEntity
  8
LW 3540-32-00
100
AcDbCircle
 10
26.51999999999998
 20
-172.9999999999999
 30
0.0
 40
2.0
100
AcDbArc
 50
270.0
 51
0.0
  0
LINE
  5
364C
330
3635
100
AcDbEntity
  8
LW 3540-32-00
100
AcDbLine
 10
19.51999999999998
 20
-175.0
 30
0.0
 11
19.51999999999998
 21
-139.9999999999999
 31
0.0
  0
LINE
  5
364D
330
3635
100
AcDbEntity
  8
LW 3540-32-00
100
AcDbLine
 10
19.51999999999998
 20
-175.0
 30
0.0
 11
26.51999999999998
 21
-175.0
 31
0.0
  0
LINE
  5
364E
330
3635
100
AcDbEntity
  8
LW 3540-32-00
100
AcDbLine
 10
26.51999999999993
 20
0.0
 30
0.0
 11
19.51999999999998
 21
0.0
 31
0.0
  0
LINE
  5
364F
330
3635
100
AcDbEntity
  8
LW 3540-32-00
100
AcDbLine
 10
19.51999999999998
 20
0.0
 30
0.0
 11
19.51999999999998
 21
-139.9999999999999
 31
0.0
  0
LINE
  5
3650
330
3635
100
AcDbEntity
  8
LW 3540-32-00
100
AcDbLine
 10
-77.02000000000004
 20
-14.0
 30
0.0
 11
-122.02
 21
-14.0
 31
0.0
  0
LINE
  5
3651
330
3635
100
AcDbEntity
  8
LW 3540-32-00
100
AcDbLine
 10
-77.02000000000004
 20
-9.0
 30
0.0
 11
-77.02000000000004
 21
-14.0
 31
0.0
  0
LINE
  5
3652
330
3635
100
AcDbEntity
  8
LW 3540-32-00
100
AcDbLine
 10
-122.02
 20
-9.0
 30
0.0
 11
-122.02
 21
-14.0
 31
0.0
  0
LINE
  5
3653
330
3635
100
AcDbEntity
  8
LW 3540-32-00
100
AcDbLine
 10
-122.02
 20
5.0
 30
0.0
 11
-77.02000000000004
 21
5.0
 31
0.0
  0
LINE
  5
3654
330
3635
100
AcDbEntity
  8
LW 3540-32-00
100
AcDbLine
 10
-122.02
 20
0.0
 30
0.0
 11
-122.02
 21
5.0
 31
0.0
  0
LINE
  5
3655
330
3635
100
AcDbEntity
  8
LW 3540-32-00
100
AcDbLine
 10
-77.02000000000004
 20
0.0
 30
0.0
 11
-77.02000000000004
 21
5.0
 31
0.0
  0
LINE
  5
3656
330
3635
100
AcDbEntity
  8
LW 3540-32-00
100
AcDbLine
 10
-92.52
 20
21.0
 30
0.0
 11
-106.52
 21
21.0
 31
0.0
  0
LINE
  5
3657
330
3635
100
AcDbEntity
  8
LW 3540-32-00
100
AcDbLine
 10
-93.51999999999998
 20
22.0
 30
0.0
 11
-105.52
 21
22.0
 31
0.0
  0
LINE
  5
3658
330
3635
100
AcDbEntity
  8
LW 3540-32-00
100
AcDbLine
 10
-106.52
 20
5.0
 30
0.0
 11
-106.52
 21
21.0
 31
0.0
  0
LINE
  5
3659
330
3635
100
AcDbEntity
  8
LW 3540-32-00
100
AcDbLine
 10
-92.52
 20
5.0
 30
0.0
 11
-92.52
 21
21.0
 31
0.0
  0
LINE
  5
365A
330
3635
100
AcDbEntity
  8
LW 3540-32-00
100
AcDbLine
 10
-93.52000000000002
 20
22.0
 30
0.0
 11
-92.52
 21
21.0
 31
0.0
  0
LINE
  5
365B
330
3635
100
AcDbEntity
  8
LW 3540-32-00
100
AcDbLine
 10
-105.52
 20
22.0
 30
0.0
 11
-106.52
 21
21.0
 31
0.0
  0
LINE
  5
365C
330
3635
100
AcDbEntity
  8
LW 3540-32-00
 62
     3
100
AcDbLine
 10
-105.3145
 20
22.0
 30
0.0
 11
-105.3145
 21
5.0
 31
0.0
  0
LINE
  5
365D
330
3635
100
AcDbEntity
  8
LW 3540-32-00
 62
     3
100
AcDbLine
 10
-93.72550000000002
 20
5.0
 30
0.0
 11
-93.72550000000002
 21
22.0
 31
0.0
  0
LINE
  5
365E
330
3635
100
AcDbEntity
  8
LW 3540-32-00
100
AcDbLine
 10
-92.52000000000004
 20
21.0
 30
0.0
 11
-106.52
 21
21.0
 31
0.0
  0
ELLIPSE
  5
365F
330
3635
100
AcDbEntity
  8
LW 3540-32-00
100
AcDbEllipse
 10
44.51999999999998
 20
-66.25
 30
0.0
 11
-1.999999999999962
 21
0.0000000000001156
 31
0.0
210
0.0
220
0.0
230
1.0
 40
0.8660254037844643
 41
0.7941688477847935
 42
2.347423805805178
  0
POLYLINE
  5
3660
330
3635
100
AcDbEntity
  8
LW 3540-32-00
100
AcDb2dPolyline
 66
     1
 10
0.0
 20
0.0
 30
0.0
 70
   128
  0
VERTEX
  5
3661
330
3660
100
AcDbEntity
  8
LW 3540-32-00
100
AcDbVertex
100
AcDb2dVertex
 10
46.51999952316282
 20
-68.75
 30
0.0
  0
VERTEX
  5
3662
330
3660
100
AcDbEntity
  8
LW 3540-32-00
100
AcDbVertex
100
AcDb2dVertex
 10
46.50318386077879
 20
-68.97027850151062
 30
0.0
  0
VERTEX
  5
3663
330
3660
100
AcDbEntity
  8
LW 3540-32-00
100
AcDbVertex
100
AcDb2dVertex
 10
46.45250799179075
 20
-69.19092595577239
 30
0.0
  0
VERTEX
  5
3664
330
3660
100
AcDbEntity
  8
LW 3540-32-00
100
AcDbVertex
100
AcDb2dVertex
 10
46.36763216972349
 20
-69.40471351146697
 30
0.0
  0
VERTEX
  5
3665
330
3660
100
AcDbEntity
  8
LW 3540-32-00
100
AcDbVertex
100
AcDb2dVertex
 10
46.24932291030882
 20
-69.60495173931121
 30
0.0
  0
VERTEX
  5
3666
330
3660
100
AcDbEntity
  8
LW 3540-32-00
100
AcDbVertex
100
AcDb2dVertex
 10
46.10275866508482
 20
-69.78687107563018
 30
0.0
  0
VERTEX
  5
3667
330
3660
100
AcDbEntity
  8
LW 3540-32-00
100
AcDbVertex
100
AcDb2dVertex
 10
45.93421103477476
 20
-69.946129322052
 30
0.0
  0
VERTEX
  5
3668
330
3660
100
AcDbEntity
  8
LW 3540-32-00
100
AcDbVertex
100
AcDb2dVertex
 10
45.74194790840147
 20
-70.08484244346618
 30
0.0
  0
VERTEX
  5
3669
330
3660
100
AcDbEntity
  8
LW 3540-32-00
100
AcDbVertex
100
AcDb2dVertex
 10
45.52386404991148
 20
-70.20480632781982
 30
0.0
  0
VERTEX
  5
366A
330
3660
100
AcDbEntity
  8
LW 3540-32-00
100
AcDbVertex
100
AcDb2dVertex
 10
45.28566958427427
 20
-70.3011929988861
 30
0.0
  0
VERTEX
  5
366B
330
3660
100
AcDbEntity
  8
LW 3540-32-00
100
AcDbVertex
100
AcDb2dVertex
 10
45.0335335922241
 20
-70.37010312080383
 30
0.0
  0
VERTEX
  5
366C
330
3660
100
AcDbEntity
  8
LW 3540-32-00
100
AcDbVertex
100
AcDb2dVertex
 10
44.77547885894773
 20
-70.411137342453
 30
0.0
  0
VERTEX
  5
366D
330
3660
100
AcDbEntity
  8
LW 3540-32-00
100
AcDbVertex
100
AcDb2dVertex
 10
44.52000023841856
 20
-70.42472004890441
 30
0.0
  0
VERTEX
  5
366E
330
3660
100
AcDbEntity
  8
LW 3540-32-00
100
AcDbVertex
100
AcDb2dVertex
 10
44.26452042579649
 20
-70.411137342453
 30
0.0
  0
VERTEX
  5
366F
330
3660
100
AcDbEntity
  8
LW 3540-32-00
100
AcDbVertex
100
AcDb2dVertex
 10
44.00646688461302
 20
-70.37010312080383
 30
0.0
  0
VERTEX
  5
3670
330
3660
100
AcDbEntity
  8
LW 3540-32-00
100
AcDbVertex
100
AcDb2dVertex
 10
43.75433089256285
 20
-70.3011929988861
 30
0.0
  0
VERTEX
  5
3671
330
3660
100
AcDbEntity
  8
LW 3540-32-00
100
AcDbVertex
100
AcDb2dVertex
 10
43.51613642692564
 20
-70.20480632781982
 30
0.0
  0
VERTEX
  5
3672
330
3660
100
AcDbEntity
  8
LW 3540-32-00
100
AcDbVertex
100
AcDb2dVertex
 10
43.29805137634275
 20
-70.08484244346618
 30
0.0
  0
VERTEX
  5
3673
330
3660
100
AcDbEntity
  8
LW 3540-32-00
100
AcDbVertex
100
AcDb2dVertex
 10
43.10578944206236
 20
-69.946129322052
 30
0.0
  0
VERTEX
  5
3674
330
3660
100
AcDbEntity
  8
LW 3540-32-00
100
AcDbVertex
100
AcDb2dVertex
 10
42.9372418117523
 20
-69.78687107563018
 30
0.0
  0
VERTEX
  5
3675
330
3660
100
AcDbEntity
  8
LW 3540-32-00
100
AcDbVertex
100
AcDb2dVertex
 10
42.79067637443541
 20
-69.60495173931121
 30
0.0
  0
VERTEX
  5
3676
330
3660
100
AcDbEntity
  8
LW 3540-32-00
100
AcDbVertex
100
AcDb2dVertex
 10
42.67236830711363
 20
-69.40471351146697
 30
0.0
  0
VERTEX
  5
3677
330
3660
100
AcDbEntity
  8
LW 3540-32-00
100
AcDbVertex
100
AcDb2dVertex
 10
42.58749248504637
 20
-69.19092595577239
 30
0.0
  0
VERTEX
  5
3678
330
3660
100
AcDbEntity
  8
LW 3540-32-00
100
AcDbVertex
100
AcDb2dVertex
 10
42.53681661605833
 20
-68.97027850151062
 30
0.0
  0
VERTEX
  5
3679
330
3660
100
AcDbEntity
  8
LW 3540-32-00
100
AcDbVertex
100
AcDb2dVertex
 10
42.5199997615814
 20
-68.75
 30
0.0
  0
SEQEND
  5
367A
330
3660
100
AcDbEntity
  8
LW 3540-32-00
  0
POLYLINE
  5
367B
330
3635
100
AcDbEntity
  8
LW 3540-32-00
100
AcDb2dPolyline
 66
     1
 10
0.0
 20
0.0
 30
0.0
 70
   128
  0
VERTEX
  5
367C
330
367B
100
AcDbEntity
  8
LW 3540-32-00
100
AcDbVertex
100
AcDb2dVertex
 10
42.5199997615814
 20
-68.75
 30
0.0
  0
VERTEX
  5
367D
330
367B
100
AcDbEntity
  8
LW 3540-32-00
100
AcDbVertex
100
AcDb2dVertex
 10
42.53681661605833
 20
-68.52777421474456
 30
0.0
  0
VERTEX
  5
367E
330
367B
100
AcDbEntity
  8
LW 3540-32-00
100
AcDbVertex
100
AcDb2dVertex
 10
42.58749248504637
 20
-68.30145597457885
 30
0.0
  0
VERTEX
  5
367F
330
367B
100
AcDbEntity
  8
LW 3540-32-00
100
AcDbVertex
100
AcDb2dVertex
 10
42.67236830711363
 20
-68.07852804660797
 30
0.0
  0
VERTEX
  5
3680
330
367B
100
AcDbEntity
  8
LW 3540-32-00
100
AcDbVertex
100
AcDb2dVertex
 10
42.79067637443541
 20
-67.86619782447814
 30
0.0
  0
VERTEX
  5
3681
330
367B
100
AcDbEntity
  8
LW 3540-32-00
100
AcDbVertex
100
AcDb2dVertex
 10
42.9372418117523
 20
-67.67038345336914
 30
0.0
  0
VERTEX
  5
3682
330
367B
100
AcDbEntity
  8
LW 3540-32-00
100
AcDbVertex
100
AcDb2dVertex
 10
43.10578944206236
 20
-67.49663412570953
 30
0.0
  0
VERTEX
  5
3683
330
367B
100
AcDbEntity
  8
LW 3540-32-00
100
AcDbVertex
100
AcDb2dVertex
 10
43.29805137634275
 20
-67.34341621398925
 30
0.0
  0
VERTEX
  5
3684
330
367B
100
AcDbEntity
  8
LW 3540-32-00
100
AcDbVertex
100
AcDb2dVertex
 10
43.51613642692564
 20
-67.2095239162445
 30
0.0
  0
VERTEX
  5
3685
330
367B
100
AcDbEntity
  8
LW 3540-32-00
100
AcDbVertex
100
AcDb2dVertex
 10
43.75433089256285
 20
-67.10099756717681
 30
0.0
  0
VERTEX
  5
3686
330
367B
100
AcDbEntity
  8
LW 3540-32-00
100
AcDbVertex
100
AcDb2dVertex
 10
44.00646688461302
 20
-67.02290117740631
 30
0.0
  0
VERTEX
  5
3687
330
367B
100
AcDbEntity
  8
LW 3540-32-00
100
AcDbVertex
100
AcDb2dVertex
 10
44.26452042579649
 20
-66.97616219520568
 30
0.0
  0
VERTEX
  5
3688
330
367B
100
AcDbEntity
  8
LW 3540-32-00
100
AcDbVertex
100
AcDb2dVertex
 10
44.52000023841856
 20
-66.96061849594116
 30
0.0
  0
VERTEX
  5
3689
330
367B
100
AcDbEntity
  8
LW 3540-32-00
100
AcDbVertex
100
AcDb2dVertex
 10
44.77547885894773
 20
-66.97616219520568
 30
0.0
  0
VERTEX
  5
368A
330
367B
100
AcDbEntity
  8
LW 3540-32-00
100
AcDbVertex
100
AcDb2dVertex
 10
45.0335335922241
 20
-67.02290117740631
 30
0.0
  0
VERTEX
  5
368B
330
367B
100
AcDbEntity
  8
LW 3540-32-00
100
AcDbVertex
100
AcDb2dVertex
 10
45.28566958427427
 20
-67.10099756717681
 30
0.0
  0
VERTEX
  5
368C
330
367B
100
AcDbEntity
  8
LW 3540-32-00
100
AcDbVertex
100
AcDb2dVertex
 10
45.52386404991148
 20
-67.2095239162445
 30
0.0
  0
VERTEX
  5
368D
330
367B
100
AcDbEntity
  8
LW 3540-32-00
100
AcDbVertex
100
AcDb2dVertex
 10
45.74194790840147
 20
-67.34341621398925
 30
0.0
  0
VERTEX
  5
368E
330
367B
100
AcDbEntity
  8
LW 3540-32-00
100
AcDbVertex
100
AcDb2dVertex
 10
45.93421103477476
 20
-67.49663412570953
 30
0.0
  0
VERTEX
  5
368F
330
367B
100
AcDbEntity
  8
LW 3540-32-00
100
AcDbVertex
100
AcDb2dVertex
 10
46.10275866508482
 20
-67.67038345336914
 30
0.0
  0
VERTEX
  5
3690
330
367B
100
AcDbEntity
  8
LW 3540-32-00
100
AcDbVertex
100
AcDb2dVertex
 10
46.24932291030882
 20
-67.86619782447814
 30
0.0
  0
VERTEX
  5
3691
330
367B
100
AcDbEntity
  8
LW 3540-32-00
100
AcDbVertex
100
AcDb2dVertex
 10
46.36763216972349
 20
-68.07852804660797
 30
0.0
  0
VERTEX
  5
3692
330
367B
100
AcDbEntity
  8
LW 3540-32-00
100
AcDbVertex
100
AcDb2dVertex
 10
46.45250799179075
 20
-68.30145597457885
 30
0.0
  0
VERTEX
  5
3693
330
367B
100
AcDbEntity
  8
LW 3540-32-00
100
AcDbVertex
100
AcDb2dVertex
 10
46.50318386077879
 20
-68.52777421474456
 30
0.0
  0
VERTEX
  5
3694
330
367B
100
AcDbEntity
  8
LW 3540-32-00
100
AcDbVertex
100
AcDb2dVertex
 10
46.51999952316282
 20
-68.75
 30
0.0
  0
SEQEND
  5
3695
330
367B
100
AcDbEntity
  8
LW 3540-32-00
  0
POLYLINE
  5
3696
330
3635
100
AcDbEntity
  8
LW 3540-32-00
100
AcDb2dPolyline
 66
     1
 10
0.0
 20
0.0
 30
0.0
 70
   128
  0
VERTEX
  5
3697
330
3696
100
AcDbEntity
  8
LW 3540-32-00
100
AcDbVertex
100
AcDb2dVertex
 10
46.51999952316282
 20
-42.5
 30
0.0
  0
VERTEX
  5
3698
330
3696
100
AcDbEntity
  8
LW 3540-32-00
100
AcDbVertex
100
AcDb2dVertex
 10
46.50318386077879
 20
-42.50194668769836
 30
0.0
  0
VERTEX
  5
3699
330
3696
100
AcDbEntity
  8
LW 3540-32-00
100
AcDbVertex
100
AcDb2dVertex
 10
46.45250799179075
 20
-42.50761866569519
 30
0.0
  0
VERTEX
  5
369A
330
3696
100
AcDbEntity
  8
LW 3540-32-00
100
AcDbVertex
100
AcDb2dVertex
 10
46.36763216972349
 20
-42.51675844192504
 30
0.0
  0
VERTEX
  5
369B
330
3696
100
AcDbEntity
  8
LW 3540-32-00
100
AcDbVertex
100
AcDb2dVertex
 10
46.24932291030882
 20
-42.52885103225708
 30
0.0
  0
VERTEX
  5
369C
330
3696
100
AcDbEntity
  8
LW 3540-32-00
100
AcDbVertex
100
AcDb2dVertex
 10
46.10275866508482
 20
-42.54274606704711
 30
0.0
  0
VERTEX
  5
369D
330
3696
100
AcDbEntity
  8
LW 3540-32-00
100
AcDbVertex
100
AcDb2dVertex
 10
45.93421103477476
 20
-42.55723714828491
 30
0.0
  0
VERTEX
  5
369E
330
3696
100
AcDbEntity
  8
LW 3540-32-00
100
AcDbVertex
100
AcDb2dVertex
 10
45.74194790840147
 20
-42.57174134254455
 30
0.0
  0
VERTEX
  5
369F
330
3696
100
AcDbEntity
  8
LW 3540-32-00
100
AcDbVertex
100
AcDb2dVertex
 10
45.52386404991148
 20
-42.58566975593566
 30
0.0
  0
VERTEX
  5
36A0
330
3696
100
AcDbEntity
  8
LW 3540-32-00
100
AcDbVertex
100
AcDb2dVertex
 10
45.28566958427427
 20
-42.59780883789062
 30
0.0
  0
VERTEX
  5
36A1
330
3696
100
AcDbEntity
  8
LW 3540-32-00
100
AcDbVertex
100
AcDb2dVertex
 10
45.0335335922241
 20
-42.6069951057434
 30
0.0
  0
VERTEX
  5
36A2
330
3696
100
AcDbEntity
  8
LW 3540-32-00
100
AcDbVertex
100
AcDb2dVertex
 10
44.77547885894773
 20
-42.6127004623413
 30
0.0
  0
VERTEX
  5
36A3
330
3696
100
AcDbEntity
  8
LW 3540-32-00
100
AcDbVertex
100
AcDb2dVertex
 10
44.52000023841856
 20
-42.61466145515441
 30
0.0
  0
VERTEX
  5
36A4
330
3696
100
AcDbEntity
  8
LW 3540-32-00
100
AcDbVertex
100
AcDb2dVertex
 10
44.26452042579649
 20
-42.6127004623413
 30
0.0
  0
VERTEX
  5
36A5
330
3696
100
AcDbEntity
  8
LW 3540-32-00
100
AcDbVertex
100
AcDb2dVertex
 10
44.00646688461302
 20
-42.6069951057434
 30
0.0
  0
VERTEX
  5
36A6
330
3696
100
AcDbEntity
  8
LW 3540-32-00
100
AcDbVertex
100
AcDb2dVertex
 10
43.75433089256285
 20
-42.59780883789062
 30
0.0
  0
VERTEX
  5
36A7
330
3696
100
AcDbEntity
  8
LW 3540-32-00
100
AcDbVertex
100
AcDb2dVertex
 10
43.51613642692564
 20
-42.58566975593566
 30
0.0
  0
VERTEX
  5
36A8
330
3696
100
AcDbEntity
  8
LW 3540-32-00
100
AcDbVertex
100
AcDb2dVertex
 10
43.29805137634275
 20
-42.57174134254455
 30
0.0
  0
VERTEX
  5
36A9
330
3696
100
AcDbEntity
  8
LW 3540-32-00
100
AcDbVertex
100
AcDb2dVertex
 10
43.10578944206236
 20
-42.55723714828491
 30
0.0
  0
VERTEX
  5
36AA
330
3696
100
AcDbEntity
  8
LW 3540-32-00
100
AcDbVertex
100
AcDb2dVertex
 10
42.9372418117523
 20
-42.54274606704711
 30
0.0
  0
VERTEX
  5
36AB
330
3696
100
AcDbEntity
  8
LW 3540-32-00
100
AcDbVertex
100
AcDb2dVertex
 10
42.79067637443541
 20
-42.52885103225708
 30
0.0
  0
VERTEX
  5
36AC
330
3696
100
AcDbEntity
  8
LW 3540-32-00
100
AcDbVertex
100
AcDb2dVertex
 10
42.67236830711363
 20
-42.51675844192504
 30
0.0
  0
VERTEX
  5
36AD
330
3696
100
AcDbEntity
  8
LW 3540-32-00
100
AcDbVertex
100
AcDb2dVertex
 10
42.58749248504637
 20
-42.50761866569519
 30
0.0
  0
VERTEX
  5
36AE
330
3696
100
AcDbEntity
  8
LW 3540-32-00
100
AcDbVertex
100
AcDb2dVertex
 10
42.53681661605833
 20
-42.50194668769836
 30
0.0
  0
VERTEX
  5
36AF
330
3696
100
AcDbEntity
  8
LW 3540-32-00
100
AcDbVertex
100
AcDb2dVertex
 10
42.5199997615814
 20
-42.5
 30
0.0
  0
SEQEND
  5
36B0
330
3696
100
AcDbEntity
  8
LW 3540-32-00
  0
LINE
  5
36B1
330
3635
100
AcDbEntity
  8
LW 3540-32-00
100
AcDbLine
 10
48.51999999999998
 20
-77.5
 30
0.0
 11
48.51999999999998
 21
-42.5
 31
0.0
  0
LINE
  5
36B2
330
3635
100
AcDbEntity
  8
LW 3540-32-00
100
AcDbLine
 10
51.51999999999998
 20
-74.49999999999994
 30
0.0
 11
51.51999999999998
 21
-45.49999999999999
 31
0.0
  0
LINE
  5
36B3
330
3635
100
AcDbEntity
  8
LW 3540-32-00
100
AcDbLine
 10
28.51999999999998
 20
-42.5
 30
0.0
 11
42.51999999999998
 21
-42.5
 31
0.0
  0
LINE
  5
36B4
330
3635
100
AcDbEntity
  8
LW 3540-32-00
100
AcDbLine
 10
46.51999999999998
 20
-42.5
 30
0.0
 11
48.51999999999998
 21
-42.5
 31
0.0
  0
LINE
  5
36B5
330
3635
100
AcDbEntity
  8
LW 3540-32-00
100
AcDbLine
 10
28.51999999999998
 20
-77.5
 30
0.0
 11
48.51999999999998
 21
-77.5
 31
0.0
  0
LINE
  5
36B6
330
3635
100
AcDbEntity
  8
LW 3540-32-00
100
AcDbLine
 10
51.51999999999998
 20
-74.49999999999994
 30
0.0
 11
48.51999999999998
 21
-77.5
 31
0.0
  0
LINE
  5
36B7
330
3635
100
AcDbEntity
  8
LW 3540-32-00
100
AcDbLine
 10
51.51999999999998
 20
-45.49999999999999
 30
0.0
 11
48.51999999999998
 21
-42.5
 31
0.0
  0
ELLIPSE
  5
36B8
330
3635
100
AcDbEntity
  8
LW 3540-32-00
100
AcDbEllipse
 10
44.51999999999998
 20
-146.25
 30
0.0
 11
-1.999999999999996
 21
0.0000000000001138
 31
0.0
210
0.0
220
0.0
230
1.0
 40
0.8660254037844353
 41
0.7941688477848095
 42
2.347423805805161
  0
POLYLINE
  5
36B9
330
3635
100
AcDbEntity
  8
LW 3540-32-00
100
AcDb2dPolyline
 66
     1
 10
0.0
 20
0.0
 30
0.0
 70
   128
  0
VERTEX
  5
36BA
330
36B9
100
AcDbEntity
  8
LW 3540-32-00
100
AcDbVertex
100
AcDb2dVertex
 10
46.51999952316282
 20
-148.75
 30
0.0
  0
VERTEX
  5
36BB
330
36B9
100
AcDbEntity
  8
LW 3540-32-00
100
AcDbVertex
100
AcDb2dVertex
 10
46.50318386077879
 20
-148.9702785015106
 30
0.0
  0
VERTEX
  5
36BC
330
36B9
100
AcDbEntity
  8
LW 3540-32-00
100
AcDbVertex
100
AcDb2dVertex
 10
46.45250799179075
 20
-149.1909259557724
 30
0.0
  0
VERTEX
  5
36BD
330
36B9
100
AcDbEntity
  8
LW 3540-32-00
100
AcDbVertex
100
AcDb2dVertex
 10
46.36763216972349
 20
-149.4047135114669
 30
0.0
  0
VERTEX
  5
36BE
330
36B9
100
AcDbEntity
  8
LW 3540-32-00
100
AcDbVertex
100
AcDb2dVertex
 10
46.24932291030882
 20
-149.6049517393112
 30
0.0
  0
VERTEX
  5
36BF
330
36B9
100
AcDbEntity
  8
LW 3540-32-00
100
AcDbVertex
100
AcDb2dVertex
 10
46.10275866508482
 20
-149.7868710756302
 30
0.0
  0
VERTEX
  5
36C0
330
36B9
100
AcDbEntity
  8
LW 3540-32-00
100
AcDbVertex
100
AcDb2dVertex
 10
45.93421103477476
 20
-149.946129322052
 30
0.0
  0
VERTEX
  5
36C1
330
36B9
100
AcDbEntity
  8
LW 3540-32-00
100
AcDbVertex
100
AcDb2dVertex
 10
45.74194790840147
 20
-150.0848424434662
 30
0.0
  0
VERTEX
  5
36C2
330
36B9
100
AcDbEntity
  8
LW 3540-32-00
100
AcDbVertex
100
AcDb2dVertex
 10
45.52386404991148
 20
-150.2048063278198
 30
0.0
  0
VERTEX
  5
36C3
330
36B9
100
AcDbEntity
  8
LW 3540-32-00
100
AcDbVertex
100
AcDb2dVertex
 10
45.28566958427427
 20
-150.3011929988861
 30
0.0
  0
VERTEX
  5
36C4
330
36B9
100
AcDbEntity
  8
LW 3540-32-00
100
AcDbVertex
100
AcDb2dVertex
 10
45.0335335922241
 20
-150.3701031208038
 30
0.0
  0
VERTEX
  5
36C5
330
36B9
100
AcDbEntity
  8
LW 3540-32-00
100
AcDbVertex
100
AcDb2dVertex
 10
44.77547885894773
 20
-150.411137342453
 30
0.0
  0
VERTEX
  5
36C6
330
36B9
100
AcDbEntity
  8
LW 3540-32-00
100
AcDbVertex
100
AcDb2dVertex
 10
44.52000023841856
 20
-150.4247200489044
 30
0.0
  0
VERTEX
  5
36C7
330
36B9
100
AcDbEntity
  8
LW 3540-32-00
100
AcDbVertex
100
AcDb2dVertex
 10
44.26452042579649
 20
-150.411137342453
 30
0.0
  0
VERTEX
  5
36C8
330
36B9
100
AcDbEntity
  8
LW 3540-32-00
100
AcDbVertex
100
AcDb2dVertex
 10
44.00646688461302
 20
-150.3701031208038
 30
0.0
  0
VERTEX
  5
36C9
330
36B9
100
AcDbEntity
  8
LW 3540-32-00
100
AcDbVertex
100
AcDb2dVertex
 10
43.75433089256285
 20
-150.3011929988861
 30
0.0
  0
VERTEX
  5
36CA
330
36B9
100
AcDbEntity
  8
LW 3540-32-00
100
AcDbVertex
100
AcDb2dVertex
 10
43.51613642692564
 20
-150.2048063278198
 30
0.0
  0
VERTEX
  5
36CB
330
36B9
100
AcDbEntity
  8
LW 3540-32-00
100
AcDbVertex
100
AcDb2dVertex
 10
43.29805137634275
 20
-150.0848424434662
 30
0.0
  0
VERTEX
  5
36CC
330
36B9
100
AcDbEntity
  8
LW 3540-32-00
100
AcDbVertex
100
AcDb2dVertex
 10
43.10578944206236
 20
-149.946129322052
 30
0.0
  0
VERTEX
  5
36CD
330
36B9
100
AcDbEntity
  8
LW 3540-32-00
100
AcDbVertex
100
AcDb2dVertex
 10
42.9372418117523
 20
-149.7868710756302
 30
0.0
  0
VERTEX
  5
36CE
330
36B9
100
AcDbEntity
  8
LW 3540-32-00
100
AcDbVertex
100
AcDb2dVertex
 10
42.79067637443541
 20
-149.6049517393112
 30
0.0
  0
VERTEX
  5
36CF
330
36B9
100
AcDbEntity
  8
LW 3540-32-00
100
AcDbVertex
100
AcDb2dVertex
 10
42.67236830711363
 20
-149.4047135114669
 30
0.0
  0
VERTEX
  5
36D0
330
36B9
100
AcDbEntity
  8
LW 3540-32-00
100
AcDbVertex
100
AcDb2dVertex
 10
42.58749248504637
 20
-149.1909259557724
 30
0.0
  0
VERTEX
  5
36D1
330
36B9
100
AcDbEntity
  8
LW 3540-32-00
100
AcDbVertex
100
AcDb2dVertex
 10
42.53681661605833
 20
-148.9702785015106
 30
0.0
  0
VERTEX
  5
36D2
330
36B9
100
AcDbEntity
  8
LW 3540-32-00
100
AcDbVertex
100
AcDb2dVertex
 10
42.5199997615814
 20
-148.75
 30
0.0
  0
SEQEND
  5
36D3
330
36B9
100
AcDbEntity
  8
LW 3540-32-00
  0
POLYLINE
  5
36D4
330
3635
100
AcDbEntity
  8
LW 3540-32-00
100
AcDb2dPolyline
 66
     1
 10
0.0
 20
0.0
 30
0.0
 70
   128
  0
VERTEX
  5
36D5
330
36D4
100
AcDbEntity
  8
LW 3540-32-00
100
AcDbVertex
100
AcDb2dVertex
 10
42.5199997615814
 20
-148.75
 30
0.0
  0
VERTEX
  5
36D6
330
36D4
100
AcDbEntity
  8
LW 3540-32-00
100
AcDbVertex
100
AcDb2dVertex
 10
42.53681661605833
 20
-148.5277742147445
 30
0.0
  0
VERTEX
  5
36D7
330
36D4
100
AcDbEntity
  8
LW 3540-32-00
100
AcDbVertex
100
AcDb2dVertex
 10
42.58749248504637
 20
-148.3014559745788
 30
0.0
  0
VERTEX
  5
36D8
330
36D4
100
AcDbEntity
  8
LW 3540-32-00
100
AcDbVertex
100
AcDb2dVertex
 10
42.67236830711363
 20
-148.0785280466079
 30
0.0
  0
VERTEX
  5
36D9
330
36D4
100
AcDbEntity
  8
LW 3540-32-00
100
AcDbVertex
100
AcDb2dVertex
 10
42.79067637443541
 20
-147.8661978244781
 30
0.0
  0
VERTEX
  5
36DA
330
36D4
100
AcDbEntity
  8
LW 3540-32-00
100
AcDbVertex
100
AcDb2dVertex
 10
42.9372418117523
 20
-147.6703834533691
 30
0.0
  0
VERTEX
  5
36DB
330
36D4
100
AcDbEntity
  8
LW 3540-32-00
100
AcDbVertex
100
AcDb2dVertex
 10
43.10578944206236
 20
-147.4966341257095
 30
0.0
  0
VERTEX
  5
36DC
330
36D4
100
AcDbEntity
  8
LW 3540-32-00
100
AcDbVertex
100
AcDb2dVertex
 10
43.29805137634275
 20
-147.3434162139892
 30
0.0
  0
VERTEX
  5
36DD
330
36D4
100
AcDbEntity
  8
LW 3540-32-00
100
AcDbVertex
100
AcDb2dVertex
 10
43.51613642692564
 20
-147.2095239162445
 30
0.0
  0
VERTEX
  5
36DE
330
36D4
100
AcDbEntity
  8
LW 3540-32-00
100
AcDbVertex
100
AcDb2dVertex
 10
43.75433089256285
 20
-147.1009975671768
 30
0.0
  0
VERTEX
  5
36DF
330
36D4
100
AcDbEntity
  8
LW 3540-32-00
100
AcDbVertex
100
AcDb2dVertex
 10
44.00646688461302
 20
-147.0229011774063
 30
0.0
  0
VERTEX
  5
36E0
330
36D4
100
AcDbEntity
  8
LW 3540-32-00
100
AcDbVertex
100
AcDb2dVertex
 10
44.26452042579649
 20
-146.9761621952057
 30
0.0
  0
VERTEX
  5
36E1
330
36D4
100
AcDbEntity
  8
LW 3540-32-00
100
AcDbVertex
100
AcDb2dVertex
 10
44.52000023841856
 20
-146.9606184959411
 30
0.0
  0
VERTEX
  5
36E2
330
36D4
100
AcDbEntity
  8
LW 3540-32-00
100
AcDbVertex
100
AcDb2dVertex
 10
44.77547885894773
 20
-146.9761621952057
 30
0.0
  0
VERTEX
  5
36E3
330
36D4
100
AcDbEntity
  8
LW 3540-32-00
100
AcDbVertex
100
AcDb2dVertex
 10
45.0335335922241
 20
-147.0229011774063
 30
0.0
  0
VERTEX
  5
36E4
330
36D4
100
AcDbEntity
  8
LW 3540-32-00
100
AcDbVertex
100
AcDb2dVertex
 10
45.28566958427427
 20
-147.1009975671768
 30
0.0
  0
VERTEX
  5
36E5
330
36D4
100
AcDbEntity
  8
LW 3540-32-00
100
AcDbVertex
100
AcDb2dVertex
 10
45.52386404991148
 20
-147.2095239162445
 30
0.0
  0
VERTEX
  5
36E6
330
36D4
100
AcDbEntity
  8
LW 3540-32-00
100
AcDbVertex
100
AcDb2dVertex
 10
45.74194790840147
 20
-147.3434162139892
 30
0.0
  0
VERTEX
  5
36E7
330
36D4
100
AcDbEntity
  8
LW 3540-32-00
100
AcDbVertex
100
AcDb2dVertex
 10
45.93421103477476
 20
-147.4966341257095
 30
0.0
  0
VERTEX
  5
36E8
330
36D4
100
AcDbEntity
  8
LW 3540-32-00
100
AcDbVertex
100
AcDb2dVertex
 10
46.10275866508482
 20
-147.6703834533691
 30
0.0
  0
VERTEX
  5
36E9
330
36D4
100
AcDbEntity
  8
LW 3540-32-00
100
AcDbVertex
100
AcDb2dVertex
 10
46.24932291030882
 20
-147.8661978244781
 30
0.0
  0
VERTEX
  5
36EA
330
36D4
100
AcDbEntity
  8
LW 3540-32-00
100
AcDbVertex
100
AcDb2dVertex
 10
46.36763216972349
 20
-148.0785280466079
 30
0.0
  0
VERTEX
  5
36EB
330
36D4
100
AcDbEntity
  8
LW 3540-32-00
100
AcDbVertex
100
AcDb2dVertex
 10
46.45250799179075
 20
-148.3014559745788
 30
0.0
  0
VERTEX
  5
36EC
330
36D4
100
AcDbEntity
  8
LW 3540-32-00
100
AcDbVertex
100
AcDb2dVertex
 10
46.50318386077879
 20
-148.5277742147445
 30
0.0
  0
VERTEX
  5
36ED
330
36D4
100
AcDbEntity
  8
LW 3540-32-00
100
AcDbVertex
100
AcDb2dVertex
 10
46.51999952316282
 20
-148.75
 30
0.0
  0
SEQEND
  5
36EE
330
36D4
100
AcDbEntity
  8
LW 3540-32-00
  0
POLYLINE
  5
36EF
330
3635
100
AcDbEntity
  8
LW 3540-32-00
100
AcDb2dPolyline
 66
     1
 10
0.0
 20
0.0
 30
0.0
 70
   128
  0
VERTEX
  5
36F0
330
36EF
100
AcDbEntity
  8
LW 3540-32-00
100
AcDbVertex
100
AcDb2dVertex
 10
46.51999952316282
 20
-122.4999999999999
 30
0.0
  0
VERTEX
  5
36F1
330
36EF
100
AcDbEntity
  8
LW 3540-32-00
100
AcDbVertex
100
AcDb2dVertex
 10
46.50318386077879
 20
-122.5019466876983
 30
0.0
  0
VERTEX
  5
36F2
330
36EF
100
AcDbEntity
  8
LW 3540-32-00
100
AcDbVertex
100
AcDb2dVertex
 10
46.45250799179075
 20
-122.5076186656951
 30
0.0
  0
VERTEX
  5
36F3
330
36EF
100
AcDbEntity
  8
LW 3540-32-00
100
AcDbVertex
100
AcDb2dVertex
 10
46.36763216972349
 20
-122.516758441925
 30
0.0
  0
VERTEX
  5
36F4
330
36EF
100
AcDbEntity
  8
LW 3540-32-00
100
AcDbVertex
100
AcDb2dVertex
 10
46.24932291030882
 20
-122.528851032257
 30
0.0
  0
VERTEX
  5
36F5
330
36EF
100
AcDbEntity
  8
LW 3540-32-00
100
AcDbVertex
100
AcDb2dVertex
 10
46.10275866508482
 20
-122.5427460670471
 30
0.0
  0
VERTEX
  5
36F6
330
36EF
100
AcDbEntity
  8
LW 3540-32-00
100
AcDbVertex
100
AcDb2dVertex
 10
45.93421103477476
 20
-122.5572371482849
 30
0.0
  0
VERTEX
  5
36F7
330
36EF
100
AcDbEntity
  8
LW 3540-32-00
100
AcDbVertex
100
AcDb2dVertex
 10
45.74194790840147
 20
-122.5717413425445
 30
0.0
  0
VERTEX
  5
36F8
330
36EF
100
AcDbEntity
  8
LW 3540-32-00
100
AcDbVertex
100
AcDb2dVertex
 10
45.52386404991148
 20
-122.5856697559356
 30
0.0
  0
VERTEX
  5
36F9
330
36EF
100
AcDbEntity
  8
LW 3540-32-00
100
AcDbVertex
100
AcDb2dVertex
 10
45.28566958427427
 20
-122.5978088378906
 30
0.0
  0
VERTEX
  5
36FA
330
36EF
100
AcDbEntity
  8
LW 3540-32-00
100
AcDbVertex
100
AcDb2dVertex
 10
45.0335335922241
 20
-122.6069951057433
 30
0.0
  0
VERTEX
  5
36FB
330
36EF
100
AcDbEntity
  8
LW 3540-32-00
100
AcDbVertex
100
AcDb2dVertex
 10
44.77547885894773
 20
-122.6127004623412
 30
0.0
  0
VERTEX
  5
36FC
330
36EF
100
AcDbEntity
  8
LW 3540-32-00
100
AcDbVertex
100
AcDb2dVertex
 10
44.52000023841856
 20
-122.6146614551544
 30
0.0
  0
VERTEX
  5
36FD
330
36EF
100
AcDbEntity
  8
LW 3540-32-00
100
AcDbVertex
100
AcDb2dVertex
 10
44.26452042579649
 20
-122.6127004623412
 30
0.0
  0
VERTEX
  5
36FE
330
36EF
100
AcDbEntity
  8
LW 3540-32-00
100
AcDbVertex
100
AcDb2dVertex
 10
44.00646688461302
 20
-122.6069951057433
 30
0.0
  0
VERTEX
  5
36FF
330
36EF
100
AcDbEntity
  8
LW 3540-32-00
100
AcDbVertex
100
AcDb2dVertex
 10
43.75433089256285
 20
-122.5978088378906
 30
0.0
  0
VERTEX
  5
3700
330
36EF
100
AcDbEntity
  8
LW 3540-32-00
100
AcDbVertex
100
AcDb2dVertex
 10
43.51613642692564
 20
-122.5856697559356
 30
0.0
  0
VERTEX
  5
3701
330
36EF
100
AcDbEntity
  8
LW 3540-32-00
100
AcDbVertex
100
AcDb2dVertex
 10
43.29805137634275
 20
-122.5717413425445
 30
0.0
  0
VERTEX
  5
3702
330
36EF
100
AcDbEntity
  8
LW 3540-32-00
100
AcDbVertex
100
AcDb2dVertex
 10
43.10578944206236
 20
-122.5572371482849
 30
0.0
  0
VERTEX
  5
3703
330
36EF
100
AcDbEntity
  8
LW 3540-32-00
100
AcDbVertex
100
AcDb2dVertex
 10
42.9372418117523
 20
-122.5427460670471
 30
0.0
  0
VERTEX
  5
3704
330
36EF
100
AcDbEntity
  8
LW 3540-32-00
100
AcDbVertex
100
AcDb2dVertex
 10
42.79067637443541
 20
-122.528851032257
 30
0.0
  0
VERTEX
  5
3705
330
36EF
100
AcDbEntity
  8
LW 3540-32-00
100
AcDbVertex
100
AcDb2dVertex
 10
42.67236830711363
 20
-122.516758441925
 30
0.0
  0
VERTEX
  5
3706
330
36EF
100
AcDbEntity
  8
LW 3540-32-00
100
AcDbVertex
100
AcDb2dVertex
 10
42.58749248504637
 20
-122.5076186656951
 30
0.0
  0
VERTEX
  5
3707
330
36EF
100
AcDbEntity
  8
LW 3540-32-00
100
AcDbVertex
100
AcDb2dVertex
 10
42.53681661605833
 20
-122.5019466876983
 30
0.0
  0
VERTEX
  5
3708
330
36EF
100
AcDbEntity
  8
LW 3540-32-00
100
AcDbVertex
100
AcDb2dVertex
 10
42.5199997615814
 20
-122.4999999999999
 30
0.0
  0
SEQEND
  5
3709
330
36EF
100
AcDbEntity
  8
LW 3540-32-00
  0
LINE
  5
370A
330
3635
100
AcDbEntity
  8
LW 3540-32-00
100
AcDbLine
 10
48.51999999999998
 20
-157.5
 30
0.0
 11
48.51999999999998
 21
-122.4999999999999
 31
0.0
  0
LINE
  5
370B
330
3635
100
AcDbEntity
  8
LW 3540-32-00
100
AcDbLine
 10
51.51999999999998
 20
-154.4999999999999
 30
0.0
 11
51.51999999999998
 21
-125.5
 31
0.0
  0
LINE
  5
370C
330
3635
100
AcDbEntity
  8
LW 3540-32-00
100
AcDbLine
 10
28.51999999999998
 20
-122.4999999999999
 30
0.0
 11
42.51999999999998
 21
-122.4999999999999
 31
0.0
  0
LINE
  5
370D
330
3635
100
AcDbEntity
  8
LW 3540-32-00
100
AcDbLine
 10
46.51999999999998
 20
-122.4999999999999
 30
0.0
 11
48.51999999999998
 21
-122.4999999999999
 31
0.0
  0
LINE
  5
370E
330
3635
100
AcDbEntity
  8
LW 3540-32-00
100
AcDbLine
 10
28.51999999999998
 20
-157.5
 30
0.0
 11
48.51999999999998
 21
-157.5
 31
0.0
  0
LINE
  5
370F
330
3635
100
AcDbEntity
  8
LW 3540-32-00
100
AcDbLine
 10
51.51999999999998
 20
-154.4999999999999
 30
0.0
 11
48.51999999999998
 21
-157.5
 31
0.0
  0
LINE
  5
3710
330
3635
100
AcDbEntity
  8
LW 3540-32-00
100
AcDbLine
 10
51.51999999999998
 20
-125.5
 30
0.0
 11
48.51999999999998
 21
-122.4999999999999
 31
0.0
  0
ELLIPSE
  5
3711
330
3635
100
AcDbEntity
  8
LW 3540-32-00
100
AcDbEllipse
 10
-44.52
 20
-146.25
 30
0.0
 11
-1.999999999999997
 21
0.0000000000001147
 31
0.0
210
0.0
220
0.0
230
1.0
 40
0.8660254037844351
 41
0.7941688477848099
 42
2.347423805805161
  0
POLYLINE
  5
3712
330
3635
100
AcDbEntity
  8
LW 3540-32-00
100
AcDb2dPolyline
 66
     1
 10
0.0
 20
0.0
 30
0.0
 70
   128
  0
VERTEX
  5
3713
330
3712
100
AcDbEntity
  8
LW 3540-32-00
100
AcDbVertex
100
AcDb2dVertex
 10
-46.51999952316282
 20
-148.75
 30
0.0
  0
VERTEX
  5
3714
330
3712
100
AcDbEntity
  8
LW 3540-32-00
100
AcDbVertex
100
AcDb2dVertex
 10
-46.50318386077879
 20
-148.5277742147445
 30
0.0
  0
VERTEX
  5
3715
330
3712
100
AcDbEntity
  8
LW 3540-32-00
100
AcDbVertex
100
AcDb2dVertex
 10
-46.45250799179075
 20
-148.3014559745788
 30
0.0
  0
VERTEX
  5
3716
330
3712
100
AcDbEntity
  8
LW 3540-32-00
100
AcDbVertex
100
AcDb2dVertex
 10
-46.36763216972349
 20
-148.0785280466079
 30
0.0
  0
VERTEX
  5
3717
330
3712
100
AcDbEntity
  8
LW 3540-32-00
100
AcDbVertex
100
AcDb2dVertex
 10
-46.24932291030882
 20
-147.8661978244781
 30
0.0
  0
VERTEX
  5
3718
330
3712
100
AcDbEntity
  8
LW 3540-32-00
100
AcDbVertex
100
AcDb2dVertex
 10
-46.10275866508482
 20
-147.6703834533691
 30
0.0
  0
VERTEX
  5
3719
330
3712
100
AcDbEntity
  8
LW 3540-32-00
100
AcDbVertex
100
AcDb2dVertex
 10
-45.93421103477476
 20
-147.4966341257095
 30
0.0
  0
VERTEX
  5
371A
330
3712
100
AcDbEntity
  8
LW 3540-32-00
100
AcDbVertex
100
AcDb2dVertex
 10
-45.74194790840147
 20
-147.3434162139892
 30
0.0
  0
VERTEX
  5
371B
330
3712
100
AcDbEntity
  8
LW 3540-32-00
100
AcDbVertex
100
AcDb2dVertex
 10
-45.52386404991148
 20
-147.2095239162445
 30
0.0
  0
VERTEX
  5
371C
330
3712
100
AcDbEntity
  8
LW 3540-32-00
100
AcDbVertex
100
AcDb2dVertex
 10
-45.28566958427427
 20
-147.1009975671768
 30
0.0
  0
VERTEX
  5
371D
330
3712
100
AcDbEntity
  8
LW 3540-32-00
100
AcDbVertex
100
AcDb2dVertex
 10
-45.0335335922241
 20
-147.0229011774063
 30
0.0
  0
VERTEX
  5
371E
330
3712
100
AcDbEntity
  8
LW 3540-32-00
100
AcDbVertex
100
AcDb2dVertex
 10
-44.77547885894773
 20
-146.9761621952057
 30
0.0
  0
VERTEX
  5
371F
330
3712
100
AcDbEntity
  8
LW 3540-32-00
100
AcDbVertex
100
AcDb2dVertex
 10
-44.52000023841856
 20
-146.9606184959411
 30
0.0
  0
VERTEX
  5
3720
330
3712
100
AcDbEntity
  8
LW 3540-32-00
100
AcDbVertex
100
AcDb2dVertex
 10
-44.26452042579649
 20
-146.9761621952057
 30
0.0
  0
VERTEX
  5
3721
330
3712
100
AcDbEntity
  8
LW 3540-32-00
100
AcDbVertex
100
AcDb2dVertex
 10
-44.00646688461302
 20
-147.0229011774063
 30
0.0
  0
VERTEX
  5
3722
330
3712
100
AcDbEntity
  8
LW 3540-32-00
100
AcDbVertex
100
AcDb2dVertex
 10
-43.75433089256285
 20
-147.1009975671768
 30
0.0
  0
VERTEX
  5
3723
330
3712
100
AcDbEntity
  8
LW 3540-32-00
100
AcDbVertex
100
AcDb2dVertex
 10
-43.51613642692564
 20
-147.2095239162445
 30
0.0
  0
VERTEX
  5
3724
330
3712
100
AcDbEntity
  8
LW 3540-32-00
100
AcDbVertex
100
AcDb2dVertex
 10
-43.29805137634275
 20
-147.3434162139892
 30
0.0
  0
VERTEX
  5
3725
330
3712
100
AcDbEntity
  8
LW 3540-32-00
100
AcDbVertex
100
AcDb2dVertex
 10
-43.10578944206236
 20
-147.4966341257095
 30
0.0
  0
VERTEX
  5
3726
330
3712
100
AcDbEntity
  8
LW 3540-32-00
100
AcDbVertex
100
AcDb2dVertex
 10
-42.9372418117523
 20
-147.6703834533691
 30
0.0
  0
VERTEX
  5
3727
330
3712
100
AcDbEntity
  8
LW 3540-32-00
100
AcDbVertex
100
AcDb2dVertex
 10
-42.79067637443541
 20
-147.8661978244781
 30
0.0
  0
VERTEX
  5
3728
330
3712
100
AcDbEntity
  8
LW 3540-32-00
100
AcDbVertex
100
AcDb2dVertex
 10
-42.67236830711363
 20
-148.0785280466079
 30
0.0
  0
VERTEX
  5
3729
330
3712
100
AcDbEntity
  8
LW 3540-32-00
100
AcDbVertex
100
AcDb2dVertex
 10
-42.58749248504637
 20
-148.3014559745788
 30
0.0
  0
VERTEX
  5
372A
330
3712
100
AcDbEntity
  8
LW 3540-32-00
100
AcDbVertex
100
AcDb2dVertex
 10
-42.53681661605833
 20
-148.5277742147445
 30
0.0
  0
VERTEX
  5
372B
330
3712
100
AcDbEntity
  8
LW 3540-32-00
100
AcDbVertex
100
AcDb2dVertex
 10
-42.5199997615814
 20
-148.75
 30
0.0
  0
SEQEND
  5
372C
330
3712
100
AcDbEntity
  8
LW 3540-32-00
  0
POLYLINE
  5
372D
330
3635
100
AcDbEntity
  8
LW 3540-32-00
100
AcDb2dPolyline
 66
     1
 10
0.0
 20
0.0
 30
0.0
 70
   128
  0
VERTEX
  5
372E
330
372D
100
AcDbEntity
  8
LW 3540-32-00
100
AcDbVertex
100
AcDb2dVertex
 10
-42.5199997615814
 20
-148.75
 30
0.0
  0
VERTEX
  5
372F
330
372D
100
AcDbEntity
  8
LW 3540-32-00
100
AcDbVertex
100
AcDb2dVertex
 10
-42.53681661605833
 20
-148.9702785015106
 30
0.0
  0
VERTEX
  5
3730
330
372D
100
AcDbEntity
  8
LW 3540-32-00
100
AcDbVertex
100
AcDb2dVertex
 10
-42.58749248504637
 20
-149.1909259557724
 30
0.0
  0
VERTEX
  5
3731
330
372D
100
AcDbEntity
  8
LW 3540-32-00
100
AcDbVertex
100
AcDb2dVertex
 10
-42.67236830711363
 20
-149.4047135114669
 30
0.0
  0
VERTEX
  5
3732
330
372D
100
AcDbEntity
  8
LW 3540-32-00
100
AcDbVertex
100
AcDb2dVertex
 10
-42.79067637443541
 20
-149.6049517393112
 30
0.0
  0
VERTEX
  5
3733
330
372D
100
AcDbEntity
  8
LW 3540-32-00
100
AcDbVertex
100
AcDb2dVertex
 10
-42.9372418117523
 20
-149.7868710756302
 30
0.0
  0
VERTEX
  5
3734
330
372D
100
AcDbEntity
  8
LW 3540-32-00
100
AcDbVertex
100
AcDb2dVertex
 10
-43.10578944206236
 20
-149.946129322052
 30
0.0
  0
VERTEX
  5
3735
330
372D
100
AcDbEntity
  8
LW 3540-32-00
100
AcDbVertex
100
AcDb2dVertex
 10
-43.29805137634275
 20
-150.0848424434662
 30
0.0
  0
VERTEX
  5
3736
330
372D
100
AcDbEntity
  8
LW 3540-32-00
100
AcDbVertex
100
AcDb2dVertex
 10
-43.51613642692564
 20
-150.2048063278198
 30
0.0
  0
VERTEX
  5
3737
330
372D
100
AcDbEntity
  8
LW 3540-32-00
100
AcDbVertex
100
AcDb2dVertex
 10
-43.75433089256285
 20
-150.3011929988861
 30
0.0
  0
VERTEX
  5
3738
330
372D
100
AcDbEntity
  8
LW 3540-32-00
100
AcDbVertex
100
AcDb2dVertex
 10
-44.00646688461302
 20
-150.3701031208038
 30
0.0
  0
VERTEX
  5
3739
330
372D
100
AcDbEntity
  8
LW 3540-32-00
100
AcDbVertex
100
AcDb2dVertex
 10
-44.26452042579649
 20
-150.411137342453
 30
0.0
  0
VERTEX
  5
373A
330
372D
100
AcDbEntity
  8
LW 3540-32-00
100
AcDbVertex
100
AcDb2dVertex
 10
-44.52000023841856
 20
-150.4247200489044
 30
0.0
  0
VERTEX
  5
373B
330
372D
100
AcDbEntity
  8
LW 3540-32-00
100
AcDbVertex
100
AcDb2dVertex
 10
-44.77547885894773
 20
-150.411137342453
 30
0.0
  0
VERTEX
  5
373C
330
372D
100
AcDbEntity
  8
LW 3540-32-00
100
AcDbVertex
100
AcDb2dVertex
 10
-45.0335335922241
 20
-150.3701031208038
 30
0.0
  0
VERTEX
  5
373D
330
372D
100
AcDbEntity
  8
LW 3540-32-00
100
AcDbVertex
100
AcDb2dVertex
 10
-45.28566958427427
 20
-150.3011929988861
 30
0.0
  0
VERTEX
  5
373E
330
372D
100
AcDbEntity
  8
LW 3540-32-00
100
AcDbVertex
100
AcDb2dVertex
 10
-45.52386404991148
 20
-150.2048063278198
 30
0.0
  0
VERTEX
  5
373F
330
372D
100
AcDbEntity
  8
LW 3540-32-00
100
AcDbVertex
100
AcDb2dVertex
 10
-45.74194790840147
 20
-150.0848424434662
 30
0.0
  0
VERTEX
  5
3740
330
372D
100
AcDbEntity
  8
LW 3540-32-00
100
AcDbVertex
100
AcDb2dVertex
 10
-45.93421103477476
 20
-149.946129322052
 30
0.0
  0
VERTEX
  5
3741
330
372D
100
AcDbEntity
  8
LW 3540-32-00
100
AcDbVertex
100
AcDb2dVertex
 10
-46.10275866508482
 20
-149.7868710756302
 30
0.0
  0
VERTEX
  5
3742
330
372D
100
AcDbEntity
  8
LW 3540-32-00
100
AcDbVertex
100
AcDb2dVertex
 10
-46.24932291030882
 20
-149.6049517393112
 30
0.0
  0
VERTEX
  5
3743
330
372D
100
AcDbEntity
  8
LW 3540-32-00
100
AcDbVertex
100
AcDb2dVertex
 10
-46.36763216972349
 20
-149.4047135114669
 30
0.0
  0
VERTEX
  5
3744
330
372D
100
AcDbEntity
  8
LW 3540-32-00
100
AcDbVertex
100
AcDb2dVertex
 10
-46.45250799179075
 20
-149.1909259557724
 30
0.0
  0
VERTEX
  5
3745
330
372D
100
AcDbEntity
  8
LW 3540-32-00
100
AcDbVertex
100
AcDb2dVertex
 10
-46.50318386077879
 20
-148.9702785015106
 30
0.0
  0
VERTEX
  5
3746
330
372D
100
AcDbEntity
  8
LW 3540-32-00
100
AcDbVertex
100
AcDb2dVertex
 10
-46.51999952316282
 20
-148.75
 30
0.0
  0
SEQEND
  5
3747
330
372D
100
AcDbEntity
  8
LW 3540-32-00
  0
POLYLINE
  5
3748
330
3635
100
AcDbEntity
  8
LW 3540-32-00
100
AcDb2dPolyline
 66
     1
 10
0.0
 20
0.0
 30
0.0
 70
   128
  0
VERTEX
  5
3749
330
3748
100
AcDbEntity
  8
LW 3540-32-00
100
AcDbVertex
100
AcDb2dVertex
 10
-42.5199997615814
 20
-122.4999999999999
 30
0.0
  0
VERTEX
  5
374A
330
3748
100
AcDbEntity
  8
LW 3540-32-00
100
AcDbVertex
100
AcDb2dVertex
 10
-42.53681661605833
 20
-122.5019466876983
 30
0.0
  0
VERTEX
  5
374B
330
3748
100
AcDbEntity
  8
LW 3540-32-00
100
AcDbVertex
100
AcDb2dVertex
 10
-42.58749248504637
 20
-122.5076186656951
 30
0.0
  0
VERTEX
  5
374C
330
3748
100
AcDbEntity
  8
LW 3540-32-00
100
AcDbVertex
100
AcDb2dVertex
 10
-42.67236830711363
 20
-122.516758441925
 30
0.0
  0
VERTEX
  5
374D
330
3748
100
AcDbEntity
  8
LW 3540-32-00
100
AcDbVertex
100
AcDb2dVertex
 10
-42.79067637443541
 20
-122.528851032257
 30
0.0
  0
VERTEX
  5
374E
330
3748
100
AcDbEntity
  8
LW 3540-32-00
100
AcDbVertex
100
AcDb2dVertex
 10
-42.9372418117523
 20
-122.5427460670471
 30
0.0
  0
VERTEX
  5
374F
330
3748
100
AcDbEntity
  8
LW 3540-32-00
100
AcDbVertex
100
AcDb2dVertex
 10
-43.10578944206236
 20
-122.5572371482849
 30
0.0
  0
VERTEX
  5
3750
330
3748
100
AcDbEntity
  8
LW 3540-32-00
100
AcDbVertex
100
AcDb2dVertex
 10
-43.29805137634275
 20
-122.5717413425445
 30
0.0
  0
VERTEX
  5
3751
330
3748
100
AcDbEntity
  8
LW 3540-32-00
100
AcDbVertex
100
AcDb2dVertex
 10
-43.51613642692564
 20
-122.5856697559356
 30
0.0
  0
VERTEX
  5
3752
330
3748
100
AcDbEntity
  8
LW 3540-32-00
100
AcDbVertex
100
AcDb2dVertex
 10
-43.75433089256285
 20
-122.5978088378906
 30
0.0
  0
VERTEX
  5
3753
330
3748
100
AcDbEntity
  8
LW 3540-32-00
100
AcDbVertex
100
AcDb2dVertex
 10
-44.00646688461302
 20
-122.6069951057433
 30
0.0
  0
VERTEX
  5
3754
330
3748
100
AcDbEntity
  8
LW 3540-32-00
100
AcDbVertex
100
AcDb2dVertex
 10
-44.26452042579649
 20
-122.6127004623412
 30
0.0
  0
VERTEX
  5
3755
330
3748
100
AcDbEntity
  8
LW 3540-32-00
100
AcDbVertex
100
AcDb2dVertex
 10
-44.52000023841856
 20
-122.6146614551544
 30
0.0
  0
VERTEX
  5
3756
330
3748
100
AcDbEntity
  8
LW 3540-32-00
100
AcDbVertex
100
AcDb2dVertex
 10
-44.77547885894773
 20
-122.6127004623412
 30
0.0
  0
VERTEX
  5
3757
330
3748
100
AcDbEntity
  8
LW 3540-32-00
100
AcDbVertex
100
AcDb2dVertex
 10
-45.0335335922241
 20
-122.6069951057433
 30
0.0
  0
VERTEX
  5
3758
330
3748
100
AcDbEntity
  8
LW 3540-32-00
100
AcDbVertex
100
AcDb2dVertex
 10
-45.28566958427427
 20
-122.5978088378906
 30
0.0
  0
VERTEX
  5
3759
330
3748
100
AcDbEntity
  8
LW 3540-32-00
100
AcDbVertex
100
AcDb2dVertex
 10
-45.52386404991148
 20
-122.5856697559356
 30
0.0
  0
VERTEX
  5
375A
330
3748
100
AcDbEntity
  8
LW 3540-32-00
100
AcDbVertex
100
AcDb2dVertex
 10
-45.74194790840147
 20
-122.5717413425445
 30
0.0
  0
VERTEX
  5
375B
330
3748
100
AcDbEntity
  8
LW 3540-32-00
100
AcDbVertex
100
AcDb2dVertex
 10
-45.93421103477476
 20
-122.5572371482849
 30
0.0
  0
VERTEX
  5
375C
330
3748
100
AcDbEntity
  8
LW 3540-32-00
100
AcDbVertex
100
AcDb2dVertex
 10
-46.10275866508482
 20
-122.5427460670471
 30
0.0
  0
VERTEX
  5
375D
330
3748
100
AcDbEntity
  8
LW 3540-32-00
100
AcDbVertex
100
AcDb2dVertex
 10
-46.24932291030882
 20
-122.528851032257
 30
0.0
  0
VERTEX
  5
375E
330
3748
100
AcDbEntity
  8
LW 3540-32-00
100
AcDbVertex
100
AcDb2dVertex
 10
-46.36763216972349
 20
-122.516758441925
 30
0.0
  0
VERTEX
  5
375F
330
3748
100
AcDbEntity
  8
LW 3540-32-00
100
AcDbVertex
100
AcDb2dVertex
 10
-46.45250799179075
 20
-122.5076186656951
 30
0.0
  0
VERTEX
  5
3760
330
3748
100
AcDbEntity
  8
LW 3540-32-00
100
AcDbVertex
100
AcDb2dVertex
 10
-46.50318386077879
 20
-122.5019466876983
 30
0.0
  0
VERTEX
  5
3761
330
3748
100
AcDbEntity
  8
LW 3540-32-00
100
AcDbVertex
100
AcDb2dVertex
 10
-46.51999952316282
 20
-122.4999999999999
 30
0.0
  0
SEQEND
  5
3762
330
3748
100
AcDbEntity
  8
LW 3540-32-00
  0
LINE
  5
3763
330
3635
100
AcDbEntity
  8
LW 3540-32-00
100
AcDbLine
 10
-48.51999999999998
 20
-122.4999999999999
 30
0.0
 11
-48.51999999999998
 21
-157.5
 31
0.0
  0
LINE
  5
3764
330
3635
100
AcDbEntity
  8
LW 3540-32-00
100
AcDbLine
 10
-51.51999999999998
 20
-125.5
 30
0.0
 11
-51.51999999999998
 21
-154.4999999999999
 31
0.0
  0
LINE
  5
3765
330
3635
100
AcDbEntity
  8
LW 3540-32-00
100
AcDbLine
 10
-28.51999999999998
 20
-157.5
 30
0.0
 11
-48.51999999999998
 21
-157.5
 31
0.0
  0
LINE
  5
3766
330
3635
100
AcDbEntity
  8
LW 3540-32-00
100
AcDbLine
 10
-28.51999999999998
 20
-122.4999999999999
 30
0.0
 11
-42.52000000000001
 21
-122.4999999999999
 31
0.0
  0
LINE
  5
3767
330
3635
100
AcDbEntity
  8
LW 3540-32-00
100
AcDbLine
 10
-46.51999999999998
 20
-122.4999999999999
 30
0.0
 11
-48.51999999999998
 21
-122.4999999999999
 31
0.0
  0
LINE
  5
3768
330
3635
100
AcDbEntity
  8
LW 3540-32-00
100
AcDbLine
 10
-51.51999999999998
 20
-125.5
 30
0.0
 11
-48.51999999999998
 21
-122.4999999999999
 31
0.0
  0
LINE
  5
3769
330
3635
100
AcDbEntity
  8
LW 3540-32-00
100
AcDbLine
 10
-51.51999999999998
 20
-154.4999999999999
 30
0.0
 11
-48.51999999999998
 21
-157.5
 31
0.0
  0
ELLIPSE
  5
376A
330
3635
100
AcDbEntity
  8
LW 3540-32-00
100
AcDbEllipse
 10
-44.52
 20
-66.25
 30
0.0
 11
-1.999999999999942
 21
0.0000000000001831
 31
0.0
210
0.0
220
0.0
230
1.0
 40
0.866025403784473
 41
0.794168847784833
 42
2.347423805805217
  0
POLYLINE
  5
376B
330
3635
100
AcDbEntity
  8
LW 3540-32-00
100
AcDb2dPolyline
 66
     1
 10
0.0
 20
0.0
 30
0.0
 70
   128
  0
VERTEX
  5
376C
330
376B
100
AcDbEntity
  8
LW 3540-32-00
100
AcDbVertex
100
AcDb2dVertex
 10
-46.51999952316282
 20
-68.75
 30
0.0
  0
VERTEX
  5
376D
330
376B
100
AcDbEntity
  8
LW 3540-32-00
100
AcDbVertex
100
AcDb2dVertex
 10
-46.50318386077879
 20
-68.52777421474456
 30
0.0
  0
VERTEX
  5
376E
330
376B
100
AcDbEntity
  8
LW 3540-32-00
100
AcDbVertex
100
AcDb2dVertex
 10
-46.45250799179075
 20
-68.30145597457885
 30
0.0
  0
VERTEX
  5
376F
330
376B
100
AcDbEntity
  8
LW 3540-32-00
100
AcDbVertex
100
AcDb2dVertex
 10
-46.36763216972349
 20
-68.07852804660797
 30
0.0
  0
VERTEX
  5
3770
330
376B
100
AcDbEntity
  8
LW 3540-32-00
100
AcDbVertex
100
AcDb2dVertex
 10
-46.24932291030882
 20
-67.86619782447814
 30
0.0
  0
VERTEX
  5
3771
330
376B
100
AcDbEntity
  8
LW 3540-32-00
100
AcDbVertex
100
AcDb2dVertex
 10
-46.10275866508482
 20
-67.67038345336914
 30
0.0
  0
VERTEX
  5
3772
330
376B
100
AcDbEntity
  8
LW 3540-32-00
100
AcDbVertex
100
AcDb2dVertex
 10
-45.93421103477476
 20
-67.49663412570953
 30
0.0
  0
VERTEX
  5
3773
330
376B
100
AcDbEntity
  8
LW 3540-32-00
100
AcDbVertex
100
AcDb2dVertex
 10
-45.74194790840147
 20
-67.34341621398925
 30
0.0
  0
VERTEX
  5
3774
330
376B
100
AcDbEntity
  8
LW 3540-32-00
100
AcDbVertex
100
AcDb2dVertex
 10
-45.52386404991148
 20
-67.2095239162445
 30
0.0
  0
VERTEX
  5
3775
330
376B
100
AcDbEntity
  8
LW 3540-32-00
100
AcDbVertex
100
AcDb2dVertex
 10
-45.28566958427427
 20
-67.10099756717681
 30
0.0
  0
VERTEX
  5
3776
330
376B
100
AcDbEntity
  8
LW 3540-32-00
100
AcDbVertex
100
AcDb2dVertex
 10
-45.0335335922241
 20
-67.02290117740631
 30
0.0
  0
VERTEX
  5
3777
330
376B
100
AcDbEntity
  8
LW 3540-32-00
100
AcDbVertex
100
AcDb2dVertex
 10
-44.77547885894773
 20
-66.97616219520568
 30
0.0
  0
VERTEX
  5
3778
330
376B
100
AcDbEntity
  8
LW 3540-32-00
100
AcDbVertex
100
AcDb2dVertex
 10
-44.52000023841856
 20
-66.96061849594116
 30
0.0
  0
VERTEX
  5
3779
330
376B
100
AcDbEntity
  8
LW 3540-32-00
100
AcDbVertex
100
AcDb2dVertex
 10
-44.26452042579649
 20
-66.97616219520568
 30
0.0
  0
VERTEX
  5
377A
330
376B
100
AcDbEntity
  8
LW 3540-32-00
100
AcDbVertex
100
AcDb2dVertex
 10
-44.00646688461302
 20
-67.02290117740631
 30
0.0
  0
VERTEX
  5
377B
330
376B
100
AcDbEntity
  8
LW 3540-32-00
100
AcDbVertex
100
AcDb2dVertex
 10
-43.75433089256285
 20
-67.10099756717681
 30
0.0
  0
VERTEX
  5
377C
330
376B
100
AcDbEntity
  8
LW 3540-32-00
100
AcDbVertex
100
AcDb2dVertex
 10
-43.51613642692564
 20
-67.2095239162445
 30
0.0
  0
VERTEX
  5
377D
330
376B
100
AcDbEntity
  8
LW 3540-32-00
100
AcDbVertex
100
AcDb2dVertex
 10
-43.29805137634275
 20
-67.34341621398925
 30
0.0
  0
VERTEX
  5
377E
330
376B
100
AcDbEntity
  8
LW 3540-32-00
100
AcDbVertex
100
AcDb2dVertex
 10
-43.10578944206236
 20
-67.49663412570953
 30
0.0
  0
VERTEX
  5
377F
330
376B
100
AcDbEntity
  8
LW 3540-32-00
100
AcDbVertex
100
AcDb2dVertex
 10
-42.9372418117523
 20
-67.67038345336914
 30
0.0
  0
VERTEX
  5
3780
330
376B
100
AcDbEntity
  8
LW 3540-32-00
100
AcDbVertex
100
AcDb2dVertex
 10
-42.79067637443541
 20
-67.86619782447814
 30
0.0
  0
VERTEX
  5
3781
330
376B
100
AcDbEntity
  8
LW 3540-32-00
100
AcDbVertex
100
AcDb2dVertex
 10
-42.67236830711363
 20
-68.07852804660797
 30
0.0
  0
VERTEX
  5
3782
330
376B
100
AcDbEntity
  8
LW 3540-32-00
100
AcDbVertex
100
AcDb2dVertex
 10
-42.58749248504637
 20
-68.30145597457885
 30
0.0
  0
VERTEX
  5
3783
330
376B
100
AcDbEntity
  8
LW 3540-32-00
100
AcDbVertex
100
AcDb2dVertex
 10
-42.53681661605833
 20
-68.52777421474456
 30
0.0
  0
VERTEX
  5
3784
330
376B
100
AcDbEntity
  8
LW 3540-32-00
100
AcDbVertex
100
AcDb2dVertex
 10
-42.5199997615814
 20
-68.75
 30
0.0
  0
SEQEND
  5
3785
330
376B
100
AcDbEntity
  8
LW 3540-32-00
  0
POLYLINE
  5
3786
330
3635
100
AcDbEntity
  8
LW 3540-32-00
100
AcDb2dPolyline
 66
     1
 10
0.0
 20
0.0
 30
0.0
 70
   128
  0
VERTEX
  5
3787
330
3786
100
AcDbEntity
  8
LW 3540-32-00
100
AcDbVertex
100
AcDb2dVertex
 10
-42.5199997615814
 20
-68.75
 30
0.0
  0
VERTEX
  5
3788
330
3786
100
AcDbEntity
  8
LW 3540-32-00
100
AcDbVertex
100
AcDb2dVertex
 10
-42.53681661605833
 20
-68.97027850151062
 30
0.0
  0
VERTEX
  5
3789
330
3786
100
AcDbEntity
  8
LW 3540-32-00
100
AcDbVertex
100
AcDb2dVertex
 10
-42.58749248504637
 20
-69.19092595577239
 30
0.0
  0
VERTEX
  5
378A
330
3786
100
AcDbEntity
  8
LW 3540-32-00
100
AcDbVertex
100
AcDb2dVertex
 10
-42.67236830711363
 20
-69.40471351146697
 30
0.0
  0
VERTEX
  5
378B
330
3786
100
AcDbEntity
  8
LW 3540-32-00
100
AcDbVertex
100
AcDb2dVertex
 10
-42.79067637443541
 20
-69.60495173931121
 30
0.0
  0
VERTEX
  5
378C
330
3786
100
AcDbEntity
  8
LW 3540-32-00
100
AcDbVertex
100
AcDb2dVertex
 10
-42.9372418117523
 20
-69.78687107563018
 30
0.0
  0
VERTEX
  5
378D
330
3786
100
AcDbEntity
  8
LW 3540-32-00
100
AcDbVertex
100
AcDb2dVertex
 10
-43.10578944206236
 20
-69.946129322052
 30
0.0
  0
VERTEX
  5
378E
330
3786
100
AcDbEntity
  8
LW 3540-32-00
100
AcDbVertex
100
AcDb2dVertex
 10
-43.29805137634275
 20
-70.08484244346618
 30
0.0
  0
VERTEX
  5
378F
330
3786
100
AcDbEntity
  8
LW 3540-32-00
100
AcDbVertex
100
AcDb2dVertex
 10
-43.51613642692564
 20
-70.20480632781982
 30
0.0
  0
VERTEX
  5
3790
330
3786
100
AcDbEntity
  8
LW 3540-32-00
100
AcDbVertex
100
AcDb2dVertex
 10
-43.75433089256285
 20
-70.3011929988861
 30
0.0
  0
VERTEX
  5
3791
330
3786
100
AcDbEntity
  8
LW 3540-32-00
100
AcDbVertex
100
AcDb2dVertex
 10
-44.00646688461302
 20
-70.37010312080383
 30
0.0
  0
VERTEX
  5
3792
330
3786
100
AcDbEntity
  8
LW 3540-32-00
100
AcDbVertex
100
AcDb2dVertex
 10
-44.26452042579649
 20
-70.411137342453
 30
0.0
  0
VERTEX
  5
3793
330
3786
100
AcDbEntity
  8
LW 3540-32-00
100
AcDbVertex
100
AcDb2dVertex
 10
-44.52000023841856
 20
-70.42472004890441
 30
0.0
  0
VERTEX
  5
3794
330
3786
100
AcDbEntity
  8
LW 3540-32-00
100
AcDbVertex
100
AcDb2dVertex
 10
-44.77547885894773
 20
-70.411137342453
 30
0.0
  0
VERTEX
  5
3795
330
3786
100
AcDbEntity
  8
LW 3540-32-00
100
AcDbVertex
100
AcDb2dVertex
 10
-45.0335335922241
 20
-70.37010312080383
 30
0.0
  0
VERTEX
  5
3796
330
3786
100
AcDbEntity
  8
LW 3540-32-00
100
AcDbVertex
100
AcDb2dVertex
 10
-45.28566958427427
 20
-70.3011929988861
 30
0.0
  0
VERTEX
  5
3797
330
3786
100
AcDbEntity
  8
LW 3540-32-00
100
AcDbVertex
100
AcDb2dVertex
 10
-45.52386404991148
 20
-70.20480632781982
 30
0.0
  0
VERTEX
  5
3798
330
3786
100
AcDbEntity
  8
LW 3540-32-00
100
AcDbVertex
100
AcDb2dVertex
 10
-45.74194790840147
 20
-70.08484244346618
 30
0.0
  0
VERTEX
  5
3799
330
3786
100
AcDbEntity
  8
LW 3540-32-00
100
AcDbVertex
100
AcDb2dVertex
 10
-45.93421103477476
 20
-69.946129322052
 30
0.0
  0
VERTEX
  5
379A
330
3786
100
AcDbEntity
  8
LW 3540-32-00
100
AcDbVertex
100
AcDb2dVertex
 10
-46.10275866508482
 20
-69.78687107563018
 30
0.0
  0
VERTEX
  5
379B
330
3786
100
AcDbEntity
  8
LW 3540-32-00
100
AcDbVertex
100
AcDb2dVertex
 10
-46.24932291030882
 20
-69.60495173931121
 30
0.0
  0
VERTEX
  5
379C
330
3786
100
AcDbEntity
  8
LW 3540-32-00
100
AcDbVertex
100
AcDb2dVertex
 10
-46.36763216972349
 20
-69.40471351146697
 30
0.0
  0
VERTEX
  5
379D
330
3786
100
AcDbEntity
  8
LW 3540-32-00
100
AcDbVertex
100
AcDb2dVertex
 10
-46.45250799179075
 20
-69.19092595577239
 30
0.0
  0
VERTEX
  5
379E
330
3786
100
AcDbEntity
  8
LW 3540-32-00
100
AcDbVertex
100
AcDb2dVertex
 10
-46.50318386077879
 20
-68.97027850151062
 30
0.0
  0
VERTEX
  5
379F
330
3786
100
AcDbEntity
  8
LW 3540-32-00
100
AcDbVertex
100
AcDb2dVertex
 10
-46.51999952316282
 20
-68.75
 30
0.0
  0
SEQEND
  5
37A0
330
3786
100
AcDbEntity
  8
LW 3540-32-00
  0
POLYLINE
  5
37A1
330
3635
100
AcDbEntity
  8
LW 3540-32-00
100
AcDb2dPolyline
 66
     1
 10
0.0
 20
0.0
 30
0.0
 70
   128
  0
VERTEX
  5
37A2
330
37A1
100
AcDbEntity
  8
LW 3540-32-00
100
AcDbVertex
100
AcDb2dVertex
 10
-42.5199997615814
 20
-42.5
 30
0.0
  0
VERTEX
  5
37A3
330
37A1
100
AcDbEntity
  8
LW 3540-32-00
100
AcDbVertex
100
AcDb2dVertex
 10
-42.53681661605833
 20
-42.50194668769836
 30
0.0
  0
VERTEX
  5
37A4
330
37A1
100
AcDbEntity
  8
LW 3540-32-00
100
AcDbVertex
100
AcDb2dVertex
 10
-42.58749248504637
 20
-42.50761866569519
 30
0.0
  0
VERTEX
  5
37A5
330
37A1
100
AcDbEntity
  8
LW 3540-32-00
100
AcDbVertex
100
AcDb2dVertex
 10
-42.67236830711363
 20
-42.51675844192504
 30
0.0
  0
VERTEX
  5
37A6
330
37A1
100
AcDbEntity
  8
LW 3540-32-00
100
AcDbVertex
100
AcDb2dVertex
 10
-42.79067637443541
 20
-42.52885103225708
 30
0.0
  0
VERTEX
  5
37A7
330
37A1
100
AcDbEntity
  8
LW 3540-32-00
100
AcDbVertex
100
AcDb2dVertex
 10
-42.9372418117523
 20
-42.54274606704711
 30
0.0
  0
VERTEX
  5
37A8
330
37A1
100
AcDbEntity
  8
LW 3540-32-00
100
AcDbVertex
100
AcDb2dVertex
 10
-43.10578944206236
 20
-42.55723714828491
 30
0.0
  0
VERTEX
  5
37A9
330
37A1
100
AcDbEntity
  8
LW 3540-32-00
100
AcDbVertex
100
AcDb2dVertex
 10
-43.29805137634275
 20
-42.57174134254455
 30
0.0
  0
VERTEX
  5
37AA
330
37A1
100
AcDbEntity
  8
LW 3540-32-00
100
AcDbVertex
100
AcDb2dVertex
 10
-43.51613642692564
 20
-42.58566975593566
 30
0.0
  0
VERTEX
  5
37AB
330
37A1
100
AcDbEntity
  8
LW 3540-32-00
100
AcDbVertex
100
AcDb2dVertex
 10
-43.75433089256285
 20
-42.59780883789062
 30
0.0
  0
VERTEX
  5
37AC
330
37A1
100
AcDbEntity
  8
LW 3540-32-00
100
AcDbVertex
100
AcDb2dVertex
 10
-44.00646688461302
 20
-42.6069951057434
 30
0.0
  0
VERTEX
  5
37AD
330
37A1
100
AcDbEntity
  8
LW 3540-32-00
100
AcDbVertex
100
AcDb2dVertex
 10
-44.26452042579649
 20
-42.6127004623413
 30
0.0
  0
VERTEX
  5
37AE
330
37A1
100
AcDbEntity
  8
LW 3540-32-00
100
AcDbVertex
100
AcDb2dVertex
 10
-44.52000023841856
 20
-42.61466145515441
 30
0.0
  0
VERTEX
  5
37AF
330
37A1
100
AcDbEntity
  8
LW 3540-32-00
100
AcDbVertex
100
AcDb2dVertex
 10
-44.77547885894773
 20
-42.6127004623413
 30
0.0
  0
VERTEX
  5
37B0
330
37A1
100
AcDbEntity
  8
LW 3540-32-00
100
AcDbVertex
100
AcDb2dVertex
 10
-45.0335335922241
 20
-42.6069951057434
 30
0.0
  0
VERTEX
  5
37B1
330
37A1
100
AcDbEntity
  8
LW 3540-32-00
100
AcDbVertex
100
AcDb2dVertex
 10
-45.28566958427427
 20
-42.59780883789062
 30
0.0
  0
VERTEX
  5
37B2
330
37A1
100
AcDbEntity
  8
LW 3540-32-00
100
AcDbVertex
100
AcDb2dVertex
 10
-45.52386404991148
 20
-42.58566975593566
 30
0.0
  0
VERTEX
  5
37B3
330
37A1
100
AcDbEntity
  8
LW 3540-32-00
100
AcDbVertex
100
AcDb2dVertex
 10
-45.74194790840147
 20
-42.57174134254455
 30
0.0
  0
VERTEX
  5
37B4
330
37A1
100
AcDbEntity
  8
LW 3540-32-00
100
AcDbVertex
100
AcDb2dVertex
 10
-45.93421103477476
 20
-42.55723714828491
 30
0.0
  0
VERTEX
  5
37B5
330
37A1
100
AcDbEntity
  8
LW 3540-32-00
100
AcDbVertex
100
AcDb2dVertex
 10
-46.10275866508482
 20
-42.54274606704711
 30
0.0
  0
VERTEX
  5
37B6
330
37A1
100
AcDbEntity
  8
LW 3540-32-00
100
AcDbVertex
100
AcDb2dVertex
 10
-46.24932291030882
 20
-42.52885103225708
 30
0.0
  0
VERTEX
  5
37B7
330
37A1
100
AcDbEntity
  8
LW 3540-32-00
100
AcDbVertex
100
AcDb2dVertex
 10
-46.36763216972349
 20
-42.51675844192504
 30
0.0
  0
VERTEX
  5
37B8
330
37A1
100
AcDbEntity
  8
LW 3540-32-00
100
AcDbVertex
100
AcDb2dVertex
 10
-46.45250799179075
 20
-42.50761866569519
 30
0.0
  0
VERTEX
  5
37B9
330
37A1
100
AcDbEntity
  8
LW 3540-32-00
100
AcDbVertex
100
AcDb2dVertex
 10
-46.50318386077879
 20
-42.50194668769836
 30
0.0
  0
VERTEX
  5
37BA
330
37A1
100
AcDbEntity
  8
LW 3540-32-00
100
AcDbVertex
100
AcDb2dVertex
 10
-46.51999952316282
 20
-42.5
 30
0.0
  0
SEQEND
  5
37BB
330
37A1
100
AcDbEntity
  8
LW 3540-32-00
  0
LINE
  5
37BC
330
3635
100
AcDbEntity
  8
LW 3540-32-00
100
AcDbLine
 10
-48.51999999999998
 20
-42.5
 30
0.0
 11
-48.51999999999998
 21
-77.5
 31
0.0
  0
LINE
  5
37BD
330
3635
100
AcDbEntity
  8
LW 3540-32-00
100
AcDbLine
 10
-51.51999999999998
 20
-45.49999999999999
 30
0.0
 11
-51.51999999999998
 21
-74.49999999999994
 31
0.0
  0
LINE
  5
37BE
330
3635
100
AcDbEntity
  8
LW 3540-32-00
100
AcDbLine
 10
-28.51999999999998
 20
-77.5
 30
0.0
 11
-48.51999999999998
 21
-77.5
 31
0.0
  0
LINE
  5
37BF
330
3635
100
AcDbEntity
  8
LW 3540-32-00
100
AcDbLine
 10
-28.51999999999998
 20
-42.5
 30
0.0
 11
-42.52000000000001
 21
-42.5
 31
0.0
  0
LINE
  5
37C0
330
3635
100
AcDbEntity
  8
LW 3540-32-00
100
AcDbLine
 10
-46.51999999999998
 20
-42.5
 30
0.0
 11
-48.51999999999998
 21
-42.5
 31
0.0
  0
LINE
  5
37C1
330
3635
100
AcDbEntity
  8
LW 3540-32-00
100
AcDbLine
 10
-51.51999999999998
 20
-45.49999999999999
 30
0.0
 11
-48.51999999999998
 21
-42.5
 31
0.0
  0
LINE
  5
37C2
330
3635
100
AcDbEntity
  8
LW 3540-32-00
100
AcDbLine
 10
-51.51999999999998
 20
-74.49999999999994
 30
0.0
 11
-48.51999999999998
 21
-77.5
 31
0.0
  0
ELLIPSE
  5
37C3
330
3635
100
AcDbEntity
  8
LW 3540-32-00
100
AcDbEllipse
 10
-93.27000000000003
 20
-30.0
 30
0.0
 11
0.0000000000001952
 21
2.00000000000002
 31
0.0
210
0.0
220
0.0
230
1.0
 40
0.866025403784425
 41
3.935761501374648
 42
5.489016459394978
  0
POLYLINE
  5
37C4
330
3635
100
AcDbEntity
  8
LW 3540-32-00
100
AcDb2dPolyline
 66
     1
 10
0.0
 20
0.0
 30
0.0
 70
   128
  0
VERTEX
  5
37C5
330
37C4
100
AcDbEntity
  8
LW 3540-32-00
100
AcDbVertex
100
AcDb2dVertex
 10
-90.77000000000003
 20
-31.99999952316284
 30
0.0
  0
VERTEX
  5
37C6
330
37C4
100
AcDbEntity
  8
LW 3540-32-00
100
AcDbVertex
100
AcDb2dVertex
 10
-90.99222578525546
 20
-31.98318386077881
 30
0.0
  0
VERTEX
  5
37C7
330
37C4
100
AcDbEntity
  8
LW 3540-32-00
100
AcDbVertex
100
AcDb2dVertex
 10
-91.21854402542117
 20
-31.93250799179077
 30
0.0
  0
VERTEX
  5
37C8
330
37C4
100
AcDbEntity
  8
LW 3540-32-00
100
AcDbVertex
100
AcDb2dVertex
 10
-91.44147195339206
 20
-31.84763216972351
 30
0.0
  0
VERTEX
  5
37C9
330
37C4
100
AcDbEntity
  8
LW 3540-32-00
100
AcDbVertex
100
AcDb2dVertex
 10
-91.65380217552188
 20
-31.72932291030884
 30
0.0
  0
VERTEX
  5
37CA
330
37C4
100
AcDbEntity
  8
LW 3540-32-00
100
AcDbVertex
100
AcDb2dVertex
 10
-91.84961654663089
 20
-31.58275866508484
 30
0.0
  0
VERTEX
  5
37CB
330
37C4
100
AcDbEntity
  8
LW 3540-32-00
100
AcDbVertex
100
AcDb2dVertex
 10
-92.0233658742905
 20
-31.41421103477478
 30
0.0
  0
VERTEX
  5
37CC
330
37C4
100
AcDbEntity
  8
LW 3540-32-00
100
AcDbVertex
100
AcDb2dVertex
 10
-92.17658378601077
 20
-31.22194790840149
 30
0.0
  0
VERTEX
  5
37CD
330
37C4
100
AcDbEntity
  8
LW 3540-32-00
100
AcDbVertex
100
AcDb2dVertex
 10
-92.31047608375552
 20
-31.0038640499115
 30
0.0
  0
VERTEX
  5
37CE
330
37C4
100
AcDbEntity
  8
LW 3540-32-00
100
AcDbVertex
100
AcDb2dVertex
 10
-92.41900243282321
 20
-30.76566958427429
 30
0.0
  0
VERTEX
  5
37CF
330
37C4
100
AcDbEntity
  8
LW 3540-32-00
100
AcDbVertex
100
AcDb2dVertex
 10
-92.49709882259372
 20
-30.51353359222412
 30
0.0
  0
VERTEX
  5
37D0
330
37C4
100
AcDbEntity
  8
LW 3540-32-00
100
AcDbVertex
100
AcDb2dVertex
 10
-92.54383780479434
 20
-30.25547885894776
 30
0.0
  0
VERTEX
  5
37D1
330
37C4
100
AcDbEntity
  8
LW 3540-32-00
100
AcDbVertex
100
AcDb2dVertex
 10
-92.55938150405887
 20
-30.00000023841858
 30
0.0
  0
VERTEX
  5
37D2
330
37C4
100
AcDbEntity
  8
LW 3540-32-00
100
AcDbVertex
100
AcDb2dVertex
 10
-92.54383780479434
 20
-29.74452042579651
 30
0.0
  0
VERTEX
  5
37D3
330
37C4
100
AcDbEntity
  8
LW 3540-32-00
100
AcDbVertex
100
AcDb2dVertex
 10
-92.49709882259372
 20
-29.48646688461304
 30
0.0
  0
VERTEX
  5
37D4
330
37C4
100
AcDbEntity
  8
LW 3540-32-00
100
AcDbVertex
100
AcDb2dVertex
 10
-92.41900243282321
 20
-29.23433089256287
 30
0.0
  0
VERTEX
  5
37D5
330
37C4
100
AcDbEntity
  8
LW 3540-32-00
100
AcDbVertex
100
AcDb2dVertex
 10
-92.31047608375552
 20
-28.99613642692566
 30
0.0
  0
VERTEX
  5
37D6
330
37C4
100
AcDbEntity
  8
LW 3540-32-00
100
AcDbVertex
100
AcDb2dVertex
 10
-92.17658378601077
 20
-28.77805137634278
 30
0.0
  0
VERTEX
  5
37D7
330
37C4
100
AcDbEntity
  8
LW 3540-32-00
100
AcDbVertex
100
AcDb2dVertex
 10
-92.0233658742905
 20
-28.58578944206238
 30
0.0
  0
VERTEX
  5
37D8
330
37C4
100
AcDbEntity
  8
LW 3540-32-00
100
AcDbVertex
100
AcDb2dVertex
 10
-91.84961654663089
 20
-28.41724181175232
 30
0.0
  0
VERTEX
  5
37D9
330
37C4
100
AcDbEntity
  8
LW 3540-32-00
100
AcDbVertex
100
AcDb2dVertex
 10
-91.65380217552188
 20
-28.27067637443543
 30
0.0
  0
VERTEX
  5
37DA
330
37C4
100
AcDbEntity
  8
LW 3540-32-00
100
AcDbVertex
100
AcDb2dVertex
 10
-91.44147195339206
 20
-28.15236830711365
 30
0.0
  0
VERTEX
  5
37DB
330
37C4
100
AcDbEntity
  8
LW 3540-32-00
100
AcDbVertex
100
AcDb2dVertex
 10
-91.21854402542117
 20
-28.06749248504639
 30
0.0
  0
VERTEX
  5
37DC
330
37C4
100
AcDbEntity
  8
LW 3540-32-00
100
AcDbVertex
100
AcDb2dVertex
 10
-90.99222578525546
 20
-28.01681661605835
 30
0.0
  0
VERTEX
  5
37DD
330
37C4
100
AcDbEntity
  8
LW 3540-32-00
100
AcDbVertex
100
AcDb2dVertex
 10
-90.77000000000003
 20
-27.99999976158142
 30
0.0
  0
SEQEND
  5
37DE
330
37C4
100
AcDbEntity
  8
LW 3540-32-00
  0
POLYLINE
  5
37DF
330
3635
100
AcDbEntity
  8
LW 3540-32-00
100
AcDb2dPolyline
 66
     1
 10
0.0
 20
0.0
 30
0.0
 70
   128
  0
VERTEX
  5
37E0
330
37DF
100
AcDbEntity
  8
LW 3540-32-00
100
AcDbVertex
100
AcDb2dVertex
 10
-90.77000000000003
 20
-27.99999976158142
 30
0.0
  0
VERTEX
  5
37E1
330
37DF
100
AcDbEntity
  8
LW 3540-32-00
100
AcDbVertex
100
AcDb2dVertex
 10
-90.54972149848941
 20
-28.01681661605835
 30
0.0
  0
VERTEX
  5
37E2
330
37DF
100
AcDbEntity
  8
LW 3540-32-00
100
AcDbVertex
100
AcDb2dVertex
 10
-90.32907404422763
 20
-28.06749248504639
 30
0.0
  0
VERTEX
  5
37E3
330
37DF
100
AcDbEntity
  8
LW 3540-32-00
100
AcDbVertex
100
AcDb2dVertex
 10
-90.11528648853305
 20
-28.15236830711365
 30
0.0
  0
VERTEX
  5
37E4
330
37DF
100
AcDbEntity
  8
LW 3540-32-00
100
AcDbVertex
100
AcDb2dVertex
 10
-89.91504826068881
 20
-28.27067637443543
 30
0.0
  0
VERTEX
  5
37E5
330
37DF
100
AcDbEntity
  8
LW 3540-32-00
100
AcDbVertex
100
AcDb2dVertex
 10
-89.73312892436984
 20
-28.41724181175232
 30
0.0
  0
VERTEX
  5
37E6
330
37DF
100
AcDbEntity
  8
LW 3540-32-00
100
AcDbVertex
100
AcDb2dVertex
 10
-89.57387067794803
 20
-28.58578944206238
 30
0.0
  0
VERTEX
  5
37E7
330
37DF
100
AcDbEntity
  8
LW 3540-32-00
100
AcDbVertex
100
AcDb2dVertex
 10
-89.43515755653384
 20
-28.77805137634278
 30
0.0
  0
VERTEX
  5
37E8
330
37DF
100
AcDbEntity
  8
LW 3540-32-00
100
AcDbVertex
100
AcDb2dVertex
 10
-89.31519367218021
 20
-28.99613642692566
 30
0.0
  0
VERTEX
  5
37E9
330
37DF
100
AcDbEntity
  8
LW 3540-32-00
100
AcDbVertex
100
AcDb2dVertex
 10
-89.21880700111392
 20
-29.23433089256287
 30
0.0
  0
VERTEX
  5
37EA
330
37DF
100
AcDbEntity
  8
LW 3540-32-00
100
AcDbVertex
100
AcDb2dVertex
 10
-89.1498968791962
 20
-29.48646688461304
 30
0.0
  0
VERTEX
  5
37EB
330
37DF
100
AcDbEntity
  8
LW 3540-32-00
100
AcDbVertex
100
AcDb2dVertex
 10
-89.10886265754703
 20
-29.74452042579651
 30
0.0
  0
VERTEX
  5
37EC
330
37DF
100
AcDbEntity
  8
LW 3540-32-00
100
AcDbVertex
100
AcDb2dVertex
 10
-89.09527995109561
 20
-30.00000023841858
 30
0.0
  0
VERTEX
  5
37ED
330
37DF
100
AcDbEntity
  8
LW 3540-32-00
100
AcDbVertex
100
AcDb2dVertex
 10
-89.10886265754703
 20
-30.25547885894776
 30
0.0
  0
VERTEX
  5
37EE
330
37DF
100
AcDbEntity
  8
LW 3540-32-00
100
AcDbVertex
100
AcDb2dVertex
 10
-89.1498968791962
 20
-30.51353359222412
 30
0.0
  0
VERTEX
  5
37EF
330
37DF
100
AcDbEntity
  8
LW 3540-32-00
100
AcDbVertex
100
AcDb2dVertex
 10
-89.21880700111392
 20
-30.76566958427429
 30
0.0
  0
VERTEX
  5
37F0
330
37DF
100
AcDbEntity
  8
LW 3540-32-00
100
AcDbVertex
100
AcDb2dVertex
 10
-89.31519367218021
 20
-31.0038640499115
 30
0.0
  0
VERTEX
  5
37F1
330
37DF
100
AcDbEntity
  8
LW 3540-32-00
100
AcDbVertex
100
AcDb2dVertex
 10
-89.43515755653384
 20
-31.22194790840149
 30
0.0
  0
VERTEX
  5
37F2
330
37DF
100
AcDbEntity
  8
LW 3540-32-00
100
AcDbVertex
100
AcDb2dVertex
 10
-89.57387067794803
 20
-31.41421103477478
 30
0.0
  0
VERTEX
  5
37F3
330
37DF
100
AcDbEntity
  8
LW 3540-32-00
100
AcDbVertex
100
AcDb2dVertex
 10
-89.73312892436984
 20
-31.58275866508484
 30
0.0
  0
VERTEX
  5
37F4
330
37DF
100
AcDbEntity
  8
LW 3540-32-00
100
AcDbVertex
100
AcDb2dVertex
 10
-89.91504826068881
 20
-31.72932291030884
 30
0.0
  0
VERTEX
  5
37F5
330
37DF
100
AcDbEntity
  8
LW 3540-32-00
100
AcDbVertex
100
AcDb2dVertex
 10
-90.11528648853305
 20
-31.84763216972351
 30
0.0
  0
VERTEX
  5
37F6
330
37DF
100
AcDbEntity
  8
LW 3540-32-00
100
AcDbVertex
100
AcDb2dVertex
 10
-90.32907404422763
 20
-31.93250799179077
 30
0.0
  0
VERTEX
  5
37F7
330
37DF
100
AcDbEntity
  8
LW 3540-32-00
100
AcDbVertex
100
AcDb2dVertex
 10
-90.54972149848941
 20
-31.98318386077881
 30
0.0
  0
VERTEX
  5
37F8
330
37DF
100
AcDbEntity
  8
LW 3540-32-00
100
AcDbVertex
100
AcDb2dVertex
 10
-90.77000000000003
 20
-31.99999952316284
 30
0.0
  0
SEQEND
  5
37F9
330
37DF
100
AcDbEntity
  8
LW 3540-32-00
  0
POLYLINE
  5
37FA
330
3635
100
AcDbEntity
  8
LW 3540-32-00
100
AcDb2dPolyline
 66
     1
 10
0.0
 20
0.0
 30
0.0
 70
   128
  0
VERTEX
  5
37FB
330
37FA
100
AcDbEntity
  8
LW 3540-32-00
100
AcDbVertex
100
AcDb2dVertex
 10
-117.02
 20
-27.99999976158142
 30
0.0
  0
VERTEX
  5
37FC
330
37FA
100
AcDbEntity
  8
LW 3540-32-00
100
AcDbVertex
100
AcDb2dVertex
 10
-117.0180533123017
 20
-28.01681661605835
 30
0.0
  0
VERTEX
  5
37FD
330
37FA
100
AcDbEntity
  8
LW 3540-32-00
100
AcDbVertex
100
AcDb2dVertex
 10
-117.0123813343048
 20
-28.06749248504639
 30
0.0
  0
VERTEX
  5
37FE
330
37FA
100
AcDbEntity
  8
LW 3540-32-00
100
AcDbVertex
100
AcDb2dVertex
 10
-117.003241558075
 20
-28.15236830711365
 30
0.0
  0
VERTEX
  5
37FF
330
37FA
100
AcDbEntity
  8
LW 3540-32-00
100
AcDbVertex
100
AcDb2dVertex
 10
-116.9911489677429
 20
-28.27067637443543
 30
0.0
  0
VERTEX
  5
3800
330
37FA
100
AcDbEntity
  8
LW 3540-32-00
100
AcDbVertex
100
AcDb2dVertex
 10
-116.9772539329529
 20
-28.41724181175232
 30
0.0
  0
VERTEX
  5
3801
330
37FA
100
AcDbEntity
  8
LW 3540-32-00
100
AcDbVertex
100
AcDb2dVertex
 10
-116.9627628517151
 20
-28.58578944206238
 30
0.0
  0
VERTEX
  5
3802
330
37FA
100
AcDbEntity
  8
LW 3540-32-00
100
AcDbVertex
100
AcDb2dVertex
 10
-116.9482586574555
 20
-28.77805137634278
 30
0.0
  0
VERTEX
  5
3803
330
37FA
100
AcDbEntity
  8
LW 3540-32-00
100
AcDbVertex
100
AcDb2dVertex
 10
-116.9343302440643
 20
-28.99613642692566
 30
0.0
  0
VERTEX
  5
3804
330
37FA
100
AcDbEntity
  8
LW 3540-32-00
100
AcDbVertex
100
AcDb2dVertex
 10
-116.9221911621094
 20
-29.23433089256287
 30
0.0
  0
VERTEX
  5
3805
330
37FA
100
AcDbEntity
  8
LW 3540-32-00
100
AcDbVertex
100
AcDb2dVertex
 10
-116.9130048942566
 20
-29.48646688461304
 30
0.0
  0
VERTEX
  5
3806
330
37FA
100
AcDbEntity
  8
LW 3540-32-00
100
AcDbVertex
100
AcDb2dVertex
 10
-116.9072995376587
 20
-29.74452042579651
 30
0.0
  0
VERTEX
  5
3807
330
37FA
100
AcDbEntity
  8
LW 3540-32-00
100
AcDbVertex
100
AcDb2dVertex
 10
-116.9053385448456
 20
-30.00000023841858
 30
0.0
  0
VERTEX
  5
3808
330
37FA
100
AcDbEntity
  8
LW 3540-32-00
100
AcDbVertex
100
AcDb2dVertex
 10
-116.9072995376587
 20
-30.25547885894776
 30
0.0
  0
VERTEX
  5
3809
330
37FA
100
AcDbEntity
  8
LW 3540-32-00
100
AcDbVertex
100
AcDb2dVertex
 10
-116.9130048942566
 20
-30.51353359222412
 30
0.0
  0
VERTEX
  5
380A
330
37FA
100
AcDbEntity
  8
LW 3540-32-00
100
AcDbVertex
100
AcDb2dVertex
 10
-116.9221911621094
 20
-30.76566958427429
 30
0.0
  0
VERTEX
  5
380B
330
37FA
100
AcDbEntity
  8
LW 3540-32-00
100
AcDbVertex
100
AcDb2dVertex
 10
-116.9343302440643
 20
-31.0038640499115
 30
0.0
  0
VERTEX
  5
380C
330
37FA
100
AcDbEntity
  8
LW 3540-32-00
100
AcDbVertex
100
AcDb2dVertex
 10
-116.9482586574555
 20
-31.22194790840149
 30
0.0
  0
VERTEX
  5
380D
330
37FA
100
AcDbEntity
  8
LW 3540-32-00
100
AcDbVertex
100
AcDb2dVertex
 10
-116.9627628517151
 20
-31.41421103477478
 30
0.0
  0
VERTEX
  5
380E
330
37FA
100
AcDbEntity
  8
LW 3540-32-00
100
AcDbVertex
100
AcDb2dVertex
 10
-116.9772539329529
 20
-31.58275866508484
 30
0.0
  0
VERTEX
  5
380F
330
37FA
100
AcDbEntity
  8
LW 3540-32-00
100
AcDbVertex
100
AcDb2dVertex
 10
-116.9911489677429
 20
-31.72932291030884
 30
0.0
  0
VERTEX
  5
3810
330
37FA
100
AcDbEntity
  8
LW 3540-32-00
100
AcDbVertex
100
AcDb2dVertex
 10
-117.003241558075
 20
-31.84763216972351
 30
0.0
  0
VERTEX
  5
3811
330
37FA
100
AcDbEntity
  8
LW 3540-32-00
100
AcDbVertex
100
AcDb2dVertex
 10
-117.0123813343048
 20
-31.93250799179077
 30
0.0
  0
VERTEX
  5
3812
330
37FA
100
AcDbEntity
  8
LW 3540-32-00
100
AcDbVertex
100
AcDb2dVertex
 10
-117.0180533123017
 20
-31.98318386077881
 30
0.0
  0
VERTEX
  5
3813
330
37FA
100
AcDbEntity
  8
LW 3540-32-00
100
AcDbVertex
100
AcDb2dVertex
 10
-117.02
 20
-31.99999952316284
 30
0.0
  0
SEQEND
  5
3814
330
37FA
100
AcDbEntity
  8
LW 3540-32-00
  0
LINE
  5
3815
330
3635
100
AcDbEntity
  8
LW 3540-32-00
100
AcDbLine
 10
-117.02
 20
-34.0
 30
0.0
 11
-82.02000000000003
 21
-34.0
 31
0.0
  0
LINE
  5
3816
330
3635
100
AcDbEntity
  8
LW 3540-32-00
100
AcDbLine
 10
-114.02
 20
-37.0
 30
0.0
 11
-85.02000000000004
 21
-37.0
 31
0.0
  0
LINE
  5
3817
330
3635
100
AcDbEntity
  8
LW 3540-32-00
100
AcDbLine
 10
-82.02000000000003
 20
-14.0
 30
0.0
 11
-82.02000000000003
 21
-34.0
 31
0.0
  0
LINE
  5
3818
330
3635
100
AcDbEntity
  8
LW 3540-32-00
100
AcDbLine
 10
-117.02
 20
-14.0
 30
0.0
 11
-117.02
 21
-28.0
 31
0.0
  0
LINE
  5
3819
330
3635
100
AcDbEntity
  8
LW 3540-32-00
100
AcDbLine
 10
-117.02
 20
-32.0
 30
0.0
 11
-117.02
 21
-34.0
 31
0.0
  0
LINE
  5
381A
330
3635
100
AcDbEntity
  8
LW 3540-32-00
100
AcDbLine
 10
-114.02
 20
-37.0
 30
0.0
 11
-117.02
 21
-34.0
 31
0.0
  0
LINE
  5
381B
330
3635
100
AcDbEntity
  8
LW 3540-32-00
100
AcDbLine
 10
-85.02000000000004
 20
-37.0
 30
0.0
 11
-82.02000000000003
 21
-34.0
 31
0.0
  0
LINE
  5
381C
330
3635
100
AcDbEntity
  8
LW 3540-32-00
100
AcDbLine
 10
-17.52000000000001
 20
-139.9999999999999
 30
0.0
 11
-17.52000000000001
 21
-172.9999999999999
 31
0.0
  0
LINE
  5
381D
330
3635
100
AcDbEntity
  8
LW 3540-32-00
100
AcDbLine
 10
-17.52000000000001
 20
-139.9999999999999
 30
0.0
 11
-17.52000000000001
 21
-1.999999999999943
 31
0.0
  0
LINE
  5
381E
330
3635
100
AcDbEntity
  8
LW 3540-32-00
100
AcDbLine
 10
-19.52000000000001
 20
-1.999999999999943
 30
0.0
 11
-17.52000000000001
 21
-1.999999999999943
 31
0.0
  0
LINE
  5
381F
330
3635
100
AcDbEntity
  8
LW 3540-32-00
100
AcDbLine
 10
-19.52000000000001
 20
-172.9999999999999
 30
0.0
 11
-17.52000000000001
 21
-172.9999999999999
 31
0.0
  0
LINE
  5
3820
330
3635
100
AcDbEntity
  8
LW 3540-32-00
100
AcDbLine
 10
17.51999999999998
 20
-172.9999999999999
 30
0.0
 11
17.51999999999998
 21
-139.9999999999999
 31
0.0
  0
LINE
  5
3821
330
3635
100
AcDbEntity
  8
LW 3540-32-00
100
AcDbLine
 10
17.51999999999998
 20
-1.999999999999943
 30
0.0
 11
19.51999999999998
 21
-1.999999999999943
 31
0.0
  0
LINE
  5
3822
330
3635
100
AcDbEntity
  8
LW 3540-32-00
100
AcDbLine
 10
17.51999999999998
 20
-1.999999999999943
 30
0.0
 11
17.51999999999998
 21
-139.9999999999999
 31
0.0
  0
LINE
  5
3823
330
3635
100
AcDbEntity
  8
LW 3540-32-00
100
AcDbLine
 10
17.51999999999998
 20
-172.9999999999999
 30
0.0
 11
19.51999999999998
 21
-172.9999999999999
 31
0.0
  0
HATCH
  5
3824
330
3635
100
AcDbEntity
  8
LW 3540-32-00
 62
     8
100
AcDbHatch
 10
0.0
 20
0.0
 30
0.0
210
0.0
220
0.0
230
1.0
  2
ANSI37
 70
     0
 71
     0
 91
        4
 92
        7
 72
     0
 73
     1
 93
        4
 10
0.0
 20
-47.99999999999994
 10
-16.00000000000003
 20
-48.0
 10
-16.0
 20
-52.74999999999995
 10
0.0
 20
-52.75
 97
        0
 92
        7
 72
     0
 73
     1
 93
        4
 10
15.99999999999994
 20
-47.99999999999994
 10
0.0
 20
-47.99999999999994
 10
0.0
 20
-52.75
 10
16.0
 20
-52.75
 97
        0
 92
        7
 72
     0
 73
     1
 93
        4
 10
16.0
 20
-67.24999999999994
 10
0.0
 20
-67.25
 10
0.0
 20
-71.99999999999994
 10
16.0
 20
-72.0
 97
        0
 92
        7
 72
     0
 73
     1
 93
        4
 10
0.0
 20
-67.24999999999994
 10
-16.00000000000003
 20
-67.25
 10
-16.00000000000003
 20
-71.99999999999994
 10
0.0
 20
-71.99999999999994
 97
        0
 75
     0
 76
     1
 52
0.0
 41
0.5
 77
     0
 78
     2
 53
45.0
 43
-270.1401696236951
 44
-335.1866254961618
 45
-1.122532015133643
 46
1.122532015133644
 79
     0
 53
135.0
 43
-270.1401696236951
 44
-335.1866254961618
 45
-1.122532015133644
 46
-1.122532015133643
 79
     0
 47
0.1919075143079147
 98
        4
 10
-7.251174951791881
 20
-50.97813488954272
 10
5.614929154943865
 20
-51.17004201342354
 10
5.998990421829375
 20
-69.78507187651428
 10
-8.211331158186339
 20
-70.7446086384665
1001
ACAD
1010
0.0
1020
0.0
1030
0.0
  0
LINE
  5
3825
330
3635
100
AcDbEntity
  8
LW 3540-32-00
100
AcDbLine
 10
16.0
 20
-71.99999999999994
 30
0.0
 11
-16.0
 21
-71.99999999999994
 31
0.0
  0
LINE
  5
3826
330
3635
100
AcDbEntity
  8
LW 3540-32-00
100
AcDbLine
 10
16.0
 20
-67.24999999999994
 30
0.0
 11
16.0
 21
-71.99999999999994
 31
0.0
  0
LINE
  5
3827
330
3635
100
AcDbEntity
  8
LW 3540-32-00
100
AcDbLine
 10
-16.0
 20
-67.24999999999994
 30
0.0
 11
16.0
 21
-67.24999999999994
 31
0.0
  0
LINE
  5
3828
330
3635
100
AcDbEntity
  8
LW 3540-32-00
100
AcDbLine
 10
-16.0
 20
-71.99999999999994
 30
0.0
 11
-16.0
 21
-67.24999999999994
 31
0.0
  0
LINE
  5
3829
330
3635
100
AcDbEntity
  8
LW 3540-32-00
100
AcDbLine
 10
-16.0
 20
-47.99999999999994
 30
0.0
 11
16.0
 21
-47.99999999999994
 31
0.0
  0
LINE
  5
382A
330
3635
100
AcDbEntity
  8
LW 3540-32-00
100
AcDbLine
 10
-16.0
 20
-52.74999999999995
 30
0.0
 11
-16.0
 21
-47.99999999999994
 31
0.0
  0
LINE
  5
382B
330
3635
100
AcDbEntity
  8
LW 3540-32-00
100
AcDbLine
 10
16.0
 20
-52.74999999999995
 30
0.0
 11
-16.0
 21
-52.74999999999995
 31
0.0
  0
LINE
  5
382C
330
3635
100
AcDbEntity
  8
LW 3540-32-00
100
AcDbLine
 10
16.0
 20
-47.99999999999994
 30
0.0
 11
16.0
 21
-52.74999999999995
 31
0.0
  0
LINE
  5
382D
330
3635
100
AcDbEntity
  8
LW 3540-32-00
100
AcDbLine
 10
-16.0
 20
-67.24999999999994
 30
0.0
 11
-16.0
 21
-66.99999999999994
 31
0.0
  0
LINE
  5
382E
330
3635
100
AcDbEntity
  8
LW 3540-32-00
100
AcDbLine
 10
-16.0
 20
-53.0
 30
0.0
 11
-16.0
 21
-52.74999999999995
 31
0.0
  0
LINE
  5
382F
330
3635
100
AcDbEntity
  8
LW 3540-32-00
100
AcDbLine
 10
16.0
 20
-52.74999999999988
 30
0.0
 11
16.0
 21
-52.99999999999994
 31
0.0
  0
LINE
  5
3830
330
3635
100
AcDbEntity
  8
LW 3540-32-00
100
AcDbLine
 10
16.0
 20
-67.0
 30
0.0
 11
16.0
 21
-67.24999999999994
 31
0.0
  0
HATCH
  5
3831
330
3635
100
AcDbEntity
  8
LW 3540-32-00
 62
     8
100
AcDbHatch
 10
0.0
 20
0.0
 30
0.0
210
0.0
220
0.0
230
1.0
  2
ANSI37
 70
     0
 71
     0
 91
        4
 92
        7
 72
     0
 73
     1
 93
        4
 10
16.00000000000006
 20
-127.9999999999998
 10
0.0
 20
-127.9999999999998
 10
0.0
 20
-132.7499999999997
 10
16.00000000000006
 20
-132.7499999999998
 97
        0
 92
        7
 72
     0
 73
     1
 93
        4
 10
0.0
 20
-127.9999999999998
 10
-15.99999999999997
 20
-127.9999999999998
 10
-15.99999999999991
 20
-132.7499999999998
 10
0.0
 20
-132.7499999999998
 97
        0
 92
        7
 72
     0
 73
     1
 93
        4
 10
0.0
 20
-147.2499999999998
 10
-15.99999999999994
 20
-147.2499999999997
 10
-15.99999999999986
 20
-151.9999999999997
 10
0.0
 20
-151.9999999999997
 97
        0
 92
        7
 72
     0
 73
     1
 93
        4
 10
16.00000000000006
 20
-147.2499999999998
 10
0.0
 20
-147.2499999999998
 10
0.0
 20
-151.9999999999997
 10
16.0
 20
-151.9999999999997
 97
        0
 75
     0
 76
     1
 52
0.0
 41
0.5
 77
     0
 78
     2
 53
45.0
 43
-270.1401696236951
 44
-335.1866254961618
 45
-1.122532015133643
 46
1.122532015133644
 79
     0
 53
135.0
 43
-270.1401696236951
 44
-335.1866254961618
 45
-1.122532015133644
 46
-1.122532015133643
 79
     0
 47
0.1919075143079147
 98
        4
 10
5.998990421829375
 20
-130.0440321703359
 10
-7.251174951791881
 20
-131.5792914464792
 10
-7.635238244797847
 20
-148.6590608908779
 10
8.11133650724173
 20
-149.6185987953792
1001
ACAD
1010
0.0
1020
0.0
1030
0.0
  0
LINE
  5
3832
330
3635
100
AcDbEntity
  8
LW 3540-32-00
100
AcDbLine
 10
16.00000000000006
 20
-151.9999999999997
 30
0.0
 11
-15.99999999999988
 21
-151.9999999999997
 31
0.0
  0
LINE
  5
3833
330
3635
100
AcDbEntity
  8
LW 3540-32-00
100
AcDbLine
 10
16.00000000000006
 20
-147.2499999999997
 30
0.0
 11
16.00000000000006
 21
-151.9999999999997
 31
0.0
  0
LINE
  5
3834
330
3635
100
AcDbEntity
  8
LW 3540-32-00
100
AcDbLine
 10
-15.99999999999994
 20
-147.2499999999997
 30
0.0
 11
16.00000000000006
 21
-147.2499999999998
 31
0.0
  0
LINE
  5
3835
330
3635
100
AcDbEntity
  8
LW 3540-32-00
100
AcDbLine
 10
-15.99999999999988
 20
-151.9999999999997
 30
0.0
 11
-15.99999999999994
 21
-147.2499999999997
 31
0.0
  0
LINE
  5
3836
330
3635
100
AcDbEntity
  8
LW 3540-32-00
100
AcDbLine
 10
-15.99999999999994
 20
-127.9999999999998
 30
0.0
 11
16.00000000000006
 21
-127.9999999999998
 31
0.0
  0
LINE
  5
3837
330
3635
100
AcDbEntity
  8
LW 3540-32-00
100
AcDbLine
 10
-15.99999999999994
 20
-132.7499999999998
 30
0.0
 11
-15.99999999999994
 21
-127.9999999999998
 31
0.0
  0
LINE
  5
3838
330
3635
100
AcDbEntity
  8
LW 3540-32-00
100
AcDbLine
 10
16.00000000000006
 20
-132.7499999999998
 30
0.0
 11
-15.99999999999994
 21
-132.7499999999998
 31
0.0
  0
LINE
  5
3839
330
3635
100
AcDbEntity
  8
LW 3540-32-00
100
AcDbLine
 10
16.00000000000006
 20
-127.9999999999998
 30
0.0
 11
16.00000000000006
 21
-132.7499999999998
 31
0.0
  0
LINE
  5
383A
330
3635
100
AcDbEntity
  8
LW 3540-32-00
100
AcDbLine
 10
-15.99999999999994
 20
-147.2499999999997
 30
0.0
 11
-15.99999999999994
 21
-146.9999999999999
 31
0.0
  0
LINE
  5
383B
330
3635
100
AcDbEntity
  8
LW 3540-32-00
100
AcDbLine
 10
-15.99999999999994
 20
-133.0
 30
0.0
 11
-15.99999999999994
 21
-132.7499999999997
 31
0.0
  0
LINE
  5
383C
330
3635
100
AcDbEntity
  8
LW 3540-32-00
100
AcDbLine
 10
16.00000000000006
 20
-132.7499999999997
 30
0.0
 11
16.00000000000006
 21
-133.0
 31
0.0
  0
LINE
  5
383D
330
3635
100
AcDbEntity
  8
LW 3540-32-00
100
AcDbLine
 10
16.00000000000006
 20
-146.9999999999999
 30
0.0
 11
16.00000000000006
 21
-147.2499999999997
 31
0.0
  0
LINE
  5
383E
330
3635
100
AcDbEntity
  8
LW 3540-32-00
100
AcDbLine
 10
17.51999999999998
 20
-146.9999999999999
 30
0.0
 11
-17.52000000000001
 21
-146.9999999999999
 31
0.0
  0
LINE
  5
383F
330
3635
100
AcDbEntity
  8
LW 3540-32-00
100
AcDbLine
 10
17.51999999999998
 20
-133.0
 30
0.0
 11
-17.52000000000001
 21
-133.0
 31
0.0
  0
LINE
  5
3840
330
3635
100
AcDbEntity
  8
LW 3540-32-00
 62
     3
100
AcDbLine
 10
-17.52000000000001
 20
-145.7945
 30
0.0
 11
17.51999999999998
 21
-145.7945
 31
0.0
  0
LINE
  5
3841
330
3635
100
AcDbEntity
  8
LW 3540-32-00
 62
     3
100
AcDbLine
 10
17.51999999999998
 20
-134.2054999999999
 30
0.0
 11
-17.52000000000001
 21
-134.2054999999999
 31
0.0
  0
LINE
  5
3842
330
3635
100
AcDbEntity
  8
LW 3540-32-00
100
AcDbLine
 10
17.51999999999998
 20
-66.99999999999994
 30
0.0
 11
-17.52000000000001
 21
-66.99999999999994
 31
0.0
  0
LINE
  5
3843
330
3635
100
AcDbEntity
  8
LW 3540-32-00
100
AcDbLine
 10
17.51999999999998
 20
-53.0
 30
0.0
 11
-17.52000000000001
 21
-53.0
 31
0.0
  0
LINE
  5
3844
330
3635
100
AcDbEntity
  8
LW 3540-32-00
 62
     3
100
AcDbLine
 10
-17.52000000000001
 20
-65.79449999999997
 30
0.0
 11
17.51999999999998
 21
-65.79449999999997
 31
0.0
  0
LINE
  5
3845
330
3635
100
AcDbEntity
  8
LW 3540-32-00
 62
     3
100
AcDbLine
 10
17.51999999999998
 20
-54.20549999999991
 30
0.0
 11
-17.52000000000001
 21
-54.20549999999991
 31
0.0
  0
LINE
  5
3846
330
3635
100
AcDbEntity
  8
LW 3540-32-00
  6
MITTE2
 62
     3
100
AcDbLine
 10
0.0
 20
-200.232621264322
 30
0.0
 11
0.0
 21
21.38032543962169
 31
0.0
  0
LINE
  5
3847
330
3635
100
AcDbEntity
  8
LW 3540-32-00
  6
MITTE2
 62
     3
100
AcDbLine
 10
55.61802267868478
 20
-140.0
 30
0.0
 11
-55.61802267868481
 21
-140.0
 31
0.0
  0
LINE
  5
3848
330
3635
100
AcDbEntity
  8
LW 3540-32-00
  6
MITTE2
 62
     3
100
AcDbLine
 10
55.85902532515905
 20
-60.0
 30
0.0
 11
-55.85902532515911
 21
-60.0
 31
0.0
  0
LINE
  5
3849
330
3635
100
AcDbEntity
  8
LW 3540-32-00
  6
MITTE2
 62
     3
100
AcDbLine
 10
-99.51999999999991
 20
27.30489739875702
 30
0.0
 11
-99.51999999999991
 21
-41.6303604871004
 31
0.0
  0
INSERT
  5
384A
330
3635
100
AcDbEntity
  8
LW 3540-32-00
100
AcDbBlockReference
 66
     1
  2
insertpoint-ECKELT
 10
0.0
 20
0.0
 30
0.0
  0
ATTRIB
  5
384B
330
384A
100
AcDbEntity
  8
insertpoint_ECKELT
100
AcDbText
 10
-6.931514324693087
 20
0.0
 30
0.0
 40
0.6
  1
LW 3540/32-00
 72
     2
 11
-1.200000000000045
 21
0.0
 31
0.0
100
AcDbAttribute
  2
LINKS
 70
     0
  0
ATTRIB
  5
384C
330
384A
100
AcDbEntity
  8
insertpoint_ECKELT
100
AcDbText
 10
1.200000000000045
 20
0.0
 30
0.0
 40
0.6
  1

100
AcDbAttribute
  2
RECHTS
 70
     0
  0
SEQEND
  5
384D
330
384A
100
AcDbEntity
  8
LW 3540-32-00
  0
HATCH
  5
384E
330
3635
100
AcDbEntity
  8
LW 3540-32-00
 62
     1
100
AcDbHatch
 10
0.0
 20
0.0
 30
0.0
210
0.0
220
0.0
230
1.0
  2
SOLID
 70
     1
 71
     0
 91
        5
 92
        7
 72
     0
 73
     1
 93
       76
 10
-46.34432087502358
 20
-17.73042025943835
 10
-46.28788523442028
 20
-17.70827078758862
 10
-46.10261329562575
 20
-17.65817174291453
 10
-45.910776357298
 20
-17.62651928383218
 10
-45.71692969510076
 20
-17.61142357833842
 10
-45.51585088848571
 20
-17.61609982965501
 10
-45.314234596701
 20
-17.63958969621649
 10
-45.11402124287099
 20
-17.67556011211041
 10
-44.92737510703068
 20
-17.72864682343288
 10
-46.73308545759073
 20
-16.3743640605129
 10
-46.90861649263076
 20
-16.25357785323297
 10
-47.08588545871072
 20
-16.15321233567295
 10
-47.26706476963079
 20
-16.06892268023296
 10
-47.44737511503069
 20
-16.001577852433
 10
-47.62985787423082
 20
-15.9516123350329
 10
-47.81320959895083
 20
-15.91728819699301
 10
-47.99085951951463
 20
-15.90320765349997
 10
-48.1690509793907
 20
-15.90295026591309
 10
-48.34083294959135
 20
-15.92292413356273
 10
-48.50680049770438
 20
-15.95877261091778
 10
-48.66914063615076
 20
-16.00852957659299
 10
-48.82251305043081
 20
-16.07543992163312
 10
-48.96545787847083
 20
-16.16103302535316
 10
-49.10188546511062
 20
-16.25966061187307
 10
-49.22354063791073
 20
-16.37479854327307
 10
-49.33476822447073
 20
-16.50861923335304
 10
-49.43035443167071
 20
-16.65417095795317
 10
-49.50638891467076
 20
-16.80623992395306
 10
-49.55939581139069
 20
-16.9674330279131
 10
-49.59763029427074
 20
-17.13427440775308
 10
-49.61500960467072
 20
-17.30589509795322
 10
-49.61457512191066
 20
-17.48272958127302
 10
-49.59514505288353
 20
-17.6613193749435
 10
-49.5588660900097
 20
-17.83994583895878
 10
-49.5072578801907
 20
-18.01670889331308
 10
-49.43730615583053
 20
-18.19137096283305
 10
-49.34774361761526
 20
-18.36466528062465
 10
-49.24743718971069
 20
-18.532005446673
 10
-49.12838891347064
 20
-18.6918951023531
 10
-48.99456822339061
 20
-18.8465709649131
 10
-48.84336822291072
 20
-18.99255717227305
 10
-48.68000270515074
 20
-19.12594337959302
 10
-46.98466583654851
 20
-20.39744603104452
 10
-47.07525844554959
 20
-20.25066306962515
 10
-47.16773759647788
 20
-20.0680283645255
 10
-47.23979290565501
 20
-19.88332476647815
 10
-47.30068827840841
 20
-19.69313043888132
 10
-47.33794441518057
 20
-19.50295134062736
 10
-47.35628092003088
 20
-19.3150068579539
 10
-47.35695225699806
 20
-19.12639304933788
 10
-47.34801845689434
 20
-19.02786259678521
 10
-48.1707889104307
 20
-18.41078475663301
 10
-48.27193997282063
 20
-18.3254714598105
 10
-48.36434229035552
 20
-18.23075248019938
 10
-48.44711994579063
 20
-18.12750199711308
 10
-48.51185787703059
 20
-18.02192268643307
 10
-48.56192419443096
 20
-17.91376949988285
 10
-48.59988060834462
 20
-17.80079529262764
 10
-48.62525787739071
 20
-17.68432958191312
 10
-48.63177511879064
 20
-17.57353647811311
 10
-47.24975806738359
 20
-18.61004926666828
 10
-47.23864437674706
 20
-18.57759023369783
 10
-47.15630945458786
 20
-18.40762399087828
 10
-47.05177054844279
 20
-18.24816602804867
 10
-46.92530255448628
 20
-18.0995781568223
 10
-46.78443635438623
 20
-17.97226609281426
 10
-46.74167809629529
 20
-17.94291958648466
 10
-48.15818891039072
 20
-16.880536475913
 10
-48.04522339279078
 20
-16.84577785511305
 10
-47.92965097863072
 20
-16.82926751023302
 10
-47.81165936446313
 20
-16.83043018609879
 10
-47.69459580547072
 20
-16.845343372353
 10
-47.57326041198211
 20
-16.88138284832951
 10
-47.45606477023068
 20
-16.92919854503304
 10
-47.33484408019075
 20
-16.99567440731306
 10
-47.2162302867107
 20
-17.076488200673
 97
        0
 92
        7
 72
     0
 73
     1
 93
       72
 10
-44.97030895544293
 20
-18.77917747504386
 10
-44.86117383785506
 20
-18.8384357097147
 10
-44.7587957961507
 20
-18.90870199959289
 10
-43.74384406879062
 20
-19.66991579511284
 10
-44.91043027939054
 20
-19.81329510591286
 10
-44.52851993335047
 20
-22.24770201019294
 10
-43.47359579207057
 20
-23.03889511615285
 10
-43.79945786207054
 20
-20.61665372915286
 10
-41.47410613055058
 20
-20.31859855579279
 10
-44.22525096687064
 20
-18.25523992855295
 10
-44.3981055881091
 20
-18.13906792818409
 10
-44.57875656799302
 20
-18.03540555544123
 10
-44.76618200307064
 20
-17.9445847551529
 10
-44.9547475209107
 20
-17.87376406527289
 10
-45.14722338359075
 20
-17.81901923751286
 10
-45.3357680462583
 20
-17.78514522361223
 10
-45.5260923503107
 20
-17.762970961473
 10
-45.71291993711065
 20
-17.75862613387295
 10
-45.89306344113083
 20
-17.77265471322789
 10
-46.07136821411063
 20
-17.80207440987306
 10
-46.24168545603083
 20
-17.84812958243299
 10
-46.4033130427506
 20
-17.91156406539289
 10
-46.55320959495071
 20
-17.99194337599294
 10
-46.69311304367067
 20
-18.08796406595297
 10
-46.81954752683066
 20
-18.20223303183303
 10
-46.93381649271072
 20
-18.33648820467306
 10
-47.02809925163058
 20
-18.48030199823302
 10
-47.10239580359064
 20
-18.63367441251296
 10
-47.15714063135055
 20
-18.79356406819301
 10
-47.19407166595067
 20
-18.95866751699299
 10
-47.20985903151791
 20
-19.13278561409743
 10
-47.20923685220571
 20
-19.30758845603179
 10
-47.19225726594475
 20
-19.48162487037734
 10
-47.15800959687061
 20
-19.65644682955292
 10
-47.10112016220728
 20
-19.83412942322059
 10
-47.03331304475063
 20
-20.00794338239302
 10
-46.94685097551058
 20
-20.17869510707305
 10
-46.84387856139051
 20
-20.34553648691304
 10
-46.72092341617269
 20
-20.50531491500647
 10
-46.58970614679065
 20
-20.65836407411302
 10
-46.4385061463106
 20
-20.80435028147304
 10
-46.27514062855062
 20
-20.93773648879301
 10
-44.75271303751049
 20
-22.07955718207291
 10
-44.93780269327055
 20
-20.84910200575291
 10
-45.75115441999059
 20
-20.23908821071296
 10
-45.80223967198264
 20
-20.19609015554477
 10
-45.87700843418327
 20
-20.12753563104855
 10
-45.96023795168878
 20
-20.03828418248929
 10
-46.03333880709334
 20
-19.94055336838608
 10
-46.08997797968686
 20
-19.84691364395075
 10
-46.11799342805176
 20
-19.79070895411706
 10
-46.14138945571215
 20
-19.73242917462164
 10
-46.1878443524115
 20
-19.57343455342737
 10
-46.20470228349939
 20
-19.47324282897136
 10
-46.20803563523418
 20
-19.38591005628046
 10
-46.20346487659901
 20
-19.29863984910673
 10
-46.18865770413828
 20
-19.21329005573227
 10
-46.16334300060953
 20
-19.13049849684887
 10
-46.12760766256508
 20
-19.04835344831212
 10
-46.08002311068992
 20
-18.97237979289861
 10
-46.04155574505051
 20
-18.92334928239813
 10
-45.99947348284797
 20
-18.87724718570012
 10
-45.95184374476559
 20
-18.8340022476317
 10
-45.90025499977435
 20
-18.79557311647522
 10
-45.80610779947562
 20
-18.74279041285939
 10
-45.73216578544759
 20
-18.7134141644903
 10
-45.63488335755261
 20
-18.6888346057915
 10
-45.45544816302856
 20
-18.66525758036743
 10
-45.38399910848016
 20
-18.66877192986578
 10
-45.29637262544349
 20
-18.67909524024344
 10
-45.20386950790845
 20
-18.69579154374457
 10
-45.08493593511707
 20
-18.73144172316813
 97
        0
 92
        7
 72
     0
 73
     1
 93
       57
 10
-41.33712240597765
 20
-21.5316570424024
 10
-41.20795937108494
 20
-21.57856380117198
 10
-41.08394061207059
 20
-21.63768821515271
 10
-40.9640233703106
 20
-21.71676407747276
 10
-39.97166474647054
 20
-22.46103304535274
 10
-39.47635440007053
 20
-21.80061925015275
 10
-40.4634992307906
 20
-21.06026062711283
 10
-40.63729233479057
 20
-20.94077786811283
 10
-40.81934061123059
 20
-20.83954338503281
 10
-41.00225785319048
 20
-20.75395028131277
 10
-41.18604406067049
 20
-20.68399855695282
 10
-41.37678199231049
 20
-20.63055717747284
 10
-41.55949068254597
 20
-20.59682393598632
 10
-41.7444204486502
 20
-20.57869557730817
 10
-41.93017746992945
 20
-20.57623988074874
 10
-42.1093581601533
 20
-20.59088194976073
 10
-42.28267854691057
 20
-20.62186752227285
 10
-42.44951992675055
 20
-20.67052959139283
 10
-42.60463027207061
 20
-20.73613648815285
 10
-42.75452682427072
 20
-20.8165157987529
 10
-42.89095441091046
 20
-20.91514338527281
 10
-43.0173888940705
 20
-21.02941235115281
 10
-43.13035441167051
 20
-21.1619295929529
 10
-43.22594061887059
 20
-21.30748131755286
 10
-43.30023717083054
 20
-21.46085373183286
 10
-43.35498199859069
 20
-21.6207433875129
 10
-43.39147855043046
 20
-21.78888821563294
 10
-43.41059579187048
 20
-21.95920545755291
 10
-43.40725201254952
 20
-22.13615812018361
 10
-43.38957377801068
 20
-22.31234783108766
 10
-43.35321626065388
 20
-22.4912504523453
 10
-43.30154061911059
 20
-22.66828132187288
 10
-43.23158889475059
 20
-22.84294339139291
 10
-43.1433888944706
 20
-23.01499856435282
 10
-43.03998199759042
 20
-23.18488132351285
 10
-42.92093372135048
 20
-23.34477097919284
 10
-42.78711303127045
 20
-23.49944684175284
 10
-42.6363475135505
 20
-23.64239166979292
 10
-42.47124406475046
 20
-23.77708132539289
 10
-41.50321647547047
 20
-24.50310201735283
 10
-40.98835440487045
 20
-23.81661925655283
 10
-41.97549923559063
 20
-23.07626063351279
 10
-42.07621233935856
 20
-22.98779994357687
 10
-42.16882668448
 20
-22.89085815016563
 10
-42.24472213299691
 20
-22.79103139122799
 10
-42.30874751251042
 20
-22.68305373571286
 10
-42.35992958163854
 20
-22.56852408017676
 10
-42.39701703003214
 20
-22.45620159706164
 10
-42.41908875424008
 20
-22.33993401048565
 10
-42.42736130599047
 20
-22.22684683771285
 10
-40.74330612823041
 20
-23.4898882210328
 10
-40.24669233355041
 20
-22.82773649479282
 10
-41.9602923389906
 20
-21.54253649071279
 10
-41.84602337311059
 20
-21.50603993887285
 10
-41.7230647520306
 20
-21.48692269743287
 10
-41.59636957921452
 20
-21.48657511122485
 10
-41.47019578571053
 20
-21.49735028367286
 97
        0
 92
        7
 72
     0
 73
     1
 93
        6
 10
-39.2999543995104
 20
-21.94921235407276
 10
-41.32160268179046
 20
-24.64474339711279
 10
-39.53153371059034
 20
-25.98729512551279
 10
-39.01145784687037
 20
-25.29386064055268
 10
-39.98296129823041
 20
-24.56523305203268
 10
-38.48138887967048
 20
-22.5631364939527
 97
        0
 92
        7
 72
     0
 73
     1
 93
        8
 10
-38.29543025839053
 20
-22.70260545991266
 10
-38.79074060479059
 20
-23.3630192551127
 10
-37.8035957740704
 20
-24.10337787815263
 10
-39.33384405479035
 20
-26.14370891911278
 10
-38.51354060391037
 20
-26.75893650727272
 10
-36.98329232319049
 20
-24.71860546631262
 10
-35.98919576831048
 20
-25.46417788247266
 10
-35.49388542191048
 20
-24.80376408727261
 97
        0
 75
     0
 76
     1
 47
0.0142553043587597
 98
        5
 10
-46.651110850164
 20
-16.98890710306943
 10
-44.92264487049328
 20
-18.46344781907953
 10
-41.29466278120339
 20
-21.1131579203622
 10
-38.97017937932265
 20
-22.55359519090723
 10
-37.90058127298926
 20
-23.48052768617401
450
        0
451
        0
460
0.0
461
0.0
452
        0
462
0.0
453
        0
470

  0
LWPOLYLINE
  5
384F
330
3635
100
AcDbEntity
  8
LW 3540-32-00
 62
     1
100
AcDbPolyline
 90
        8
 70
     1
 43
0.0
 10
-36.98329232319049
 20
-24.71860546631262
 10
-38.51354060391037
 20
-26.75893650727272
 10
-39.33384405479035
 20
-26.14370891911278
 10
-37.8035957740704
 20
-24.10337787815263
 10
-38.79074060479059
 20
-23.3630192551127
 10
-38.29543025839053
 20
-22.70260545991266
 10
-35.49388542191048
 20
-24.80376408727261
 10
-35.98919576831048
 20
-25.46417788247266
  0
LWPOLYLINE
  5
3850
330
3635
100
AcDbEntity
  8
LW 3540-32-00
 62
     1
100
AcDbPolyline
 90
       73
 70
     1
 43
0.0
 10
-45.75115441999059
 20
-20.23908821071296
 10
-44.93780269327055
 20
-20.84910200575291
 10
-44.75271303751049
 20
-22.07955718207291
 10
-46.27514062855062
 20
-20.93773648879301
 10
-46.4385061463106
 20
-20.80435028147304
 10
-46.5897061467906
 20
-20.65836407411297
 10
-46.72092341617269
 20
-20.50531491500647
 10
-46.84387856139051
 20
-20.34553648691304
 10
-46.94685097551058
 20
-20.17869510707305
 10
-47.03331304475057
 20
-20.00794338239302
 10
-47.10112016220716
 20
-19.83412942322053
 10
-47.15800959687061
 20
-19.65644682955292
 10
-47.19225726594493
 20
-19.48162487037734
 10
-47.20923685220571
 20
-19.30758845603179
 10
-47.20985903151801
 20
-19.13278561409743
 10
-47.19407166595067
 20
-18.95866751699299
 10
-47.15714063135055
 20
-18.79356406819301
 10
-47.10239580359064
 20
-18.63367441251296
 10
-47.02809925163058
 20
-18.48030199823302
 10
-46.93381649271066
 20
-18.336488204673
 10
-46.81954752683066
 20
-18.20223303183303
 10
-46.69311304367067
 20
-18.08796406595297
 10
-46.55320959495066
 20
-17.991943375993
 10
-46.40331304275065
 20
-17.91156406539295
 10
-46.24168545603072
 20
-17.84812958243299
 10
-46.07136821411063
 20
-17.80207440987306
 10
-45.89306344113078
 20
-17.77265471322784
 10
-45.71291993711077
 20
-17.75862613387289
 10
-45.5260923503107
 20
-17.762970961473
 10
-45.33576804625823
 20
-17.7851452236124
 10
-45.14722338359081
 20
-17.81901923751297
 10
-44.9547475209107
 20
-17.87376406527289
 10
-44.76618200307064
 20
-17.94458475515284
 10
-44.5787565679929
 20
-18.03540555544123
 10
-44.3981055881091
 20
-18.13906792818409
 10
-44.2252509668707
 20
-18.25523992855289
 10
-41.47410613055058
 20
-20.31859855579279
 10
-43.79945786207054
 20
-20.61665372915286
 10
-43.47359579207057
 20
-23.03889511615285
 10
-44.52851993335047
 20
-22.24770201019294
 10
-44.91043027939054
 20
-19.81329510591286
 10
-43.74384406879062
 20
-19.66991579511284
 10
-44.7587957961507
 20
-18.90870199959289
 10
-44.86117383785506
 20
-18.8384357097147
 10
-44.97030895544293
 20
-18.77917747504386
 10
-45.08493593511707
 20
-18.73144172316813
 10
-45.2038695079085
 20
-18.69579154374469
 10
-45.29637262544349
 20
-18.67909524024327
 10
-45.38399910848028
 20
-18.66877192986573
 10
-45.43251171553083
 20
-18.66638575054782
 10
-45.48108341223667
 20
-18.66862594365841
 10
-45.63488335755261
 20
-18.6888346057915
 10
-45.73216578544759
 20
-18.7134141644903
 10
-45.80610779947551
 20
-18.74279041285933
 10
-45.90025499977435
 20
-18.79557311647522
 10
-45.95184374476559
 20
-18.8340022476317
 10
-45.99947348284792
 20
-18.87724718570007
 10
-46.04155574505045
 20
-18.92334928239808
 10
-46.08002311068981
 20
-18.97237979289855
 10
-46.12760766256508
 20
-19.04835344831212
 10
-46.16334300060941
 20
-19.13049849684887
 10
-46.18865770413816
 20
-19.21329005573239
 10
-46.20346487659901
 20
-19.29863984910673
 10
-46.20803563523418
 20
-19.38591005628029
 10
-46.20470228349939
 20
-19.47324282897136
 10
-46.1878443524115
 20
-19.57343455342737
 10
-46.1413894557121
 20
-19.73242917462176
 10
-46.1179934280517
 20
-19.79070895411712
 10
-46.08997797968686
 20
-19.84691364395075
 10
-46.03333880709334
 20
-19.94055336838608
 10
-45.96023795168878
 20
-20.03828418248929
 10
-45.87700843418327
 20
-20.12753563104855
 10
-45.80223967198253
 20
-20.19609015554483
  0
LWPOLYLINE
  5
3851
330
3635
100
AcDbEntity
  8
LW 3540-32-00
 62
     1
100
AcDbPolyline
 90
       76
 70
     1
 43
0.0
 10
-45.314234596701
 20
-17.63958969621649
 10
-45.51585088848582
 20
-17.61609982965501
 10
-45.71692969510081
 20
-17.6114235783383
 10
-45.910776357298
 20
-17.62651928383218
 10
-46.10261329562575
 20
-17.65817174291453
 10
-46.28788523442023
 20
-17.70827078758856
 10
-46.34432087502358
 20
-17.73042025943835
 10
-47.2162302867107
 20
-17.076488200673
 10
-47.33484408019075
 20
-16.99567440731306
 10
-47.4560647702308
 20
-16.92919854503299
 10
-47.57326041198211
 20
-16.88138284832951
 10
-47.69459580547072
 20
-16.845343372353
 10
-47.81165936446302
 20
-16.83043018609885
 10
-47.92965097863077
 20
-16.82926751023308
 10
-48.04522339279083
 20
-16.845777855113
 10
-48.15818891039072
 20
-16.880536475913
 10
-46.74167809629529
 20
-17.94291958648466
 10
-46.78443635438623
 20
-17.97226609281426
 10
-46.92530255448651
 20
-18.0995781568223
 10
-47.05177054844279
 20
-18.24816602804867
 10
-47.15630945458786
 20
-18.40762399087828
 10
-47.23864437674694
 20
-18.57759023369783
 10
-47.24975806738359
 20
-18.61004926666828
 10
-48.63177511879064
 20
-17.57353647811311
 10
-48.62525787739071
 20
-17.68432958191312
 10
-48.59988060834462
 20
-17.80079529262764
 10
-48.56192419443096
 20
-17.91376949988285
 10
-48.51185787703059
 20
-18.02192268643307
 10
-48.44711994579063
 20
-18.12750199711308
 10
-48.36434229035552
 20
-18.23075248019938
 10
-48.27193997282063
 20
-18.3254714598105
 10
-48.1707889104307
 20
-18.41078475663301
 10
-47.34801845689434
 20
-19.02786259678521
 10
-47.35695225699799
 20
-19.12639304933782
 10
-47.35628092003088
 20
-19.3150068579539
 10
-47.33794441518057
 20
-19.50295134062736
 10
-47.30068827840819
 20
-19.69313043888132
 10
-47.23979290565501
 20
-19.88332476647815
 10
-47.16773759647788
 20
-20.0680283645255
 10
-47.07525844554959
 20
-20.25066306962515
 10
-46.98466583654851
 20
-20.39744603104452
 10
-48.68000270515068
 20
-19.12594337959308
 10
-48.84336822291072
 20
-18.99255717227305
 10
-48.99456822339061
 20
-18.8465709649131
 10
-49.1283889134707
 20
-18.6918951023531
 10
-49.24743718971069
 20
-18.53200544667316
 10
-49.34774361761538
 20
-18.36466528062453
 10
-49.43730615583053
 20
-18.19137096283305
 10
-49.5072578801907
 20
-18.01670889331308
 10
-49.55886609000959
 20
-17.83994583895889
 10
-49.59514505288353
 20
-17.6613193749435
 10
-49.61457512191066
 20
-17.48272958127308
 10
-49.61500960467072
 20
-17.30589509795311
 10
-49.59763029427063
 20
-17.13427440775308
 10
-49.55939581139069
 20
-16.9674330279131
 10
-49.50638891467076
 20
-16.80623992395306
 10
-49.43035443167071
 20
-16.65417095795305
 10
-49.33476822447073
 20
-16.5086192333531
 10
-49.2235406379109
 20
-16.37479854327307
 10
-49.10188546511074
 20
-16.25966061187307
 10
-48.96545787847077
 20
-16.16103302535305
 10
-48.82251305043081
 20
-16.07543992163312
 10
-48.66914063615076
 20
-16.00852957659299
 10
-48.50680049770426
 20
-15.95877261091789
 10
-48.34083294959128
 20
-15.92292413356267
 10
-48.16905097939081
 20
-15.90295026591309
 10
-47.99085951951474
 20
-15.90320765350003
 10
-47.81320959895071
 20
-15.91728819699301
 10
-47.62985787423076
 20
-15.95161233503302
 10
-47.44737511503069
 20
-16.001577852433
 10
-47.26706476963079
 20
-16.06892268023307
 10
-47.08588545871072
 20
-16.15321233567295
 10
-46.90861649263076
 20
-16.25357785323297
 10
-46.73308545759073
 20
-16.37436406051302
 10
-44.92737510703057
 20
-17.72864682343288
 10
-45.11402124287099
 20
-17.67556011211041
  0
LWPOLYLINE
  5
3852
330
3635
100
AcDbEntity
  8
LW 3540-32-00
 62
     1
100
AcDbPolyline
 90
        6
 70
     1
 43
0.0
 10
-39.53153371059034
 20
-25.98729512551279
 10
-41.32160268179046
 20
-24.64474339711279
 10
-39.2999543995104
 20
-21.94921235407276
 10
-38.48138887967048
 20
-22.5631364939527
 10
-39.98296129823041
 20
-24.56523305203268
 10
-39.01145784687037
 20
-25.29386064055268
  0
LWPOLYLINE
  5
3853
330
3635
100
AcDbEntity
  8
LW 3540-32-00
 62
     1
100
AcDbPolyline
 90
       57
 70
     1
 43
0.0
 10
-43.38957377801068
 20
-22.31234783108766
 10
-43.40725201254963
 20
-22.13615812018361
 10
-43.4105957918706
 20
-21.95920545755291
 10
-43.39147855043046
 20
-21.78888821563294
 10
-43.35498199859069
 20
-21.6207433875129
 10
-43.30023717083054
 20
-21.46085373183286
 10
-43.22594061887059
 20
-21.30748131755286
 10
-43.13035441167051
 20
-21.1619295929529
 10
-43.01738889407056
 20
-21.02941235115281
 10
-42.89095441091058
 20
-20.91514338527293
 10
-42.75452682427072
 20
-20.8165157987529
 10
-42.60463027207061
 20
-20.7361364881528
 10
-42.44951992675066
 20
-20.67052959139289
 10
-42.28267854691057
 20
-20.62186752227274
 10
-42.10935816015353
 20
-20.59088194976061
 10
-41.93017746992945
 20
-20.57623988074874
 10
-41.74442044865009
 20
-20.57869557730817
 10
-41.55949068254563
 20
-20.59682393598643
 10
-41.37678199231049
 20
-20.63055717747284
 10
-41.18604406067061
 20
-20.68399855695282
 10
-41.00225785319048
 20
-20.75395028131277
 10
-40.81934061123059
 20
-20.83954338503281
 10
-40.63729233479057
 20
-20.94077786811283
 10
-40.4634992307906
 20
-21.06026062711283
 10
-39.47635440007053
 20
-21.80061925015275
 10
-39.97166474647054
 20
-22.46103304535274
 10
-40.96402337031054
 20
-21.71676407747282
 10
-41.08394061207053
 20
-21.63768821515282
 10
-41.20795937108494
 20
-21.57856380117198
 10
-41.33712240597776
 20
-21.5316570424024
 10
-41.47019578571053
 20
-21.49735028367286
 10
-41.59636957921452
 20
-21.48657511122485
 10
-41.7230647520306
 20
-21.48692269743276
 10
-41.84602337311059
 20
-21.50603993887285
 10
-41.9602923389906
 20
-21.54253649071279
 10
-40.24669233355041
 20
-22.82773649479282
 10
-40.74330612823041
 20
-23.4898882210328
 10
-42.42736130599047
 20
-22.22684683771285
 10
-42.41908875424008
 20
-22.33993401048565
 10
-42.39701703003214
 20
-22.45620159706164
 10
-42.35992958163854
 20
-22.56852408017676
 10
-42.30874751251042
 20
-22.68305373571286
 10
-42.24472213299691
 20
-22.79103139122799
 10
-42.16882668448
 20
-22.89085815016563
 10
-42.07621233935856
 20
-22.98779994357687
 10
-41.97549923559063
 20
-23.07626063351279
 10
-40.98835440487045
 20
-23.81661925655283
 10
-41.50321647547047
 20
-24.50310201735283
 10
-42.47124406475046
 20
-23.77708132539289
 10
-42.6363475135505
 20
-23.64239166979292
 10
-42.78711303127045
 20
-23.49944684175284
 10
-42.92093372135048
 20
-23.34477097919284
 10
-43.03998199759042
 20
-23.18488132351285
 10
-43.1433888944706
 20
-23.01499856435282
 10
-43.23158889475053
 20
-22.84294339139285
 10
-43.30154061911059
 20
-22.66828132187288
 10
-43.35321626065388
 20
-22.4912504523453
  0
ENDBLK
  5
3637
330
3635
100
AcDbEntity
  8
0
100
AcDbBlockEnd
  0
BLOCK
  5
3856
330
3855
100
AcDbEntity
  8
0
100
AcDbBlockBegin
  2
LW 3540-32-00_b
 70
     0
 10
0.0
 20
0.0
 30
0.0
  3
LW 3540-32-00_b
  1

  0
LINE
  5
3858
330
3855
100
AcDbEntity
  8
LW 3540-32-00
100
AcDbLine
 10
-62.52000000000006
 20
-1.999999999961744
 30
0.0
 11
-51.52000000000004
 21
-1.999999999964245
 31
0.0
  0
LINE
  5
3859
330
3855
100
AcDbEntity
  8
LW 3540-32-00
100
AcDbLine
 10
-51.52000000000004
 20
2.000000000035868
 30
0.0
 11
-62.52000000000009
 21
2.000000000038255
 31
0.0
  0
LINE
  5
385A
330
3855
100
AcDbEntity
  8
LW 3540-32-00
100
AcDbLine
 10
-28.52000000000004
 20
-32.99999999999994
 30
0.0
 11
-28.52000000000004
 21
32.99999999999994
 31
0.0
  0
ARC
  5
385B
330
3855
100
AcDbEntity
  8
LW 3540-32-00
100
AcDbCircle
 10
-26.52000000000001
 20
32.99999999999994
 30
0.0
 40
2.00000000000001
100
AcDbArc
 50
90.0
 51
180.0
  0
ARC
  5
385C
330
3855
100
AcDbEntity
  8
LW 3540-32-00
100
AcDbCircle
 10
-26.52000000000004
 20
-33.00000000000006
 30
0.0
 40
2.000000000000003
100
AcDbArc
 50
180.0
 51
270.0
  0
LINE
  5
385D
330
3855
100
AcDbEntity
  8
LW 3540-32-00
100
AcDbLine
 10
-26.52000000000007
 20
35.00000000003826
 30
0.0
 11
-30.52000000000007
 21
35.00000000003945
 31
0.0
  0
LINE
  5
385E
330
3855
100
AcDbEntity
  8
LW 3540-32-00
100
AcDbLine
 10
-30.52000000000007
 20
-34.99999999996055
 30
0.0
 11
-26.52000000000007
 21
-34.99999999996175
 31
0.0
  0
LINE
  5
385F
330
3855
100
AcDbEntity
  8
LW 3540-32-00
100
AcDbLine
 10
-30.52000000000007
 20
35.00000000003945
 30
0.0
 11
-99.52000000000007
 21
35.00000000003945
 31
0.0
  0
LINE
  5
3860
330
3855
100
AcDbEntity
  8
LW 3540-32-00
100
AcDbLine
 10
-99.52000000000007
 20
-34.99999999996055
 30
0.0
 11
-30.52000000000007
 21
-34.99999999996055
 31
0.0
  0
ARC
  5
3861
330
3855
100
AcDbEntity
  8
LW 3540-32-00
100
AcDbCircle
 10
-99.52000000000007
 20
0.0000000000394493
 30
0.0
 40
35.0
100
AcDbArc
 50
90.0
 51
270.0
  0
LINE
  5
3862
330
3855
100
AcDbEntity
  8
LW 3540-32-00
100
AcDbLine
 10
-19.52000000000007
 20
35.0
 30
0.0
 11
-26.52000000000004
 21
35.0
 31
0.0
  0
LINE
  5
3863
330
3855
100
AcDbEntity
  8
LW 3540-32-00
100
AcDbLine
 10
-26.52000000000004
 20
-35.0
 30
0.0
 11
-19.52000000000007
 21
-35.0
 31
0.0
  0
LINE
  5
3864
330
3855
100
AcDbEntity
  8
LW 3540-32-00
100
AcDbLine
 10
-19.52000000000007
 20
35.0
 30
0.0
 11
-19.52000000000007
 21
-35.0
 31
0.0
  0
LINE
  5
3865
330
3855
100
AcDbEntity
  8
LW 3540-32-00
100
AcDbLine
 10
28.51999999999998
 20
32.99999999999994
 30
0.0
 11
28.51999999999998
 21
-32.99999999999994
 31
0.0
  0
ARC
  5
3866
330
3855
100
AcDbEntity
  8
LW 3540-32-00
100
AcDbCircle
 10
26.51999999999998
 20
-33.00000000000006
 30
0.0
 40
1.999999999999992
100
AcDbArc
 50
270.0
 51
0.0
  0
ARC
  5
3867
330
3855
100
AcDbEntity
  8
LW 3540-32-00
100
AcDbCircle
 10
26.51999999999998
 20
32.99999999999994
 30
0.0
 40
2.000000000000005
100
AcDbArc
 50
0.0
 51
90.0
  0
LINE
  5
3868
330
3855
100
AcDbEntity
  8
LW 3540-32-00
100
AcDbLine
 10
19.51999999999992
 20
-35.0
 30
0.0
 11
26.51999999999998
 21
-35.0
 31
0.0
  0
LINE
  5
3869
330
3855
100
AcDbEntity
  8
LW 3540-32-00
100
AcDbLine
 10
26.51999999999998
 20
35.0
 30
0.0
 11
19.51999999999992
 21
35.0
 31
0.0
  0
LINE
  5
386A
330
3855
100
AcDbEntity
  8
LW 3540-32-00
100
AcDbLine
 10
19.51999999999992
 20
-35.0
 30
0.0
 11
19.51999999999992
 21
35.0
 31
0.0
  0
CIRCLE
  5
386B
330
3855
100
AcDbEntity
  8
LW 3540-32-00
100
AcDbCircle
 10
-99.52000000000007
 20
0.0000000000373461
 30
0.0
 40
22.5
  0
POLYLINE
  5
386C
330
3855
100
AcDbEntity
  8
LW 3540-32-00
100
AcDb2dPolyline
 66
     1
 10
0.0
 20
0.0
 30
0.0
 70
   128
  0
VERTEX
  5
386D
330
386C
100
AcDbEntity
  8
LW 3540-32-00
100
AcDbVertex
100
AcDb2dVertex
 10
46.51999952316282
 20
-15.15544414520525
 30
0.0
  0
VERTEX
  5
386E
330
386C
100
AcDbEntity
  8
LW 3540-32-00
100
AcDbVertex
100
AcDb2dVertex
 10
46.50318386077879
 20
-15.28149843216198
 30
0.0
  0
VERTEX
  5
386F
330
386C
100
AcDbEntity
  8
LW 3540-32-00
100
AcDbVertex
100
AcDb2dVertex
 10
46.45250799179075
 20
-15.40561437607061
 30
0.0
  0
VERTEX
  5
3870
330
386C
100
AcDbEntity
  8
LW 3540-32-00
100
AcDbVertex
100
AcDb2dVertex
 10
46.36763216972349
 20
-15.52376866340881
 30
0.0
  0
VERTEX
  5
3871
330
386C
100
AcDbEntity
  8
LW 3540-32-00
100
AcDbVertex
100
AcDb2dVertex
 10
46.24932291030882
 20
-15.63239455223316
 30
0.0
  0
VERTEX
  5
3872
330
386C
100
AcDbEntity
  8
LW 3540-32-00
100
AcDbVertex
100
AcDb2dVertex
 10
46.10275866508482
 20
-15.72940349579084
 30
0.0
  0
VERTEX
  5
3873
330
386C
100
AcDbEntity
  8
LW 3540-32-00
100
AcDbVertex
100
AcDb2dVertex
 10
45.93421103477476
 20
-15.81298470497353
 30
0.0
  0
VERTEX
  5
3874
330
386C
100
AcDbEntity
  8
LW 3540-32-00
100
AcDbVertex
100
AcDb2dVertex
 10
45.74194790840147
 20
-15.8846962451957
 30
0.0
  0
VERTEX
  5
3875
330
386C
100
AcDbEntity
  8
LW 3540-32-00
100
AcDbVertex
100
AcDb2dVertex
 10
45.52386404991148
 20
-15.94591498375149
 30
0.0
  0
VERTEX
  5
3876
330
386C
100
AcDbEntity
  8
LW 3540-32-00
100
AcDbVertex
100
AcDb2dVertex
 10
45.28566958427427
 20
-15.9945559501669
 30
0.0
  0
VERTEX
  5
3877
330
386C
100
AcDbEntity
  8
LW 3540-32-00
100
AcDbVertex
100
AcDb2dVertex
 10
45.0335335922241
 20
-16.0290384292623
 30
0.0
  0
VERTEX
  5
3878
330
386C
100
AcDbEntity
  8
LW 3540-32-00
100
AcDbVertex
100
AcDb2dVertex
 10
44.77547885894773
 20
-16.04943513870444
 30
0.0
  0
VERTEX
  5
3879
330
386C
100
AcDbEntity
  8
LW 3540-32-00
100
AcDbVertex
100
AcDb2dVertex
 10
44.52000023841856
 20
-16.05614542961325
 30
0.0
  0
VERTEX
  5
387A
330
386C
100
AcDbEntity
  8
LW 3540-32-00
100
AcDbVertex
100
AcDb2dVertex
 10
44.26452042579649
 20
-16.04943513870444
 30
0.0
  0
VERTEX
  5
387B
330
386C
100
AcDbEntity
  8
LW 3540-32-00
100
AcDbVertex
100
AcDb2dVertex
 10
44.00646688461302
 20
-16.0290384292623
 30
0.0
  0
VERTEX
  5
387C
330
386C
100
AcDbEntity
  8
LW 3540-32-00
100
AcDbVertex
100
AcDb2dVertex
 10
43.75433089256285
 20
-15.9945559501669
 30
0.0
  0
VERTEX
  5
387D
330
386C
100
AcDbEntity
  8
LW 3540-32-00
100
AcDbVertex
100
AcDb2dVertex
 10
43.51613642692564
 20
-15.94591498375149
 30
0.0
  0
VERTEX
  5
387E
330
386C
100
AcDbEntity
  8
LW 3540-32-00
100
AcDbVertex
100
AcDb2dVertex
 10
43.29805137634275
 20
-15.8846962451957
 30
0.0
  0
VERTEX
  5
387F
330
386C
100
AcDbEntity
  8
LW 3540-32-00
100
AcDbVertex
100
AcDb2dVertex
 10
43.10578944206236
 20
-15.81298470497353
 30
0.0
  0
VERTEX
  5
3880
330
386C
100
AcDbEntity
  8
LW 3540-32-00
100
AcDbVertex
100
AcDb2dVertex
 10
42.9372418117523
 20
-15.72940349579084
 30
0.0
  0
VERTEX
  5
3881
330
386C
100
AcDbEntity
  8
LW 3540-32-00
100
AcDbVertex
100
AcDb2dVertex
 10
42.79067637443541
 20
-15.63239455223316
 30
0.0
  0
VERTEX
  5
3882
330
386C
100
AcDbEntity
  8
LW 3540-32-00
100
AcDbVertex
100
AcDb2dVertex
 10
42.67236830711363
 20
-15.52376866340881
 30
0.0
  0
VERTEX
  5
3883
330
386C
100
AcDbEntity
  8
LW 3540-32-00
100
AcDbVertex
100
AcDb2dVertex
 10
42.58749248504637
 20
-15.40561437607061
 30
0.0
  0
VERTEX
  5
3884
330
386C
100
AcDbEntity
  8
LW 3540-32-00
100
AcDbVertex
100
AcDb2dVertex
 10
42.53681661605833
 20
-15.28149843216198
 30
0.0
  0
VERTEX
  5
3885
330
386C
100
AcDbEntity
  8
LW 3540-32-00
100
AcDbVertex
100
AcDb2dVertex
 10
42.5199997615814
 20
-15.15544414520525
 30
0.0
  0
SEQEND
  5
3886
330
386C
100
AcDbEntity
  8
LW 3540-32-00
  0
POLYLINE
  5
3887
330
3855
100
AcDbEntity
  8
LW 3540-32-00
100
AcDb2dPolyline
 66
     1
 10
0.0
 20
0.0
 30
0.0
 70
   128
  0
VERTEX
  5
3888
330
3887
100
AcDbEntity
  8
LW 3540-32-00
100
AcDbVertex
100
AcDb2dVertex
 10
42.5199997615814
 20
-15.15544414520525
 30
0.0
  0
VERTEX
  5
3889
330
3887
100
AcDbEntity
  8
LW 3540-32-00
100
AcDbVertex
100
AcDb2dVertex
 10
42.53681661605833
 20
-15.02601861953997
 30
0.0
  0
VERTEX
  5
388A
330
3887
100
AcDbEntity
  8
LW 3540-32-00
100
AcDbVertex
100
AcDb2dVertex
 10
42.58749248504637
 20
-14.89207863807945
 30
0.0
  0
VERTEX
  5
388B
330
3887
100
AcDbEntity
  8
LW 3540-32-00
100
AcDbVertex
100
AcDb2dVertex
 10
42.67236830711363
 20
-14.75809454918186
 30
0.0
  0
VERTEX
  5
388C
330
3887
100
AcDbEntity
  8
LW 3540-32-00
100
AcDbVertex
100
AcDb2dVertex
 10
42.79067637443541
 20
-14.62852478027628
 30
0.0
  0
VERTEX
  5
388D
330
3887
100
AcDbEntity
  8
LW 3540-32-00
100
AcDbVertex
100
AcDb2dVertex
 10
42.9372418117523
 20
-14.50744867325119
 30
0.0
  0
VERTEX
  5
388E
330
3887
100
AcDbEntity
  8
LW 3540-32-00
100
AcDbVertex
100
AcDb2dVertex
 10
43.10578944206236
 20
-14.39876794815365
 30
0.0
  0
VERTEX
  5
388F
330
3887
100
AcDbEntity
  8
LW 3540-32-00
100
AcDbVertex
100
AcDb2dVertex
 10
43.29805137634275
 20
-14.30193305015865
 30
0.0
  0
VERTEX
  5
3890
330
3887
100
AcDbEntity
  8
LW 3540-32-00
100
AcDbVertex
100
AcDb2dVertex
 10
43.51613642692564
 20
-14.21658873558351
 30
0.0
  0
VERTEX
  5
3891
330
3887
100
AcDbEntity
  8
LW 3540-32-00
100
AcDbVertex
100
AcDb2dVertex
 10
43.75433089256285
 20
-14.14692282677004
 30
0.0
  0
VERTEX
  5
3892
330
3887
100
AcDbEntity
  8
LW 3540-32-00
100
AcDbVertex
100
AcDb2dVertex
 10
44.00646688461302
 20
-14.09652948379823
 30
0.0
  0
VERTEX
  5
3893
330
3887
100
AcDbEntity
  8
LW 3540-32-00
100
AcDbVertex
100
AcDb2dVertex
 10
44.26452042579649
 20
-14.06625151634523
 30
0.0
  0
VERTEX
  5
3894
330
3887
100
AcDbEntity
  8
LW 3540-32-00
100
AcDbVertex
100
AcDb2dVertex
 10
44.52000023841856
 20
-14.05614495277717
 30
0.0
  0
VERTEX
  5
3895
330
3887
100
AcDbEntity
  8
LW 3540-32-00
100
AcDbVertex
100
AcDb2dVertex
 10
44.77547885894773
 20
-14.06625151634523
 30
0.0
  0
VERTEX
  5
3896
330
3887
100
AcDbEntity
  8
LW 3540-32-00
100
AcDbVertex
100
AcDb2dVertex
 10
45.0335335922241
 20
-14.09652948379823
 30
0.0
  0
VERTEX
  5
3897
330
3887
100
AcDbEntity
  8
LW 3540-32-00
100
AcDbVertex
100
AcDb2dVertex
 10
45.28566958427427
 20
-14.14692282677004
 30
0.0
  0
VERTEX
  5
3898
330
3887
100
AcDbEntity
  8
LW 3540-32-00
100
AcDbVertex
100
AcDb2dVertex
 10
45.52386404991148
 20
-14.21658873558351
 30
0.0
  0
VERTEX
  5
3899
330
3887
100
AcDbEntity
  8
LW 3540-32-00
100
AcDbVertex
100
AcDb2dVertex
 10
45.74194790840147
 20
-14.30193305015865
 30
0.0
  0
VERTEX
  5
389A
330
3887
100
AcDbEntity
  8
LW 3540-32-00
100
AcDbVertex
100
AcDb2dVertex
 10
45.93421103477476
 20
-14.39876794815365
 30
0.0
  0
VERTEX
  5
389B
330
3887
100
AcDbEntity
  8
LW 3540-32-00
100
AcDbVertex
100
AcDb2dVertex
 10
46.10275866508482
 20
-14.50744867325119
 30
0.0
  0
VERTEX
  5
389C
330
3887
100
AcDbEntity
  8
LW 3540-32-00
100
AcDbVertex
100
AcDb2dVertex
 10
46.24932291030882
 20
-14.62852478027628
 30
0.0
  0
VERTEX
  5
389D
330
3887
100
AcDbEntity
  8
LW 3540-32-00
100
AcDbVertex
100
AcDb2dVertex
 10
46.36763216972349
 20
-14.75809454918186
 30
0.0
  0
VERTEX
  5
389E
330
3887
100
AcDbEntity
  8
LW 3540-32-00
100
AcDbVertex
100
AcDb2dVertex
 10
46.45250799179075
 20
-14.89207863807945
 30
0.0
  0
VERTEX
  5
389F
330
3887
100
AcDbEntity
  8
LW 3540-32-00
100
AcDbVertex
100
AcDb2dVertex
 10
46.50318386077879
 20
-15.02601861953997
 30
0.0
  0
VERTEX
  5
38A0
330
3887
100
AcDbEntity
  8
LW 3540-32-00
100
AcDbVertex
100
AcDb2dVertex
 10
46.51999952316282
 20
-15.15544414520525
 30
0.0
  0
SEQEND
  5
38A1
330
3887
100
AcDbEntity
  8
LW 3540-32-00
  0
POLYLINE
  5
38A2
330
3855
100
AcDbEntity
  8
LW 3540-32-00
100
AcDb2dPolyline
 66
     1
 10
0.0
 20
0.0
 30
0.0
 70
   128
  0
VERTEX
  5
38A3
330
38A2
100
AcDbEntity
  8
LW 3540-32-00
100
AcDbVertex
100
AcDb2dVertex
 10
46.51999952316282
 20
15.15544414520002
 30
0.0
  0
VERTEX
  5
38A4
330
38A2
100
AcDbEntity
  8
LW 3540-32-00
100
AcDbVertex
100
AcDb2dVertex
 10
46.50318386077879
 20
15.02601861953474
 30
0.0
  0
VERTEX
  5
38A5
330
38A2
100
AcDbEntity
  8
LW 3540-32-00
100
AcDbVertex
100
AcDb2dVertex
 10
46.45250799179075
 20
14.89207863807411
 30
0.0
  0
VERTEX
  5
38A6
330
38A2
100
AcDbEntity
  8
LW 3540-32-00
100
AcDbVertex
100
AcDb2dVertex
 10
46.36763216972349
 20
14.75809454917629
 30
0.0
  0
VERTEX
  5
38A7
330
38A2
100
AcDbEntity
  8
LW 3540-32-00
100
AcDbVertex
100
AcDb2dVertex
 10
46.24932291030882
 20
14.62852478027059
 30
0.0
  0
VERTEX
  5
38A8
330
38A2
100
AcDbEntity
  8
LW 3540-32-00
100
AcDbVertex
100
AcDb2dVertex
 10
46.10275866508482
 20
14.50744867324539
 30
0.0
  0
VERTEX
  5
38A9
330
38A2
100
AcDbEntity
  8
LW 3540-32-00
100
AcDbVertex
100
AcDb2dVertex
 10
45.93421103477476
 20
14.39876794814762
 30
0.0
  0
VERTEX
  5
38AA
330
38A2
100
AcDbEntity
  8
LW 3540-32-00
100
AcDbVertex
100
AcDb2dVertex
 10
45.74194790840147
 20
14.30193305015263
 30
0.0
  0
VERTEX
  5
38AB
330
38A2
100
AcDbEntity
  8
LW 3540-32-00
100
AcDbVertex
100
AcDb2dVertex
 10
45.52386404991148
 20
14.21658873557737
 30
0.0
  0
VERTEX
  5
38AC
330
38A2
100
AcDbEntity
  8
LW 3540-32-00
100
AcDbVertex
100
AcDb2dVertex
 10
45.28566958427427
 20
14.1469228267639
 30
0.0
  0
VERTEX
  5
38AD
330
38A2
100
AcDbEntity
  8
LW 3540-32-00
100
AcDbVertex
100
AcDb2dVertex
 10
45.0335335922241
 20
14.0965294837921
 30
0.0
  0
VERTEX
  5
38AE
330
38A2
100
AcDbEntity
  8
LW 3540-32-00
100
AcDbVertex
100
AcDb2dVertex
 10
44.77547885894773
 20
14.06625151633909
 30
0.0
  0
VERTEX
  5
38AF
330
38A2
100
AcDbEntity
  8
LW 3540-32-00
100
AcDbVertex
100
AcDb2dVertex
 10
44.52000023841856
 20
14.05614495277092
 30
0.0
  0
VERTEX
  5
38B0
330
38A2
100
AcDbEntity
  8
LW 3540-32-00
100
AcDbVertex
100
AcDb2dVertex
 10
44.26452042579649
 20
14.06625151633909
 30
0.0
  0
VERTEX
  5
38B1
330
38A2
100
AcDbEntity
  8
LW 3540-32-00
100
AcDbVertex
100
AcDb2dVertex
 10
44.00646688461302
 20
14.0965294837921
 30
0.0
  0
VERTEX
  5
38B2
330
38A2
100
AcDbEntity
  8
LW 3540-32-00
100
AcDbVertex
100
AcDb2dVertex
 10
43.75433089256285
 20
14.1469228267639
 30
0.0
  0
VERTEX
  5
38B3
330
38A2
100
AcDbEntity
  8
LW 3540-32-00
100
AcDbVertex
100
AcDb2dVertex
 10
43.51613642692564
 20
14.21658873557737
 30
0.0
  0
VERTEX
  5
38B4
330
38A2
100
AcDbEntity
  8
LW 3540-32-00
100
AcDbVertex
100
AcDb2dVertex
 10
43.29805137634275
 20
14.30193305015263
 30
0.0
  0
VERTEX
  5
38B5
330
38A2
100
AcDbEntity
  8
LW 3540-32-00
100
AcDbVertex
100
AcDb2dVertex
 10
43.10578944206236
 20
14.39876794814762
 30
0.0
  0
VERTEX
  5
38B6
330
38A2
100
AcDbEntity
  8
LW 3540-32-00
100
AcDbVertex
100
AcDb2dVertex
 10
42.9372418117523
 20
14.50744867324539
 30
0.0
  0
VERTEX
  5
38B7
330
38A2
100
AcDbEntity
  8
LW 3540-32-00
100
AcDbVertex
100
AcDb2dVertex
 10
42.79067637443541
 20
14.62852478027059
 30
0.0
  0
VERTEX
  5
38B8
330
38A2
100
AcDbEntity
  8
LW 3540-32-00
100
AcDbVertex
100
AcDb2dVertex
 10
42.67236830711363
 20
14.75809454917629
 30
0.0
  0
VERTEX
  5
38B9
330
38A2
100
AcDbEntity
  8
LW 3540-32-00
100
AcDbVertex
100
AcDb2dVertex
 10
42.58749248504637
 20
14.89207863807411
 30
0.0
  0
VERTEX
  5
38BA
330
38A2
100
AcDbEntity
  8
LW 3540-32-00
100
AcDbVertex
100
AcDb2dVertex
 10
42.53681661605833
 20
15.02601861953474
 30
0.0
  0
VERTEX
  5
38BB
330
38A2
100
AcDbEntity
  8
LW 3540-32-00
100
AcDbVertex
100
AcDb2dVertex
 10
42.5199997615814
 20
15.15544414520002
 30
0.0
  0
SEQEND
  5
38BC
330
38A2
100
AcDbEntity
  8
LW 3540-32-00
  0
POLYLINE
  5
38BD
330
3855
100
AcDbEntity
  8
LW 3540-32-00
100
AcDb2dPolyline
 66
     1
 10
0.0
 20
0.0
 30
0.0
 70
   128
  0
VERTEX
  5
38BE
330
38BD
100
AcDbEntity
  8
LW 3540-32-00
100
AcDbVertex
100
AcDb2dVertex
 10
42.5199997615814
 20
15.15544414520002
 30
0.0
  0
VERTEX
  5
38BF
330
38BD
100
AcDbEntity
  8
LW 3540-32-00
100
AcDbVertex
100
AcDb2dVertex
 10
42.53681661605833
 20
15.28149843215686
 30
0.0
  0
VERTEX
  5
38C0
330
38BD
100
AcDbEntity
  8
LW 3540-32-00
100
AcDbVertex
100
AcDb2dVertex
 10
42.58749248504637
 20
15.40561437606561
 30
0.0
  0
VERTEX
  5
38C1
330
38BD
100
AcDbEntity
  8
LW 3540-32-00
100
AcDbVertex
100
AcDb2dVertex
 10
42.67236830711363
 20
15.52376866340393
 30
0.0
  0
VERTEX
  5
38C2
330
38BD
100
AcDbEntity
  8
LW 3540-32-00
100
AcDbVertex
100
AcDb2dVertex
 10
42.79067637443541
 20
15.6323945522285
 30
0.0
  0
VERTEX
  5
38C3
330
38BD
100
AcDbEntity
  8
LW 3540-32-00
100
AcDbVertex
100
AcDb2dVertex
 10
42.9372418117523
 20
15.7294034957863
 30
0.0
  0
VERTEX
  5
38C4
330
38BD
100
AcDbEntity
  8
LW 3540-32-00
100
AcDbVertex
100
AcDb2dVertex
 10
43.10578944206236
 20
15.8129847049691
 30
0.0
  0
VERTEX
  5
38C5
330
38BD
100
AcDbEntity
  8
LW 3540-32-00
100
AcDbVertex
100
AcDb2dVertex
 10
43.29805137634275
 20
15.88469624519126
 30
0.0
  0
VERTEX
  5
38C6
330
38BD
100
AcDbEntity
  8
LW 3540-32-00
100
AcDbVertex
100
AcDb2dVertex
 10
43.51613642692564
 20
15.94591498374728
 30
0.0
  0
VERTEX
  5
38C7
330
38BD
100
AcDbEntity
  8
LW 3540-32-00
100
AcDbVertex
100
AcDb2dVertex
 10
43.75433089256285
 20
15.99455595016269
 30
0.0
  0
VERTEX
  5
38C8
330
38BD
100
AcDbEntity
  8
LW 3540-32-00
100
AcDbVertex
100
AcDb2dVertex
 10
44.00646688461302
 20
16.02903842925821
 30
0.0
  0
VERTEX
  5
38C9
330
38BD
100
AcDbEntity
  8
LW 3540-32-00
100
AcDbVertex
100
AcDb2dVertex
 10
44.26452042579649
 20
16.04943513870034
 30
0.0
  0
VERTEX
  5
38CA
330
38BD
100
AcDbEntity
  8
LW 3540-32-00
100
AcDbVertex
100
AcDb2dVertex
 10
44.52000023841856
 20
16.05614542960916
 30
0.0
  0
VERTEX
  5
38CB
330
38BD
100
AcDbEntity
  8
LW 3540-32-00
100
AcDbVertex
100
AcDb2dVertex
 10
44.77547885894773
 20
16.04943513870034
 30
0.0
  0
VERTEX
  5
38CC
330
38BD
100
AcDbEntity
  8
LW 3540-32-00
100
AcDbVertex
100
AcDb2dVertex
 10
45.0335335922241
 20
16.02903842925821
 30
0.0
  0
VERTEX
  5
38CD
330
38BD
100
AcDbEntity
  8
LW 3540-32-00
100
AcDbVertex
100
AcDb2dVertex
 10
45.28566958427427
 20
15.99455595016269
 30
0.0
  0
VERTEX
  5
38CE
330
38BD
100
AcDbEntity
  8
LW 3540-32-00
100
AcDbVertex
100
AcDb2dVertex
 10
45.52386404991148
 20
15.94591498374728
 30
0.0
  0
VERTEX
  5
38CF
330
38BD
100
AcDbEntity
  8
LW 3540-32-00
100
AcDbVertex
100
AcDb2dVertex
 10
45.74194790840147
 20
15.88469624519126
 30
0.0
  0
VERTEX
  5
38D0
330
38BD
100
AcDbEntity
  8
LW 3540-32-00
100
AcDbVertex
100
AcDb2dVertex
 10
45.93421103477476
 20
15.8129847049691
 30
0.0
  0
VERTEX
  5
38D1
330
38BD
100
AcDbEntity
  8
LW 3540-32-00
100
AcDbVertex
100
AcDb2dVertex
 10
46.10275866508482
 20
15.7294034957863
 30
0.0
  0
VERTEX
  5
38D2
330
38BD
100
AcDbEntity
  8
LW 3540-32-00
100
AcDbVertex
100
AcDb2dVertex
 10
46.24932291030882
 20
15.6323945522285
 30
0.0
  0
VERTEX
  5
38D3
330
38BD
100
AcDbEntity
  8
LW 3540-32-00
100
AcDbVertex
100
AcDb2dVertex
 10
46.36763216972349
 20
15.52376866340393
 30
0.0
  0
VERTEX
  5
38D4
330
38BD
100
AcDbEntity
  8
LW 3540-32-00
100
AcDbVertex
100
AcDb2dVertex
 10
46.45250799179075
 20
15.40561437606561
 30
0.0
  0
VERTEX
  5
38D5
330
38BD
100
AcDbEntity
  8
LW 3540-32-00
100
AcDbVertex
100
AcDb2dVertex
 10
46.50318386077879
 20
15.28149843215686
 30
0.0
  0
VERTEX
  5
38D6
330
38BD
100
AcDbEntity
  8
LW 3540-32-00
100
AcDbVertex
100
AcDb2dVertex
 10
46.51999952316282
 20
15.15544414520002
 30
0.0
  0
SEQEND
  5
38D7
330
38BD
100
AcDbEntity
  8
LW 3540-32-00
  0
LINE
  5
38D8
330
3855
100
AcDbEntity
  8
LW 3540-32-00
100
AcDbLine
 10
48.51999999999998
 20
-17.5
 30
0.0
 11
48.51999999999998
 21
17.5
 31
0.0
  0
LINE
  5
38D9
330
3855
100
AcDbEntity
  8
LW 3540-32-00
100
AcDbLine
 10
51.51999999999998
 20
-14.50000000000005
 30
0.0
 11
51.51999999999998
 21
14.50000000000005
 31
0.0
  0
LINE
  5
38DA
330
3855
100
AcDbEntity
  8
LW 3540-32-00
100
AcDbLine
 10
28.51999999999998
 20
17.5
 30
0.0
 11
48.51999999999998
 21
17.5
 31
0.0
  0
LINE
  5
38DB
330
3855
100
AcDbEntity
  8
LW 3540-32-00
100
AcDbLine
 10
28.51999999999998
 20
-17.5
 30
0.0
 11
48.51999999999998
 21
-17.5
 31
0.0
  0
LINE
  5
38DC
330
3855
100
AcDbEntity
  8
LW 3540-32-00
100
AcDbLine
 10
51.51999999999998
 20
-14.50000000000005
 30
0.0
 11
48.51999999999998
 21
-17.5
 31
0.0
  0
LINE
  5
38DD
330
3855
100
AcDbEntity
  8
LW 3540-32-00
100
AcDbLine
 10
51.51999999999998
 20
14.50000000000005
 30
0.0
 11
48.51999999999998
 21
17.5
 31
0.0
  0
POLYLINE
  5
38DE
330
3855
100
AcDbEntity
  8
LW 3540-32-00
100
AcDb2dPolyline
 66
     1
 10
0.0
 20
0.0
 30
0.0
 70
   128
  0
VERTEX
  5
38DF
330
38DE
100
AcDbEntity
  8
LW 3540-32-00
100
AcDbVertex
100
AcDb2dVertex
 10
-46.51999952316285
 20
15.15544414520002
 30
0.0
  0
VERTEX
  5
38E0
330
38DE
100
AcDbEntity
  8
LW 3540-32-00
100
AcDbVertex
100
AcDb2dVertex
 10
-46.50318386077882
 20
15.28149843215686
 30
0.0
  0
VERTEX
  5
38E1
330
38DE
100
AcDbEntity
  8
LW 3540-32-00
100
AcDbVertex
100
AcDb2dVertex
 10
-46.45250799179078
 20
15.40561437606561
 30
0.0
  0
VERTEX
  5
38E2
330
38DE
100
AcDbEntity
  8
LW 3540-32-00
100
AcDbVertex
100
AcDb2dVertex
 10
-46.36763216972352
 20
15.52376866340393
 30
0.0
  0
VERTEX
  5
38E3
330
38DE
100
AcDbEntity
  8
LW 3540-32-00
100
AcDbVertex
100
AcDb2dVertex
 10
-46.24932291030884
 20
15.6323945522285
 30
0.0
  0
VERTEX
  5
38E4
330
38DE
100
AcDbEntity
  8
LW 3540-32-00
100
AcDbVertex
100
AcDb2dVertex
 10
-46.10275866508485
 20
15.7294034957863
 30
0.0
  0
VERTEX
  5
38E5
330
38DE
100
AcDbEntity
  8
LW 3540-32-00
100
AcDbVertex
100
AcDb2dVertex
 10
-45.93421103477479
 20
15.8129847049691
 30
0.0
  0
VERTEX
  5
38E6
330
38DE
100
AcDbEntity
  8
LW 3540-32-00
100
AcDbVertex
100
AcDb2dVertex
 10
-45.7419479084015
 20
15.88469624519126
 30
0.0
  0
VERTEX
  5
38E7
330
38DE
100
AcDbEntity
  8
LW 3540-32-00
100
AcDbVertex
100
AcDb2dVertex
 10
-45.52386404991151
 20
15.94591498374728
 30
0.0
  0
VERTEX
  5
38E8
330
38DE
100
AcDbEntity
  8
LW 3540-32-00
100
AcDbVertex
100
AcDb2dVertex
 10
-45.2856695842743
 20
15.99455595016269
 30
0.0
  0
VERTEX
  5
38E9
330
38DE
100
AcDbEntity
  8
LW 3540-32-00
100
AcDbVertex
100
AcDb2dVertex
 10
-45.03353359222413
 20
16.02903842925821
 30
0.0
  0
VERTEX
  5
38EA
330
38DE
100
AcDbEntity
  8
LW 3540-32-00
100
AcDbVertex
100
AcDb2dVertex
 10
-44.77547885894776
 20
16.04943513870034
 30
0.0
  0
VERTEX
  5
38EB
330
38DE
100
AcDbEntity
  8
LW 3540-32-00
100
AcDbVertex
100
AcDb2dVertex
 10
-44.52000023841859
 20
16.05614542960916
 30
0.0
  0
VERTEX
  5
38EC
330
38DE
100
AcDbEntity
  8
LW 3540-32-00
100
AcDbVertex
100
AcDb2dVertex
 10
-44.26452042579652
 20
16.04943513870034
 30
0.0
  0
VERTEX
  5
38ED
330
38DE
100
AcDbEntity
  8
LW 3540-32-00
100
AcDbVertex
100
AcDb2dVertex
 10
-44.00646688461304
 20
16.02903842925821
 30
0.0
  0
VERTEX
  5
38EE
330
38DE
100
AcDbEntity
  8
LW 3540-32-00
100
AcDbVertex
100
AcDb2dVertex
 10
-43.75433089256287
 20
15.99455595016269
 30
0.0
  0
VERTEX
  5
38EF
330
38DE
100
AcDbEntity
  8
LW 3540-32-00
100
AcDbVertex
100
AcDb2dVertex
 10
-43.51613642692567
 20
15.94591498374728
 30
0.0
  0
VERTEX
  5
38F0
330
38DE
100
AcDbEntity
  8
LW 3540-32-00
100
AcDbVertex
100
AcDb2dVertex
 10
-43.29805137634278
 20
15.88469624519126
 30
0.0
  0
VERTEX
  5
38F1
330
38DE
100
AcDbEntity
  8
LW 3540-32-00
100
AcDbVertex
100
AcDb2dVertex
 10
-43.10578944206238
 20
15.8129847049691
 30
0.0
  0
VERTEX
  5
38F2
330
38DE
100
AcDbEntity
  8
LW 3540-32-00
100
AcDbVertex
100
AcDb2dVertex
 10
-42.93724181175233
 20
15.7294034957863
 30
0.0
  0
VERTEX
  5
38F3
330
38DE
100
AcDbEntity
  8
LW 3540-32-00
100
AcDbVertex
100
AcDb2dVertex
 10
-42.79067637443543
 20
15.6323945522285
 30
0.0
  0
VERTEX
  5
38F4
330
38DE
100
AcDbEntity
  8
LW 3540-32-00
100
AcDbVertex
100
AcDb2dVertex
 10
-42.67236830711365
 20
15.52376866340393
 30
0.0
  0
VERTEX
  5
38F5
330
38DE
100
AcDbEntity
  8
LW 3540-32-00
100
AcDbVertex
100
AcDb2dVertex
 10
-42.58749248504639
 20
15.40561437606561
 30
0.0
  0
VERTEX
  5
38F6
330
38DE
100
AcDbEntity
  8
LW 3540-32-00
100
AcDbVertex
100
AcDb2dVertex
 10
-42.53681661605836
 20
15.28149843215686
 30
0.0
  0
VERTEX
  5
38F7
330
38DE
100
AcDbEntity
  8
LW 3540-32-00
100
AcDbVertex
100
AcDb2dVertex
 10
-42.51999976158143
 20
15.15544414520002
 30
0.0
  0
SEQEND
  5
38F8
330
38DE
100
AcDbEntity
  8
LW 3540-32-00
  0
POLYLINE
  5
38F9
330
3855
100
AcDbEntity
  8
LW 3540-32-00
100
AcDb2dPolyline
 66
     1
 10
0.0
 20
0.0
 30
0.0
 70
   128
  0
VERTEX
  5
38FA
330
38F9
100
AcDbEntity
  8
LW 3540-32-00
100
AcDbVertex
100
AcDb2dVertex
 10
-42.51999976158143
 20
15.15544414520002
 30
0.0
  0
VERTEX
  5
38FB
330
38F9
100
AcDbEntity
  8
LW 3540-32-00
100
AcDbVertex
100
AcDb2dVertex
 10
-42.53681661605836
 20
15.02601861953474
 30
0.0
  0
VERTEX
  5
38FC
330
38F9
100
AcDbEntity
  8
LW 3540-32-00
100
AcDbVertex
100
AcDb2dVertex
 10
-42.58749248504639
 20
14.89207863807411
 30
0.0
  0
VERTEX
  5
38FD
330
38F9
100
AcDbEntity
  8
LW 3540-32-00
100
AcDbVertex
100
AcDb2dVertex
 10
-42.67236830711365
 20
14.75809454917629
 30
0.0
  0
VERTEX
  5
38FE
330
38F9
100
AcDbEntity
  8
LW 3540-32-00
100
AcDbVertex
100
AcDb2dVertex
 10
-42.79067637443543
 20
14.62852478027059
 30
0.0
  0
VERTEX
  5
38FF
330
38F9
100
AcDbEntity
  8
LW 3540-32-00
100
AcDbVertex
100
AcDb2dVertex
 10
-42.93724181175233
 20
14.50744867324539
 30
0.0
  0
VERTEX
  5
3900
330
38F9
100
AcDbEntity
  8
LW 3540-32-00
100
AcDbVertex
100
AcDb2dVertex
 10
-43.10578944206238
 20
14.39876794814762
 30
0.0
  0
VERTEX
  5
3901
330
38F9
100
AcDbEntity
  8
LW 3540-32-00
100
AcDbVertex
100
AcDb2dVertex
 10
-43.29805137634278
 20
14.30193305015263
 30
0.0
  0
VERTEX
  5
3902
330
38F9
100
AcDbEntity
  8
LW 3540-32-00
100
AcDbVertex
100
AcDb2dVertex
 10
-43.51613642692567
 20
14.21658873557737
 30
0.0
  0
VERTEX
  5
3903
330
38F9
100
AcDbEntity
  8
LW 3540-32-00
100
AcDbVertex
100
AcDb2dVertex
 10
-43.75433089256287
 20
14.1469228267639
 30
0.0
  0
VERTEX
  5
3904
330
38F9
100
AcDbEntity
  8
LW 3540-32-00
100
AcDbVertex
100
AcDb2dVertex
 10
-44.00646688461304
 20
14.0965294837921
 30
0.0
  0
VERTEX
  5
3905
330
38F9
100
AcDbEntity
  8
LW 3540-32-00
100
AcDbVertex
100
AcDb2dVertex
 10
-44.26452042579652
 20
14.06625151633909
 30
0.0
  0
VERTEX
  5
3906
330
38F9
100
AcDbEntity
  8
LW 3540-32-00
100
AcDbVertex
100
AcDb2dVertex
 10
-44.52000023841859
 20
14.05614495277092
 30
0.0
  0
VERTEX
  5
3907
330
38F9
100
AcDbEntity
  8
LW 3540-32-00
100
AcDbVertex
100
AcDb2dVertex
 10
-44.77547885894776
 20
14.06625151633909
 30
0.0
  0
VERTEX
  5
3908
330
38F9
100
AcDbEntity
  8
LW 3540-32-00
100
AcDbVertex
100
AcDb2dVertex
 10
-45.03353359222413
 20
14.0965294837921
 30
0.0
  0
VERTEX
  5
3909
330
38F9
100
AcDbEntity
  8
LW 3540-32-00
100
AcDbVertex
100
AcDb2dVertex
 10
-45.2856695842743
 20
14.1469228267639
 30
0.0
  0
VERTEX
  5
390A
330
38F9
100
AcDbEntity
  8
LW 3540-32-00
100
AcDbVertex
100
AcDb2dVertex
 10
-45.52386404991151
 20
14.21658873557737
 30
0.0
  0
VERTEX
  5
390B
330
38F9
100
AcDbEntity
  8
LW 3540-32-00
100
AcDbVertex
100
AcDb2dVertex
 10
-45.7419479084015
 20
14.30193305015263
 30
0.0
  0
VERTEX
  5
390C
330
38F9
100
AcDbEntity
  8
LW 3540-32-00
100
AcDbVertex
100
AcDb2dVertex
 10
-45.93421103477479
 20
14.39876794814762
 30
0.0
  0
VERTEX
  5
390D
330
38F9
100
AcDbEntity
  8
LW 3540-32-00
100
AcDbVertex
100
AcDb2dVertex
 10
-46.10275866508485
 20
14.50744867324539
 30
0.0
  0
VERTEX
  5
390E
330
38F9
100
AcDbEntity
  8
LW 3540-32-00
100
AcDbVertex
100
AcDb2dVertex
 10
-46.24932291030884
 20
14.62852478027059
 30
0.0
  0
VERTEX
  5
390F
330
38F9
100
AcDbEntity
  8
LW 3540-32-00
100
AcDbVertex
100
AcDb2dVertex
 10
-46.36763216972352
 20
14.75809454917629
 30
0.0
  0
VERTEX
  5
3910
330
38F9
100
AcDbEntity
  8
LW 3540-32-00
100
AcDbVertex
100
AcDb2dVertex
 10
-46.45250799179078
 20
14.89207863807411
 30
0.0
  0
VERTEX
  5
3911
330
38F9
100
AcDbEntity
  8
LW 3540-32-00
100
AcDbVertex
100
AcDb2dVertex
 10
-46.50318386077882
 20
15.02601861953474
 30
0.0
  0
VERTEX
  5
3912
330
38F9
100
AcDbEntity
  8
LW 3540-32-00
100
AcDbVertex
100
AcDb2dVertex
 10
-46.51999952316285
 20
15.15544414520002
 30
0.0
  0
SEQEND
  5
3913
330
38F9
100
AcDbEntity
  8
LW 3540-32-00
  0
POLYLINE
  5
3914
330
3855
100
AcDbEntity
  8
LW 3540-32-00
100
AcDb2dPolyline
 66
     1
 10
0.0
 20
0.0
 30
0.0
 70
   128
  0
VERTEX
  5
3915
330
3914
100
AcDbEntity
  8
LW 3540-32-00
100
AcDbVertex
100
AcDb2dVertex
 10
-46.51999952316285
 20
-15.15544414520525
 30
0.0
  0
VERTEX
  5
3916
330
3914
100
AcDbEntity
  8
LW 3540-32-00
100
AcDbVertex
100
AcDb2dVertex
 10
-46.50318386077882
 20
-15.02601861953997
 30
0.0
  0
VERTEX
  5
3917
330
3914
100
AcDbEntity
  8
LW 3540-32-00
100
AcDbVertex
100
AcDb2dVertex
 10
-46.45250799179078
 20
-14.89207863807945
 30
0.0
  0
VERTEX
  5
3918
330
3914
100
AcDbEntity
  8
LW 3540-32-00
100
AcDbVertex
100
AcDb2dVertex
 10
-46.36763216972352
 20
-14.75809454918186
 30
0.0
  0
VERTEX
  5
3919
330
3914
100
AcDbEntity
  8
LW 3540-32-00
100
AcDbVertex
100
AcDb2dVertex
 10
-46.24932291030884
 20
-14.62852478027628
 30
0.0
  0
VERTEX
  5
391A
330
3914
100
AcDbEntity
  8
LW 3540-32-00
100
AcDbVertex
100
AcDb2dVertex
 10
-46.10275866508485
 20
-14.50744867325119
 30
0.0
  0
VERTEX
  5
391B
330
3914
100
AcDbEntity
  8
LW 3540-32-00
100
AcDbVertex
100
AcDb2dVertex
 10
-45.93421103477479
 20
-14.39876794815365
 30
0.0
  0
VERTEX
  5
391C
330
3914
100
AcDbEntity
  8
LW 3540-32-00
100
AcDbVertex
100
AcDb2dVertex
 10
-45.7419479084015
 20
-14.30193305015865
 30
0.0
  0
VERTEX
  5
391D
330
3914
100
AcDbEntity
  8
LW 3540-32-00
100
AcDbVertex
100
AcDb2dVertex
 10
-45.52386404991151
 20
-14.21658873558351
 30
0.0
  0
VERTEX
  5
391E
330
3914
100
AcDbEntity
  8
LW 3540-32-00
100
AcDbVertex
100
AcDb2dVertex
 10
-45.2856695842743
 20
-14.14692282677004
 30
0.0
  0
VERTEX
  5
391F
330
3914
100
AcDbEntity
  8
LW 3540-32-00
100
AcDbVertex
100
AcDb2dVertex
 10
-45.03353359222413
 20
-14.09652948379823
 30
0.0
  0
VERTEX
  5
3920
330
3914
100
AcDbEntity
  8
LW 3540-32-00
100
AcDbVertex
100
AcDb2dVertex
 10
-44.77547885894776
 20
-14.06625151634523
 30
0.0
  0
VERTEX
  5
3921
330
3914
100
AcDbEntity
  8
LW 3540-32-00
100
AcDbVertex
100
AcDb2dVertex
 10
-44.52000023841859
 20
-14.05614495277717
 30
0.0
  0
VERTEX
  5
3922
330
3914
100
AcDbEntity
  8
LW 3540-32-00
100
AcDbVertex
100
AcDb2dVertex
 10
-44.26452042579652
 20
-14.06625151634523
 30
0.0
  0
VERTEX
  5
3923
330
3914
100
AcDbEntity
  8
LW 3540-32-00
100
AcDbVertex
100
AcDb2dVertex
 10
-44.00646688461304
 20
-14.09652948379823
 30
0.0
  0
VERTEX
  5
3924
330
3914
100
AcDbEntity
  8
LW 3540-32-00
100
AcDbVertex
100
AcDb2dVertex
 10
-43.75433089256287
 20
-14.14692282677004
 30
0.0
  0
VERTEX
  5
3925
330
3914
100
AcDbEntity
  8
LW 3540-32-00
100
AcDbVertex
100
AcDb2dVertex
 10
-43.51613642692567
 20
-14.21658873558351
 30
0.0
  0
VERTEX
  5
3926
330
3914
100
AcDbEntity
  8
LW 3540-32-00
100
AcDbVertex
100
AcDb2dVertex
 10
-43.29805137634278
 20
-14.30193305015865
 30
0.0
  0
VERTEX
  5
3927
330
3914
100
AcDbEntity
  8
LW 3540-32-00
100
AcDbVertex
100
AcDb2dVertex
 10
-43.10578944206238
 20
-14.39876794815365
 30
0.0
  0
VERTEX
  5
3928
330
3914
100
AcDbEntity
  8
LW 3540-32-00
100
AcDbVertex
100
AcDb2dVertex
 10
-42.93724181175233
 20
-14.50744867325119
 30
0.0
  0
VERTEX
  5
3929
330
3914
100
AcDbEntity
  8
LW 3540-32-00
100
AcDbVertex
100
AcDb2dVertex
 10
-42.79067637443543
 20
-14.62852478027628
 30
0.0
  0
VERTEX
  5
392A
330
3914
100
AcDbEntity
  8
LW 3540-32-00
100
AcDbVertex
100
AcDb2dVertex
 10
-42.67236830711365
 20
-14.75809454918186
 30
0.0
  0
VERTEX
  5
392B
330
3914
100
AcDbEntity
  8
LW 3540-32-00
100
AcDbVertex
100
AcDb2dVertex
 10
-42.58749248504639
 20
-14.89207863807945
 30
0.0
  0
VERTEX
  5
392C
330
3914
100
AcDbEntity
  8
LW 3540-32-00
100
AcDbVertex
100
AcDb2dVertex
 10
-42.53681661605836
 20
-15.02601861953997
 30
0.0
  0
VERTEX
  5
392D
330
3914
100
AcDbEntity
  8
LW 3540-32-00
100
AcDbVertex
100
AcDb2dVertex
 10
-42.51999976158143
 20
-15.15544414520525
 30
0.0
  0
SEQEND
  5
392E
330
3914
100
AcDbEntity
  8
LW 3540-32-00
  0
POLYLINE
  5
392F
330
3855
100
AcDbEntity
  8
LW 3540-32-00
100
AcDb2dPolyline
 66
     1
 10
0.0
 20
0.0
 30
0.0
 70
   128
  0
VERTEX
  5
3930
330
392F
100
AcDbEntity
  8
LW 3540-32-00
100
AcDbVertex
100
AcDb2dVertex
 10
-42.51999976158143
 20
-15.15544414520525
 30
0.0
  0
VERTEX
  5
3931
330
392F
100
AcDbEntity
  8
LW 3540-32-00
100
AcDbVertex
100
AcDb2dVertex
 10
-42.53681661605836
 20
-15.28149843216198
 30
0.0
  0
VERTEX
  5
3932
330
392F
100
AcDbEntity
  8
LW 3540-32-00
100
AcDbVertex
100
AcDb2dVertex
 10
-42.58749248504639
 20
-15.40561437607061
 30
0.0
  0
VERTEX
  5
3933
330
392F
100
AcDbEntity
  8
LW 3540-32-00
100
AcDbVertex
100
AcDb2dVertex
 10
-42.67236830711365
 20
-15.52376866340881
 30
0.0
  0
VERTEX
  5
3934
330
392F
100
AcDbEntity
  8
LW 3540-32-00
100
AcDbVertex
100
AcDb2dVertex
 10
-42.79067637443543
 20
-15.63239455223316
 30
0.0
  0
VERTEX
  5
3935
330
392F
100
AcDbEntity
  8
LW 3540-32-00
100
AcDbVertex
100
AcDb2dVertex
 10
-42.93724181175233
 20
-15.72940349579084
 30
0.0
  0
VERTEX
  5
3936
330
392F
100
AcDbEntity
  8
LW 3540-32-00
100
AcDbVertex
100
AcDb2dVertex
 10
-43.10578944206238
 20
-15.81298470497353
 30
0.0
  0
VERTEX
  5
3937
330
392F
100
AcDbEntity
  8
LW 3540-32-00
100
AcDbVertex
100
AcDb2dVertex
 10
-43.29805137634278
 20
-15.8846962451957
 30
0.0
  0
VERTEX
  5
3938
330
392F
100
AcDbEntity
  8
LW 3540-32-00
100
AcDbVertex
100
AcDb2dVertex
 10
-43.51613642692567
 20
-15.94591498375149
 30
0.0
  0
VERTEX
  5
3939
330
392F
100
AcDbEntity
  8
LW 3540-32-00
100
AcDbVertex
100
AcDb2dVertex
 10
-43.75433089256287
 20
-15.9945559501669
 30
0.0
  0
VERTEX
  5
393A
330
392F
100
AcDbEntity
  8
LW 3540-32-00
100
AcDbVertex
100
AcDb2dVertex
 10
-44.00646688461304
 20
-16.0290384292623
 30
0.0
  0
VERTEX
  5
393B
330
392F
100
AcDbEntity
  8
LW 3540-32-00
100
AcDbVertex
100
AcDb2dVertex
 10
-44.26452042579652
 20
-16.04943513870444
 30
0.0
  0
VERTEX
  5
393C
330
392F
100
AcDbEntity
  8
LW 3540-32-00
100
AcDbVertex
100
AcDb2dVertex
 10
-44.52000023841859
 20
-16.05614542961325
 30
0.0
  0
VERTEX
  5
393D
330
392F
100
AcDbEntity
  8
LW 3540-32-00
100
AcDbVertex
100
AcDb2dVertex
 10
-44.77547885894776
 20
-16.04943513870444
 30
0.0
  0
VERTEX
  5
393E
330
392F
100
AcDbEntity
  8
LW 3540-32-00
100
AcDbVertex
100
AcDb2dVertex
 10
-45.03353359222413
 20
-16.0290384292623
 30
0.0
  0
VERTEX
  5
393F
330
392F
100
AcDbEntity
  8
LW 3540-32-00
100
AcDbVertex
100
AcDb2dVertex
 10
-45.2856695842743
 20
-15.9945559501669
 30
0.0
  0
VERTEX
  5
3940
330
392F
100
AcDbEntity
  8
LW 3540-32-00
100
AcDbVertex
100
AcDb2dVertex
 10
-45.52386404991151
 20
-15.94591498375149
 30
0.0
  0
VERTEX
  5
3941
330
392F
100
AcDbEntity
  8
LW 3540-32-00
100
AcDbVertex
100
AcDb2dVertex
 10
-45.7419479084015
 20
-15.8846962451957
 30
0.0
  0
VERTEX
  5
3942
330
392F
100
AcDbEntity
  8
LW 3540-32-00
100
AcDbVertex
100
AcDb2dVertex
 10
-45.93421103477479
 20
-15.81298470497353
 30
0.0
  0
VERTEX
  5
3943
330
392F
100
AcDbEntity
  8
LW 3540-32-00
100
AcDbVertex
100
AcDb2dVertex
 10
-46.10275866508485
 20
-15.72940349579084
 30
0.0
  0
VERTEX
  5
3944
330
392F
100
AcDbEntity
  8
LW 3540-32-00
100
AcDbVertex
100
AcDb2dVertex
 10
-46.24932291030884
 20
-15.63239455223316
 30
0.0
  0
VERTEX
  5
3945
330
392F
100
AcDbEntity
  8
LW 3540-32-00
100
AcDbVertex
100
AcDb2dVertex
 10
-46.36763216972352
 20
-15.52376866340881
 30
0.0
  0
VERTEX
  5
3946
330
392F
100
AcDbEntity
  8
LW 3540-32-00
100
AcDbVertex
100
AcDb2dVertex
 10
-46.45250799179078
 20
-15.40561437607061
 30
0.0
  0
VERTEX
  5
3947
330
392F
100
AcDbEntity
  8
LW 3540-32-00
100
AcDbVertex
100
AcDb2dVertex
 10
-46.50318386077882
 20
-15.28149843216198
 30
0.0
  0
VERTEX
  5
3948
330
392F
100
AcDbEntity
  8
LW 3540-32-00
100
AcDbVertex
100
AcDb2dVertex
 10
-46.51999952316285
 20
-15.15544414520525
 30
0.0
  0
SEQEND
  5
3949
330
392F
100
AcDbEntity
  8
LW 3540-32-00
  0
LINE
  5
394A
330
3855
100
AcDbEntity
  8
LW 3540-32-00
100
AcDbLine
 10
-48.52000000000001
 20
17.5
 30
0.0
 11
-48.52000000000001
 21
-17.5
 31
0.0
  0
LINE
  5
394B
330
3855
100
AcDbEntity
  8
LW 3540-32-00
100
AcDbLine
 10
-51.52000000000001
 20
14.50000000000005
 30
0.0
 11
-51.52000000000001
 21
-14.50000000000005
 31
0.0
  0
LINE
  5
394C
330
3855
100
AcDbEntity
  8
LW 3540-32-00
100
AcDbLine
 10
-28.52000000000001
 20
-17.5
 30
0.0
 11
-48.52000000000001
 21
-17.5
 31
0.0
  0
LINE
  5
394D
330
3855
100
AcDbEntity
  8
LW 3540-32-00
100
AcDbLine
 10
-28.52000000000001
 20
17.5
 30
0.0
 11
-48.52000000000001
 21
17.5
 31
0.0
  0
LINE
  5
394E
330
3855
100
AcDbEntity
  8
LW 3540-32-00
100
AcDbLine
 10
-51.52000000000001
 20
14.50000000000005
 30
0.0
 11
-48.52000000000001
 21
17.5
 31
0.0
  0
LINE
  5
394F
330
3855
100
AcDbEntity
  8
LW 3540-32-00
100
AcDbLine
 10
-51.52000000000001
 20
-14.50000000000005
 30
0.0
 11
-48.52000000000001
 21
-17.5
 31
0.0
  0
CIRCLE
  5
3950
330
3855
100
AcDbEntity
  8
LW 3540-32-00
100
AcDbCircle
 10
-99.52000000000007
 20
0.0000000000314344
 30
0.0
 40
17.5
  0
CIRCLE
  5
3951
330
3855
100
AcDbEntity
  8
LW 3540-32-00
100
AcDbCircle
 10
-99.52000000000007
 20
0.0000000000305249
 30
0.0
 40
14.5
  0
LINE
  5
3952
330
3855
100
AcDbEntity
  8
LW 3540-32-00
100
AcDbLine
 10
-19.52000000000007
 20
-32.99999999999994
 30
0.0
 11
-17.52000000000007
 21
-32.99999999999994
 31
0.0
  0
LINE
  5
3953
330
3855
100
AcDbEntity
  8
LW 3540-32-00
100
AcDbLine
 10
-17.52000000000007
 20
32.99999999999994
 30
0.0
 11
-17.52000000000007
 21
-32.99999999999994
 31
0.0
  0
LINE
  5
3954
330
3855
100
AcDbEntity
  8
LW 3540-32-00
100
AcDbLine
 10
-19.52000000000007
 20
32.99999999999994
 30
0.0
 11
-17.52000000000007
 21
32.99999999999994
 31
0.0
  0
LINE
  5
3955
330
3855
100
AcDbEntity
  8
LW 3540-32-00
100
AcDbLine
 10
17.51999999999992
 20
-32.99999999999994
 30
0.0
 11
19.51999999999998
 21
-32.99999999999994
 31
0.0
  0
LINE
  5
3956
330
3855
100
AcDbEntity
  8
LW 3540-32-00
100
AcDbLine
 10
17.51999999999992
 20
32.99999999999994
 30
0.0
 11
19.51999999999998
 21
32.99999999999994
 31
0.0
  0
LINE
  5
3957
330
3855
100
AcDbEntity
  8
LW 3540-32-00
100
AcDbLine
 10
17.51999999999992
 20
-32.99999999999994
 30
0.0
 11
17.51999999999992
 21
32.99999999999994
 31
0.0
  0
LINE
  5
3958
330
3855
100
AcDbEntity
  8
LW 3540-32-00
100
AcDbLine
 10
16.0
 20
12.00000000000005
 30
0.0
 11
16.0
 21
7.000000000000056
 31
0.0
  0
HATCH
  5
3959
330
3855
100
AcDbEntity
  8
LW 3540-32-00
 62
     8
100
AcDbHatch
 10
0.0
 20
0.0
 30
0.0
210
0.0
220
0.0
230
1.0
  2
ANSI37
 70
     0
 71
     0
 91
        4
 92
        7
 72
     0
 73
     1
 93
        4
 10
16.0
 20
12.00000000000005
 10
0.0
 20
12.0
 10
0.0
 20
7.250000000000113
 10
16.0
 20
7.25000000000017
 97
        0
 92
        7
 72
     0
 73
     1
 93
        4
 10
0.0
 20
12.00000000000005
 10
-16.0
 20
12.00000000000005
 10
-16.00000000000003
 20
7.250000000000056
 10
0.0
 20
7.250000000000056
 97
        0
 92
        7
 72
     0
 73
     1
 93
        4
 10
0.0
 20
-7.249999999999943
 10
-16.00000000000003
 20
-7.249999999999886
 10
-16.00000000000006
 20
-12.00000000000011
 10
0.0
 20
-12.00000000000005
 97
        0
 92
        7
 72
     0
 73
     1
 93
        4
 10
15.99999999999994
 20
-7.25
 10
-0.0000000000000568
 20
-7.250000000000056
 10
-0.0000000000000568
 20
-12.00000000000005
 10
16.0
 20
-12.00000000000005
 97
        0
 75
     0
 76
     1
 52
0.0
 41
0.5
 77
     0
 78
     2
 53
45.0
 43
-270.1401696238897
 44
-465.3278722640312
 45
-1.122532015133643
 46
1.122532015133644
 79
     0
 53
135.0
 43
-270.1401696238897
 44
-465.3278722640312
 45
-1.122532015133644
 46
-1.122532015133643
 79
     0
 47
0.1361020491611641
 98
        4
 10
7.678954292922071
 20
10.36255170086218
 10
-6.484796907945337
 20
10.36255170086218
 10
-4.441948780990742
 20
-9.23614327693582
 10
8.496092733255636
 20
-10.18885787796858
1001
ACAD
1010
0.0
1020
0.0
1030
0.0
  0
LINE
  5
395A
330
3855
100
AcDbEntity
  8
LW 3540-32-00
100
AcDbLine
 10
16.0
 20
-6.999999999999943
 30
0.0
 11
16.0
 21
-12.00000000000005
 31
0.0
  0
LINE
  5
395B
330
3855
100
AcDbEntity
  8
LW 3540-32-00
100
AcDbLine
 10
-16.0
 20
12.00000000000005
 30
0.0
 11
-16.00000000000006
 21
7.000000000000056
 31
0.0
  0
LINE
  5
395C
330
3855
100
AcDbEntity
  8
LW 3540-32-00
100
AcDbLine
 10
-16.00000000000006
 20
-6.999999999999943
 30
0.0
 11
-16.0
 21
-12.00000000000005
 31
0.0
  0
LINE
  5
395D
330
3855
100
AcDbEntity
  8
LW 3540-32-00
100
AcDbLine
 10
-16.0
 20
12.00000000000005
 30
0.0
 11
16.0
 21
12.00000000000005
 31
0.0
  0
LINE
  5
395E
330
3855
100
AcDbEntity
  8
LW 3540-32-00
100
AcDbLine
 10
-16.0
 20
-12.00000000000005
 30
0.0
 11
16.0
 21
-12.00000000000005
 31
0.0
  0
LINE
  5
395F
330
3855
100
AcDbEntity
  8
LW 3540-32-00
  6
MITTE2
 62
     3
100
AcDbLine
 10
-99.52000000000007
 20
27.50000000003735
 30
0.0
 11
-99.52000000000007
 21
-27.49999999996266
 31
0.0
  0
LINE
  5
3960
330
3855
100
AcDbEntity
  8
LW 3540-32-00
  6
MITTE2
 62
     3
100
AcDbLine
 10
57.12741993842451
 20
0.0
 30
0.0
 11
-139.4468040422329
 21
0.0
 31
0.0
  0
LINE
  5
3961
330
3855
100
AcDbEntity
  8
LW 3540-32-00
  6
MITTE2
 62
     3
100
AcDbLine
 10
0.0
 20
-44.69743157691124
 30
0.0
 11
0.0
 21
44.69743157691124
 31
0.0
  0
LINE
  5
3962
330
3855
100
AcDbEntity
  8
LW 3540-32-00
100
AcDbLine
 10
-16.0
 20
-7.249999999999943
 30
0.0
 11
16.0
 21
-7.249999999999943
 31
0.0
  0
LINE
  5
3963
330
3855
100
AcDbEntity
  8
LW 3540-32-00
100
AcDbLine
 10
16.0
 20
7.250000000000056
 30
0.0
 11
-16.0
 21
7.250000000000056
 31
0.0
  0
LINE
  5
3964
330
3855
100
AcDbEntity
  8
LW 3540-32-00
100
AcDbLine
 10
17.51999999999998
 20
-6.999999999999943
 30
0.0
 11
-17.52000000000001
 21
-6.999999999999943
 31
0.0
  0
LINE
  5
3965
330
3855
100
AcDbEntity
  8
LW 3540-32-00
100
AcDbLine
 10
17.51999999999998
 20
7.000000000000056
 30
0.0
 11
-17.52000000000001
 21
7.000000000000056
 31
0.0
  0
LINE
  5
3966
330
3855
100
AcDbEntity
  8
LW 3540-32-00
 62
     3
100
AcDbLine
 10
-17.52000000000001
 20
-5.79449999999997
 30
0.0
 11
17.51999999999998
 21
-5.79449999999997
 31
0.0
  0
LINE
  5
3967
330
3855
100
AcDbEntity
  8
LW 3540-32-00
 62
     3
100
AcDbLine
 10
17.51999999999998
 20
5.794500000000027
 30
0.0
 11
-17.52000000000001
 21
5.794500000000027
 31
0.0
  0
INSERT
  5
3968
330
3855
100
AcDbEntity
  8
LW 3540-32-00
100
AcDbBlockReference
 66
     1
  2
insertpoint-ECKELT
 10
0.0
 20
0.0
 30
0.0
  0
ATTRIB
  5
3969
330
3968
100
AcDbEntity
  8
insertpoint_ECKELT
100
AcDbText
 10
-6.931514324693087
 20
0.0
 30
0.0
 40
0.6
  1
LW 3540/32-00
 72
     2
 11
-1.200000000000045
 21
0.0
 31
0.0
100
AcDbAttribute
  2
LINKS
 70
     0
  0
ATTRIB
  5
396A
330
3968
100
AcDbEntity
  8
insertpoint_ECKELT
100
AcDbText
 10
1.200000000000045
 20
0.0
 30
0.0
 40
0.6
  1

100
AcDbAttribute
  2
RECHTS
 70
     0
  0
SEQEND
  5
396B
330
3968
100
AcDbEntity
  8
LW 3540-32-00
  0
HATCH
  5
396C
330
3855
100
AcDbEntity
  8
LW 3540-32-00
 62
     1
100
AcDbHatch
 10
0.0
 20
0.0
 30
0.0
210
0.0
220
0.0
230
1.0
  2
SOLID
 70
     1
 71
     0
 91
        5
 92
        7
 72
     0
 73
     1
 93
       76
 10
-74.91854252814523
 20
26.92799040657082
 10
-74.8866836987724
 20
26.97957136841251
 10
-74.76852557454122
 20
27.13081376742849
 10
-74.63404749932846
 20
27.27123789769104
 10
-74.4880275928669
 20
27.39962245940438
 10
-74.3243587967849
 20
27.51652874232013
 10
-74.14897184342027
 20
27.61870662414179
 10
-73.96721891081989
 20
27.71005830372468
 10
-73.78604997535416
 20
27.77957661617086
 10
-76.04318791355416
 20
27.7795766161708
 10
-76.25608446595419
 20
27.77088696097076
 10
-76.45811894935417
 20
27.7448179953708
 10
-76.65363619135423
 20
27.70354213317074
 10
-76.83829136435412
 20
27.64923178817077
 10
-77.01425688215426
 20
27.57971454657076
 10
-77.18153274475418
 20
27.49716282217065
 10
-77.33210100730111
 20
27.40183730462684
 10
-77.47480860775403
 20
27.29512833877072
 10
-77.60024986332479
 20
27.17608006253062
 10
-77.71151481540215
 20
27.04782075177872
 10
-77.81153274675415
 20
26.91061109617073
 10
-77.89408447115414
 20
26.76505937157066
 10
-77.9570844713541
 20
26.61081799177055
 10
-78.00704998875398
 20
26.45005937057078
 10
-78.0352913681541
 20
26.28495592177069
 10
-78.04398102335409
 20
26.11116281777072
 10
-78.03311895435405
 20
25.93736971377064
 10
-78.0027051611541
 20
25.77009385117066
 10
-77.94839481615401
 20
25.60933522997073
 10
-77.87887757455411
 20
25.45292143637067
 10
-77.78980860875396
 20
25.30519729797061
 10
-77.68336033255406
 20
25.16399040097076
 10
-77.56066240113006
 20
25.03277660745067
 10
-77.42446335242181
 20
24.91164281396277
 10
-77.27711895195404
 20
24.80119729637067
 10
-77.11636033075393
 20
24.70343867537082
 10
-76.94073370950679
 20
24.61854074406677
 10
-76.76008446755412
 20
24.54485246797077
 10
-76.56891205315395
 20
24.48836970917074
 10
-76.36904998355402
 20
24.44492143317075
 10
-76.16049825875411
 20
24.41885246757073
 10
-75.94977412015413
 20
24.41016281237074
 10
-73.83060303440146
 20
24.41016281237086
 10
-73.9911468984539
 20
24.47323361610575
 10
-74.17471104225632
 20
24.56385388962849
 10
-74.3431774484265
 20
24.66838358256007
 10
-74.50601034318726
 20
24.78400182098551
 10
-74.6499227115574
 20
24.91379141752537
 10
-74.77735860504168
 20
25.05314510075391
 10
-74.89106395978507
 20
25.20363334546647
 10
-74.94303519123372
 20
25.2878179875708
 10
-75.9714982581541
 20
25.28781798757075
 10
-76.10360708615957
 20
25.29537798759481
 10
-76.2343603279541
 20
25.31571178076274
 10
-76.36253274215397
 20
25.34864557397071
 10
-76.47767067355397
 20
25.39426626377082
 10
-76.58261563940442
 20
25.45074902257074
 10
-76.68076529488843
 20
25.51835454002674
 10
-76.77094653655405
 20
25.59630074717069
 10
-76.842636191954
 20
25.68102488537074
 10
-75.11511487769524
 20
25.68102488537079
 10
-75.12569934496827
 20
25.71366032612912
 10
-75.16181115293267
 20
25.89903427368023
 10
-75.17385480571437
 20
26.08932398763097
 10
-75.16183313328503
 20
26.28407508098599
 10
-75.12552741160977
 20
26.47044445225248
 10
-75.1089287089348
 20
26.51957661217074
 10
-76.87956722655411
 20
26.51957661217074
 10
-76.8100499849541
 20
26.61516281937065
 10
-76.72749826055412
 20
26.69771454377076
 10
-76.63240736370056
 20
26.76757937157868
 10
-76.52980860475413
 20
26.82588695797079
 10
-76.41111660437736
 20
26.86985661328271
 10
-76.28867067295408
 20
26.90192144097074
 10
-76.15180860355412
 20
26.92147316517071
 10
-76.0084292927541
 20
26.92799040657076
 97
        0
 92
        7
 72
     0
 73
     1
 93
       72
 10
-73.19007866311739
 20
26.91339178583479
 10
-73.06721562824458
 20
26.93146626865081
 10
-72.94315342095416
 20
26.93668006177086
 10
-71.67446376175411
 20
26.93668006177091
 10
-72.52170514375411
 20
26.12202488677099
 10
-70.75553272435394
 20
24.40364557097098
 10
-69.43687754775414
 20
24.40364557097098
 10
-71.15091203595404
 20
26.14592143857095
 10
-69.46946375475414
 20
27.77957661617103
 10
-72.9083948001541
 20
27.77957661617086
 10
-73.11638169736619
 20
27.76880144372291
 10
-73.32309990491904
 20
27.74334075398679
 10
-73.52753273315414
 20
27.70354213317086
 10
-73.72087756135414
 20
27.64705937437083
 10
-73.90770514815421
 20
27.57536971897082
 10
-74.07886528662863
 20
27.48934213249083
 10
-74.24442928715411
 20
27.39288695977081
 10
-74.3964982531541
 20
27.28426626977086
 10
-74.53219590875727
 20
27.16495730387482
 10
-74.65718790915406
 20
27.03443868277077
 10
-74.76580859915424
 20
26.89540419957075
 10
-74.8570499787541
 20
26.74768006117091
 10
-74.92873963415417
 20
26.5934386813708
 10
-74.98304997915415
 20
26.43268006017081
 10
-75.01563618615404
 20
26.26540419757077
 10
-75.02649825515408
 20
26.0894386797707
 10
-75.01563618615404
 20
25.91781798957084
 10
-74.98304997915403
 20
25.75054212697086
 10
-74.93091204795399
 20
25.58978350577087
 10
-74.8613948063541
 20
25.43554212597082
 10
-74.76955384054526
 20
25.28677522894691
 10
-74.66417439193486
 20
25.14730626298677
 10
-74.54616887431877
 20
25.01826488326691
 10
-74.41387756355408
 20
24.89895591737087
 10
-74.26175645962286
 20
24.79094350323476
 10
-74.10322239015403
 20
24.69257660637078
 10
-73.931601699954
 20
24.60785246817085
 10
-73.74911894075393
 20
24.53616281277084
 10
-73.55488776772364
 20
24.48211315742685
 10
-73.35808445675406
 20
24.43840419177082
 10
-73.14953273195403
 20
24.41233522617086
 10
-72.93880859335406
 20
24.40364557097087
 10
-71.03577410455404
 20
24.40364557097098
 10
-71.92211893495408
 20
25.27695591857094
 10
-72.93880859335406
 20
25.27695591857088
 10
-73.0054756280486
 20
25.28070321151017
 10
-73.10642335250685
 20
25.29068557378685
 10
-73.22655783564681
 20
25.31214902213088
 10
-73.34367700843239
 20
25.34647316017077
 10
-73.4451721811684
 20
25.38740143616286
 10
-73.50130735376052
 20
25.4155559190109
 10
-73.55499204358608
 20
25.44814212601096
 10
-73.68755273366213
 20
25.54746488494681
 10
-73.76115411320603
 20
25.61750350585885
 10
-73.81622045820842
 20
25.68536971297073
 10
-73.86492597560454
 20
25.75792833389079
 10
-73.90429011366058
 20
25.83509247206678
 10
-73.93371328616769
 20
25.91651454129078
 10
-73.95441204485411
 20
26.00367178294687
 10
-73.96192859660215
 20
26.09300143840272
 10
-73.96057301039087
 20
26.15530626618681
 10
-73.95456845864766
 20
26.21743730086672
 10
-73.94241163102282
 20
26.28061109417087
 10
-73.92419811372366
 20
26.34230764609083
 10
-73.88054997565422
 20
26.44102212916272
 10
-73.83902211345326
 20
26.50888833627476
 10
-73.77594390635653
 20
26.58692143997081
 10
-73.64654196599173
 20
26.71344417702449
 10
-73.58727411265403
 20
26.75350213015486
 10
-73.5109789399981
 20
26.79781937167479
 10
-73.42695866386936
 20
26.83996419939485
 10
-73.31042169798212
 20
26.88280419953088
 97
        0
 92
        7
 72
     0
 73
     1
 93
       57
 10
-68.63204168313001
 20
26.89132006162708
 10
-68.50056719995411
 20
26.93129247554708
 10
-68.36587754435419
 20
26.95840419977111
 10
-68.22249823355417
 20
26.96709385497104
 10
-66.98204995375414
 20
26.9670938549711
 10
-66.98204995375414
 20
27.79261109897112
 10
-68.21598099215413
 20
27.79261109897101
 10
-68.4267051307541
 20
27.78392144377102
 10
-68.63308444175408
 20
27.75568006437101
 10
-68.83077409755407
 20
27.71440420217107
 10
-69.01977409815407
 20
27.66009385717103
 10
-69.20442927115408
 20
27.58840420177103
 10
-69.37083616823435
 20
27.50576558081895
 10
-69.52965699632461
 20
27.40931040809892
 10
-69.67973603128365
 20
27.29982075257897
 10
-69.81429534205557
 20
27.18059868323502
 10
-69.93436030795414
 20
27.05181799317097
 10
-70.0386361703541
 20
26.91278350997101
 10
-70.12336030855414
 20
26.76723178537094
 10
-70.1950499639542
 20
26.61299040557088
 10
-70.24501548135408
 20
26.45223178437106
 10
-70.27760168835408
 20
26.28495592177109
 10
-70.28846375735401
 20
26.111162817771
 10
-70.27760168835408
 20
25.93736971377098
 10
-70.24501548135408
 20
25.770093851171
 10
-70.19287755015415
 20
25.60933522997089
 10
-70.12118789475398
 20
25.45292143637102
 10
-70.03429134275399
 20
25.30519729797101
 10
-69.92544472171886
 20
25.16564143545901
 10
-69.80558830754529
 20
25.03529660745903
 10
-69.66916072090526
 20
24.91398902086701
 10
-69.52160168595407
 20
24.80336971017095
 10
-69.36084306475407
 20
24.70561108917093
 10
-69.18704996075411
 20
24.620886950971
 10
-69.00239478775398
 20
24.54702488177111
 10
-68.81122237335404
 20
24.49054212297102
 10
-68.611360303754
 20
24.44709384697109
 10
-68.40498099275402
 20
24.42319729517095
 10
-68.192084440354
 20
24.41450763997102
 10
-66.98204995375403
 20
24.41450763997108
 10
-66.98204995375403
 20
25.27261109097106
 10
-68.21598099215413
 20
25.272611090971
 10
-68.34962788913009
 20
25.28295178065895
 10
-68.48188444127396
 20
25.30493660831508
 10
-68.60249685545006
 20
25.33926074635502
 10
-68.71850375236994
 20
25.38722764305908
 10
-68.82816720099407
 20
25.44814212601108
 10
-68.92523064957805
 20
25.51574764346697
 10
-69.01264858089001
 20
25.59551867820301
 10
-69.08711892595403
 20
25.68102488537102
 10
-66.98204995375403
 20
25.68102488537107
 10
-66.98204995375403
 20
26.5087145431711
 10
-69.12404996055414
 20
26.50871454317098
 10
-69.05453271895414
 20
26.60647316417101
 10
-68.96763616695415
 20
26.69554212997093
 10
-68.86648858042605
 20
26.77183730262703
 10
-68.75908444215411
 20
26.83892144077101
 97
        0
 92
        7
 72
     0
 73
     1
 93
        6
 10
-66.75177409095403
 20
27.77957661617114
 10
-66.75177409095403
 20
24.41016281237109
 10
-64.51418787695394
 20
24.4101628123712
 10
-64.51418787695406
 20
25.27695591857122
 10
-65.72856719115401
 20
25.27695591857122
 10
-65.72856719115413
 20
27.77957661617114
 97
        0
 92
        7
 72
     0
 73
     1
 93
        8
 10
-65.49611891455419
 20
27.77957661617114
 10
-65.49611891455419
 20
26.95405937217112
 10
-64.26218787615408
 20
26.95405937217123
 10
-64.26218787615397
 20
24.40364557097121
 10
-63.23680856255402
 20
24.40364557097121
 10
-63.23680856255413
 20
26.95405937217117
 10
-61.99418786895416
 20
26.95405937217123
 10
-61.99418786895416
 20
27.77957661617126
 97
        0
 75
     0
 76
     1
 47
0.0142553043587597
 98
        5
 10
-75.60888240207891
 20
27.33712694658169
 10
-73.34138518873629
 20
27.194573961576
 10
-68.84917345653474
 20
27.25159513412382
 10
-66.12532437270312
 20
27.49393535881626
 10
-64.71348639047636
 20
27.39414822640288
450
        0
451
        0
460
0.0
461
0.0
452
        0
462
0.0
453
        0
470

  0
LWPOLYLINE
  5
396D
330
3855
100
AcDbEntity
  8
LW 3540-32-00
 62
     1
100
AcDbPolyline
 90
        8
 70
     1
 43
0.0
 10
-63.23680856255413
 20
26.95405937217117
 10
-63.23680856255402
 20
24.40364557097121
 10
-64.26218787615397
 20
24.40364557097121
 10
-64.26218787615408
 20
26.95405937217123
 10
-65.49611891455419
 20
26.95405937217112
 10
-65.49611891455419
 20
27.77957661617114
 10
-61.99418786895416
 20
27.77957661617126
 10
-61.99418786895416
 20
26.95405937217123
  0
LWPOLYLINE
  5
396E
330
3855
100
AcDbEntity
  8
LW 3540-32-00
 62
     1
100
AcDbPolyline
 90
       73
 70
     1
 43
0.0
 10
-72.93880859335406
 20
25.27695591857088
 10
-71.92211893495408
 20
25.27695591857094
 10
-71.03577410455404
 20
24.40364557097098
 10
-72.93880859335406
 20
24.40364557097081
 10
-73.14953273195403
 20
24.41233522617086
 10
-73.35808445675406
 20
24.43840419177087
 10
-73.55488776772364
 20
24.48211315742685
 10
-73.74911894075393
 20
24.53616281277084
 10
-73.931601699954
 20
24.60785246817085
 10
-74.10322239015403
 20
24.69257660637083
 10
-74.26175645962274
 20
24.79094350323487
 10
-74.41387756355408
 20
24.89895591737087
 10
-74.54616887431888
 20
25.0182648832668
 10
-74.66417439193486
 20
25.14730626298677
 10
-74.76955384054526
 20
25.28677522894685
 10
-74.8613948063541
 20
25.43554212597082
 10
-74.93091204795399
 20
25.58978350577087
 10
-74.98304997915403
 20
25.75054212697086
 10
-75.01563618615404
 20
25.91781798957084
 10
-75.02649825515408
 20
26.08943867977081
 10
-75.01563618615404
 20
26.26540419757077
 10
-74.98304997915415
 20
26.43268006017081
 10
-74.92873963415405
 20
26.5934386813708
 10
-74.8570499787541
 20
26.74768006117086
 10
-74.76580859915412
 20
26.89540419957081
 10
-74.65718790915406
 20
27.03443868277077
 10
-74.53219590875727
 20
27.16495730387487
 10
-74.39649825315422
 20
27.2842662697708
 10
-74.24442928715411
 20
27.39288695977081
 10
-74.07886528662851
 20
27.48934213249078
 10
-73.90770514815421
 20
27.57536971897077
 10
-73.72087756135414
 20
27.64705937437083
 10
-73.52753273315414
 20
27.70354213317091
 10
-73.32309990491893
 20
27.74334075398684
 10
-73.11638169736619
 20
27.76880144372291
 10
-72.90839480015421
 20
27.77957661617086
 10
-69.46946375475414
 20
27.77957661617103
 10
-71.15091203595404
 20
26.14592143857095
 10
-69.43687754775414
 20
24.40364557097098
 10
-70.75553272435394
 20
24.40364557097098
 10
-72.52170514375411
 20
26.12202488677099
 10
-71.67446376175411
 20
26.93668006177091
 10
-72.94315342095416
 20
26.93668006177086
 10
-73.06721562824458
 20
26.93146626865081
 10
-73.19007866311739
 20
26.91339178583479
 10
-73.31042169798212
 20
26.88280419953088
 10
-73.42695866386936
 20
26.83996419939479
 10
-73.51097893999821
 20
26.79781937167485
 10
-73.58727411265414
 20
26.75350213015486
 10
-73.62751590588533
 20
26.72630350937885
 10
-73.66502914738368
 20
26.69536833686687
 10
-73.77594390635653
 20
26.58692143997081
 10
-73.83902211345326
 20
26.50888833627476
 10
-73.88054997565411
 20
26.44102212916283
 10
-73.92419811372366
 20
26.34230764609083
 10
-73.94241163102282
 20
26.28061109417087
 10
-73.95456845864766
 20
26.21743730086683
 10
-73.96057301039087
 20
26.15530626618687
 10
-73.96192859660203
 20
26.09300143840284
 10
-73.95441204485411
 20
26.00367178294687
 10
-73.93371328616757
 20
25.91651454129084
 10
-73.90429011366046
 20
25.83509247206683
 10
-73.86492597560454
 20
25.75792833389079
 10
-73.81622045820853
 20
25.68536971297084
 10
-73.76115411320603
 20
25.61750350585885
 10
-73.68755273366213
 20
25.54746488494681
 10
-73.55499204358597
 20
25.44814212601091
 10
-73.50130735376041
 20
25.41555591901084
 10
-73.4451721811684
 20
25.38740143616286
 10
-73.34367700843239
 20
25.34647316017077
 10
-73.22655783564681
 20
25.31214902213088
 10
-73.10642335250685
 20
25.29068557378685
 10
-73.00547562804848
 20
25.28070321151023
  0
LWPOLYLINE
  5
396F
330
3855
100
AcDbEntity
  8
LW 3540-32-00
 62
     1
100
AcDbPolyline
 90
       76
 70
     1
 43
0.0
 10
-74.14897184342027
 20
27.61870662414179
 10
-74.32435879678502
 20
27.51652874232008
 10
-74.48802759286701
 20
27.39962245940444
 10
-74.63404749932846
 20
27.27123789769104
 10
-74.76852557454122
 20
27.13081376742849
 10
-74.8866836987724
 20
26.97957136841262
 10
-74.91854252814523
 20
26.92799040657082
 10
-76.0084292927541
 20
26.92799040657082
 10
-76.15180860355412
 20
26.92147316517071
 10
-76.2886706729542
 20
26.90192144097074
 10
-76.41111660437736
 20
26.86985661328271
 10
-76.52980860475413
 20
26.82588695797079
 10
-76.63240736370045
 20
26.76757937157873
 10
-76.72749826055412
 20
26.6977145437707
 10
-76.81004998495422
 20
26.61516281937071
 10
-76.87956722655411
 20
26.51957661217074
 10
-75.1089287089348
 20
26.51957661217074
 10
-75.12552741160977
 20
26.47044445225248
 10
-75.16183313328514
 20
26.28407508098587
 10
-75.17385480571437
 20
26.08932398763097
 10
-75.16181115293267
 20
25.89903427368023
 10
-75.12569934496815
 20
25.71366032612917
 10
-75.11511487769524
 20
25.68102488537079
 10
-76.842636191954
 20
25.68102488537074
 10
-76.77094653655405
 20
25.59630074717069
 10
-76.68076529488843
 20
25.51835454002674
 10
-76.58261563940442
 20
25.45074902257074
 10
-76.47767067355397
 20
25.39426626377082
 10
-76.36253274215397
 20
25.34864557397077
 10
-76.2343603279541
 20
25.31571178076274
 10
-76.10360708615957
 20
25.29537798759481
 10
-75.9714982581541
 20
25.28781798757075
 10
-74.94303519123372
 20
25.2878179875708
 10
-74.89106395978507
 20
25.20363334546653
 10
-74.77735860504168
 20
25.05314510075391
 10
-74.6499227115574
 20
24.91379141752537
 10
-74.50601034318714
 20
24.78400182098563
 10
-74.3431774484265
 20
24.66838358256007
 10
-74.17471104225632
 20
24.56385388962849
 10
-73.9911468984539
 20
24.47323361610575
 10
-73.83060303440146
 20
24.41016281237086
 10
-75.94977412015402
 20
24.41016281237069
 10
-76.16049825875411
 20
24.41885246757073
 10
-76.36904998355402
 20
24.44492143317075
 10
-76.56891205315407
 20
24.48836970917074
 10
-76.76008446755401
 20
24.54485246797066
 10
-76.9407337095069
 20
24.61854074406671
 10
-77.11636033075393
 20
24.70343867537082
 10
-77.27711895195404
 20
24.80119729637067
 10
-77.4244633524217
 20
24.91164281396271
 10
-77.56066240113006
 20
25.03277660745067
 10
-77.68336033255406
 20
25.1639904009707
 10
-77.78980860875407
 20
25.30519729797067
 10
-77.878877574554
 20
25.45292143637073
 10
-77.94839481615401
 20
25.60933522997073
 10
-78.0027051611541
 20
25.77009385117066
 10
-78.03311895435405
 20
25.93736971377075
 10
-78.04398102335409
 20
26.11116281777067
 10
-78.03529136815422
 20
26.28495592177063
 10
-78.00704998875409
 20
26.45005937057073
 10
-77.9570844713541
 20
26.61081799177066
 10
-77.89408447115414
 20
26.76505937157066
 10
-77.81153274675415
 20
26.91061109617073
 10
-77.71151481540204
 20
27.04782075177872
 10
-77.60024986332479
 20
27.17608006253068
 10
-77.47480860775414
 20
27.29512833877067
 10
-77.33210100730111
 20
27.40183730462673
 10
-77.18153274475406
 20
27.49716282217077
 10
-77.01425688215414
 20
27.5797145465707
 10
-76.83829136435412
 20
27.64923178817077
 10
-76.65363619135411
 20
27.70354213317069
 10
-76.45811894935417
 20
27.7448179953708
 10
-76.25608446595419
 20
27.77088696097076
 10
-76.04318791355416
 20
27.77957661617075
 10
-73.78604997535404
 20
27.77957661617092
 10
-73.96721891081989
 20
27.71005830372468
  0
LWPOLYLINE
  5
3970
330
3855
100
AcDbEntity
  8
LW 3540-32-00
 62
     1
100
AcDbPolyline
 90
        6
 70
     1
 43
0.0
 10
-64.51418787695394
 20
24.4101628123712
 10
-66.75177409095403
 20
24.41016281237109
 10
-66.75177409095403
 20
27.77957661617114
 10
-65.72856719115413
 20
27.77957661617114
 10
-65.72856719115401
 20
25.27695591857122
 10
-64.51418787695406
 20
25.27695591857122
  0
LWPOLYLINE
  5
3971
330
3855
100
AcDbEntity
  8
LW 3540-32-00
 62
     1
100
AcDbPolyline
 90
       57
 70
     1
 43
0.0
 10
-69.80558830754529
 20
25.03529660745903
 10
-69.92544472171886
 20
25.16564143545895
 10
-70.0342913427541
 20
25.30519729797095
 10
-70.12118789475398
 20
25.45292143637102
 10
-70.19287755015415
 20
25.60933522997089
 10
-70.24501548135408
 20
25.770093851171
 10
-70.27760168835408
 20
25.93736971377098
 10
-70.28846375735401
 20
26.111162817771
 10
-70.27760168835408
 20
26.28495592177103
 10
-70.24501548135408
 20
26.45223178437095
 10
-70.1950499639542
 20
26.61299040557088
 10
-70.12336030855414
 20
26.767231785371
 10
-70.0386361703542
 20
26.9127835099709
 10
-69.93436030795414
 20
27.05181799317103
 10
-69.8142953420558
 20
27.18059868323496
 10
-69.67973603128365
 20
27.29982075257897
 10
-69.52965699632449
 20
27.40931040809897
 10
-69.370836168234
 20
27.50576558081906
 10
-69.20442927115408
 20
27.58840420177103
 10
-69.01977409815419
 20
27.66009385717098
 10
-68.83077409755407
 20
27.71440420217107
 10
-68.63308444175408
 20
27.75568006437101
 10
-68.4267051307541
 20
27.78392144377102
 10
-68.21598099215413
 20
27.79261109897101
 10
-66.98204995375414
 20
27.79261109897112
 10
-66.98204995375414
 20
26.9670938549711
 10
-68.22249823355406
 20
26.96709385497104
 10
-68.36587754435408
 20
26.95840419977105
 10
-68.50056719995411
 20
26.93129247554708
 10
-68.63204168313012
 20
26.89132006162703
 10
-68.75908444215411
 20
26.83892144077101
 10
-68.86648858042605
 20
26.77183730262703
 10
-68.96763616695415
 20
26.69554212997105
 10
-69.05453271895414
 20
26.60647316417101
 10
-69.12404996055414
 20
26.50871454317098
 10
-66.98204995375403
 20
26.5087145431711
 10
-66.98204995375403
 20
25.68102488537107
 10
-69.08711892595403
 20
25.68102488537102
 10
-69.01264858089001
 20
25.59551867820301
 10
-68.92523064957805
 20
25.51574764346697
 10
-68.82816720099407
 20
25.44814212601108
 10
-68.71850375236994
 20
25.38722764305908
 10
-68.60249685545006
 20
25.33926074635502
 10
-68.48188444127396
 20
25.30493660831508
 10
-68.34962788913009
 20
25.28295178065895
 10
-68.21598099215413
 20
25.272611090971
 10
-66.98204995375403
 20
25.27261109097106
 10
-66.98204995375403
 20
24.41450763997108
 10
-68.192084440354
 20
24.41450763997102
 10
-68.40498099275402
 20
24.42319729517095
 10
-68.611360303754
 20
24.44709384697103
 10
-68.81122237335404
 20
24.49054212297102
 10
-69.00239478775398
 20
24.54702488177111
 10
-69.18704996075411
 20
24.620886950971
 10
-69.36084306475407
 20
24.70561108917105
 10
-69.52160168595407
 20
24.80336971017095
 10
-69.66916072090526
 20
24.91398902086701
  0
ENDBLK
  5
3857
330
3855
100
AcDbEntity
  8
0
100
AcDbBlockEnd
  0
BLOCK
  5
3974
330
3973
100
AcDbEntity
  8
0
100
AcDbBlockBegin
  2
LW 3540-32-00_c
 70
     0
 10
0.0
 20
0.0
 30
0.0
  3
LW 3540-32-00_c
  1

  0
LINE
  5
3976
330
3973
100
AcDbEntity
  8
LW 3540-32-00
100
AcDbLine
 10
14.00000000000978
 20
32.99999999999585
 30
0.0
 11
13.99999999999022
 21
-33.00000000000409
 31
0.0
  0
ARC
  5
3977
330
3973
100
AcDbEntity
  8
LW 3540-32-00
100
AcDbCircle
 10
145.0000000000216
 20
-0.0000000000429736
 30
0.0
 40
35.0
100
AcDbArc
 50
269.9999999999804
 51
89.99999999998046
  0
LINE
  5
3978
330
3973
100
AcDbEntity
  8
LW 3540-32-00
100
AcDbLine
 10
145.000000000032
 20
34.99999999995703
 30
0.0
 11
16.00000000003206
 21
34.99999999999523
 31
0.0
  0
LINE
  5
3979
330
3973
100
AcDbEntity
  8
LW 3540-32-00
100
AcDbLine
 10
16.00000000001125
 20
-35.00000000000478
 30
0.0
 11
145.0000000000112
 21
-35.00000000004297
 31
0.0
  0
LINE
  5
397A
330
3973
100
AcDbEntity
  8
LW 3540-32-00
100
AcDbLine
 10
16.00000000003206
 20
34.99999999999523
 30
0.0
 11
12.00000000003081
 21
34.99999999999648
 31
0.0
  0
LINE
  5
397B
330
3973
100
AcDbEntity
  8
LW 3540-32-00
100
AcDbLine
 10
12.00000000001012
 20
-35.00000000000353
 30
0.0
 11
16.00000000001125
 21
-35.00000000000478
 31
0.0
  0
ARC
  5
397C
330
3973
100
AcDbEntity
  8
LW 3540-32-00
100
AcDbCircle
 10
12.00000000000978
 20
32.99999999999642
 30
0.0
 40
2.00000000000001
100
AcDbArc
 50
0.0
 51
89.99999999998046
  0
ARC
  5
397D
330
3973
100
AcDbEntity
  8
LW 3540-32-00
100
AcDbCircle
 10
11.99999999999022
 20
-33.00000000000352
 30
0.0
 40
1.999999999999997
100
AcDbArc
 50
269.9999999999804
 51
0.0
  0
LINE
  5
397E
330
3973
100
AcDbEntity
  8
LW 3540-32-00
100
AcDbLine
 10
4.999999999989654
 20
-35.00000000000148
 30
0.0
 11
5.000000000010345
 21
34.99999999999853
 31
0.0
  0
LINE
  5
397F
330
3973
100
AcDbEntity
  8
LW 3540-32-00
100
AcDbLine
 10
12.00000000001034
 20
34.99999999999648
 30
0.0
 11
5.000000000010345
 21
34.99999999999853
 31
0.0
  0
LINE
  5
3980
330
3973
100
AcDbEntity
  8
LW 3540-32-00
100
AcDbLine
 10
4.999999999989654
 20
-35.00000000000148
 30
0.0
 11
11.99999999998954
 21
-35.00000000000353
 31
0.0
  0
LINE
  5
3981
330
3973
100
AcDbEntity
  8
LW 3540-32-00
100
AcDbLine
 10
19.00000000000659
 20
22.49999999999443
 30
0.0
 11
18.99999999999329
 21
-22.50000000000557
 31
0.0
  0
LINE
  5
3982
330
3973
100
AcDbEntity
  8
LW 3540-32-00
100
AcDbLine
 10
14.00000000000659
 20
22.49999999999591
 30
0.0
 11
19.00000000000659
 21
22.49999999999443
 31
0.0
  0
LINE
  5
3983
330
3973
100
AcDbEntity
  8
LW 3540-32-00
100
AcDbLine
 10
13.99999999999329
 20
-22.50000000000409
 30
0.0
 11
18.99999999999329
 21
-22.50000000000557
 31
0.0
  0
LINE
  5
3984
330
3973
100
AcDbEntity
  8
LW 3540-32-00
100
AcDbLine
 10
-0.0000000000067075
 20
-22.5
 30
0.0
 11
0.0000000000067075
 21
22.5
 31
0.0
  0
LINE
  5
3985
330
3973
100
AcDbEntity
  8
LW 3540-32-00
100
AcDbLine
 10
4.999999999993292
 20
-22.50000000000148
 30
0.0
 11
-0.0000000000067075
 21
-22.5
 31
0.0
  0
LINE
  5
3986
330
3973
100
AcDbEntity
  8
LW 3540-32-00
100
AcDbLine
 10
5.000000000006707
 20
22.49999999999852
 30
0.0
 11
0.0000000000067075
 21
22.5
 31
0.0
  0
CIRCLE
  5
3987
330
3973
100
AcDbEntity
  8
LW 3540-32-00
100
AcDbCircle
 10
145.0000000000151
 20
-0.0000000000429736
 30
0.0
 40
17.5
  0
CIRCLE
  5
3988
330
3973
100
AcDbEntity
  8
LW 3540-32-00
100
AcDbCircle
 10
145.0000000000143
 20
-0.0000000000429736
 30
0.0
 40
14.5
  0
CIRCLE
  5
3989
330
3973
100
AcDbEntity
  8
LW 3540-32-00
100
AcDbCircle
 10
65.00000000001512
 20
-0.0000000000192131
 30
0.0
 40
17.5
  0
CIRCLE
  5
398A
330
3973
100
AcDbEntity
  8
LW 3540-32-00
100
AcDbCircle
 10
65.00000000001432
 20
-0.0000000000192131
 30
0.0
 40
14.5
  0
POLYLINE
  5
398B
330
3973
100
AcDbEntity
  8
LW 3540-32-00
100
AcDb2dPolyline
 66
     1
 10
0.0
 20
0.0
 30
0.0
 70
   128
  0
VERTEX
  5
398C
330
398B
100
AcDbEntity
  8
LW 3540-32-00
100
AcDbVertex
100
AcDb2dVertex
 10
36.99999952315761
 20
-0.0000000000109139
 30
0.0
  0
VERTEX
  5
398D
330
398B
100
AcDbEntity
  8
LW 3540-32-00
100
AcDbVertex
100
AcDb2dVertex
 10
36.98318386077358
 20
-0.2554797381271783
 30
0.0
  0
VERTEX
  5
398E
330
398B
100
AcDbEntity
  8
LW 3540-32-00
100
AcDbVertex
100
AcDb2dVertex
 10
36.93250799178543
 20
-0.513535626243538
 30
0.0
  0
VERTEX
  5
398F
330
398B
100
AcDbEntity
  8
LW 3540-32-00
100
AcDbVertex
100
AcDb2dVertex
 10
36.84763216971806
 20
-0.7656736672033731
 30
0.0
  0
VERTEX
  5
3990
330
398B
100
AcDbEntity
  8
LW 3540-32-00
100
AcDbVertex
100
AcDb2dVertex
 10
36.72932291030338
 20
-1.003869771968254
 30
0.0
  0
VERTEX
  5
3991
330
398B
100
AcDbEntity
  8
LW 3540-32-00
100
AcDbVertex
100
AcDb2dVertex
 10
36.58275866507927
 20
-1.221954673539471
 30
0.0
  0
VERTEX
  5
3992
330
398B
100
AcDbEntity
  8
LW 3540-32-00
100
AcDbVertex
100
AcDb2dVertex
 10
36.4142110347691
 20
-1.414216607819867
 30
0.0
  0
VERTEX
  5
3993
330
398B
100
AcDbEntity
  8
LW 3540-32-00
100
AcDbVertex
100
AcDb2dVertex
 10
36.22194790839581
 20
-1.58276334406014
 30
0.0
  0
VERTEX
  5
3994
330
398B
100
AcDbEntity
  8
LW 3540-32-00
100
AcDbVertex
100
AcDb2dVertex
 10
36.00386404990582
 20
-1.729326844226022
 30
0.0
  0
VERTEX
  5
3995
330
398B
100
AcDbEntity
  8
LW 3540-32-00
100
AcDbVertex
100
AcDb2dVertex
 10
35.76566958426861
 20
-1.847633719454847
 30
0.0
  0
VERTEX
  5
3996
330
398B
100
AcDbEntity
  8
LW 3540-32-00
100
AcDbVertex
100
AcDb2dVertex
 10
35.51353359221832
 20
-1.932508051405932
 30
0.0
  0
VERTEX
  5
3997
330
398B
100
AcDbEntity
  8
LW 3540-32-00
100
AcDbVertex
100
AcDb2dVertex
 10
35.25547885894196
 20
-1.983183622370688
 30
0.0
  0
VERTEX
  5
3998
330
398B
100
AcDbEntity
  8
LW 3540-32-00
100
AcDbVertex
100
AcDb2dVertex
 10
35.00000023841278
 20
-2.000000029812667
 30
0.0
  0
VERTEX
  5
3999
330
398B
100
AcDbEntity
  8
LW 3540-32-00
100
AcDbVertex
100
AcDb2dVertex
 10
34.74452042579071
 20
-1.983183622370518
 30
0.0
  0
VERTEX
  5
399A
330
398B
100
AcDbEntity
  8
LW 3540-32-00
100
AcDbVertex
100
AcDb2dVertex
 10
34.48646688460724
 20
-1.932508051405648
 30
0.0
  0
VERTEX
  5
399B
330
398B
100
AcDbEntity
  8
LW 3540-32-00
100
AcDbVertex
100
AcDb2dVertex
 10
34.23433089255718
 20
-1.847633719454393
 30
0.0
  0
VERTEX
  5
399C
330
398B
100
AcDbEntity
  8
LW 3540-32-00
100
AcDbVertex
100
AcDb2dVertex
 10
33.99613642691998
 20
-1.729326844225454
 30
0.0
  0
VERTEX
  5
399D
330
398B
100
AcDbEntity
  8
LW 3540-32-00
100
AcDbVertex
100
AcDb2dVertex
 10
33.77805137633709
 20
-1.582763344059458
 30
0.0
  0
VERTEX
  5
399E
330
398B
100
AcDbEntity
  8
LW 3540-32-00
100
AcDbVertex
100
AcDb2dVertex
 10
33.5857894420567
 20
-1.414216607819014
 30
0.0
  0
VERTEX
  5
399F
330
398B
100
AcDbEntity
  8
LW 3540-32-00
100
AcDbVertex
100
AcDb2dVertex
 10
33.41724181174675
 20
-1.221954673538562
 30
0.0
  0
VERTEX
  5
39A0
330
398B
100
AcDbEntity
  8
LW 3540-32-00
100
AcDbVertex
100
AcDb2dVertex
 10
33.27067637442997
 20
-1.003869771967288
 30
0.0
  0
VERTEX
  5
39A1
330
398B
100
AcDbEntity
  8
LW 3540-32-00
100
AcDbVertex
100
AcDb2dVertex
 10
33.15236830710819
 20
-0.7656736672022362
 30
0.0
  0
VERTEX
  5
39A2
330
398B
100
AcDbEntity
  8
LW 3540-32-00
100
AcDbVertex
100
AcDb2dVertex
 10
33.06749248504104
 20
-0.5135356262424012
 30
0.0
  0
VERTEX
  5
39A3
330
398B
100
AcDbEntity
  8
LW 3540-32-00
100
AcDbVertex
100
AcDb2dVertex
 10
33.01681661605312
 20
-0.2554797381260414
 30
0.0
  0
VERTEX
  5
39A4
330
398B
100
AcDbEntity
  8
LW 3540-32-00
100
AcDbVertex
100
AcDb2dVertex
 10
32.99999976157619
 20
-0.0000000000097202
 30
0.0
  0
SEQEND
  5
39A5
330
398B
100
AcDbEntity
  8
LW 3540-32-00
  0
POLYLINE
  5
39A6
330
3973
100
AcDbEntity
  8
LW 3540-32-00
100
AcDb2dPolyline
 66
     1
 10
0.0
 20
0.0
 30
0.0
 70
   128
  0
VERTEX
  5
39A7
330
39A6
100
AcDbEntity
  8
LW 3540-32-00
100
AcDbVertex
100
AcDb2dVertex
 10
32.99999976157619
 20
-0.0000000000097202
 30
0.0
  0
VERTEX
  5
39A8
330
39A6
100
AcDbEntity
  8
LW 3540-32-00
100
AcDbVertex
100
AcDb2dVertex
 10
33.01681661605324
 20
0.2554797381064873
 30
0.0
  0
VERTEX
  5
39A9
330
39A6
100
AcDbEntity
  8
LW 3540-32-00
100
AcDbVertex
100
AcDb2dVertex
 10
33.06749248504127
 20
0.513535626222847
 30
0.0
  0
VERTEX
  5
39AA
330
39A6
100
AcDbEntity
  8
LW 3540-32-00
100
AcDbVertex
100
AcDb2dVertex
 10
33.15236830710865
 20
0.7656736671826821
 30
0.0
  0
VERTEX
  5
39AB
330
39A6
100
AcDbEntity
  8
LW 3540-32-00
100
AcDbVertex
100
AcDb2dVertex
 10
33.27067637443054
 20
1.003869771947506
 30
0.0
  0
VERTEX
  5
39AC
330
39A6
100
AcDbEntity
  8
LW 3540-32-00
100
AcDbVertex
100
AcDb2dVertex
 10
33.41724181174743
 20
1.22195467351878
 30
0.0
  0
VERTEX
  5
39AD
330
39A6
100
AcDbEntity
  8
LW 3540-32-00
100
AcDbVertex
100
AcDb2dVertex
 10
33.5857894420576
 20
1.414216607799119
 30
0.0
  0
VERTEX
  5
39AE
330
39A6
100
AcDbEntity
  8
LW 3540-32-00
100
AcDbVertex
100
AcDb2dVertex
 10
33.778051376338
 20
1.582763344039449
 30
0.0
  0
VERTEX
  5
39AF
330
39A6
100
AcDbEntity
  8
LW 3540-32-00
100
AcDbVertex
100
AcDb2dVertex
 10
33.996136426921
 20
1.729326844205331
 30
0.0
  0
VERTEX
  5
39B0
330
39A6
100
AcDbEntity
  8
LW 3540-32-00
100
AcDbVertex
100
AcDb2dVertex
 10
34.23433089255821
 20
1.847633719434156
 30
0.0
  0
VERTEX
  5
39B1
330
39A6
100
AcDbEntity
  8
LW 3540-32-00
100
AcDbVertex
100
AcDb2dVertex
 10
34.48646688460849
 20
1.932508051385184
 30
0.0
  0
VERTEX
  5
39B2
330
39A6
100
AcDbEntity
  8
LW 3540-32-00
100
AcDbVertex
100
AcDb2dVertex
 10
34.74452042579196
 20
1.98318362234994
 30
0.0
  0
VERTEX
  5
39B3
330
39A6
100
AcDbEntity
  8
LW 3540-32-00
100
AcDbVertex
100
AcDb2dVertex
 10
35.00000023841403
 20
2.000000029791976
 30
0.0
  0
VERTEX
  5
39B4
330
39A6
100
AcDbEntity
  8
LW 3540-32-00
100
AcDbVertex
100
AcDb2dVertex
 10
35.25547885894321
 20
1.98318362234977
 30
0.0
  0
VERTEX
  5
39B5
330
39A6
100
AcDbEntity
  8
LW 3540-32-00
100
AcDbVertex
100
AcDb2dVertex
 10
35.51353359221958
 20
1.9325080513849
 30
0.0
  0
VERTEX
  5
39B6
330
39A6
100
AcDbEntity
  8
LW 3540-32-00
100
AcDbVertex
100
AcDb2dVertex
 10
35.76566958426963
 20
1.847633719433702
 30
0.0
  0
VERTEX
  5
39B7
330
39A6
100
AcDbEntity
  8
LW 3540-32-00
100
AcDbVertex
100
AcDb2dVertex
 10
36.00386404990684
 20
1.729326844204763
 30
0.0
  0
VERTEX
  5
39B8
330
39A6
100
AcDbEntity
  8
LW 3540-32-00
100
AcDbVertex
100
AcDb2dVertex
 10
36.22194790839671
 20
1.582763344038767
 30
0.0
  0
VERTEX
  5
39B9
330
39A6
100
AcDbEntity
  8
LW 3540-32-00
100
AcDbVertex
100
AcDb2dVertex
 10
36.41421103477
 20
1.414216607798266
 30
0.0
  0
VERTEX
  5
39BA
330
39A6
100
AcDbEntity
  8
LW 3540-32-00
100
AcDbVertex
100
AcDb2dVertex
 10
36.58275866507995
 20
1.221954673517871
 30
0.0
  0
VERTEX
  5
39BB
330
39A6
100
AcDbEntity
  8
LW 3540-32-00
100
AcDbVertex
100
AcDb2dVertex
 10
36.72932291030395
 20
1.00386977194654
 30
0.0
  0
VERTEX
  5
39BC
330
39A6
100
AcDbEntity
  8
LW 3540-32-00
100
AcDbVertex
100
AcDb2dVertex
 10
36.84763216971851
 20
0.7656736671815452
 30
0.0
  0
VERTEX
  5
39BD
330
39A6
100
AcDbEntity
  8
LW 3540-32-00
100
AcDbVertex
100
AcDb2dVertex
 10
36.93250799178566
 20
0.5135356262217102
 30
0.0
  0
VERTEX
  5
39BE
330
39A6
100
AcDbEntity
  8
LW 3540-32-00
100
AcDbVertex
100
AcDb2dVertex
 10
36.9831838607737
 20
0.2554797381053504
 30
0.0
  0
VERTEX
  5
39BF
330
39A6
100
AcDbEntity
  8
LW 3540-32-00
100
AcDbVertex
100
AcDb2dVertex
 10
36.99999952315761
 20
-0.0000000000109139
 30
0.0
  0
SEQEND
  5
39C0
330
39A6
100
AcDbEntity
  8
LW 3540-32-00
  0
LINE
  5
39C1
330
3973
100
AcDbEntity
  8
LW 3540-32-00
100
AcDbLine
 10
38.99999999999477
 20
-17.50000000001148
 30
0.0
 11
39.00000000000512
 21
17.49999999998852
 31
0.0
  0
LINE
  5
39C2
330
3973
100
AcDbEntity
  8
LW 3540-32-00
100
AcDbLine
 10
41.99999999999556
 20
-14.50000000001245
 30
0.0
 11
42.00000000000431
 21
14.49999999998761
 31
0.0
  0
LINE
  5
39C3
330
3973
100
AcDbEntity
  8
LW 3540-32-00
100
AcDbLine
 10
19.00000000000511
 20
17.49999999999443
 30
0.0
 11
39.00000000000512
 21
17.4999999999884
 31
0.0
  0
LINE
  5
39C4
330
3973
100
AcDbEntity
  8
LW 3540-32-00
100
AcDbLine
 10
18.99999999999477
 20
-17.50000000000557
 30
0.0
 11
38.99999999999477
 21
-17.50000000001159
 31
0.0
  0
LINE
  5
39C5
330
3973
100
AcDbEntity
  8
LW 3540-32-00
100
AcDbLine
 10
41.99999999999568
 20
-14.50000000001245
 30
0.0
 11
38.99999999999477
 21
-17.50000000001148
 31
0.0
  0
LINE
  5
39C6
330
3973
100
AcDbEntity
  8
LW 3540-32-00
100
AcDbLine
 10
42.00000000000431
 20
14.49999999998761
 30
0.0
 11
39.00000000000512
 21
17.4999999999884
 31
0.0
  0
LINE
  5
39C7
330
3973
100
AcDbEntity
  8
LW 3540-32-00
100
AcDbLine
 10
70.00000000001512
 20
-0.0000000000192131
 30
0.0
 11
60.00000000001512
 21
-0.0000000000192131
 31
0.0
  0
LINE
  5
39C8
330
3973
100
AcDbEntity
  8
LW 3540-32-00
  6
MITTE2
 62
     3
100
AcDbLine
 10
65.00000000001512
 20
22.49999999998079
 30
0.0
 11
65.00000000001512
 21
-22.50000000001922
 31
0.0
  0
LINE
  5
39C9
330
3973
100
AcDbEntity
  8
LW 3540-32-00
  6
MITTE2
 62
     3
100
AcDbLine
 10
145.0000000000151
 20
22.49999999995702
 30
0.0
 11
145.0000000000151
 21
-22.50000000004297
 31
0.0
  0
LINE
  5
39CA
330
3973
100
AcDbEntity
  8
LW 3540-32-00
  6
MITTE2
 62
     3
100
AcDbLine
 10
187.3663674569925
 20
-0.000000000055536
 30
0.0
 11
-23.30038640845748
 21
0.0000000000069349
 31
0.0
  0
LINE
  5
39CB
330
3973
100
AcDbEntity
  8
LW 3540-32-00
100
AcDbLine
 10
-15.99999999999795
 20
7.000000000005059
 30
0.0
 11
-15.99999999999795
 21
-6.99999999999494
 31
0.0
  0
LINE
  5
39CC
330
3973
100
AcDbEntity
  8
LW 3540-32-00
100
AcDbLine
 10
-16.99999999999795
 20
6.000000000005059
 30
0.0
 11
-16.99999999999795
 21
-5.99999999999494
 31
0.0
  0
LINE
  5
39CD
330
3973
100
AcDbEntity
  8
LW 3540-32-00
100
AcDbLine
 10
0.0000000000020464
 20
-6.99999999999494
 30
0.0
 11
-15.99999999999795
 21
-6.99999999999494
 31
0.0
  0
LINE
  5
39CE
330
3973
100
AcDbEntity
  8
LW 3540-32-00
100
AcDbLine
 10
0.0000000000020464
 20
7.000000000005059
 30
0.0
 11
-15.99999999999795
 21
7.000000000005059
 31
0.0
  0
LINE
  5
39CF
330
3973
100
AcDbEntity
  8
LW 3540-32-00
100
AcDbLine
 10
-16.99999999999795
 20
6.000000000005059
 30
0.0
 11
-15.99999999999795
 21
7.000000000005059
 31
0.0
  0
LINE
  5
39D0
330
3973
100
AcDbEntity
  8
LW 3540-32-00
100
AcDbLine
 10
-16.99999999999795
 20
-5.99999999999494
 30
0.0
 11
-15.99999999999795
 21
-6.99999999999494
 31
0.0
  0
LINE
  5
39D1
330
3973
100
AcDbEntity
  8
LW 3540-32-00
 62
     3
100
AcDbLine
 10
-16.99999999999795
 20
-5.794499999994911
 30
0.0
 11
0.0000000000020464
 21
-5.794499999994911
 31
0.0
  0
LINE
  5
39D2
330
3973
100
AcDbEntity
  8
LW 3540-32-00
 62
     3
100
AcDbLine
 10
0.0000000000020464
 20
5.794500000005029
 30
0.0
 11
-16.99999999999795
 21
5.794500000005029
 31
0.0
  0
LINE
  5
39D3
330
3973
100
AcDbEntity
  8
LW 3540-32-00
100
AcDbLine
 10
-15.99999999999795
 20
7.000000000005059
 30
0.0
 11
-15.99999999999795
 21
-6.99999999999494
 31
0.0
  0
INSERT
  5
39D4
330
3973
100
AcDbEntity
  8
LW 3540-32-00
100
AcDbBlockReference
 66
     1
  2
insertpoint-ECKELT
 10
0.0
 20
0.0
 30
0.0
  0
ATTRIB
  5
39D5
330
39D4
100
AcDbEntity
  8
insertpoint_ECKELT
100
AcDbText
 10
-6.931514324693087
 20
0.0
 30
0.0
 40
0.6
  1
LW 3540/32-00
 72
     2
 11
-1.200000000000045
 21
0.0
 31
0.0
100
AcDbAttribute
  2
LINKS
 70
     0
  0
ATTRIB
  5
39D6
330
39D4
100
AcDbEntity
  8
insertpoint_ECKELT
100
AcDbText
 10
1.200000000000045
 20
0.0
 30
0.0
 40
0.6
  1

100
AcDbAttribute
  2
RECHTS
 70
     0
  0
SEQEND
  5
39D7
330
39D4
100
AcDbEntity
  8
LW 3540-32-00
  0
HATCH
  5
39D8
330
3973
100
AcDbEntity
  8
LW 3540-32-00
 62
     1
100
AcDbHatch
 10
0.0
 20
0.0
 30
0.0
210
0.0
220
0.0
230
1.0
  2
SOLID
 70
     1
 71
     0
 91
        5
 92
        7
 72
     0
 73
     1
 93
       76
 10
101.6198830459461
 20
19.76920546873941
 10
101.651741875319
 20
19.82078643058111
 10
101.7698999995501
 20
19.97202882959709
 10
101.9043780747629
 20
20.11245295985964
 10
102.0503979812245
 20
20.24083752157299
 10
102.2140667773064
 20
20.35774380448874
 10
102.3894537306711
 20
20.45992168631039
 10
102.5712066632715
 20
20.55127336589328
 10
102.7523755987372
 20
20.62079167833946
 10
100.4952376605372
 20
20.6207916783394
 10
100.2823411081372
 20
20.61210202313936
 10
100.0803066247372
 20
20.5860330575394
 10
99.88478938273715
 20
20.54475719533934
 10
99.70013420973726
 20
20.49044685033937
 10
99.52416869193712
 20
20.42092960873936
 10
99.3568928293372
 20
20.33837788433925
 10
99.20632456679028
 20
20.24305236679544
 10
99.06361696633736
 20
20.13634340093933
 10
98.9381757107666
 20
20.01729512469922
 10
98.82691075868923
 20
19.88903581394732
 10
98.72689282733723
 20
19.75182615833933
 10
98.64434110293723
 20
19.60627443373926
 10
98.58134110273727
 20
19.45203305393915
 10
98.5313755853374
 20
19.29127443273938
 10
98.50313420593728
 20
19.12617098393929
 10
98.49444455073729
 20
18.95237787993932
 10
98.50530661973733
 20
18.77858477593924
 10
98.53572041293729
 20
18.61130891333926
 10
98.59003075793737
 20
18.45055029213932
 10
98.65954799953726
 20
18.29413649853927
 10
98.74861696533741
 20
18.14641236013921
 10
98.85506524153733
 20
18.00520546313936
 10
98.97776317296132
 20
17.87399166961927
 10
99.11396222166956
 20
17.75285787613137
 10
99.26130662213735
 20
17.64241235853927
 10
99.42206524333744
 20
17.54465373753942
 10
99.59769186458458
 20
17.45975580623536
 10
99.77834110653725
 20
17.38606753013937
 10
99.96951352093743
 20
17.32958477133934
 10
100.1693755905373
 20
17.28613649533935
 10
100.3779273153373
 20
17.26006752973933
 10
100.5886514539372
 20
17.25137787453934
 10
102.7078225396899
 20
17.25137787453945
 10
102.5472786756374
 20
17.31444867827434
 10
102.363714531835
 20
17.40506895179709
 10
102.1952481256648
 20
17.50959864472867
 10
102.0324152309041
 20
17.62521688315411
 10
101.888502862534
 20
17.75500647969397
 10
101.7610669690497
 20
17.89436016292251
 10
101.6473616143063
 20
18.04484840763507
 10
101.5953903828576
 20
18.1290330497394
 10
100.5669273159373
 20
18.12903304973935
 10
100.4348184879318
 20
18.1365930497634
 10
100.3040652461372
 20
18.15692684293134
 10
100.1758928319374
 20
18.18986063613931
 10
100.0607549005374
 20
18.23548132593941
 10
99.95580993468696
 20
18.29196408473933
 10
99.85766027920295
 20
18.35956960219533
 10
99.76747903753732
 20
18.43751580933929
 10
99.69578938213738
 20
18.52223994753933
 10
101.4233106963961
 20
18.52223994753939
 10
101.4127262291231
 20
18.55487538829772
 10
101.3766144211587
 20
18.74024933584883
 10
101.364570768377
 20
18.93053904979956
 10
101.3765924408063
 20
19.12529014315459
 10
101.4128981624816
 20
19.31165951442108
 10
101.4294968651566
 20
19.36079167433934
 10
99.65885834753727
 20
19.36079167433934
 10
99.72837558913727
 20
19.45637788153925
 10
99.81092731353726
 20
19.53892960593936
 10
99.90601821039081
 20
19.60879443374728
 10
100.0086169693372
 20
19.66710202013939
 10
100.127308969714
 20
19.71107167545131
 10
100.2497549011373
 20
19.74313650313934
 10
100.3866169705372
 20
19.76268822733931
 10
100.5299962813372
 20
19.76920546873936
 97
        0
 92
        7
 72
     0
 73
     1
 93
       72
 10
103.348346910974
 20
19.75460684800339
 10
103.4712099458468
 20
19.77268133081941
 10
103.5952721531372
 20
19.77789512393946
 10
104.8639618123372
 20
19.77789512393951
 10
104.0167204303372
 20
18.96323994893959
 10
105.7828928497374
 20
17.24486063313958
 10
107.1015480263372
 20
17.24486063313958
 10
105.3875135381373
 20
18.98713650073955
 10
107.0689618193372
 20
20.62079167833963
 10
103.6300307739373
 20
20.62079167833946
 10
103.4220438767252
 20
20.61001650589151
 10
103.2153256691723
 20
20.58455581615539
 10
103.0108928409372
 20
20.54475719533946
 10
102.8175480127372
 20
20.48827443653943
 10
102.6307204259371
 20
20.41658478113942
 10
102.4595602874627
 20
20.33055719465943
 10
102.2939962869372
 20
20.23410202193941
 10
102.1419273209372
 20
20.12548133193945
 10
102.0062296653341
 20
20.00617236604341
 10
101.8812376649373
 20
19.87565374493937
 10
101.7726169749371
 20
19.73661926173935
 10
101.6813755953372
 20
19.58889512333951
 10
101.6096859399372
 20
19.4346537435394
 10
101.5553755949372
 20
19.27389512233941
 10
101.5227893879373
 20
19.10661925973937
 10
101.5119273189373
 20
18.93065374193929
 10
101.5227893879373
 20
18.75903305173943
 10
101.5553755949373
 20
18.59175718913945
 10
101.6075135261374
 20
18.43099856793947
 10
101.6770307677373
 20
18.27675718813941
 10
101.7688717335461
 20
18.12799029111551
 10
101.8742511821565
 20
17.98852132515537
 10
101.9922566997726
 20
17.85947994543551
 10
102.1245480105373
 20
17.74017097953947
 10
102.2766691144685
 20
17.63215856540336
 10
102.4352031839373
 20
17.53379166853938
 10
102.6068238741373
 20
17.44906753033945
 10
102.7893066333374
 20
17.37737787493944
 10
102.9835378063677
 20
17.32332821959545
 10
103.1803411173373
 20
17.27961925393941
 10
103.3888928421373
 20
17.25355028833945
 10
103.5996169807373
 20
17.24486063313946
 10
105.5026514695373
 20
17.24486063313958
 10
104.6163066391373
 20
18.11817098073953
 10
103.5996169807373
 20
18.11817098073948
 10
103.5329499460428
 20
18.12191827367877
 10
103.4320022215845
 20
18.13190063595544
 10
103.3118677384445
 20
18.15336408429948
 10
103.194748565659
 20
18.18768822233937
 10
103.0932533929229
 20
18.22861649833146
 10
103.0371182203308
 20
18.2567709811795
 10
102.9834335305053
 20
18.28935718817956
 10
102.8508728404292
 20
18.3886799471154
 10
102.7772714608853
 20
18.45871856802745
 10
102.7222051158829
 20
18.52658477513933
 10
102.6734995984868
 20
18.59914339605939
 10
102.6341354604308
 20
18.67630753423538
 10
102.6047122879237
 20
18.75772960345938
 10
102.5840135292372
 20
18.84488684511547
 10
102.5764969774892
 20
18.93421650057132
 10
102.5778525637005
 20
18.99652132835541
 10
102.5838571154437
 20
19.05865236303532
 10
102.5960139430685
 20
19.12182615633946
 10
102.6142274603677
 20
19.18352270825943
 10
102.6578755984371
 20
19.28223719133132
 10
102.6994034606381
 20
19.35010339844336
 10
102.7624816677348
 20
19.42813650213941
 10
102.8918836080996
 20
19.55465923919308
 10
102.9511514614373
 20
19.59471719232346
 10
103.0274466340933
 20
19.63903443384339
 10
103.111466910222
 20
19.68117926156344
 10
103.2280038761092
 20
19.72401926169948
 97
        0
 92
        7
 72
     0
 73
     1
 93
       57
 10
107.9063838909613
 20
19.73253512379568
 10
108.0378583741373
 20
19.77250753771568
 10
108.1725480297372
 20
19.79961926193971
 10
108.3159273405372
 20
19.80830891713964
 10
109.5563756203372
 20
19.8083089171397
 10
109.5563756203372
 20
20.63382616113973
 10
108.3224445819372
 20
20.63382616113961
 10
108.1117204433373
 20
20.62513650593962
 10
107.9053411323373
 20
20.59689512653961
 10
107.7076514765373
 20
20.55561926433967
 10
107.5186514759373
 20
20.50130891933964
 10
107.3339963029373
 20
20.42961926393963
 10
107.167589405857
 20
20.34698064298755
 10
107.0087685777667
 20
20.25052547026752
 10
106.8586895428077
 20
20.14103581474757
 10
106.7241302320358
 20
20.02181374540362
 10
106.6040652661372
 20
19.89303305533957
 10
106.4997894037372
 20
19.75399857213961
 10
106.4150652655372
 20
19.60844684753954
 10
106.3433756101372
 20
19.45420546773948
 10
106.2934100927373
 20
19.29344684653966
 10
106.2608238857373
 20
19.12617098393969
 10
106.2499618167373
 20
18.9523778799396
 10
106.2608238857373
 20
18.77858477593958
 10
106.2934100927373
 20
18.6113089133396
 10
106.3455480239372
 20
18.45055029213949
 10
106.4172376793374
 20
18.29413649853961
 10
106.5041342313374
 20
18.14641236013961
 10
106.6129808523725
 20
18.00685649762761
 10
106.732837266546
 20
17.87651166962763
 10
106.8692648531861
 20
17.75520408303561
 10
107.0168238881373
 20
17.64458477233955
 10
107.1775825093373
 20
17.54682615133953
 10
107.3513756133372
 20
17.4621020131396
 10
107.5360307863374
 20
17.38823994393971
 10
107.7272032007373
 20
17.33175718513962
 10
107.9270652703373
 20
17.28830890913968
 10
108.1334445813373
 20
17.26441235733955
 10
108.3463411337374
 20
17.25572270213962
 10
109.5563756203373
 20
17.25572270213968
 10
109.5563756203373
 20
18.11382615313965
 10
108.3224445819372
 20
18.1138261531396
 10
108.1887976849613
 20
18.12416684282755
 10
108.0565411328174
 20
18.14615167048367
 10
107.9359287186413
 20
18.18047580852362
 10
107.8199218217214
 20
18.22844270522768
 10
107.7102583730973
 20
18.28935718817968
 10
107.6131949245133
 20
18.35696270563557
 10
107.5257769932013
 20
18.43673374037161
 10
107.4513066481373
 20
18.52223994753962
 10
109.5563756203373
 20
18.52223994753967
 10
109.5563756203373
 20
19.34992960533969
 10
107.4143756135372
 20
19.34992960533958
 10
107.4838928551372
 20
19.4476882263396
 10
107.5707894071372
 20
19.53675719213953
 10
107.6719369936653
 20
19.61305236479563
 10
107.7793411319372
 20
19.6801365029396
 97
        0
 92
        7
 72
     0
 73
     1
 93
        6
 10
109.7866514831373
 20
20.62079167833974
 10
109.7866514831373
 20
17.25137787453968
 10
112.0242376971374
 20
17.2513778745398
 10
112.0242376971373
 20
18.11817098073982
 10
110.8098583829373
 20
18.11817098073982
 10
110.8098583829372
 20
20.62079167833974
 97
        0
 92
        7
 72
     0
 73
     1
 93
        8
 10
111.0423066595372
 20
20.62079167833974
 10
111.0423066595372
 20
19.79527443433972
 10
112.2762376979373
 20
19.79527443433983
 10
112.2762376979374
 20
17.24486063313981
 10
113.3016170115373
 20
17.24486063313981
 10
113.3016170115372
 20
19.79527443433977
 10
114.5442377051372
 20
19.79527443433983
 10
114.5442377051372
 20
20.62079167833986
 97
        0
 75
     0
 76
     1
 47
0.0142553043587597
 98
        5
 10
100.9295431720125
 20
20.17834200875029
 10
103.1970403853551
 20
20.0357890237446
 10
107.6892521175566
 20
20.09281019629242
 10
110.4131012013882
 20
20.33515042098486
 10
111.824939183615
 20
20.23536328857148
450
        0
451
        0
460
0.0
461
0.0
452
        0
462
0.0
453
        0
470

  0
LWPOLYLINE
  5
39D9
330
3973
100
AcDbEntity
  8
LW 3540-32-00
 62
     1
100
AcDbPolyline
 90
        8
 70
     1
 43
0.0
 10
113.3016170115372
 20
19.79527443433977
 10
113.3016170115373
 20
17.24486063313981
 10
112.2762376979374
 20
17.24486063313981
 10
112.2762376979373
 20
19.79527443433983
 10
111.0423066595372
 20
19.79527443433972
 10
111.0423066595372
 20
20.62079167833974
 10
114.5442377051372
 20
20.62079167833986
 10
114.5442377051372
 20
19.79527443433983
  0
LWPOLYLINE
  5
39DA
330
3973
100
AcDbEntity
  8
LW 3540-32-00
 62
     1
100
AcDbPolyline
 90
       73
 70
     1
 43
0.0
 10
103.5996169807373
 20
18.11817098073948
 10
104.6163066391373
 20
18.11817098073953
 10
105.5026514695373
 20
17.24486063313958
 10
103.5996169807373
 20
17.24486063313941
 10
103.3888928421373
 20
17.25355028833945
 10
103.1803411173373
 20
17.27961925393947
 10
102.9835378063677
 20
17.32332821959545
 10
102.7893066333374
 20
17.37737787493944
 10
102.6068238741373
 20
17.44906753033945
 10
102.4352031839373
 20
17.53379166853943
 10
102.2766691144686
 20
17.63215856540347
 10
102.1245480105373
 20
17.74017097953947
 10
101.9922566997725
 20
17.85947994543539
 10
101.8742511821565
 20
17.98852132515537
 10
101.7688717335461
 20
18.12799029111545
 10
101.6770307677373
 20
18.27675718813941
 10
101.6075135261374
 20
18.43099856793947
 10
101.5553755949373
 20
18.59175718913945
 10
101.5227893879373
 20
18.75903305173943
 10
101.5119273189373
 20
18.93065374193941
 10
101.5227893879373
 20
19.10661925973937
 10
101.5553755949372
 20
19.27389512233941
 10
101.6096859399373
 20
19.4346537435394
 10
101.6813755953372
 20
19.58889512333945
 10
101.7726169749372
 20
19.7366192617394
 10
101.8812376649373
 20
19.87565374493937
 10
102.0062296653341
 20
20.00617236604347
 10
102.1419273209371
 20
20.1254813319394
 10
102.2939962869372
 20
20.23410202193941
 10
102.4595602874628
 20
20.33055719465938
 10
102.6307204259371
 20
20.41658478113936
 10
102.8175480127372
 20
20.48827443653943
 10
103.0108928409372
 20
20.54475719533952
 10
103.2153256691724
 20
20.58455581615544
 10
103.4220438767252
 20
20.61001650589151
 10
103.6300307739371
 20
20.62079167833946
 10
107.0689618193372
 20
20.62079167833963
 10
105.3875135381373
 20
18.98713650073955
 10
107.1015480263372
 20
17.24486063313958
 10
105.7828928497374
 20
17.24486063313958
 10
104.0167204303372
 20
18.96323994893959
 10
104.8639618123372
 20
19.77789512393951
 10
103.5952721531372
 20
19.77789512393946
 10
103.4712099458468
 20
19.77268133081941
 10
103.348346910974
 20
19.75460684800339
 10
103.2280038761092
 20
19.72401926169948
 10
103.111466910222
 20
19.68117926156338
 10
103.0274466340932
 20
19.63903443384345
 10
102.9511514614372
 20
19.59471719232346
 10
102.910909668206
 20
19.56751857154745
 10
102.8733964267077
 20
19.53658339903546
 10
102.7624816677348
 20
19.42813650213941
 10
102.6994034606381
 20
19.35010339844336
 10
102.6578755984372
 20
19.28223719133143
 10
102.6142274603677
 20
19.18352270825943
 10
102.5960139430685
 20
19.12182615633946
 10
102.5838571154437
 20
19.05865236303543
 10
102.5778525637005
 20
18.99652132835547
 10
102.5764969774893
 20
18.93421650057144
 10
102.5840135292372
 20
18.84488684511547
 10
102.6047122879238
 20
18.75772960345944
 10
102.6341354604309
 20
18.67630753423543
 10
102.6734995984868
 20
18.59914339605939
 10
102.7222051158828
 20
18.52658477513944
 10
102.7772714608853
 20
18.45871856802745
 10
102.8508728404292
 20
18.3886799471154
 10
102.9834335305054
 20
18.28935718817951
 10
103.0371182203309
 20
18.25677098117944
 10
103.0932533929229
 20
18.22861649833146
 10
103.194748565659
 20
18.18768822233937
 10
103.3118677384445
 20
18.15336408429948
 10
103.4320022215845
 20
18.13190063595544
 10
103.5329499460429
 20
18.12191827367883
  0
LWPOLYLINE
  5
39DB
330
3973
100
AcDbEntity
  8
LW 3540-32-00
 62
     1
100
AcDbPolyline
 90
       76
 70
     1
 43
0.0
 10
102.3894537306711
 20
20.45992168631039
 10
102.2140667773063
 20
20.35774380448868
 10
102.0503979812243
 20
20.24083752157304
 10
101.9043780747629
 20
20.11245295985964
 10
101.7698999995501
 20
19.97202882959709
 10
101.651741875319
 20
19.82078643058122
 10
101.6198830459461
 20
19.76920546873941
 10
100.5299962813372
 20
19.76920546873941
 10
100.3866169705372
 20
19.76268822733931
 10
100.2497549011372
 20
19.74313650313934
 10
100.127308969714
 20
19.71107167545131
 10
100.0086169693372
 20
19.66710202013939
 10
99.90601821039092
 20
19.60879443374733
 10
99.81092731353726
 20
19.5389296059393
 10
99.72837558913717
 20
19.45637788153931
 10
99.65885834753727
 20
19.36079167433934
 10
101.4294968651566
 20
19.36079167433934
 10
101.4128981624816
 20
19.31165951442108
 10
101.3765924408062
 20
19.12529014315447
 10
101.364570768377
 20
18.93053904979956
 10
101.3766144211587
 20
18.74024933584883
 10
101.4127262291232
 20
18.55487538829777
 10
101.4233106963961
 20
18.52223994753939
 10
99.69578938213738
 20
18.52223994753933
 10
99.76747903753732
 20
18.43751580933929
 10
99.85766027920295
 20
18.35956960219533
 10
99.95580993468696
 20
18.29196408473933
 10
100.0607549005374
 20
18.23548132593941
 10
100.1758928319374
 20
18.18986063613937
 10
100.3040652461372
 20
18.15692684293134
 10
100.4348184879318
 20
18.1365930497634
 10
100.5669273159373
 20
18.12903304973935
 10
101.5953903828576
 20
18.1290330497394
 10
101.6473616143063
 20
18.04484840763513
 10
101.7610669690497
 20
17.89436016292251
 10
101.888502862534
 20
17.75500647969397
 10
102.0324152309042
 20
17.62521688315422
 10
102.1952481256648
 20
17.50959864472867
 10
102.363714531835
 20
17.40506895179709
 10
102.5472786756374
 20
17.31444867827434
 10
102.7078225396899
 20
17.25137787453945
 10
100.5886514539373
 20
17.25137787453929
 10
100.3779273153373
 20
17.26006752973933
 10
100.1693755905373
 20
17.28613649533935
 10
99.96951352093731
 20
17.32958477133934
 10
99.77834110653738
 20
17.38606753013925
 10
99.59769186458448
 20
17.45975580623531
 10
99.42206524333744
 20
17.54465373753942
 10
99.26130662213735
 20
17.64241235853927
 10
99.11396222166969
 20
17.75285787613131
 10
98.97776317296132
 20
17.87399166961927
 10
98.85506524153733
 20
18.0052054631393
 10
98.74861696533731
 20
18.14641236013926
 10
98.65954799953739
 20
18.29413649853933
 10
98.59003075793737
 20
18.45055029213932
 10
98.53572041293729
 20
18.61130891333926
 10
98.50530661973733
 20
18.77858477593935
 10
98.49444455073729
 20
18.95237787993926
 10
98.50313420593716
 20
19.12617098393923
 10
98.53137558533729
 20
19.29127443273933
 10
98.58134110273727
 20
19.45203305393926
 10
98.64434110293723
 20
19.60627443373926
 10
98.72689282733723
 20
19.75182615833933
 10
98.82691075868933
 20
19.88903581394732
 10
98.9381757107666
 20
20.01729512469927
 10
99.06361696633723
 20
20.13634340093927
 10
99.20632456679028
 20
20.24305236679532
 10
99.35689282933731
 20
20.33837788433936
 10
99.52416869193724
 20
20.4209296087393
 10
99.70013420973726
 20
20.49044685033937
 10
99.88478938273727
 20
20.54475719533929
 10
100.0803066247372
 20
20.5860330575394
 10
100.2823411081372
 20
20.61210202313936
 10
100.4952376605372
 20
20.62079167833934
 10
102.7523755987373
 20
20.62079167833951
 10
102.5712066632715
 20
20.55127336589328
  0
LWPOLYLINE
  5
39DC
330
3973
100
AcDbEntity
  8
LW 3540-32-00
 62
     1
100
AcDbPolyline
 90
        6
 70
     1
 43
0.0
 10
112.0242376971374
 20
17.2513778745398
 10
109.7866514831373
 20
17.25137787453968
 10
109.7866514831373
 20
20.62079167833974
 10
110.8098583829372
 20
20.62079167833974
 10
110.8098583829373
 20
18.11817098073982
 10
112.0242376971373
 20
18.11817098073982
  0
LWPOLYLINE
  5
39DD
330
3973
100
AcDbEntity
  8
LW 3540-32-00
 62
     1
100
AcDbPolyline
 90
       57
 70
     1
 43
0.0
 10
106.732837266546
 20
17.87651166962763
 10
106.6129808523725
 20
18.00685649762755
 10
106.5041342313372
 20
18.14641236013955
 10
106.4172376793374
 20
18.29413649853961
 10
106.3455480239372
 20
18.45055029213949
 10
106.2934100927373
 20
18.6113089133396
 10
106.2608238857373
 20
18.77858477593958
 10
106.2499618167373
 20
18.9523778799396
 10
106.2608238857373
 20
19.12617098393963
 10
106.2934100927373
 20
19.29344684653955
 10
106.3433756101372
 20
19.45420546773948
 10
106.4150652655372
 20
19.6084468475396
 10
106.4997894037371
 20
19.75399857213949
 10
106.6040652661372
 20
19.89303305533963
 10
106.7241302320355
 20
20.02181374540356
 10
106.8586895428077
 20
20.14103581474757
 10
107.0087685777669
 20
20.25052547026758
 10
107.1675894058573
 20
20.34698064298766
 10
107.3339963029373
 20
20.42961926393963
 10
107.5186514759372
 20
20.50130891933958
 10
107.7076514765373
 20
20.55561926433967
 10
107.9053411323373
 20
20.59689512653961
 10
108.1117204433373
 20
20.62513650593962
 10
108.3224445819372
 20
20.63382616113961
 10
109.5563756203372
 20
20.63382616113973
 10
109.5563756203372
 20
19.8083089171397
 10
108.3159273405373
 20
19.80830891713964
 10
108.1725480297373
 20
19.79961926193965
 10
108.0378583741373
 20
19.77250753771568
 10
107.9063838909612
 20
19.73253512379563
 10
107.7793411319372
 20
19.6801365029396
 10
107.6719369936653
 20
19.61305236479563
 10
107.5707894071372
 20
19.53675719213964
 10
107.4838928551372
 20
19.4476882263396
 10
107.4143756135372
 20
19.34992960533958
 10
109.5563756203373
 20
19.34992960533969
 10
109.5563756203373
 20
18.52223994753967
 10
107.4513066481373
 20
18.52223994753962
 10
107.5257769932013
 20
18.43673374037161
 10
107.6131949245133
 20
18.35696270563557
 10
107.7102583730973
 20
18.28935718817968
 10
107.8199218217214
 20
18.22844270522768
 10
107.9359287186413
 20
18.18047580852362
 10
108.0565411328174
 20
18.14615167048367
 10
108.1887976849613
 20
18.12416684282755
 10
108.3224445819372
 20
18.1138261531396
 10
109.5563756203373
 20
18.11382615313965
 10
109.5563756203373
 20
17.25572270213968
 10
108.3463411337374
 20
17.25572270213962
 10
108.1334445813373
 20
17.26441235733955
 10
107.9270652703373
 20
17.28830890913963
 10
107.7272032007373
 20
17.33175718513962
 10
107.5360307863374
 20
17.38823994393971
 10
107.3513756133372
 20
17.4621020131396
 10
107.1775825093373
 20
17.54682615133964
 10
107.0168238881373
 20
17.64458477233955
 10
106.8692648531861
 20
17.75520408303561
  0
ENDBLK
  5
3975
330
3973
100
AcDbEntity
  8
0
100
AcDbBlockEnd
  0
BLOCK
  5
39E0
330
39DF
100
AcDbEntity
  8
0
100
AcDbBlockBegin
  2
LW 3540-32-00_d
 70
     0
 10
0.0
 20
0.0
 30
0.0
  3
LW 3540-32-00_d
  1

  0
ARC
  5
39E2
330
39DF
100
AcDbEntity
  8
LW 3540-32-00
100
AcDbCircle
 10
-145.0000000000216
 20
-0.0000000000429736
 30
0.0
 40
35.0
100
AcDbArc
 50
90.00000000001953
 51
270.0000000000196
  0
LINE
  5
39E3
330
39DF
100
AcDbEntity
  8
LW 3540-32-00
100
AcDbLine
 10
-145.000000000032
 20
34.99999999995703
 30
0.0
 11
-16.00000000003206
 21
34.99999999999523
 31
0.0
  0
LINE
  5
39E4
330
39DF
100
AcDbEntity
  8
LW 3540-32-00
100
AcDbLine
 10
-16.00000000001125
 20
-35.00000000000478
 30
0.0
 11
-145.0000000000112
 21
-35.00000000004297
 31
0.0
  0
LINE
  5
39E5
330
39DF
100
AcDbEntity
  8
LW 3540-32-00
100
AcDbLine
 10
-16.00000000003206
 20
34.99999999999523
 30
0.0
 11
-12.00000000003081
 21
34.99999999999648
 31
0.0
  0
LINE
  5
39E6
330
39DF
100
AcDbEntity
  8
LW 3540-32-00
100
AcDbLine
 10
-12.00000000001012
 20
-35.00000000000353
 30
0.0
 11
-16.00000000001125
 21
-35.00000000000478
 31
0.0
  0
LINE
  5
39E7
330
39DF
100
AcDbEntity
  8
LW 3540-32-00
100
AcDbLine
 10
-4.999999999989654
 20
-35.00000000000148
 30
0.0
 11
-5.000000000010345
 21
34.99999999999853
 31
0.0
  0
LINE
  5
39E8
330
39DF
100
AcDbEntity
  8
LW 3540-32-00
100
AcDbLine
 10
-12.00000000001034
 20
34.99999999999648
 30
0.0
 11
-5.000000000010345
 21
34.99999999999853
 31
0.0
  0
LINE
  5
39E9
330
39DF
100
AcDbEntity
  8
LW 3540-32-00
100
AcDbLine
 10
-4.999999999989654
 20
-35.00000000000148
 30
0.0
 11
-11.99999999998954
 21
-35.00000000000353
 31
0.0
  0
CIRCLE
  5
39EA
330
39DF
100
AcDbEntity
  8
LW 3540-32-00
100
AcDbCircle
 10
-145.0000000000151
 20
-0.0000000000429736
 30
0.0
 40
17.49999999999999
  0
CIRCLE
  5
39EB
330
39DF
100
AcDbEntity
  8
LW 3540-32-00
100
AcDbCircle
 10
-145.0000000000143
 20
-0.0000000000429736
 30
0.0
 40
14.49999999999999
  0
CIRCLE
  5
39EC
330
39DF
100
AcDbEntity
  8
LW 3540-32-00
100
AcDbCircle
 10
-65.00000000001512
 20
-0.0000000000192131
 30
0.0
 40
17.49999999999999
  0
CIRCLE
  5
39ED
330
39DF
100
AcDbEntity
  8
LW 3540-32-00
100
AcDbCircle
 10
-65.00000000001432
 20
-0.0000000000192131
 30
0.0
 40
14.49999999999999
  0
LINE
  5
39EE
330
39DF
100
AcDbEntity
  8
LW 3540-32-00
100
AcDbLine
 10
-70.00000000001512
 20
-0.0000000000192131
 30
0.0
 11
-60.00000000001512
 21
-0.0000000000192131
 31
0.0
  0
LINE
  5
39EF
330
39DF
100
AcDbEntity
  8
LW 3540-32-00
  6
MITTE2
 62
     3
100
AcDbLine
 10
-65.00000000001512
 20
22.49999999998079
 30
0.0
 11
-65.00000000001512
 21
-22.50000000001922
 31
0.0
  0
LINE
  5
39F0
330
39DF
100
AcDbEntity
  8
LW 3540-32-00
  6
MITTE2
 62
     3
100
AcDbLine
 10
-145.0000000000151
 20
22.49999999995702
 30
0.0
 11
-145.0000000000151
 21
-22.50000000004297
 31
0.0
  0
LINE
  5
39F1
330
39DF
100
AcDbEntity
  8
LW 3540-32-00
  6
MITTE2
 62
     3
100
AcDbLine
 10
-187.3663674569925
 20
-0.000000000055536
 30
0.0
 11
23.30038640845748
 21
0.0000000000069349
 31
0.0
  0
INSERT
  5
39F2
330
39DF
100
AcDbEntity
  8
LW 3540-32-00
100
AcDbBlockReference
 66
     1
  2
insertpoint-ECKELT
 10
0.0
 20
0.0
 30
0.0
  0
ATTRIB
  5
39F3
330
39F2
100
AcDbEntity
  8
insertpoint_ECKELT
100
AcDbText
 10
-1.200000000000045
 20
0.0
 30
0.0
 40
0.6
  1

 72
     2
 11
-1.200000000000045
 21
0.0
 31
0.0
100
AcDbAttribute
  2
LINKS
 70
     0
  0
ATTRIB
  5
39F4
330
39F2
100
AcDbEntity
  8
insertpoint_ECKELT
100
AcDbText
 10
1.200000000000045
 20
0.0
 30
0.0
 40
0.6
  1
LW 3540/32-00
100
AcDbAttribute
  2
RECHTS
 70
     0
  0
SEQEND
  5
39F5
330
39F2
100
AcDbEntity
  8
LW 3540-32-00
  0
HATCH
  5
39F6
330
39DF
100
AcDbEntity
  8
LW 3540-32-00
 62
     1
100
AcDbHatch
 10
0.0
 20
0.0
 30
0.0
210
0.0
220
0.0
230
1.0
  2
SOLID
 70
     1
 71
     0
 91
        5
 92
        7
 72
     0
 73
     1
 93
       76
 10
-108.3801169540833
 20
19.76920546871565
 10
-108.3482581247104
 20
19.82078643055735
 10
-108.2301000004793
 20
19.97202882957333
 10
-108.0956219252665
 20
20.11245295983588
 10
-107.9496020188049
 20
20.24083752154922
 10
-107.785933222723
 20
20.35774380446497
 10
-107.6105462693583
 20
20.45992168628663
 10
-107.4287933367579
 20
20.55127336586952
 10
-107.2476244012922
 20
20.6207916783157
 10
-109.5047623394922
 20
20.62079167831564
 10
-109.7176588918922
 20
20.6121020231156
 10
-109.9196933752922
 20
20.58603305751564
 10
-110.1152106172923
 20
20.54475719531558
 10
-110.2998657902922
 20
20.49044685031561
 10
-110.4758313080923
 20
20.4209296087156
 10
-110.6431071706922
 20
20.33837788431549
 10
-110.7936754332391
 20
20.24305236677168
 10
-110.9363830336921
 20
20.13634340091556
 10
-111.0618242892628
 20
20.01729512467546
 10
-111.1730892413402
 20
19.88903581392355
 10
-111.2731071726922
 20
19.75182615831556
 10
-111.3556588970922
 20
19.60627443371549
 10
-111.4186588972922
 20
19.45203305391538
 10
-111.468624414692
 20
19.29127443271562
 10
-111.4968657940921
 20
19.12617098391553
 10
-111.5055554492921
 20
18.95237787991556
 10
-111.4946933802921
 20
18.77858477591547
 10
-111.4642795870921
 20
18.6113089133155
 10
-111.409969242092
 20
18.45055029211556
 10
-111.3404520004922
 20
18.29413649851551
 10
-111.251383034692
 20
18.14641236011545
 10
-111.1449347584921
 20
18.0052054631156
 10
-111.0222368270681
 20
17.87399166959551
 10
-110.8860377783599
 20
17.75285787610761
 10
-110.7386933778921
 20
17.64241235851551
 10
-110.577934756692
 20
17.54465373751566
 10
-110.4023081354448
 20
17.4597558062116
 10
-110.2216588934922
 20
17.38606753011561
 10
-110.030486479092
 20
17.32958477131558
 10
-109.8306244094921
 20
17.28613649531559
 10
-109.6220726846921
 20
17.26006752971557
 10
-109.4113485460922
 20
17.25137787451558
 10
-107.2921774603395
 20
17.2513778745157
 10
-107.452721324392
 20
17.31444867825058
 10
-107.6362854681944
 20
17.40506895177333
 10
-107.8047518743646
 20
17.50959864470491
 10
-107.9675847691253
 20
17.62521688313035
 10
-108.1114971374954
 20
17.75500647967021
 10
-108.2389330309797
 20
17.89436016289875
 10
-108.3526383857231
 20
18.04484840761131
 10
-108.4046096171718
 20
18.12903304971564
 10
-109.4330726840921
 20
18.12903304971559
 10
-109.5651815120976
 20
18.13659304973964
 10
-109.6959347538922
 20
18.15692684290758
 10
-109.824107168092
 20
18.18986063611555
 10
-109.939245099492
 20
18.23548132591566
 10
-110.0441900653425
 20
18.29196408471557
 10
-110.1423397208265
 20
18.35956960217157
 10
-110.2325209624921
 20
18.43751580931552
 10
-110.304210617892
 20
18.52223994751557
 10
-108.5766893036333
 20
18.52223994751563
 10
-108.5872737709063
 20
18.55487538827395
 10
-108.6233855788707
 20
18.74024933582507
 10
-108.6354292316524
 20
18.9305390497758
 10
-108.6234075592231
 20
19.12529014313082
 10
-108.5871018375478
 20
19.31165951439732
 10
-108.5705031348728
 20
19.36079167431558
 10
-110.3411416524922
 20
19.36079167431558
 10
-110.2716244108921
 20
19.45637788151549
 10
-110.1890726864922
 20
19.53892960591559
 10
-110.0939817896386
 20
19.60879443372352
 10
-109.9913830306922
 20
19.66710202011563
 10
-109.8726910303154
 20
19.71107167542754
 10
-109.7502450988921
 20
19.74313650311558
 10
-109.6133830294922
 20
19.76268822731555
 10
-109.4700037186921
 20
19.7692054687156
 97
        0
 92
        7
 72
     0
 73
     1
 93
       72
 10
-106.6516530890554
 20
19.75460684797963
 10
-106.5287900541826
 20
19.77268133079565
 10
-106.4047278468922
 20
19.7778951239157
 10
-105.1360381876921
 20
19.77789512391575
 10
-105.9832795696922
 20
18.96323994891583
 10
-104.217107150292
 20
17.24486063311582
 10
-102.8984519736922
 20
17.24486063311582
 10
-104.6124864618921
 20
18.98713650071579
 10
-102.9310381806922
 20
20.62079167831587
 10
-106.3699692260921
 20
20.6207916783157
 10
-106.5779561233042
 20
20.61001650586775
 10
-106.7846743308571
 20
20.58455581613163
 10
-106.9891071590922
 20
20.5447571953157
 10
-107.1824519872922
 20
20.48827443651567
 10
-107.3692795740923
 20
20.41658478111566
 10
-107.5404397125667
 20
20.33055719463567
 10
-107.7060037130922
 20
20.23410202191564
 10
-107.8580726790921
 20
20.12548133191569
 10
-107.9937703346953
 20
20.00617236601966
 10
-108.1187623350921
 20
19.87565374491561
 10
-108.2273830250923
 20
19.73661926171559
 10
-108.3186244046921
 20
19.58889512331575
 10
-108.3903140600922
 20
19.43465374351564
 10
-108.4446244050922
 20
19.27389512231565
 10
-108.4772106120921
 20
19.10661925971561
 10
-108.4880726810921
 20
18.93065374191553
 10
-108.4772106120921
 20
18.75903305171567
 10
-108.4446244050921
 20
18.5917571891157
 10
-108.392486473892
 20
18.43099856791571
 10
-108.3229692322921
 20
18.27675718811565
 10
-108.2311282664833
 20
18.12799029109175
 10
-108.1257488178729
 20
17.98852132513161
 10
-108.0077433002568
 20
17.85947994541175
 10
-107.8754519894921
 20
17.74017097951571
 10
-107.7233308855609
 20
17.6321585653796
 10
-107.5647968160921
 20
17.53379166851562
 10
-107.393176125892
 20
17.44906753031569
 10
-107.210693366692
 20
17.37737787491568
 10
-107.0164621936617
 20
17.32332821957169
 10
-106.8196588826921
 20
17.27961925391565
 10
-106.6111071578921
 20
17.25355028831569
 10
-106.4003830192921
 20
17.24486063311571
 10
-104.4973485304921
 20
17.24486063311582
 10
-105.3836933608921
 20
18.11817098071577
 10
-106.4003830192921
 20
18.11817098071571
 10
-106.4670500539866
 20
18.12191827365501
 10
-106.5679977784449
 20
18.13190063593168
 10
-106.6881322615849
 20
18.15336408427572
 10
-106.8052514343704
 20
18.18768822231561
 10
-106.9067466071064
 20
18.2286164983077
 10
-106.9628817796986
 20
18.25677098115574
 10
-107.0165664695241
 20
18.2893571881558
 10
-107.1491271596002
 20
18.38867994709164
 10
-107.2227285391441
 20
18.45871856800369
 10
-107.2777948841465
 20
18.52658477511556
 10
-107.3265004015426
 20
18.59914339603563
 10
-107.3658645395986
 20
18.67630753421162
 10
-107.3952877121057
 20
18.75772960343562
 10
-107.4159864707922
 20
18.84488684509171
 10
-107.4235030225402
 20
18.93421650054756
 10
-107.4221474363289
 20
18.99652132833165
 10
-107.4161428845857
 20
19.05865236301156
 10
-107.4039860569609
 20
19.1218261563157
 10
-107.3857725396617
 20
19.18352270823567
 10
-107.3421244015923
 20
19.28223719130756
 10
-107.3005965393913
 20
19.3501033984196
 10
-107.2375183322946
 20
19.42813650211565
 10
-107.1081163919298
 20
19.55465923916932
 10
-107.0488485385921
 20
19.5947171922997
 10
-106.9725533659361
 20
19.63903443381963
 10
-106.8885330898074
 20
19.68117926153968
 10
-106.7719961239202
 20
19.72401926167572
 97
        0
 92
        7
 72
     0
 73
     1
 93
       57
 10
-102.0936161090681
 20
19.73253512377192
 10
-101.9621416258921
 20
19.77250753769192
 10
-101.8274519702922
 20
19.79961926191595
 10
-101.6840726594922
 20
19.80830891711588
 10
-100.4436243796922
 20
19.80830891711594
 10
-100.4436243796922
 20
20.63382616111596
 10
-101.6775554180922
 20
20.63382616111585
 10
-101.8882795566921
 20
20.62513650591586
 10
-102.0946588676921
 20
20.59689512651585
 10
-102.2923485234921
 20
20.55561926431591
 10
-102.4813485240921
 20
20.50130891931587
 10
-102.6660036970921
 20
20.42961926391587
 10
-102.8324105941724
 20
20.34698064296379
 10
-102.9912314222626
 20
20.25052547024376
 10
-103.1413104572217
 20
20.14103581472381
 10
-103.2758697679936
 20
20.02181374537986
 10
-103.3959347338922
 20
19.89303305531581
 10
-103.5002105962921
 20
19.75399857211584
 10
-103.5849347344922
 20
19.60844684751578
 10
-103.6566243898922
 20
19.45420546771572
 10
-103.7065899072921
 20
19.2934468465159
 10
-103.7391761142921
 20
19.12617098391592
 10
-103.750038183292
 20
18.95237787991584
 10
-103.7391761142921
 20
18.77858477591582
 10
-103.7065899072921
 20
18.61130891331584
 10
-103.6544519760922
 20
18.45055029211573
 10
-103.582762320692
 20
18.29413649851585
 10
-103.495865768692
 20
18.14641236011584
 10
-103.3870191476569
 20
18.00685649760385
 10
-103.2671627334833
 20
17.87651166960387
 10
-103.1307351468433
 20
17.75520408301185
 10
-102.9831761118921
 20
17.64458477231579
 10
-102.8224174906921
 20
17.54682615131577
 10
-102.6486243866921
 20
17.46210201311584
 10
-102.463969213692
 20
17.38823994391595
 10
-102.2727967992921
 20
17.33175718511586
 10
-102.072934729692
 20
17.28830890911592
 10
-101.8665554186921
 20
17.26441235731579
 10
-101.653658866292
 20
17.25572270211586
 10
-100.4436243796921
 20
17.25572270211592
 10
-100.4436243796921
 20
18.11382615311589
 10
-101.6775554180922
 20
18.11382615311584
 10
-101.8112023150681
 20
18.12416684280379
 10
-101.943458867212
 20
18.14615167045991
 10
-102.0640712813881
 20
18.18047580849986
 10
-102.180078178308
 20
18.22844270520391
 10
-102.2897416269321
 20
18.28935718815592
 10
-102.3868050755161
 20
18.35696270561181
 10
-102.4742230068281
 20
18.43673374034785
 10
-102.5486933518921
 20
18.52223994751586
 10
-100.4436243796921
 20
18.52223994751591
 10
-100.4436243796921
 20
19.34992960531593
 10
-102.5856243864922
 20
19.34992960531582
 10
-102.5161071448922
 20
19.44768822631585
 10
-102.4292105928922
 20
19.53675719211577
 10
-102.3280630063641
 20
19.61305236477187
 10
-102.2206588680922
 20
19.68013650291584
 97
        0
 92
        7
 72
     0
 73
     1
 93
        6
 10
-100.2133485168921
 20
20.62079167831598
 10
-100.2133485168921
 20
17.25137787451592
 10
-97.97576230289202
 20
17.25137787451604
 10
-97.97576230289212
 20
18.11817098071606
 10
-99.19014161709208
 20
18.11817098071606
 10
-99.1901416170922
 20
20.62079167831598
 97
        0
 92
        7
 72
     0
 73
     1
 93
        8
 10
-98.95769334049226
 20
20.62079167831598
 10
-98.95769334049226
 20
19.79527443431596
 10
-97.72376230209216
 20
19.79527443431607
 10
-97.72376230209204
 20
17.24486063311605
 10
-96.69838298849208
 20
17.24486063311605
 10
-96.69838298849221
 20
19.79527443431601
 10
-95.45576229489222
 20
19.79527443431607
 10
-95.45576229489222
 20
20.6207916783161
 97
        0
 75
     0
 76
     1
 47
0.0142553043587597
 98
        5
 10
-109.0704568280169
 20
20.17834200872653
 10
-106.8029596146743
 20
20.03578902372084
 10
-102.3107478824728
 20
20.09281019626866
 10
-99.58689879864119
 20
20.3351504209611
 10
-98.17506081641443
 20
20.23536328854772
450
        0
451
        0
460
0.0
461
0.0
452
        0
462
0.0
453
        0
470

  0
LWPOLYLINE
  5
39F7
330
39DF
100
AcDbEntity
  8
LW 3540-32-00
 62
     1
100
AcDbPolyline
 90
        8
 70
     1
 43
0.0
 10
-96.69838298849221
 20
19.79527443431601
 10
-96.69838298849208
 20
17.24486063311605
 10
-97.72376230209204
 20
17.24486063311605
 10
-97.72376230209216
 20
19.79527443431607
 10
-98.95769334049226
 20
19.79527443431596
 10
-98.95769334049226
 20
20.62079167831598
 10
-95.45576229489222
 20
20.6207916783161
 10
-95.45576229489222
 20
19.79527443431607
  0
LWPOLYLINE
  5
39F8
330
39DF
100
AcDbEntity
  8
LW 3540-32-00
 62
     1
100
AcDbPolyline
 90
       73
 70
     1
 43
0.0
 10
-106.4003830192921
 20
18.11817098071571
 10
-105.3836933608921
 20
18.11817098071577
 10
-104.4973485304921
 20
17.24486063311582
 10
-106.4003830192921
 20
17.24486063311565
 10
-106.6111071578921
 20
17.25355028831569
 10
-106.8196588826921
 20
17.27961925391571
 10
-107.0164621936617
 20
17.32332821957169
 10
-107.210693366692
 20
17.37737787491568
 10
-107.393176125892
 20
17.44906753031569
 10
-107.5647968160921
 20
17.53379166851567
 10
-107.7233308855608
 20
17.63215856537971
 10
-107.8754519894921
 20
17.74017097951571
 10
-108.0077433002569
 20
17.85947994541163
 10
-108.1257488178729
 20
17.98852132513161
 10
-108.2311282664833
 20
18.12799029109169
 10
-108.3229692322921
 20
18.27675718811565
 10
-108.392486473892
 20
18.43099856791571
 10
-108.4446244050921
 20
18.5917571891157
 10
-108.4772106120921
 20
18.75903305171567
 10
-108.4880726810921
 20
18.93065374191565
 10
-108.4772106120921
 20
19.10661925971561
 10
-108.4446244050922
 20
19.27389512231565
 10
-108.3903140600921
 20
19.43465374351564
 10
-108.3186244046921
 20
19.58889512331569
 10
-108.2273830250922
 20
19.73661926171564
 10
-108.1187623350921
 20
19.87565374491561
 10
-107.9937703346953
 20
20.00617236601971
 10
-107.8580726790923
 20
20.12548133191564
 10
-107.7060037130922
 20
20.23410202191564
 10
-107.5404397125666
 20
20.33055719463562
 10
-107.3692795740923
 20
20.4165847811156
 10
-107.1824519872922
 20
20.48827443651567
 10
-106.9891071590922
 20
20.54475719531575
 10
-106.784674330857
 20
20.58455581613168
 10
-106.5779561233042
 20
20.61001650586775
 10
-106.3699692260922
 20
20.6207916783157
 10
-102.9310381806922
 20
20.62079167831587
 10
-104.6124864618921
 20
18.98713650071579
 10
-102.8984519736922
 20
17.24486063311582
 10
-104.217107150292
 20
17.24486063311582
 10
-105.9832795696922
 20
18.96323994891583
 10
-105.1360381876921
 20
19.77789512391575
 10
-106.4047278468922
 20
19.7778951239157
 10
-106.5287900541826
 20
19.77268133079565
 10
-106.6516530890554
 20
19.75460684797963
 10
-106.7719961239202
 20
19.72401926167572
 10
-106.8885330898074
 20
19.68117926153962
 10
-106.9725533659362
 20
19.63903443381969
 10
-107.0488485385922
 20
19.5947171922997
 10
-107.0890903318234
 20
19.56751857152369
 10
-107.1266035733217
 20
19.5365833990117
 10
-107.2375183322946
 20
19.42813650211565
 10
-107.3005965393913
 20
19.3501033984196
 10
-107.3421244015921
 20
19.28223719130767
 10
-107.3857725396617
 20
19.18352270823567
 10
-107.4039860569609
 20
19.1218261563157
 10
-107.4161428845857
 20
19.05865236301167
 10
-107.4221474363289
 20
18.99652132833171
 10
-107.4235030225401
 20
18.93421650054768
 10
-107.4159864707922
 20
18.84488684509171
 10
-107.3952877121056
 20
18.75772960343567
 10
-107.3658645395985
 20
18.67630753421167
 10
-107.3265004015426
 20
18.59914339603563
 10
-107.2777948841466
 20
18.52658477511568
 10
-107.2227285391441
 20
18.45871856800369
 10
-107.1491271596002
 20
18.38867994709164
 10
-107.016566469524
 20
18.28935718815575
 10
-106.9628817796985
 20
18.25677098115568
 10
-106.9067466071064
 20
18.2286164983077
 10
-106.8052514343704
 20
18.18768822231561
 10
-106.6881322615849
 20
18.15336408427572
 10
-106.5679977784449
 20
18.13190063593168
 10
-106.4670500539865
 20
18.12191827365507
  0
LWPOLYLINE
  5
39F9
330
39DF
100
AcDbEntity
  8
LW 3540-32-00
 62
     1
100
AcDbPolyline
 90
       76
 70
     1
 43
0.0
 10
-107.6105462693583
 20
20.45992168628663
 10
-107.7859332227231
 20
20.35774380446492
 10
-107.9496020188051
 20
20.24083752154928
 10
-108.0956219252665
 20
20.11245295983588
 10
-108.2301000004793
 20
19.97202882957333
 10
-108.3482581247104
 20
19.82078643055746
 10
-108.3801169540833
 20
19.76920546871565
 10
-109.4700037186921
 20
19.76920546871565
 10
-109.6133830294922
 20
19.76268822731555
 10
-109.7502450988922
 20
19.74313650311558
 10
-109.8726910303154
 20
19.71107167542754
 10
-109.9913830306922
 20
19.66710202011563
 10
-110.0939817896385
 20
19.60879443372357
 10
-110.1890726864922
 20
19.53892960591554
 10
-110.2716244108923
 20
19.45637788151555
 10
-110.3411416524922
 20
19.36079167431558
 10
-108.5705031348728
 20
19.36079167431558
 10
-108.5871018375478
 20
19.31165951439732
 10
-108.6234075592232
 20
19.12529014313071
 10
-108.6354292316524
 20
18.9305390497758
 10
-108.6233855788707
 20
18.74024933582507
 10
-108.5872737709062
 20
18.55487538827401
 10
-108.5766893036333
 20
18.52223994751563
 10
-110.304210617892
 20
18.52223994751557
 10
-110.2325209624921
 20
18.43751580931552
 10
-110.1423397208265
 20
18.35956960217157
 10
-110.0441900653425
 20
18.29196408471557
 10
-109.939245099492
 20
18.23548132591566
 10
-109.824107168092
 20
18.18986063611561
 10
-109.6959347538922
 20
18.15692684290758
 10
-109.5651815120976
 20
18.13659304973964
 10
-109.4330726840921
 20
18.12903304971559
 10
-108.4046096171718
 20
18.12903304971564
 10
-108.3526383857231
 20
18.04484840761137
 10
-108.2389330309797
 20
17.89436016289875
 10
-108.1114971374954
 20
17.75500647967021
 10
-107.9675847691252
 20
17.62521688313046
 10
-107.8047518743646
 20
17.50959864470491
 10
-107.6362854681944
 20
17.40506895177333
 10
-107.452721324392
 20
17.31444867825058
 10
-107.2921774603395
 20
17.2513778745157
 10
-109.4113485460921
 20
17.25137787451552
 10
-109.6220726846921
 20
17.26006752971557
 10
-109.8306244094921
 20
17.28613649531559
 10
-110.0304864790921
 20
17.32958477131558
 10
-110.221658893492
 20
17.3860675301155
 10
-110.402308135445
 20
17.45975580621155
 10
-110.577934756692
 20
17.54465373751566
 10
-110.7386933778921
 20
17.64241235851551
 10
-110.8860377783597
 20
17.75285787610755
 10
-111.0222368270681
 20
17.87399166959551
 10
-111.1449347584921
 20
18.00520546311554
 10
-111.2513830346921
 20
18.1464123601155
 10
-111.340452000492
 20
18.29413649851557
 10
-111.409969242092
 20
18.45055029211556
 10
-111.4642795870921
 20
18.6113089133155
 10
-111.4946933802921
 20
18.77858477591559
 10
-111.5055554492921
 20
18.9523778799155
 10
-111.4968657940923
 20
19.12617098391547
 10
-111.4686244146921
 20
19.29127443271557
 10
-111.4186588972922
 20
19.4520330539155
 10
-111.3556588970922
 20
19.60627443371549
 10
-111.2731071726922
 20
19.75182615831556
 10
-111.1730892413401
 20
19.88903581392355
 10
-111.0618242892628
 20
20.01729512467552
 10
-110.9363830336922
 20
20.13634340091551
 10
-110.7936754332391
 20
20.24305236677157
 10
-110.6431071706921
 20
20.33837788431561
 10
-110.4758313080922
 20
20.42092960871554
 10
-110.2998657902922
 20
20.49044685031561
 10
-110.1152106172921
 20
20.54475719531553
 10
-109.9196933752922
 20
20.58603305751564
 10
-109.7176588918922
 20
20.6121020231156
 10
-109.5047623394922
 20
20.62079167831559
 10
-107.2476244012921
 20
20.62079167831575
 10
-107.4287933367579
 20
20.55127336586952
  0
LWPOLYLINE
  5
39FA
330
39DF
100
AcDbEntity
  8
LW 3540-32-00
 62
     1
100
AcDbPolyline
 90
        6
 70
     1
 43
0.0
 10
-97.97576230289202
 20
17.25137787451604
 10
-100.2133485168921
 20
17.25137787451592
 10
-100.2133485168921
 20
20.62079167831598
 10
-99.1901416170922
 20
20.62079167831598
 10
-99.19014161709208
 20
18.11817098071606
 10
-97.97576230289212
 20
18.11817098071606
  0
LWPOLYLINE
  5
39FB
330
39DF
100
AcDbEntity
  8
LW 3540-32-00
 62
     1
100
AcDbPolyline
 90
       57
 70
     1
 43
0.0
 10
-103.2671627334833
 20
17.87651166960387
 10
-103.3870191476569
 20
18.00685649760379
 10
-103.4958657686921
 20
18.14641236011579
 10
-103.582762320692
 20
18.29413649851585
 10
-103.6544519760922
 20
18.45055029211573
 10
-103.7065899072921
 20
18.61130891331584
 10
-103.7391761142921
 20
18.77858477591582
 10
-103.750038183292
 20
18.95237787991584
 10
-103.7391761142921
 20
19.12617098391587
 10
-103.7065899072921
 20
19.29344684651579
 10
-103.6566243898922
 20
19.45420546771572
 10
-103.5849347344922
 20
19.60844684751583
 10
-103.5002105962923
 20
19.75399857211573
 10
-103.3959347338922
 20
19.89303305531587
 10
-103.2758697679938
 20
20.0218137453798
 10
-103.1413104572217
 20
20.14103581472381
 10
-102.9912314222625
 20
20.25052547024381
 10
-102.832410594172
 20
20.3469806429639
 10
-102.6660036970921
 20
20.42961926391587
 10
-102.4813485240922
 20
20.50130891931582
 10
-102.2923485234921
 20
20.55561926431591
 10
-102.0946588676921
 20
20.59689512651585
 10
-101.8882795566921
 20
20.62513650591586
 10
-101.6775554180922
 20
20.63382616111585
 10
-100.4436243796922
 20
20.63382616111596
 10
-100.4436243796922
 20
19.80830891711594
 10
-101.6840726594921
 20
19.80830891711588
 10
-101.8274519702921
 20
19.79961926191589
 10
-101.9621416258921
 20
19.77250753769192
 10
-102.0936161090682
 20
19.73253512377187
 10
-102.2206588680922
 20
19.68013650291584
 10
-102.3280630063641
 20
19.61305236477187
 10
-102.4292105928922
 20
19.53675719211588
 10
-102.5161071448922
 20
19.44768822631585
 10
-102.5856243864922
 20
19.34992960531582
 10
-100.4436243796921
 20
19.34992960531593
 10
-100.4436243796921
 20
18.52223994751591
 10
-102.5486933518921
 20
18.52223994751586
 10
-102.4742230068281
 20
18.43673374034785
 10
-102.3868050755161
 20
18.35696270561181
 10
-102.2897416269321
 20
18.28935718815592
 10
-102.180078178308
 20
18.22844270520391
 10
-102.0640712813881
 20
18.18047580849986
 10
-101.943458867212
 20
18.14615167045991
 10
-101.8112023150681
 20
18.12416684280379
 10
-101.6775554180922
 20
18.11382615311584
 10
-100.4436243796921
 20
18.11382615311589
 10
-100.4436243796921
 20
17.25572270211592
 10
-101.653658866292
 20
17.25572270211586
 10
-101.8665554186921
 20
17.26441235731579
 10
-102.072934729692
 20
17.28830890911587
 10
-102.2727967992921
 20
17.33175718511586
 10
-102.463969213692
 20
17.38823994391595
 10
-102.6486243866921
 20
17.46210201311584
 10
-102.8224174906921
 20
17.54682615131588
 10
-102.9831761118921
 20
17.64458477231579
 10
-103.1307351468433
 20
17.75520408301185
  0
ENDBLK
  5
39E1
330
39DF
100
AcDbEntity
  8
0
100
AcDbBlockEnd
  0
ENDSEC
  0
SECTION
  2
ENTITIES
  0
INSERT
  5
3854
330
23
100
AcDbEntity
  8
0
100
AcDbBlockReference
  2
LW 3540-32-00_a
 10
270.1401696236951
 20
335.1866254961618
 30
0.0
  0
INSERT
  5
3972
330
23
100
AcDbEntity
  8
0
100
AcDbBlockReference
  2
LW 3540-32-00_b
 10
270.1401696238897
 20
465.3278722640312
 30
0.0
  0
INSERT
  5
39DE
330
23
100
AcDbEntity
  8
0
100
AcDbBlockReference
  2
LW 3540-32-00_c
 10
515.667533200067
 20
465.3278722639973
 30
0.0
  0
INSERT
  5
39FC
330
23
100
AcDbEntity
  8
0
100
AcDbBlockReference
  2
LW 3540-32-00_d
 10
24.6128060477098
 20
465.3278722639973
 30
0.0
  0
ENDSEC
  0
SECTION
  2
OBJECTS
  0
DICTIONARY
  5
C
330
0
100
AcDbDictionary
281
     1
  3
ACAD_COLOR
350
1C
  3
ACAD_GROUP
350
D
  3
ACAD_LAYOUT
350
1A
  3
ACAD_MATERIAL
350
1B
  3
ACAD_MLINESTYLE
350
17
  3
ACAD_PLOTSETTINGS
350
19
  3
ACAD_PLOTSTYLENAME
350
E
  3
ACAD_TABLESTYLE
350
1D
  3
AcDbVariableDictionary
350
61C
  0
DICTIONARY
  5
9C6
330
2
100
AcDbDictionary
280
     1
281
     1
  3
ACAD_LAYERFILTERS
360
3631
  3
ACLYDICTIONARY
360
3630
  0
DICTIONARY
  5
9A6
330
23
100
AcDbDictionary
280
     1
281
     1
  3
ACAD_SORTENTS
360
9A7
  0
DICTIONARY
  5
627
330
626
100
AcDbDictionary
280
     1
281
     1
  3
ACAD_SORTENTS
360
628
  0
DICTIONARY
  5
1C
102
{ACAD_REACTORS
330
C
102
}
330
C
100
AcDbDictionary
281
     1
  0
DICTIONARY
  5
D
102
{ACAD_REACTORS
330
C
102
}
330
C
100
AcDbDictionary
281
     1
  0
DICTIONARY
  5
1A
102
{ACAD_REACTORS
330
C
102
}
330
C
100
AcDbDictionary
281
     1
  3
Layout1
350
22
  3
Layout2
350
2A
  3
Model
350
26
  0
DICTIONARY
  5
1B
102
{ACAD_REACTORS
330
C
102
}
330
C
100
AcDbDictionary
281
     1
  0
DICTIONARY
  5
17
102
{ACAD_REACTORS
330
C
102
}
330
C
100
AcDbDictionary
281
     1
  3
Standard
350
18
  0
DICTIONARY
  5
19
102
{ACAD_REACTORS
330
C
102
}
330
C
100
AcDbDictionary
281
     1
  0
ACDBDICTIONARYWDFLT
  5
E
102
{ACAD_REACTORS
330
C
102
}
330
C
100
AcDbDictionary
281
     1
  3
Normal
350
F
100
AcDbDictionaryWithDefault
340
F
  0
DICTIONARY
  5
1D
102
{ACAD_REACTORS
330
C
102
}
330
C
100
AcDbDictionary
281
     1
  3
Standard
350
1E
  0
DICTIONARY
  5
61C
102
{ACAD_REACTORS
330
C
102
}
330
C
100
AcDbDictionary
281
     1
  3
CTABLESTYLE
350
61D
  0
DICTIONARY
  5
3631
102
{ACAD_REACTORS
330
9C6
102
}
330
9C6
100
AcDbDictionary
281
     1
  0
DICTIONARY
  5
3630
102
{ACAD_REACTORS
330
9C6
102
}
330
9C6
100
AcDbDictionary
281
     1
1001
ACAD
1000
<All
  0
SORTENTSTABLE
  5
9A7
102
{ACAD_REACTORS
330
9A6
102
}
330
9A6
100
AcDbSortentsTable
330
23
  0
SORTENTSTABLE
  5
628
102
{ACAD_REACTORS
330
627
102
}
330
627
100
AcDbSortentsTable
330
626
  0
LAYOUT
  5
22
102
{ACAD_REACTORS
330
1A
102
}
330
1A
100
AcDbPlotSettings
  1

  2

  4

  6

 40
0.0
 41
0.0
 42
0.0
 43
0.0
 44
0.0
 45
0.0
 46
0.0
 47
0.0
 48
0.0
 49
0.0
140
0.0
141
0.0
142
1.0
143
1.0
 70
   688
 72
     0
 73
     0
 74
     5
  7

 75
    16
147
1.0
 76
     0
 77
     2
 78
   300
148
0.0
149
0.0
100
AcDbLayout
  1
Layout1
 70
     1
 71
     1
 10
0.0
 20
0.0
 11
840.0
 21
594.0
 12
0.0
 22
0.0
 32
0.0
 14
0.0
 24
0.0
 34
0.0
 15
840.0
 25
594.0
 35
0.0
146
0.0
 13
0.0
 23
0.0
 33
0.0
 16
1.0
 26
0.0
 36
0.0
 17
0.0
 27
1.0
 37
0.0
 76
     0
330
1F
  0
LAYOUT
  5
2A
102
{ACAD_REACTORS
330
1A
102
}
330
1A
100
AcDbPlotSettings
  1

  2

  4

  6

 40
0.0
 41
0.0
 42
0.0
 43
0.0
 44
0.0
 45
0.0
 46
0.0
 47
0.0
 48
0.0
 49
0.0
140
0.0
141
0.0
142
1.0
143
1.0
 70
   688
 72
     0
 73
     0
 74
     5
  7

 75
    16
147
1.0
 76
     0
 77
     2
 78
   300
148
0.0
149
0.0
100
AcDbLayout
  1
Layout2
 70
     1
 71
     2
 10
0.0
 20
0.0
 11
12.0
 21
9.0
 12
0.0
 22
0.0
 32
0.0
 14
0.0
 24
0.0
 34
0.0
 15
0.0
 25
0.0
 35
0.0
146
0.0
 13
0.0
 23
0.0
 33
0.0
 16
1.0
 26
0.0
 36
0.0
 17
0.0
 27
1.0
 37
0.0
 76
     0
330
27
  0
LAYOUT
  5
26
102
{ACAD_REACTORS
330
1A
102
}
330
1A
100
AcDbPlotSettings
  1

  2

  4

  6

 40
0.0
 41
0.0
 42
0.0
 43
0.0
 44
0.0
 45
0.0
 46
0.0
 47
0.0
 48
0.0
 49
0.0
140
0.0
141
0.0
142
1.0
143
1.0
 70
  1712
 72
     0
 73
     0
 74
     0
  7

 75
     0
147
1.0
 76
     0
 77
     2
 78
   300
148
0.0
149
0.0
100
AcDbLayout
  1
Model
 70
     1
 71
     0
 10
0.0
 20
0.0
 11
12.0
 21
9.0
 12
0.0
 22
0.0
 32
0.0
 14
0.0
 24
0.0
 34
0.0
 15
0.0
 25
0.0
 35
0.0
146
0.0
 13
0.0
 23
0.0
 33
0.0
 16
1.0
 26
0.0
 36
0.0
 17
0.0
 27
1.0
 37
0.0
 76
     0
330
23
  0
MLINESTYLE
  5
18
102
{ACAD_REACTORS
330
17
102
}
330
17
100
AcDbMlineStyle
  2
STANDARD
 70
     0
  3

 62
   256
 51
90.0
 52
90.0
 71
     2
 49
0.5
 62
   256
  6
BYLAYER
 49
-0.5
 62
   256
  6
BYLAYER
  0
ACDBPLACEHOLDER
  5
F
102
{ACAD_REACTORS
330
E
102
}
330
E
  0
TABLESTYLE
  5
1E
102
{ACAD_REACTORS
330
1D
102
}
330
1D
100
AcDbTableStyle
  3
Standard
 70
     0
 71
     0
 40
0.06
 41
0.06
280
     0
281
     0
  7
Standard
140
0.18
170
     2
 62
     0
 63
     7
283
     0
274
    -2
284
     1
 64
     0
275
    -2
285
     1
 65
     0
276
    -2
286
     1
 66
     0
277
    -2
287
     1
 67
     0
278
    -2
288
     1
 68
     0
279
    -2
289
     1
 69
     0
  7
Standard
140
0.25
170
     5
 62
     0
 63
     7
283
     0
274
    -2
284
     1
 64
     0
275
    -2
285
     1
 65
     0
276
    -2
286
     1
 66
     0
277
    -2
287
     1
 67
     0
278
    -2
288
     1
 68
     0
279
    -2
289
     1
 69
     0
  7
Standard
140
0.18
170
     5
 62
     0
 63
     7
283
     0
274
    -2
284
     1
 64
     0
275
    -2
285
     1
 65
     0
276
    -2
286
     1
 66
     0
277
    -2
287
     1
 67
     0
278
    -2
288
     1
 68
     0
279
    -2
289
     1
 69
     0
  0
DICTIONARYVAR
  5
61D
102
{ACAD_REACTORS
330
61C
102
}
330
61C
100
DictionaryVariables
280
     0
  1
STANDARD
  0
ENDSEC
  0
EOF
