  0
SECTION
  2
HEADER
  9
$ACADVER
  1
AC1018
  9
$ACADMAINTVER
 70
    76
  9
$DWGCODEPAGE
  3
ANSI_1252
  9
$AUTHOR
  1
Grandl
  9
$CUSTOMPROPERTYTAG
  1
Manager
  9
$CUSTOMPROPERTY
  1

  9
$CUSTOMPROPERTYTAG
  1
Firma
  9
$CUSTOMPROPERTY
  1

  9
$CUSTOMPROPERTYTAG
  1
Kategorie
  9
$CUSTOMPROPERTY
  1

  9
$CUSTOMPROPERTYTAG
  1
Bauteilnummer
  9
$CUSTOMPROPERTY
  1
3500-19-01
  9
$CUSTOMPROPERTYTAG
  1
Bezeichnung
  9
$CUSTOMPROPERTY
  1

  9
$CUSTOMPROPERTYTAG
  1
Projekt
  9
$CUSTOMPROPERTY
  1

  9
$CUSTOMPROPERTYTAG
  1
Konstrukteur
  9
$CUSTOMPROPERTY
  1
Grandl
  9
$CUSTOMPROPERTYTAG
  1
Ingenieur
  9
$CUSTOMPROPERTY
  1

  9
$CUSTOMPROPERTYTAG
  1
Bevollmächtigter
  9
$CUSTOMPROPERTY
  1

  9
$CUSTOMPROPERTYTAG
  1
Kostenstelle
  9
$CUSTOMPROPERTY
  1

  9
$CUSTOMPROPERTYTAG
  1
Händler
  9
$CUSTOMPROPERTY
  1

  9
$CUSTOMPROPERTYTAG
  1
Benutzerstatus
  9
$CUSTOMPROPERTY
  1

  9
$CUSTOMPROPERTYTAG
  1
Konstruktionsstatus
  9
$CUSTOMPROPERTY
  1
InBearbeitung
  9
$CUSTOMPROPERTYTAG
  1
Überprüft von
  9
$CUSTOMPROPERTY
  1

  9
$CUSTOMPROPERTYTAG
  1
Konstruktion genehmigt von
  9
$CUSTOMPROPERTY
  1

  9
$CUSTOMPROPERTYTAG
  1
Fertigung genehmigt von
  9
$CUSTOMPROPERTY
  1

  9
$INSBASE
 10
0.0
 20
0.0
 30
0.0
  9
$EXTMIN
 10
147.2133655816568
 20
160.1866254961618
 30
0.0
  9
$EXTMAX
 10
703.0339006570596
 20
500.3278722640713
 30
0.0
  9
$LIMMIN
 10
0.0
 20
0.0
  9
$LIMMAX
 10
840.0
 20
594.0
  9
$ORTHOMODE
 70
     1
  9
$REGENMODE
 70
     1
  9
$FILLMODE
 70
     1
  9
$QTEXTMODE
 70
     0
  9
$MIRRTEXT
 70
     0
  9
$LTSCALE
 40
2.0
  9
$ATTMODE
 70
     1
  9
$TEXTSIZE
 40
0.2
  9
$TRACEWID
 40
0.05
  9
$TEXTSTYLE
  7
Standard
  9
$CLAYER
  8
0
  9
$CELTYPE
  6
ByLayer
  9
$CECOLOR
 62
   256
  9
$CELTSCALE
 40
1.0
  9
$DISPSILH
 70
     0
  9
$DIMSCALE
 40
1.0
  9
$DIMASZ
 40
1.799999999999999
  9
$DIMEXO
 40
0.0625
  9
$DIMDLI
 40
0.38
  9
$DIMRND
 40
0.0
  9
$DIMDLE
 40
0.0
  9
$DIMEXE
 40
0.18
  9
$DIMTP
 40
0.0
  9
$DIMTM
 40
0.0
  9
$DIMTXT
 40
0.3000000119209289
  9
$DIMCEN
 40
0.09
  9
$DIMTSZ
 40
0.0
  9
$DIMTOL
 70
     0
  9
$DIMLIM
 70
     0
  9
$DIMTIH
 70
     1
  9
$DIMTOH
 70
     1
  9
$DIMSE1
 70
     0
  9
$DIMSE2
 70
     0
  9
$DIMTAD
 70
     0
  9
$DIMZIN
 70
     0
  9
$DIMBLK
  1

  9
$DIMASO
 70
     1
  9
$DIMSHO
 70
     1
  9
$DIMPOST
  1

  9
$DIMAPOST
  1

  9
$DIMALT
 70
     0
  9
$DIMALTD
 70
     2
  9
$DIMALTF
 40
25.4
  9
$DIMLFAC
 40
1.0
  9
$DIMTOFL
 70
     0
  9
$DIMTVP
 40
0.0
  9
$DIMTIX
 70
     0
  9
$DIMSOXD
 70
     0
  9
$DIMSAH
 70
     0
  9
$DIMBLK1
  1

  9
$DIMBLK2
  1

  9
$DIMSTYLE
  2
Standard
  9
$DIMCLRD
 70
     0
  9
$DIMCLRE
 70
     0
  9
$DIMCLRT
 70
     0
  9
$DIMTFAC
 40
1.0
  9
$DIMGAP
 40
0.09
  9
$DIMJUST
 70
     0
  9
$DIMSD1
 70
     0
  9
$DIMSD2
 70
     0
  9
$DIMTOLJ
 70
     1
  9
$DIMTZIN
 70
     0
  9
$DIMALTZ
 70
     0
  9
$DIMALTTZ
 70
     0
  9
$DIMUPT
 70
     0
  9
$DIMDEC
 70
     4
  9
$DIMTDEC
 70
     4
  9
$DIMALTU
 70
     2
  9
$DIMALTTD
 70
     2
  9
$DIMTXSTY
  7
Standard
  9
$DIMAUNIT
 70
     0
  9
$DIMADEC
 70
     0
  9
$DIMALTRND
 40
0.0
  9
$DIMAZIN
 70
     0
  9
$DIMDSEP
 70
    46
  9
$DIMATFIT
 70
     3
  9
$DIMFRAC
 70
     0
  9
$DIMLDRBLK
  1

  9
$DIMLUNIT
 70
     2
  9
$DIMLWD
 70
    -2
  9
$DIMLWE
 70
    -2
  9
$DIMTMOVE
 70
     0
  9
$LUNITS
 70
     2
  9
$LUPREC
 70
     4
  9
$SKETCHINC
 40
0.1
  9
$FILLETRAD
 40
2.0
  9
$AUNITS
 70
     0
  9
$AUPREC
 70
     0
  9
$MENU
  1
.
  9
$ELEVATION
 40
0.0
  9
$PELEVATION
 40
0.0
  9
$THICKNESS
 40
0.0
  9
$LIMCHECK
 70
     0
  9
$CHAMFERA
 40
0.0
  9
$CHAMFERB
 40
0.0
  9
$CHAMFERC
 40
0.0
  9
$CHAMFERD
 40
0.0
  9
$SKPOLY
 70
     0
  9
$TDCREATE
 40
2453706.351795776
  9
$TDUCREATE
 40
2453706.310129109
  9
$TDUPDATE
 40
2453710.471378368
  9
$TDUUPDATE
 40
2453710.429711701
  9
$TDINDWG
 40
0.4412186574
  9
$TDUSRTIMER
 40
0.4412186574
  9
$USRTIMER
 70
     1
  9
$ANGBASE
 50
0.0
  9
$ANGDIR
 70
     0
  9
$PDMODE
 70
     0
  9
$PDSIZE
 40
0.0
  9
$PLINEWID
 40
0.0
  9
$SPLFRAME
 70
     0
  9
$SPLINETYPE
 70
     6
  9
$SPLINESEGS
 70
     8
  9
$HANDSEED
  5
46C7
  9
$SURFTAB1
 70
     6
  9
$SURFTAB2
 70
     6
  9
$SURFTYPE
 70
     6
  9
$SURFU
 70
     6
  9
$SURFV
 70
     6
  9
$UCSBASE
  2

  9
$UCSNAME
  2

  9
$UCSORG
 10
0.0
 20
0.0
 30
0.0
  9
$UCSXDIR
 10
1.0
 20
0.0
 30
0.0
  9
$UCSYDIR
 10
0.0
 20
1.0
 30
0.0
  9
$UCSORTHOREF
  2

  9
$UCSORTHOVIEW
 70
     0
  9
$UCSORGTOP
 10
0.0
 20
0.0
 30
0.0
  9
$UCSORGBOTTOM
 10
0.0
 20
0.0
 30
0.0
  9
$UCSORGLEFT
 10
0.0
 20
0.0
 30
0.0
  9
$UCSORGRIGHT
 10
0.0
 20
0.0
 30
0.0
  9
$UCSORGFRONT
 10
0.0
 20
0.0
 30
0.0
  9
$UCSORGBACK
 10
0.0
 20
0.0
 30
0.0
  9
$PUCSBASE
  2

  9
$PUCSNAME
  2

  9
$PUCSORG
 10
0.0
 20
0.0
 30
0.0
  9
$PUCSXDIR
 10
1.0
 20
0.0
 30
0.0
  9
$PUCSYDIR
 10
0.0
 20
1.0
 30
0.0
  9
$PUCSORTHOREF
  2

  9
$PUCSORTHOVIEW
 70
     0
  9
$PUCSORGTOP
 10
0.0
 20
0.0
 30
0.0
  9
$PUCSORGBOTTOM
 10
0.0
 20
0.0
 30
0.0
  9
$PUCSORGLEFT
 10
0.0
 20
0.0
 30
0.0
  9
$PUCSORGRIGHT
 10
0.0
 20
0.0
 30
0.0
  9
$PUCSORGFRONT
 10
0.0
 20
0.0
 30
0.0
  9
$PUCSORGBACK
 10
0.0
 20
0.0
 30
0.0
  9
$USERI1
 70
     0
  9
$USERI2
 70
     0
  9
$USERI3
 70
     0
  9
$USERI4
 70
     0
  9
$USERI5
 70
     0
  9
$USERR1
 40
0.0
  9
$USERR2
 40
0.0
  9
$USERR3
 40
0.0
  9
$USERR4
 40
0.0
  9
$USERR5
 40
0.0
  9
$WORLDVIEW
 70
     1
  9
$SHADEDGE
 70
     3
  9
$SHADEDIF
 70
    70
  9
$TILEMODE
 70
     1
  9
$MAXACTVP
 70
    64
  9
$PINSBASE
 10
0.0
 20
0.0
 30
0.0
  9
$PLIMCHECK
 70
     0
  9
$PEXTMIN
 10
0.0
 20
0.0
 30
0.0
  9
$PEXTMAX
 10
840.0
 20
594.0
 30
0.0
  9
$PLIMMIN
 10
0.0
 20
0.0
  9
$PLIMMAX
 10
840.0
 20
594.0
  9
$UNITMODE
 70
     0
  9
$VISRETAIN
 70
     1
  9
$PLINEGEN
 70
     0
  9
$PSLTSCALE
 70
     1
  9
$TREEDEPTH
 70
  3020
  9
$CMLSTYLE
  2
Standard
  9
$CMLJUST
 70
     0
  9
$CMLSCALE
 40
1.0
  9
$PROXYGRAPHICS
 70
     1
  9
$MEASUREMENT
 70
     1
  9
$CELWEIGHT
370
    -1
  9
$ENDCAPS
280
     0
  9
$JOINSTYLE
280
     0
  9
$LWDISPLAY
290
     0
  9
$INSUNITS
 70
     0
  9
$HYPERLINKBASE
  1

  9
$STYLESHEET
  1

  9
$XEDIT
290
     1
  9
$CEPSNTYPE
380
     0
  9
$PSTYLEMODE
290
     1
  9
$FINGERPRINTGUID
  2
{CD339A04-B85F-4A73-AC85-5D4F30B09856}
  9
$VERSIONGUID
  2
{2C96AFFF-1156-4BE8-89D4-C4A25D49383A}
  9
$EXTNAMES
290
     1
  9
$PSVPSCALE
 40
0.0
  9
$OLESTARTUP
290
     0
  9
$SORTENTS
280
   127
  9
$INDEXCTL
280
     0
  9
$HIDETEXT
280
     1
  9
$XCLIPFRAME
290
     0
  9
$HALOGAP
280
     0
  9
$OBSCOLOR
 70
   257
  9
$OBSLTYPE
280
     0
  9
$INTERSECTIONDISPLAY
280
     0
  9
$INTERSECTIONCOLOR
 70
   257
  9
$DIMASSOC
280
     1
  9
$PROJECTNAME
  1

  0
ENDSEC
  0
SECTION
  2
CLASSES
  0
CLASS
  1
ACDBDICTIONARYWDFLT
  2
AcDbDictionaryWithDefault
  3
ObjectDBX Classes
 90
        0
 91
        1
280
     0
281
     0
  0
CLASS
  1
TABLESTYLE
  2
AcDbTableStyle
  3
ObjectDBX Classes
 90
     2047
 91
        1
280
     0
281
     0
  0
CLASS
  1
DICTIONARYVAR
  2
AcDbDictionaryVar
  3
ObjectDBX Classes
 90
        0
 91
        4
280
     0
281
     0
  0
CLASS
  1
SORTENTSTABLE
  2
AcDbSortentsTable
  3
ObjectDBX Classes
 90
        0
 91
        2
280
     0
281
     0
  0
ENDSEC
  0
SECTION
  2
TABLES
  0
TABLE
  2
VPORT
  5
8
330
0
100
AcDbSymbolTable
 70
     3
  0
VPORT
  5
46C6
330
8
100
AcDbSymbolTableRecord
100
AcDbViewportTableRecord
  2
*Active
 70
     0
 10
0.0
 20
0.0
 11
1.0
 21
1.0
 12
425.1274229599864
 22
330.263856402207
 13
0.0
 23
0.0
 14
1.0
 24
1.0
 15
0.0
 25
0.0
 16
0.0
 26
0.0
 36
1.0
 17
0.0
 27
0.0
 37
0.0
 40
343.2777517443481
 41
1.773333333333333
 42
50.0
 43
0.0
 44
0.0
 50
0.0
 51
0.0
 71
     0
 72
   100
 73
     1
 74
     1
 75
     0
 76
     0
 77
     0
 78
     0
281
     0
 65
     1
110
0.0
120
0.0
130
0.0
111
1.0
121
0.0
131
0.0
112
0.0
122
1.0
132
0.0
 79
     0
146
0.0
  0
ENDTAB
  0
TABLE
  2
LTYPE
  5
5
330
0
100
AcDbSymbolTable
 70
     2
  0
LTYPE
  5
14
330
5
100
AcDbSymbolTableRecord
100
AcDbLinetypeTableRecord
  2
ByBlock
 70
     0
  3

 72
    65
 73
     0
 40
0.0
  0
LTYPE
  5
15
330
5
100
AcDbSymbolTableRecord
100
AcDbLinetypeTableRecord
  2
ByLayer
 70
     0
  3

 72
    65
 73
     0
 40
0.0
  0
LTYPE
  5
16
330
5
100
AcDbSymbolTableRecord
100
AcDbLinetypeTableRecord
  2
Continuous
 70
     0
  3
Solid line
 72
    65
 73
     0
 40
0.0
  0
LTYPE
  5
7E7
330
5
100
AcDbSymbolTableRecord
100
AcDbLinetypeTableRecord
  2
MITTE2
 70
     0
  3
Mitte (.5x) ___ _ ___ _ ___ _ ___ _ ___ _ ___
 72
    65
 73
     4
 40
28.575
 49
19.05
 74
     0
 49
-3.174999999999999
 74
     0
 49
3.174999999999999
 74
     0
 49
-3.174999999999999
 74
     0
  0
ENDTAB
  0
TABLE
  2
LAYER
  5
2
102
{ACAD_XDICTIONARY
360
9C6
102
}
330
0
100
AcDbSymbolTable
 70
     3
  0
LAYER
  5
10
330
2
100
AcDbSymbolTableRecord
100
AcDbLayerTableRecord
  2
0
 70
     0
 62
     7
  6
Continuous
370
    -3
390
F
  0
LAYER
  5
7E9
330
2
100
AcDbSymbolTableRecord
100
AcDbLayerTableRecord
  2
LW 3591-00-01
 70
     0
 62
     7
  6
Continuous
370
    -3
390
F
  0
LAYER
  5
7EA
330
2
100
AcDbSymbolTableRecord
100
AcDbLayerTableRecord
  2
insertpoint_ECKELT
 70
     0
 62
   141
  6
Continuous
370
    -3
390
F
  0
ENDTAB
  0
TABLE
  2
STYLE
  5
3
330
0
100
AcDbSymbolTable
 70
     1
  0
STYLE
  5
11
330
3
100
AcDbSymbolTableRecord
100
AcDbTextStyleTableRecord
  2
Standard
 70
     0
 40
0.0
 41
1.0
 50
0.0
 71
     0
 42
0.2
  3
ARIAL.TTF
  4

1001
ACAD
1000
Arial
1071
      256
  0
ENDTAB
  0
TABLE
  2
VIEW
  5
6
330
0
100
AcDbSymbolTable
 70
     0
  0
ENDTAB
  0
TABLE
  2
UCS
  5
7
330
0
100
AcDbSymbolTable
 70
     0
  0
ENDTAB
  0
TABLE
  2
APPID
  5
9
330
0
100
AcDbSymbolTable
 70
     3
  0
APPID
  5
12
330
9
100
AcDbSymbolTableRecord
100
AcDbRegAppTableRecord
  2
ACAD
 70
     0
  0
APPID
  5
A3E
330
9
100
AcDbSymbolTableRecord
100
AcDbRegAppTableRecord
  2
ACAD_PSEXT
 70
     0
  0
APPID
  5
2F1E
330
9
100
AcDbSymbolTableRecord
100
AcDbRegAppTableRecord
  2
ACAD_EXEMPT_FROM_CAD_STANDARDS
 70
     0
  0
ENDTAB
  0
TABLE
  2
DIMSTYLE
  5
A
330
0
100
AcDbSymbolTable
 70
     1
100
AcDbDimStyleTable
 71
     1
340
2B
  0
DIMSTYLE
105
2B
330
A
100
AcDbSymbolTableRecord
100
AcDbDimStyleTableRecord
  2
Standard
 70
     0
340
11
  0
ENDTAB
  0
TABLE
  2
BLOCK_RECORD
  5
1
330
0
100
AcDbSymbolTable
 70
     5
  0
BLOCK_RECORD
  5
23
102
{ACAD_XDICTIONARY
360
9A6
102
}
330
1
100
AcDbSymbolTableRecord
100
AcDbBlockTableRecord
  2
*Model_Space
340
26
  0
BLOCK_RECORD
  5
1F
330
1
100
AcDbSymbolTableRecord
100
AcDbBlockTableRecord
  2
*Paper_Space
340
22
  0
BLOCK_RECORD
  5
27
330
1
100
AcDbSymbolTableRecord
100
AcDbBlockTableRecord
  2
*Paper_Space0
340
2A
  0
BLOCK_RECORD
  5
626
102
{ACAD_XDICTIONARY
360
627
102
}
330
1
100
AcDbSymbolTableRecord
100
AcDbBlockTableRecord
  2
insertpoint-ECKELT
340
0
102
{BLKREFS
331
45AB
331
463D
331
46A9
102
}
  0
BLOCK_RECORD
  5
447B
330
1
100
AcDbSymbolTableRecord
100
AcDbBlockTableRecord
  2
LW 3591-00-01_a
340
0
310
2800000020000000200000000100080000000000000400000000000000000000000000000000000000000000000080000080000000808000800000008000800080800000C0C0C000C0DCC000F0CAA6000020400000206000002080000020A0000020C0000020E00000400000004020000040400000406000004080000040A0
310
000040C0000040E00000600000006020000060400000606000006080000060A0000060C0000060E00000800000008020000080400000806000008080000080A0000080C0000080E00000A0000000A0200000A0400000A0600000A0800000A0A00000A0C00000A0E00000C0000000C0200000C0400000C0600000C0800000C0
310
A00000C0C00000C0E00000E0000000E0200000E0400000E0600000E0800000E0A00000E0C00000E0E00040000000400020004000400040006000400080004000A0004000C0004000E00040200000402020004020400040206000402080004020A0004020C0004020E000404000004040200040404000404060004040800040
310
40A0004040C0004040E00040600000406020004060400040606000406080004060A0004060C0004060E00040800000408020004080400040806000408080004080A0004080C0004080E00040A0000040A0200040A0400040A0600040A0800040A0A00040A0C00040A0E00040C0000040C0200040C0400040C0600040C08000
310
40C0A00040C0C00040C0E00040E0000040E0200040E0400040E0600040E0800040E0A00040E0C00040E0E00080000000800020008000400080006000800080008000A0008000C0008000E00080200000802020008020400080206000802080008020A0008020C0008020E00080400000804020008040400080406000804080
310
008040A0008040C0008040E00080600000806020008060400080606000806080008060A0008060C0008060E00080800000808020008080400080806000808080008080A0008080C0008080E00080A0000080A0200080A0400080A0600080A0800080A0A00080A0C00080A0E00080C0000080C0200080C0400080C0600080C0
310
800080C0A00080C0C00080C0E00080E0000080E0200080E0400080E0600080E0800080E0A00080E0C00080E0E000C0000000C0002000C0004000C0006000C0008000C000A000C000C000C000E000C0200000C0202000C0204000C0206000C0208000C020A000C020C000C020E000C0400000C0402000C0404000C0406000C0
310
408000C040A000C040C000C040E000C0600000C0602000C0604000C0606000C0608000C060A000C060C000C060E000C0800000C0802000C0804000C0806000C0808000C080A000C080C000C080E000C0A00000C0A02000C0A04000C0A06000C0A08000C0A0A000C0A0C000C0A0E000C0C00000C0C02000C0C04000C0C06000
310
C0C08000C0C0A000F0FBFF00A4A0A000808080000000FF0000FF000000FFFF00FF000000FF00FF00FFFF0000FFFFFF000000000000000000000000000000000000000000000000000000000000000000000000000000000000000000000000000000000000FFFF000000000000000000000000000000000000000000000000
310
000000000000FFFF000000000000000000000000000000000000000000000000000000000000FFFF000000000000000000000000000000000000000000000000000000FFFFFFFFFF000000000000000000000000000000000000000000000000000000FFFF00FFFF0000000000000000000000000000000000000000000000
310
000000FAFAFAFAFAFAFAFAFA000000000000000000000000000000000000000000000000FF0000FFFF000000000000000000000000000000000000000000000000000000FF0000FFFF000000000000000000000000000000000000000000000000000000FFFFFFFFFF00000000000000000000000000000000000000000000
310
0000000000000000FFFF000000000000000000000000000000000000000000000000000000000000FFFF000000000000000000000000000000000000000000000000000000000000FFFF000000000000000000000000000000000000000000000000000000000000FFFF000000000000000000000000000000000000000000
310
000000000000000000FFFF000000000000000000000000000000000000000000000000000000FFFFFFFFFF000000000000000000000000000000000000000000000000000000FFFF00FFFF0000000000000000000000000000000000000000000000000000FAFAFAFAFAFAFAFAFA0000000000000000000000000000000000
310
00000000000000FF0000FFFF000000000000000000000000000000000000000000000000000000FF0000FFFF0000000000000000000000000000000000000000FA000000000000FFFFFFFFFF000000000000000000000000000000000000FFFFFAFFFFFF00000000FFFFFFFF000000000000000000000000000000000000FF
310
00FAFFFFFF000000FFF9F9FFFF000000000000000000000000000000000000FF00FA0000FF00FFFFF9F9F9FFFF0000000000000000000000000000000000FFFFFFFAFFFFFFFF0000F90000FFFF000000000000000000000000000000FFFFFFFFFFFAFFFFFFFFFFFFFFFFFFFFFF000000000000000000000000000000FFFFFF
310
FFFAFAFAFFFFFFFFFFFFFFFF090900000000000000000000000000000000000000FAFAFA0000000000000000000000000000000000000000000000000000000000FAFAFA0000000000000000000000000000000000000000000000000000000000FFFAFF000000000000000000000000000000000000000000000000000000
310
000000FA00000000000000000000000000000000000000000000000000000000000000000000000000000000000000000000000000000000
102
{BLKREFS
331
45B5
102
}
  0
BLOCK_RECORD
  5
45B6
330
1
100
AcDbSymbolTableRecord
100
AcDbBlockTableRecord
  2
LW 3591-00-01_b
340
0
310
2800000020000000200000000100080000000000000400000000000000000000000000000000000000000000000080000080000000808000800000008000800080800000C0C0C000C0DCC000F0CAA6000020400000206000002080000020A0000020C0000020E00000400000004020000040400000406000004080000040A0
310
000040C0000040E00000600000006020000060400000606000006080000060A0000060C0000060E00000800000008020000080400000806000008080000080A0000080C0000080E00000A0000000A0200000A0400000A0600000A0800000A0A00000A0C00000A0E00000C0000000C0200000C0400000C0600000C0800000C0
310
A00000C0C00000C0E00000E0000000E0200000E0400000E0600000E0800000E0A00000E0C00000E0E00040000000400020004000400040006000400080004000A0004000C0004000E00040200000402020004020400040206000402080004020A0004020C0004020E000404000004040200040404000404060004040800040
310
40A0004040C0004040E00040600000406020004060400040606000406080004060A0004060C0004060E00040800000408020004080400040806000408080004080A0004080C0004080E00040A0000040A0200040A0400040A0600040A0800040A0A00040A0C00040A0E00040C0000040C0200040C0400040C0600040C08000
310
40C0A00040C0C00040C0E00040E0000040E0200040E0400040E0600040E0800040E0A00040E0C00040E0E00080000000800020008000400080006000800080008000A0008000C0008000E00080200000802020008020400080206000802080008020A0008020C0008020E00080400000804020008040400080406000804080
310
008040A0008040C0008040E00080600000806020008060400080606000806080008060A0008060C0008060E00080800000808020008080400080806000808080008080A0008080C0008080E00080A0000080A0200080A0400080A0600080A0800080A0A00080A0C00080A0E00080C0000080C0200080C0400080C0600080C0
310
800080C0A00080C0C00080C0E00080E0000080E0200080E0400080E0600080E0800080E0A00080E0C00080E0E000C0000000C0002000C0004000C0006000C0008000C000A000C000C000C000E000C0200000C0202000C0204000C0206000C0208000C020A000C020C000C020E000C0400000C0402000C0404000C0406000C0
310
408000C040A000C040C000C040E000C0600000C0602000C0604000C0606000C0608000C060A000C060C000C060E000C0800000C0802000C0804000C0806000C0808000C080A000C080C000C080E000C0A00000C0A02000C0A04000C0A06000C0A08000C0A0A000C0A0C000C0A0E000C0C00000C0C02000C0C04000C0C06000
310
C0C08000C0C0A000F0FBFF00A4A0A000808080000000FF0000FF000000FFFF00FF000000FF00FF00FFFF0000FFFFFF0000000000000000000000000000000000000000000000000000000000000000000000000000000000000000000000000000000000000000000000000000000000000000000000000000000000000000
310
00000000000000000000000000000000000000000000000000000000000000000000000000000000000000000000000000000000000000000000000000000000000000000000000000000000000000000000000000000000000000000000000000000000000000000000000000000000000000000000000000000000000000
310
000000000000000000000000000000000000000000000000000000000000000000000000000000000000000000000000000000000000000000000000000000000000000000000000000000000000000000000000000000000000FFFFFFFFFFFFFFFFFFFFFFFFFFFFFFFFFFFF0000000000000000000000FFFFFF00FA000000
310
00000000000000000000FF00FF00000000000000000000FF000000FFFAFFFF0000000000000000000000FF00FF00000000000000000000FF0000FF00FAFF00FF000000000000FFFFFFFFFF00FF000000000000000000FF0000FFFFFFFAFFFFFFFF0000000000FFFF0000FF00FF000000000000000000FF0000FFFF00FA00FF
310
FFFF0000000000FF000000FF00FF00000000000000FAFAFAFAFAFAFAFAFAFAFAFAFAFAFAFAFAFAFAFAFAFA090909FAFAFAFAFA00000000FF00FFFF0000FA0000FFFFFF00FFFFFFFF000000090909000000000000000000FF0000FFFF00FA0000FFFFFF00000000FF000000FF00FF000000000000000000FF0000FFFFFFFAFF
310
FFFFFF0000000000FFFF0000FF00FF00000000000000000000FF0000FF00FAFFFFFF000000000000FFFFFFFFFF00FF00000000000000000000FF000000FFFAFFFF0000F9F9F9F90000000000FF00FF0000000000000000000000FFFF0000FA00000000F9F9F9F90000000000FF00FF00000000000000000000000000FFFFFF
310
FFFFFFFFFFFFFFFFFFFFFFFFFFFFFFFF000000000000000000000000000000000000000000000000000000000000000000000000000000000000000000000000000000000000000000000000000000000000000000000000000000000000000000000000000000000000000000000000000000000000000000000000000000
310
00000000000000000000000000000000000000000000000000000000000000000000000000000000000000000000000000000000000000000000000000000000000000000000000000000000000000000000000000000000000000000000000000000000000000000000000000000000000000000000000000000000000000
310
0000000000000000000000000000000000000000000000000000000000000000000000000000000000000000000000000000000000000000
102
{BLKREFS
331
4647
102
}
  0
BLOCK_RECORD
  5
4648
330
1
100
AcDbSymbolTableRecord
100
AcDbBlockTableRecord
  2
LW 3591-00-01_c
340
0
310
2800000020000000200000000100080000000000000400000000000000000000000000000000000000000000000080000080000000808000800000008000800080800000C0C0C000C0DCC000F0CAA6000020400000206000002080000020A0000020C0000020E00000400000004020000040400000406000004080000040A0
310
000040C0000040E00000600000006020000060400000606000006080000060A0000060C0000060E00000800000008020000080400000806000008080000080A0000080C0000080E00000A0000000A0200000A0400000A0600000A0800000A0A00000A0C00000A0E00000C0000000C0200000C0400000C0600000C0800000C0
310
A00000C0C00000C0E00000E0000000E0200000E0400000E0600000E0800000E0A00000E0C00000E0E00040000000400020004000400040006000400080004000A0004000C0004000E00040200000402020004020400040206000402080004020A0004020C0004020E000404000004040200040404000404060004040800040
310
40A0004040C0004040E00040600000406020004060400040606000406080004060A0004060C0004060E00040800000408020004080400040806000408080004080A0004080C0004080E00040A0000040A0200040A0400040A0600040A0800040A0A00040A0C00040A0E00040C0000040C0200040C0400040C0600040C08000
310
40C0A00040C0C00040C0E00040E0000040E0200040E0400040E0600040E0800040E0A00040E0C00040E0E00080000000800020008000400080006000800080008000A0008000C0008000E00080200000802020008020400080206000802080008020A0008020C0008020E00080400000804020008040400080406000804080
310
008040A0008040C0008040E00080600000806020008060400080606000806080008060A0008060C0008060E00080800000808020008080400080806000808080008080A0008080C0008080E00080A0000080A0200080A0400080A0600080A0800080A0A00080A0C00080A0E00080C0000080C0200080C0400080C0600080C0
310
800080C0A00080C0C00080C0E00080E0000080E0200080E0400080E0600080E0800080E0A00080E0C00080E0E000C0000000C0002000C0004000C0006000C0008000C000A000C000C000C000E000C0200000C0202000C0204000C0206000C0208000C020A000C020C000C020E000C0400000C0402000C0404000C0406000C0
310
408000C040A000C040C000C040E000C0600000C0602000C0604000C0606000C0608000C060A000C060C000C060E000C0800000C0802000C0804000C0806000C0808000C080A000C080C000C080E000C0A00000C0A02000C0A04000C0A06000C0A08000C0A0A000C0A0C000C0A0E000C0C00000C0C02000C0C04000C0C06000
310
C0C08000C0C0A000F0FBFF00A4A0A000808080000000FF0000FF000000FFFF00FF000000FF00FF00FFFF0000FFFFFF0000000000000000000000000000000000000000000000000000000000000000000000000000000000000000000000000000000000000000000000000000000000000000000000000000000000000000
310
00000000000000000000000000000000000000000000000000000000000000000000000000000000000000000000000000000000000000000000000000000000000000000000000000000000000000000000000000000000000000000000000000000000000000000000000000000000000000000000000000000000000000
310
00000000000000000000000000000000000000000000000000000000000000000000000000000000000000000000000000000000000000000000000000000000000000000000000000000000000000000000000000000000000000000000000000000000000000000000000000000000000000000000000000000000000000
310
000000000000000000000000000000000000000000000000FFFFFFFFFFFFFFFFFFFFFFFFFFFFFFFFFFFFFFFFFF0000000000000000000000FFFFFF0000000000FA00000000000000000000FA00FFFF000000000000000000FFFFFFFFFFFF0000FA00000000000000000000FA000000FF0000000000000000FFFFFF0000FF00
310
FFFAFFFF000000000000FFFFFAFFFF00FF0000000000FFFAFA09FFFF00FFFFFFFFFA00FFFAFAFAFAFAFAFAFAFAFAFAFAFAFAFA0000FAFFFA0909FAFAFAFAFAFAFAFAFAFAFF0000000000FF00FA00FF00FF0000000000000000FFFFFF0000FF00FFFAFFFF000000000000FFFFFAFFFF00FF0000000000000000FFFFFFFFFFFF
310
0000FAFF000000F9F9F90000FFFAFF0000FF0000000000000000FFFFFF0000000000FA00000000000000000000FA00FFFF000000000000000000FFFFFFFFFFFFFFFFFFFFFFFFFFFFFFFFFFFFFFFFFF000000000000000000000000000000000000000000000000000000000000000000000000000000000000000000000000
310
00000000000000000000000000000000000000000000000000000000000000000000000000000000000000000000000000000000000000000000000000000000000000000000000000000000000000000000000000000000000000000000000000000000000000000000000000000000000000000000000000000000000000
310
00000000000000000000000000000000000000000000000000000000000000000000000000000000000000000000000000000000000000000000000000000000000000000000000000000000000000000000000000000000000000000000000000000000000000000000000000000000000000000000000000000000000000
310
0000000000000000000000000000000000000000000000000000000000000000000000000000000000000000000000000000000000000000
102
{BLKREFS
331
46B3
102
}
  0
ENDTAB
  0
ENDSEC
  0
SECTION
  2
BLOCKS
  0
BLOCK
  5
24
330
23
100
AcDbEntity
  8
0
100
AcDbBlockBegin
  2
*Model_Space
 70
     0
 10
0.0
 20
0.0
 30
0.0
  3
*Model_Space
  1

  0
ENDBLK
  5
25
330
23
100
AcDbEntity
  8
0
100
AcDbBlockEnd
  0
BLOCK
  5
20
330
1F
100
AcDbEntity
 67
     1
  8
0
100
AcDbBlockBegin
  2
*Paper_Space
 70
     0
 10
0.0
 20
0.0
 30
0.0
  3
*Paper_Space
  1

  0
ENDBLK
  5
21
330
1F
100
AcDbEntity
 67
     1
  8
0
100
AcDbBlockEnd
  0
BLOCK
  5
28
330
27
100
AcDbEntity
 67
     1
  8
0
100
AcDbBlockBegin
  2
*Paper_Space0
 70
     0
 10
0.0
 20
0.0
 30
0.0
  3
*Paper_Space0
  1

  0
ENDBLK
  5
29
330
27
100
AcDbEntity
 67
     1
  8
0
100
AcDbBlockEnd
  0
BLOCK
  5
629
330
626
100
AcDbEntity
  8
0
100
AcDbBlockBegin
  2
insertpoint-ECKELT
 70
     2
 10
0.0
 20
0.0
 30
0.0
  3
insertpoint-ECKELT
  1

  0
ATTDEF
  5
62A
330
626
100
AcDbEntity
  8
insertpoint_ECKELT
100
AcDbText
 10
-2.457298772169167
 20
-0.0000000000000284
 30
0.0
 40
0.6
  1
LW
 72
     2
 11
-1.199999999999999
 21
-0.0000000000000284
 31
0.0
100
AcDbAttributeDefinition
  3
Nr. links
  2
LINKS
 70
     0
  0
ATTDEF
  5
62B
330
626
100
AcDbEntity
  8
insertpoint_ECKELT
100
AcDbText
 10
1.199999999999999
 20
-0.0000000000000284
 30
0.0
 40
0.6
  1
LW
100
AcDbAttributeDefinition
  3
Nr. rechts
  2
RECHTS
 70
     0
  0
LINE
  5
62C
102
{ACAD_REACTORS
330
62F
102
}
330
626
100
AcDbEntity
  8
insertpoint_ECKELT
100
AcDbLine
 10
0.0
 20
1.799999999999997
 30
0.0
 11
0.0
 21
-1.799999999999997
 31
0.0
  0
LINE
  5
62D
102
{ACAD_REACTORS
330
62F
102
}
330
626
100
AcDbEntity
  8
insertpoint_ECKELT
100
AcDbLine
 10
-1.8
 20
-0.0000000000000284
 30
0.0
 11
1.8
 21
-0.0000000000000284
 31
0.0
  0
CIRCLE
  5
62E
102
{ACAD_REACTORS
330
62F
102
}
330
626
100
AcDbEntity
  8
insertpoint_ECKELT
100
AcDbCircle
 10
0.0
 20
0.0
 30
0.0
 40
1.199999999999999
  0
HATCH
  5
62F
330
626
100
AcDbEntity
  8
insertpoint_ECKELT
100
AcDbHatch
 10
0.0
 20
0.0
 30
0.0
210
0.0
220
0.0
230
1.0
  2
SOLID
 70
     1
 71
     1
 91
        2
 92
        7
 72
     1
 73
     1
 93
        3
 10
0.0
 20
-0.0000000000000284
 42
0.0
 10
0.0
 20
1.200000000000002
 42
0.4142135623731013
 10
-1.199999999999999
 20
-0.0000000000000284
 42
0.0
 97
        3
330
62E
330
62D
330
62C
 92
        7
 72
     1
 73
     1
 93
        3
 10
1.199999999999999
 20
-0.0000000000000284
 42
0.0
 10
0.0
 20
-0.0000000000000284
 42
0.0
 10
0.0
 20
-1.200000000000002
 42
0.4142135623730888
 97
        3
330
62D
330
62C
330
62E
 75
     0
 76
     1
 47
0.0223086566480813
 98
        2
 10
-0.3163651093721391
 20
0.271413292077348
 10
0.7415965996738798
 20
-0.4513871917946233
450
        0
451
        0
460
0.0
461
0.0
452
        0
462
0.0
453
        0
470

  0
ENDBLK
  5
630
330
626
100
AcDbEntity
  8
0
100
AcDbBlockEnd
  0
BLOCK
  5
447C
330
447B
100
AcDbEntity
  8
0
100
AcDbBlockBegin
  2
LW 3591-00-01_a
 70
     0
 10
0.0
 20
0.0
 30
0.0
  3
LW 3591-00-01_a
  1

  0
LINE
  5
447E
330
447B
100
AcDbEntity
  8
LW 3591-00-01
100
AcDbLine
 10
-9.0
 20
-172.9999999999999
 30
0.0
 11
-9.0
 21
-139.9999999999999
 31
0.0
  0
LINE
  5
447F
330
447B
100
AcDbEntity
  8
LW 3591-00-01
100
AcDbLine
 10
-9.000000000000056
 20
-11.0
 30
0.0
 11
-9.0
 21
-139.9999999999999
 31
0.0
  0
LINE
  5
4480
330
447B
100
AcDbEntity
  8
LW 3591-00-01
100
AcDbLine
 10
-80.00000000000003
 20
-9.0
 30
0.0
 11
-11.0
 21
-9.0
 31
0.0
  0
LINE
  5
4481
330
447B
100
AcDbEntity
  8
LW 3591-00-01
100
AcDbLine
 10
-80.00000000000003
 20
-9.0
 30
0.0
 11
-113.0
 21
-9.0
 31
0.0
  0
ARC
  5
4482
330
447B
100
AcDbEntity
  8
LW 3591-00-01
100
AcDbCircle
 10
-11.0
 20
-11.0
 30
0.0
 40
1.999999999999988
100
AcDbArc
 50
0.0
 51
90.0
  0
ARC
  5
4483
330
447B
100
AcDbEntity
  8
LW 3591-00-01
100
AcDbCircle
 10
-7.0
 20
-172.9999999999999
 30
0.0
 40
2.0
100
AcDbArc
 50
180.0
 51
270.0
  0
ARC
  5
4484
330
447B
100
AcDbEntity
  8
LW 3591-00-01
100
AcDbCircle
 10
-113.0
 20
-7.0
 30
0.0
 40
2.0
100
AcDbArc
 50
180.0
 51
270.0
  0
LINE
  5
4485
330
447B
100
AcDbEntity
  8
LW 3591-00-01
100
AcDbLine
 10
-115.0
 20
0.0
 30
0.0
 11
-80.00000000000005
 21
0.0
 31
0.0
  0
LINE
  5
4486
330
447B
100
AcDbEntity
  8
LW 3591-00-01
100
AcDbLine
 10
0.0
 20
-139.9999999999999
 30
0.0
 11
0.0
 21
-175.0
 31
0.0
  0
LINE
  5
4487
330
447B
100
AcDbEntity
  8
LW 3591-00-01
100
AcDbLine
 10
0.0
 20
-175.0
 30
0.0
 11
-7.0
 21
-175.0
 31
0.0
  0
LINE
  5
4488
330
447B
100
AcDbEntity
  8
LW 3591-00-01
100
AcDbLine
 10
-115.0
 20
-7.0
 30
0.0
 11
-115.0
 21
0.0
 31
0.0
  0
LINE
  5
4489
330
447B
100
AcDbEntity
  8
LW 3591-00-01
100
AcDbLine
 10
-80.00000000000003
 20
0.0
 30
0.0
 11
0.0
 21
0.0
 31
0.0
  0
LINE
  5
448A
330
447B
100
AcDbEntity
  8
LW 3591-00-01
100
AcDbLine
 10
0.0
 20
0.0
 30
0.0
 11
0.0
 21
-139.9999999999999
 31
0.0
  0
ARC
  5
448B
330
447B
100
AcDbEntity
  8
LW 3591-00-01
100
AcDbCircle
 10
-11.0
 20
-40.0
 30
0.0
 40
1.99999999999998
100
AcDbArc
 50
0.0
 51
53.13010235415793
  0
ARC
  5
448C
330
447B
100
AcDbEntity
  8
LW 3591-00-01
100
AcDbCircle
 10
-49.66666666666672
 20
-11.00000000000005
 30
0.0
 40
2.000000000000055
100
AcDbArc
 50
53.13010235415793
 51
90.0
  0
LINE
  5
448D
330
447B
100
AcDbEntity
  8
LW 3591-00-01
100
AcDbLine
 10
-48.4666666666667
 20
-9.399999999999977
 30
0.0
 11
-9.800000000000011
 21
-38.39999999999998
 31
0.0
  0
LINE
  5
448E
330
447B
100
AcDbEntity
  8
LW 3591-00-01
100
AcDbLine
 10
-57.50000000000003
 20
-14.0
 30
0.0
 11
-102.5
 21
-14.0
 31
0.0
  0
LINE
  5
448F
330
447B
100
AcDbEntity
  8
LW 3591-00-01
100
AcDbLine
 10
-57.50000000000003
 20
-9.0
 30
0.0
 11
-57.50000000000003
 21
-14.0
 31
0.0
  0
LINE
  5
4490
330
447B
100
AcDbEntity
  8
LW 3591-00-01
100
AcDbLine
 10
-102.5
 20
-9.0
 30
0.0
 11
-102.5
 21
-14.0
 31
0.0
  0
LINE
  5
4491
330
447B
100
AcDbEntity
  8
LW 3591-00-01
100
AcDbLine
 10
-102.5
 20
5.0
 30
0.0
 11
-57.50000000000003
 21
5.0
 31
0.0
  0
LINE
  5
4492
330
447B
100
AcDbEntity
  8
LW 3591-00-01
100
AcDbLine
 10
-102.5
 20
0.0
 30
0.0
 11
-102.5
 21
5.0
 31
0.0
  0
LINE
  5
4493
330
447B
100
AcDbEntity
  8
LW 3591-00-01
100
AcDbLine
 10
-57.50000000000003
 20
0.0
 30
0.0
 11
-57.50000000000003
 21
5.0
 31
0.0
  0
LINE
  5
4494
330
447B
100
AcDbEntity
  8
LW 3591-00-01
100
AcDbLine
 10
-73.0
 20
21.0
 30
0.0
 11
-86.99999999999997
 21
21.0
 31
0.0
  0
LINE
  5
4495
330
447B
100
AcDbEntity
  8
LW 3591-00-01
100
AcDbLine
 10
-73.99999999999997
 20
22.0
 30
0.0
 11
-86.0
 21
22.0
 31
0.0
  0
LINE
  5
4496
330
447B
100
AcDbEntity
  8
LW 3591-00-01
100
AcDbLine
 10
-86.99999999999997
 20
5.0
 30
0.0
 11
-86.99999999999997
 21
21.0
 31
0.0
  0
LINE
  5
4497
330
447B
100
AcDbEntity
  8
LW 3591-00-01
100
AcDbLine
 10
-73.0
 20
5.0
 30
0.0
 11
-73.0
 21
21.0
 31
0.0
  0
LINE
  5
4498
330
447B
100
AcDbEntity
  8
LW 3591-00-01
100
AcDbLine
 10
-74.0
 20
22.0
 30
0.0
 11
-73.0
 21
21.0
 31
0.0
  0
LINE
  5
4499
330
447B
100
AcDbEntity
  8
LW 3591-00-01
100
AcDbLine
 10
-86.0
 20
22.0
 30
0.0
 11
-87.0
 21
21.0
 31
0.0
  0
LINE
  5
449A
330
447B
100
AcDbEntity
  8
LW 3591-00-01
 62
     3
100
AcDbLine
 10
-85.79449999999999
 20
22.0
 30
0.0
 11
-85.79449999999999
 21
5.0
 31
0.0
  0
LINE
  5
449B
330
447B
100
AcDbEntity
  8
LW 3591-00-01
 62
     3
100
AcDbLine
 10
-74.2055
 20
5.0
 30
0.0
 11
-74.2055
 21
22.0
 31
0.0
  0
LINE
  5
449C
330
447B
100
AcDbEntity
  8
LW 3591-00-01
100
AcDbLine
 10
-73.00000000000003
 20
21.0
 30
0.0
 11
-87.0
 21
21.0
 31
0.0
  0
ELLIPSE
  5
449D
330
447B
100
AcDbEntity
  8
LW 3591-00-01
100
AcDbEllipse
 10
-25.0
 20
-146.25
 30
0.0
 11
-1.999999999999997
 21
0.0000000000001147
 31
0.0
210
0.0
220
0.0
230
1.0
 40
0.8660254037844351
 41
0.7941688477848099
 42
2.347423805805161
  0
POLYLINE
  5
449E
330
447B
100
AcDbEntity
  8
LW 3591-00-01
100
AcDb2dPolyline
 66
     1
 10
0.0
 20
0.0
 30
0.0
 70
   128
  0
VERTEX
  5
449F
330
449E
100
AcDbEntity
  8
LW 3591-00-01
100
AcDbVertex
100
AcDb2dVertex
 10
-26.99999952316281
 20
-148.75
 30
0.0
  0
VERTEX
  5
44A0
330
449E
100
AcDbEntity
  8
LW 3591-00-01
100
AcDbVertex
100
AcDb2dVertex
 10
-26.98318386077878
 20
-148.5277742147445
 30
0.0
  0
VERTEX
  5
44A1
330
449E
100
AcDbEntity
  8
LW 3591-00-01
100
AcDbVertex
100
AcDb2dVertex
 10
-26.93250799179074
 20
-148.3014559745788
 30
0.0
  0
VERTEX
  5
44A2
330
449E
100
AcDbEntity
  8
LW 3591-00-01
100
AcDbVertex
100
AcDb2dVertex
 10
-26.84763216972348
 20
-148.0785280466079
 30
0.0
  0
VERTEX
  5
44A3
330
449E
100
AcDbEntity
  8
LW 3591-00-01
100
AcDbVertex
100
AcDb2dVertex
 10
-26.72932291030881
 20
-147.8661978244781
 30
0.0
  0
VERTEX
  5
44A4
330
449E
100
AcDbEntity
  8
LW 3591-00-01
100
AcDbVertex
100
AcDb2dVertex
 10
-26.58275866508481
 20
-147.6703834533691
 30
0.0
  0
VERTEX
  5
44A5
330
449E
100
AcDbEntity
  8
LW 3591-00-01
100
AcDbVertex
100
AcDb2dVertex
 10
-26.41421103477475
 20
-147.4966341257095
 30
0.0
  0
VERTEX
  5
44A6
330
449E
100
AcDbEntity
  8
LW 3591-00-01
100
AcDbVertex
100
AcDb2dVertex
 10
-26.22194790840146
 20
-147.3434162139892
 30
0.0
  0
VERTEX
  5
44A7
330
449E
100
AcDbEntity
  8
LW 3591-00-01
100
AcDbVertex
100
AcDb2dVertex
 10
-26.00386404991147
 20
-147.2095239162445
 30
0.0
  0
VERTEX
  5
44A8
330
449E
100
AcDbEntity
  8
LW 3591-00-01
100
AcDbVertex
100
AcDb2dVertex
 10
-25.76566958427426
 20
-147.1009975671768
 30
0.0
  0
VERTEX
  5
44A9
330
449E
100
AcDbEntity
  8
LW 3591-00-01
100
AcDbVertex
100
AcDb2dVertex
 10
-25.51353359222409
 20
-147.0229011774063
 30
0.0
  0
VERTEX
  5
44AA
330
449E
100
AcDbEntity
  8
LW 3591-00-01
100
AcDbVertex
100
AcDb2dVertex
 10
-25.25547885894773
 20
-146.9761621952057
 30
0.0
  0
VERTEX
  5
44AB
330
449E
100
AcDbEntity
  8
LW 3591-00-01
100
AcDbVertex
100
AcDb2dVertex
 10
-25.00000023841855
 20
-146.9606184959411
 30
0.0
  0
VERTEX
  5
44AC
330
449E
100
AcDbEntity
  8
LW 3591-00-01
100
AcDbVertex
100
AcDb2dVertex
 10
-24.74452042579648
 20
-146.9761621952057
 30
0.0
  0
VERTEX
  5
44AD
330
449E
100
AcDbEntity
  8
LW 3591-00-01
100
AcDbVertex
100
AcDb2dVertex
 10
-24.48646688461301
 20
-147.0229011774063
 30
0.0
  0
VERTEX
  5
44AE
330
449E
100
AcDbEntity
  8
LW 3591-00-01
100
AcDbVertex
100
AcDb2dVertex
 10
-24.23433089256284
 20
-147.1009975671768
 30
0.0
  0
VERTEX
  5
44AF
330
449E
100
AcDbEntity
  8
LW 3591-00-01
100
AcDbVertex
100
AcDb2dVertex
 10
-23.99613642692563
 20
-147.2095239162445
 30
0.0
  0
VERTEX
  5
44B0
330
449E
100
AcDbEntity
  8
LW 3591-00-01
100
AcDbVertex
100
AcDb2dVertex
 10
-23.77805137634275
 20
-147.3434162139892
 30
0.0
  0
VERTEX
  5
44B1
330
449E
100
AcDbEntity
  8
LW 3591-00-01
100
AcDbVertex
100
AcDb2dVertex
 10
-23.58578944206235
 20
-147.4966341257095
 30
0.0
  0
VERTEX
  5
44B2
330
449E
100
AcDbEntity
  8
LW 3591-00-01
100
AcDbVertex
100
AcDb2dVertex
 10
-23.41724181175229
 20
-147.6703834533691
 30
0.0
  0
VERTEX
  5
44B3
330
449E
100
AcDbEntity
  8
LW 3591-00-01
100
AcDbVertex
100
AcDb2dVertex
 10
-23.2706763744354
 20
-147.8661978244781
 30
0.0
  0
VERTEX
  5
44B4
330
449E
100
AcDbEntity
  8
LW 3591-00-01
100
AcDbVertex
100
AcDb2dVertex
 10
-23.15236830711362
 20
-148.0785280466079
 30
0.0
  0
VERTEX
  5
44B5
330
449E
100
AcDbEntity
  8
LW 3591-00-01
100
AcDbVertex
100
AcDb2dVertex
 10
-23.06749248504636
 20
-148.3014559745788
 30
0.0
  0
VERTEX
  5
44B6
330
449E
100
AcDbEntity
  8
LW 3591-00-01
100
AcDbVertex
100
AcDb2dVertex
 10
-23.01681661605832
 20
-148.5277742147445
 30
0.0
  0
VERTEX
  5
44B7
330
449E
100
AcDbEntity
  8
LW 3591-00-01
100
AcDbVertex
100
AcDb2dVertex
 10
-22.99999976158139
 20
-148.75
 30
0.0
  0
SEQEND
  5
44B8
330
449E
100
AcDbEntity
  8
LW 3591-00-01
  0
POLYLINE
  5
44B9
330
447B
100
AcDbEntity
  8
LW 3591-00-01
100
AcDb2dPolyline
 66
     1
 10
0.0
 20
0.0
 30
0.0
 70
   128
  0
VERTEX
  5
44BA
330
44B9
100
AcDbEntity
  8
LW 3591-00-01
100
AcDbVertex
100
AcDb2dVertex
 10
-22.99999976158139
 20
-148.75
 30
0.0
  0
VERTEX
  5
44BB
330
44B9
100
AcDbEntity
  8
LW 3591-00-01
100
AcDbVertex
100
AcDb2dVertex
 10
-23.01681661605832
 20
-148.9702785015106
 30
0.0
  0
VERTEX
  5
44BC
330
44B9
100
AcDbEntity
  8
LW 3591-00-01
100
AcDbVertex
100
AcDb2dVertex
 10
-23.06749248504636
 20
-149.1909259557724
 30
0.0
  0
VERTEX
  5
44BD
330
44B9
100
AcDbEntity
  8
LW 3591-00-01
100
AcDbVertex
100
AcDb2dVertex
 10
-23.15236830711362
 20
-149.4047135114669
 30
0.0
  0
VERTEX
  5
44BE
330
44B9
100
AcDbEntity
  8
LW 3591-00-01
100
AcDbVertex
100
AcDb2dVertex
 10
-23.2706763744354
 20
-149.6049517393112
 30
0.0
  0
VERTEX
  5
44BF
330
44B9
100
AcDbEntity
  8
LW 3591-00-01
100
AcDbVertex
100
AcDb2dVertex
 10
-23.41724181175229
 20
-149.7868710756302
 30
0.0
  0
VERTEX
  5
44C0
330
44B9
100
AcDbEntity
  8
LW 3591-00-01
100
AcDbVertex
100
AcDb2dVertex
 10
-23.58578944206235
 20
-149.946129322052
 30
0.0
  0
VERTEX
  5
44C1
330
44B9
100
AcDbEntity
  8
LW 3591-00-01
100
AcDbVertex
100
AcDb2dVertex
 10
-23.77805137634275
 20
-150.0848424434662
 30
0.0
  0
VERTEX
  5
44C2
330
44B9
100
AcDbEntity
  8
LW 3591-00-01
100
AcDbVertex
100
AcDb2dVertex
 10
-23.99613642692563
 20
-150.2048063278198
 30
0.0
  0
VERTEX
  5
44C3
330
44B9
100
AcDbEntity
  8
LW 3591-00-01
100
AcDbVertex
100
AcDb2dVertex
 10
-24.23433089256284
 20
-150.3011929988861
 30
0.0
  0
VERTEX
  5
44C4
330
44B9
100
AcDbEntity
  8
LW 3591-00-01
100
AcDbVertex
100
AcDb2dVertex
 10
-24.48646688461301
 20
-150.3701031208038
 30
0.0
  0
VERTEX
  5
44C5
330
44B9
100
AcDbEntity
  8
LW 3591-00-01
100
AcDbVertex
100
AcDb2dVertex
 10
-24.74452042579648
 20
-150.411137342453
 30
0.0
  0
VERTEX
  5
44C6
330
44B9
100
AcDbEntity
  8
LW 3591-00-01
100
AcDbVertex
100
AcDb2dVertex
 10
-25.00000023841855
 20
-150.4247200489044
 30
0.0
  0
VERTEX
  5
44C7
330
44B9
100
AcDbEntity
  8
LW 3591-00-01
100
AcDbVertex
100
AcDb2dVertex
 10
-25.25547885894773
 20
-150.411137342453
 30
0.0
  0
VERTEX
  5
44C8
330
44B9
100
AcDbEntity
  8
LW 3591-00-01
100
AcDbVertex
100
AcDb2dVertex
 10
-25.51353359222409
 20
-150.3701031208038
 30
0.0
  0
VERTEX
  5
44C9
330
44B9
100
AcDbEntity
  8
LW 3591-00-01
100
AcDbVertex
100
AcDb2dVertex
 10
-25.76566958427426
 20
-150.3011929988861
 30
0.0
  0
VERTEX
  5
44CA
330
44B9
100
AcDbEntity
  8
LW 3591-00-01
100
AcDbVertex
100
AcDb2dVertex
 10
-26.00386404991147
 20
-150.2048063278198
 30
0.0
  0
VERTEX
  5
44CB
330
44B9
100
AcDbEntity
  8
LW 3591-00-01
100
AcDbVertex
100
AcDb2dVertex
 10
-26.22194790840146
 20
-150.0848424434662
 30
0.0
  0
VERTEX
  5
44CC
330
44B9
100
AcDbEntity
  8
LW 3591-00-01
100
AcDbVertex
100
AcDb2dVertex
 10
-26.41421103477475
 20
-149.946129322052
 30
0.0
  0
VERTEX
  5
44CD
330
44B9
100
AcDbEntity
  8
LW 3591-00-01
100
AcDbVertex
100
AcDb2dVertex
 10
-26.58275866508481
 20
-149.7868710756302
 30
0.0
  0
VERTEX
  5
44CE
330
44B9
100
AcDbEntity
  8
LW 3591-00-01
100
AcDbVertex
100
AcDb2dVertex
 10
-26.72932291030881
 20
-149.6049517393112
 30
0.0
  0
VERTEX
  5
44CF
330
44B9
100
AcDbEntity
  8
LW 3591-00-01
100
AcDbVertex
100
AcDb2dVertex
 10
-26.84763216972348
 20
-149.4047135114669
 30
0.0
  0
VERTEX
  5
44D0
330
44B9
100
AcDbEntity
  8
LW 3591-00-01
100
AcDbVertex
100
AcDb2dVertex
 10
-26.93250799179074
 20
-149.1909259557724
 30
0.0
  0
VERTEX
  5
44D1
330
44B9
100
AcDbEntity
  8
LW 3591-00-01
100
AcDbVertex
100
AcDb2dVertex
 10
-26.98318386077878
 20
-148.9702785015106
 30
0.0
  0
VERTEX
  5
44D2
330
44B9
100
AcDbEntity
  8
LW 3591-00-01
100
AcDbVertex
100
AcDb2dVertex
 10
-26.99999952316281
 20
-148.75
 30
0.0
  0
SEQEND
  5
44D3
330
44B9
100
AcDbEntity
  8
LW 3591-00-01
  0
POLYLINE
  5
44D4
330
447B
100
AcDbEntity
  8
LW 3591-00-01
100
AcDb2dPolyline
 66
     1
 10
0.0
 20
0.0
 30
0.0
 70
   128
  0
VERTEX
  5
44D5
330
44D4
100
AcDbEntity
  8
LW 3591-00-01
100
AcDbVertex
100
AcDb2dVertex
 10
-22.99999976158139
 20
-122.4999999999999
 30
0.0
  0
VERTEX
  5
44D6
330
44D4
100
AcDbEntity
  8
LW 3591-00-01
100
AcDbVertex
100
AcDb2dVertex
 10
-23.01681661605832
 20
-122.5019466876983
 30
0.0
  0
VERTEX
  5
44D7
330
44D4
100
AcDbEntity
  8
LW 3591-00-01
100
AcDbVertex
100
AcDb2dVertex
 10
-23.06749248504636
 20
-122.5076186656951
 30
0.0
  0
VERTEX
  5
44D8
330
44D4
100
AcDbEntity
  8
LW 3591-00-01
100
AcDbVertex
100
AcDb2dVertex
 10
-23.15236830711362
 20
-122.516758441925
 30
0.0
  0
VERTEX
  5
44D9
330
44D4
100
AcDbEntity
  8
LW 3591-00-01
100
AcDbVertex
100
AcDb2dVertex
 10
-23.2706763744354
 20
-122.528851032257
 30
0.0
  0
VERTEX
  5
44DA
330
44D4
100
AcDbEntity
  8
LW 3591-00-01
100
AcDbVertex
100
AcDb2dVertex
 10
-23.41724181175229
 20
-122.5427460670471
 30
0.0
  0
VERTEX
  5
44DB
330
44D4
100
AcDbEntity
  8
LW 3591-00-01
100
AcDbVertex
100
AcDb2dVertex
 10
-23.58578944206235
 20
-122.5572371482849
 30
0.0
  0
VERTEX
  5
44DC
330
44D4
100
AcDbEntity
  8
LW 3591-00-01
100
AcDbVertex
100
AcDb2dVertex
 10
-23.77805137634275
 20
-122.5717413425445
 30
0.0
  0
VERTEX
  5
44DD
330
44D4
100
AcDbEntity
  8
LW 3591-00-01
100
AcDbVertex
100
AcDb2dVertex
 10
-23.99613642692563
 20
-122.5856697559356
 30
0.0
  0
VERTEX
  5
44DE
330
44D4
100
AcDbEntity
  8
LW 3591-00-01
100
AcDbVertex
100
AcDb2dVertex
 10
-24.23433089256284
 20
-122.5978088378906
 30
0.0
  0
VERTEX
  5
44DF
330
44D4
100
AcDbEntity
  8
LW 3591-00-01
100
AcDbVertex
100
AcDb2dVertex
 10
-24.48646688461301
 20
-122.6069951057433
 30
0.0
  0
VERTEX
  5
44E0
330
44D4
100
AcDbEntity
  8
LW 3591-00-01
100
AcDbVertex
100
AcDb2dVertex
 10
-24.74452042579648
 20
-122.6127004623412
 30
0.0
  0
VERTEX
  5
44E1
330
44D4
100
AcDbEntity
  8
LW 3591-00-01
100
AcDbVertex
100
AcDb2dVertex
 10
-25.00000023841855
 20
-122.6146614551544
 30
0.0
  0
VERTEX
  5
44E2
330
44D4
100
AcDbEntity
  8
LW 3591-00-01
100
AcDbVertex
100
AcDb2dVertex
 10
-25.25547885894773
 20
-122.6127004623412
 30
0.0
  0
VERTEX
  5
44E3
330
44D4
100
AcDbEntity
  8
LW 3591-00-01
100
AcDbVertex
100
AcDb2dVertex
 10
-25.51353359222409
 20
-122.6069951057433
 30
0.0
  0
VERTEX
  5
44E4
330
44D4
100
AcDbEntity
  8
LW 3591-00-01
100
AcDbVertex
100
AcDb2dVertex
 10
-25.76566958427426
 20
-122.5978088378906
 30
0.0
  0
VERTEX
  5
44E5
330
44D4
100
AcDbEntity
  8
LW 3591-00-01
100
AcDbVertex
100
AcDb2dVertex
 10
-26.00386404991147
 20
-122.5856697559356
 30
0.0
  0
VERTEX
  5
44E6
330
44D4
100
AcDbEntity
  8
LW 3591-00-01
100
AcDbVertex
100
AcDb2dVertex
 10
-26.22194790840146
 20
-122.5717413425445
 30
0.0
  0
VERTEX
  5
44E7
330
44D4
100
AcDbEntity
  8
LW 3591-00-01
100
AcDbVertex
100
AcDb2dVertex
 10
-26.41421103477475
 20
-122.5572371482849
 30
0.0
  0
VERTEX
  5
44E8
330
44D4
100
AcDbEntity
  8
LW 3591-00-01
100
AcDbVertex
100
AcDb2dVertex
 10
-26.58275866508481
 20
-122.5427460670471
 30
0.0
  0
VERTEX
  5
44E9
330
44D4
100
AcDbEntity
  8
LW 3591-00-01
100
AcDbVertex
100
AcDb2dVertex
 10
-26.72932291030881
 20
-122.528851032257
 30
0.0
  0
VERTEX
  5
44EA
330
44D4
100
AcDbEntity
  8
LW 3591-00-01
100
AcDbVertex
100
AcDb2dVertex
 10
-26.84763216972348
 20
-122.516758441925
 30
0.0
  0
VERTEX
  5
44EB
330
44D4
100
AcDbEntity
  8
LW 3591-00-01
100
AcDbVertex
100
AcDb2dVertex
 10
-26.93250799179074
 20
-122.5076186656951
 30
0.0
  0
VERTEX
  5
44EC
330
44D4
100
AcDbEntity
  8
LW 3591-00-01
100
AcDbVertex
100
AcDb2dVertex
 10
-26.98318386077878
 20
-122.5019466876983
 30
0.0
  0
VERTEX
  5
44ED
330
44D4
100
AcDbEntity
  8
LW 3591-00-01
100
AcDbVertex
100
AcDb2dVertex
 10
-26.99999952316281
 20
-122.4999999999999
 30
0.0
  0
SEQEND
  5
44EE
330
44D4
100
AcDbEntity
  8
LW 3591-00-01
  0
LINE
  5
44EF
330
447B
100
AcDbEntity
  8
LW 3591-00-01
100
AcDbLine
 10
-28.99999999999997
 20
-122.4999999999999
 30
0.0
 11
-28.99999999999997
 21
-157.5
 31
0.0
  0
LINE
  5
44F0
330
447B
100
AcDbEntity
  8
LW 3591-00-01
100
AcDbLine
 10
-31.99999999999997
 20
-125.5
 30
0.0
 11
-31.99999999999997
 21
-154.4999999999999
 31
0.0
  0
LINE
  5
44F1
330
447B
100
AcDbEntity
  8
LW 3591-00-01
100
AcDbLine
 10
-9.0
 20
-157.5
 30
0.0
 11
-28.99999999999997
 21
-157.5
 31
0.0
  0
LINE
  5
44F2
330
447B
100
AcDbEntity
  8
LW 3591-00-01
100
AcDbLine
 10
-9.0
 20
-122.4999999999999
 30
0.0
 11
-23.0
 21
-122.4999999999999
 31
0.0
  0
LINE
  5
44F3
330
447B
100
AcDbEntity
  8
LW 3591-00-01
100
AcDbLine
 10
-26.99999999999997
 20
-122.4999999999999
 30
0.0
 11
-28.99999999999997
 21
-122.4999999999999
 31
0.0
  0
LINE
  5
44F4
330
447B
100
AcDbEntity
  8
LW 3591-00-01
100
AcDbLine
 10
-31.99999999999997
 20
-125.5
 30
0.0
 11
-28.99999999999997
 21
-122.4999999999999
 31
0.0
  0
LINE
  5
44F5
330
447B
100
AcDbEntity
  8
LW 3591-00-01
100
AcDbLine
 10
-31.99999999999997
 20
-154.4999999999999
 30
0.0
 11
-28.99999999999997
 21
-157.5
 31
0.0
  0
ELLIPSE
  5
44F6
330
447B
100
AcDbEntity
  8
LW 3591-00-01
100
AcDbEllipse
 10
-25.0
 20
-66.25
 30
0.0
 11
-1.999999999999942
 21
0.0000000000001831
 31
0.0
210
0.0
220
0.0
230
1.0
 40
0.866025403784473
 41
0.794168847784833
 42
2.347423805805217
  0
POLYLINE
  5
44F7
330
447B
100
AcDbEntity
  8
LW 3591-00-01
100
AcDb2dPolyline
 66
     1
 10
0.0
 20
0.0
 30
0.0
 70
   128
  0
VERTEX
  5
44F8
330
44F7
100
AcDbEntity
  8
LW 3591-00-01
100
AcDbVertex
100
AcDb2dVertex
 10
-26.99999952316281
 20
-68.75
 30
0.0
  0
VERTEX
  5
44F9
330
44F7
100
AcDbEntity
  8
LW 3591-00-01
100
AcDbVertex
100
AcDb2dVertex
 10
-26.98318386077878
 20
-68.52777421474456
 30
0.0
  0
VERTEX
  5
44FA
330
44F7
100
AcDbEntity
  8
LW 3591-00-01
100
AcDbVertex
100
AcDb2dVertex
 10
-26.93250799179074
 20
-68.30145597457885
 30
0.0
  0
VERTEX
  5
44FB
330
44F7
100
AcDbEntity
  8
LW 3591-00-01
100
AcDbVertex
100
AcDb2dVertex
 10
-26.84763216972348
 20
-68.07852804660797
 30
0.0
  0
VERTEX
  5
44FC
330
44F7
100
AcDbEntity
  8
LW 3591-00-01
100
AcDbVertex
100
AcDb2dVertex
 10
-26.72932291030881
 20
-67.86619782447814
 30
0.0
  0
VERTEX
  5
44FD
330
44F7
100
AcDbEntity
  8
LW 3591-00-01
100
AcDbVertex
100
AcDb2dVertex
 10
-26.58275866508481
 20
-67.67038345336914
 30
0.0
  0
VERTEX
  5
44FE
330
44F7
100
AcDbEntity
  8
LW 3591-00-01
100
AcDbVertex
100
AcDb2dVertex
 10
-26.41421103477475
 20
-67.49663412570953
 30
0.0
  0
VERTEX
  5
44FF
330
44F7
100
AcDbEntity
  8
LW 3591-00-01
100
AcDbVertex
100
AcDb2dVertex
 10
-26.22194790840146
 20
-67.34341621398925
 30
0.0
  0
VERTEX
  5
4500
330
44F7
100
AcDbEntity
  8
LW 3591-00-01
100
AcDbVertex
100
AcDb2dVertex
 10
-26.00386404991147
 20
-67.2095239162445
 30
0.0
  0
VERTEX
  5
4501
330
44F7
100
AcDbEntity
  8
LW 3591-00-01
100
AcDbVertex
100
AcDb2dVertex
 10
-25.76566958427426
 20
-67.10099756717681
 30
0.0
  0
VERTEX
  5
4502
330
44F7
100
AcDbEntity
  8
LW 3591-00-01
100
AcDbVertex
100
AcDb2dVertex
 10
-25.51353359222409
 20
-67.02290117740631
 30
0.0
  0
VERTEX
  5
4503
330
44F7
100
AcDbEntity
  8
LW 3591-00-01
100
AcDbVertex
100
AcDb2dVertex
 10
-25.25547885894773
 20
-66.97616219520568
 30
0.0
  0
VERTEX
  5
4504
330
44F7
100
AcDbEntity
  8
LW 3591-00-01
100
AcDbVertex
100
AcDb2dVertex
 10
-25.00000023841855
 20
-66.96061849594116
 30
0.0
  0
VERTEX
  5
4505
330
44F7
100
AcDbEntity
  8
LW 3591-00-01
100
AcDbVertex
100
AcDb2dVertex
 10
-24.74452042579648
 20
-66.97616219520568
 30
0.0
  0
VERTEX
  5
4506
330
44F7
100
AcDbEntity
  8
LW 3591-00-01
100
AcDbVertex
100
AcDb2dVertex
 10
-24.48646688461301
 20
-67.02290117740631
 30
0.0
  0
VERTEX
  5
4507
330
44F7
100
AcDbEntity
  8
LW 3591-00-01
100
AcDbVertex
100
AcDb2dVertex
 10
-24.23433089256284
 20
-67.10099756717681
 30
0.0
  0
VERTEX
  5
4508
330
44F7
100
AcDbEntity
  8
LW 3591-00-01
100
AcDbVertex
100
AcDb2dVertex
 10
-23.99613642692563
 20
-67.2095239162445
 30
0.0
  0
VERTEX
  5
4509
330
44F7
100
AcDbEntity
  8
LW 3591-00-01
100
AcDbVertex
100
AcDb2dVertex
 10
-23.77805137634275
 20
-67.34341621398925
 30
0.0
  0
VERTEX
  5
450A
330
44F7
100
AcDbEntity
  8
LW 3591-00-01
100
AcDbVertex
100
AcDb2dVertex
 10
-23.58578944206235
 20
-67.49663412570953
 30
0.0
  0
VERTEX
  5
450B
330
44F7
100
AcDbEntity
  8
LW 3591-00-01
100
AcDbVertex
100
AcDb2dVertex
 10
-23.41724181175229
 20
-67.67038345336914
 30
0.0
  0
VERTEX
  5
450C
330
44F7
100
AcDbEntity
  8
LW 3591-00-01
100
AcDbVertex
100
AcDb2dVertex
 10
-23.2706763744354
 20
-67.86619782447814
 30
0.0
  0
VERTEX
  5
450D
330
44F7
100
AcDbEntity
  8
LW 3591-00-01
100
AcDbVertex
100
AcDb2dVertex
 10
-23.15236830711362
 20
-68.07852804660797
 30
0.0
  0
VERTEX
  5
450E
330
44F7
100
AcDbEntity
  8
LW 3591-00-01
100
AcDbVertex
100
AcDb2dVertex
 10
-23.06749248504636
 20
-68.30145597457885
 30
0.0
  0
VERTEX
  5
450F
330
44F7
100
AcDbEntity
  8
LW 3591-00-01
100
AcDbVertex
100
AcDb2dVertex
 10
-23.01681661605832
 20
-68.52777421474456
 30
0.0
  0
VERTEX
  5
4510
330
44F7
100
AcDbEntity
  8
LW 3591-00-01
100
AcDbVertex
100
AcDb2dVertex
 10
-22.99999976158139
 20
-68.75
 30
0.0
  0
SEQEND
  5
4511
330
44F7
100
AcDbEntity
  8
LW 3591-00-01
  0
POLYLINE
  5
4512
330
447B
100
AcDbEntity
  8
LW 3591-00-01
100
AcDb2dPolyline
 66
     1
 10
0.0
 20
0.0
 30
0.0
 70
   128
  0
VERTEX
  5
4513
330
4512
100
AcDbEntity
  8
LW 3591-00-01
100
AcDbVertex
100
AcDb2dVertex
 10
-22.99999976158139
 20
-68.75
 30
0.0
  0
VERTEX
  5
4514
330
4512
100
AcDbEntity
  8
LW 3591-00-01
100
AcDbVertex
100
AcDb2dVertex
 10
-23.01681661605832
 20
-68.97027850151062
 30
0.0
  0
VERTEX
  5
4515
330
4512
100
AcDbEntity
  8
LW 3591-00-01
100
AcDbVertex
100
AcDb2dVertex
 10
-23.06749248504636
 20
-69.19092595577239
 30
0.0
  0
VERTEX
  5
4516
330
4512
100
AcDbEntity
  8
LW 3591-00-01
100
AcDbVertex
100
AcDb2dVertex
 10
-23.15236830711362
 20
-69.40471351146697
 30
0.0
  0
VERTEX
  5
4517
330
4512
100
AcDbEntity
  8
LW 3591-00-01
100
AcDbVertex
100
AcDb2dVertex
 10
-23.2706763744354
 20
-69.60495173931121
 30
0.0
  0
VERTEX
  5
4518
330
4512
100
AcDbEntity
  8
LW 3591-00-01
100
AcDbVertex
100
AcDb2dVertex
 10
-23.41724181175229
 20
-69.78687107563018
 30
0.0
  0
VERTEX
  5
4519
330
4512
100
AcDbEntity
  8
LW 3591-00-01
100
AcDbVertex
100
AcDb2dVertex
 10
-23.58578944206235
 20
-69.946129322052
 30
0.0
  0
VERTEX
  5
451A
330
4512
100
AcDbEntity
  8
LW 3591-00-01
100
AcDbVertex
100
AcDb2dVertex
 10
-23.77805137634275
 20
-70.08484244346618
 30
0.0
  0
VERTEX
  5
451B
330
4512
100
AcDbEntity
  8
LW 3591-00-01
100
AcDbVertex
100
AcDb2dVertex
 10
-23.99613642692563
 20
-70.20480632781982
 30
0.0
  0
VERTEX
  5
451C
330
4512
100
AcDbEntity
  8
LW 3591-00-01
100
AcDbVertex
100
AcDb2dVertex
 10
-24.23433089256284
 20
-70.3011929988861
 30
0.0
  0
VERTEX
  5
451D
330
4512
100
AcDbEntity
  8
LW 3591-00-01
100
AcDbVertex
100
AcDb2dVertex
 10
-24.48646688461301
 20
-70.37010312080383
 30
0.0
  0
VERTEX
  5
451E
330
4512
100
AcDbEntity
  8
LW 3591-00-01
100
AcDbVertex
100
AcDb2dVertex
 10
-24.74452042579648
 20
-70.411137342453
 30
0.0
  0
VERTEX
  5
451F
330
4512
100
AcDbEntity
  8
LW 3591-00-01
100
AcDbVertex
100
AcDb2dVertex
 10
-25.00000023841855
 20
-70.42472004890441
 30
0.0
  0
VERTEX
  5
4520
330
4512
100
AcDbEntity
  8
LW 3591-00-01
100
AcDbVertex
100
AcDb2dVertex
 10
-25.25547885894773
 20
-70.411137342453
 30
0.0
  0
VERTEX
  5
4521
330
4512
100
AcDbEntity
  8
LW 3591-00-01
100
AcDbVertex
100
AcDb2dVertex
 10
-25.51353359222409
 20
-70.37010312080383
 30
0.0
  0
VERTEX
  5
4522
330
4512
100
AcDbEntity
  8
LW 3591-00-01
100
AcDbVertex
100
AcDb2dVertex
 10
-25.76566958427426
 20
-70.3011929988861
 30
0.0
  0
VERTEX
  5
4523
330
4512
100
AcDbEntity
  8
LW 3591-00-01
100
AcDbVertex
100
AcDb2dVertex
 10
-26.00386404991147
 20
-70.20480632781982
 30
0.0
  0
VERTEX
  5
4524
330
4512
100
AcDbEntity
  8
LW 3591-00-01
100
AcDbVertex
100
AcDb2dVertex
 10
-26.22194790840146
 20
-70.08484244346618
 30
0.0
  0
VERTEX
  5
4525
330
4512
100
AcDbEntity
  8
LW 3591-00-01
100
AcDbVertex
100
AcDb2dVertex
 10
-26.41421103477475
 20
-69.946129322052
 30
0.0
  0
VERTEX
  5
4526
330
4512
100
AcDbEntity
  8
LW 3591-00-01
100
AcDbVertex
100
AcDb2dVertex
 10
-26.58275866508481
 20
-69.78687107563018
 30
0.0
  0
VERTEX
  5
4527
330
4512
100
AcDbEntity
  8
LW 3591-00-01
100
AcDbVertex
100
AcDb2dVertex
 10
-26.72932291030881
 20
-69.60495173931121
 30
0.0
  0
VERTEX
  5
4528
330
4512
100
AcDbEntity
  8
LW 3591-00-01
100
AcDbVertex
100
AcDb2dVertex
 10
-26.84763216972348
 20
-69.40471351146697
 30
0.0
  0
VERTEX
  5
4529
330
4512
100
AcDbEntity
  8
LW 3591-00-01
100
AcDbVertex
100
AcDb2dVertex
 10
-26.93250799179074
 20
-69.19092595577239
 30
0.0
  0
VERTEX
  5
452A
330
4512
100
AcDbEntity
  8
LW 3591-00-01
100
AcDbVertex
100
AcDb2dVertex
 10
-26.98318386077878
 20
-68.97027850151062
 30
0.0
  0
VERTEX
  5
452B
330
4512
100
AcDbEntity
  8
LW 3591-00-01
100
AcDbVertex
100
AcDb2dVertex
 10
-26.99999952316281
 20
-68.75
 30
0.0
  0
SEQEND
  5
452C
330
4512
100
AcDbEntity
  8
LW 3591-00-01
  0
POLYLINE
  5
452D
330
447B
100
AcDbEntity
  8
LW 3591-00-01
100
AcDb2dPolyline
 66
     1
 10
0.0
 20
0.0
 30
0.0
 70
   128
  0
VERTEX
  5
452E
330
452D
100
AcDbEntity
  8
LW 3591-00-01
100
AcDbVertex
100
AcDb2dVertex
 10
-22.99999976158139
 20
-42.5
 30
0.0
  0
VERTEX
  5
452F
330
452D
100
AcDbEntity
  8
LW 3591-00-01
100
AcDbVertex
100
AcDb2dVertex
 10
-23.01681661605832
 20
-42.50194668769836
 30
0.0
  0
VERTEX
  5
4530
330
452D
100
AcDbEntity
  8
LW 3591-00-01
100
AcDbVertex
100
AcDb2dVertex
 10
-23.06749248504636
 20
-42.50761866569519
 30
0.0
  0
VERTEX
  5
4531
330
452D
100
AcDbEntity
  8
LW 3591-00-01
100
AcDbVertex
100
AcDb2dVertex
 10
-23.15236830711362
 20
-42.51675844192504
 30
0.0
  0
VERTEX
  5
4532
330
452D
100
AcDbEntity
  8
LW 3591-00-01
100
AcDbVertex
100
AcDb2dVertex
 10
-23.2706763744354
 20
-42.52885103225708
 30
0.0
  0
VERTEX
  5
4533
330
452D
100
AcDbEntity
  8
LW 3591-00-01
100
AcDbVertex
100
AcDb2dVertex
 10
-23.41724181175229
 20
-42.54274606704711
 30
0.0
  0
VERTEX
  5
4534
330
452D
100
AcDbEntity
  8
LW 3591-00-01
100
AcDbVertex
100
AcDb2dVertex
 10
-23.58578944206235
 20
-42.55723714828491
 30
0.0
  0
VERTEX
  5
4535
330
452D
100
AcDbEntity
  8
LW 3591-00-01
100
AcDbVertex
100
AcDb2dVertex
 10
-23.77805137634275
 20
-42.57174134254455
 30
0.0
  0
VERTEX
  5
4536
330
452D
100
AcDbEntity
  8
LW 3591-00-01
100
AcDbVertex
100
AcDb2dVertex
 10
-23.99613642692563
 20
-42.58566975593566
 30
0.0
  0
VERTEX
  5
4537
330
452D
100
AcDbEntity
  8
LW 3591-00-01
100
AcDbVertex
100
AcDb2dVertex
 10
-24.23433089256284
 20
-42.59780883789062
 30
0.0
  0
VERTEX
  5
4538
330
452D
100
AcDbEntity
  8
LW 3591-00-01
100
AcDbVertex
100
AcDb2dVertex
 10
-24.48646688461301
 20
-42.6069951057434
 30
0.0
  0
VERTEX
  5
4539
330
452D
100
AcDbEntity
  8
LW 3591-00-01
100
AcDbVertex
100
AcDb2dVertex
 10
-24.74452042579648
 20
-42.6127004623413
 30
0.0
  0
VERTEX
  5
453A
330
452D
100
AcDbEntity
  8
LW 3591-00-01
100
AcDbVertex
100
AcDb2dVertex
 10
-25.00000023841855
 20
-42.61466145515441
 30
0.0
  0
VERTEX
  5
453B
330
452D
100
AcDbEntity
  8
LW 3591-00-01
100
AcDbVertex
100
AcDb2dVertex
 10
-25.25547885894773
 20
-42.6127004623413
 30
0.0
  0
VERTEX
  5
453C
330
452D
100
AcDbEntity
  8
LW 3591-00-01
100
AcDbVertex
100
AcDb2dVertex
 10
-25.51353359222409
 20
-42.6069951057434
 30
0.0
  0
VERTEX
  5
453D
330
452D
100
AcDbEntity
  8
LW 3591-00-01
100
AcDbVertex
100
AcDb2dVertex
 10
-25.76566958427426
 20
-42.59780883789062
 30
0.0
  0
VERTEX
  5
453E
330
452D
100
AcDbEntity
  8
LW 3591-00-01
100
AcDbVertex
100
AcDb2dVertex
 10
-26.00386404991147
 20
-42.58566975593566
 30
0.0
  0
VERTEX
  5
453F
330
452D
100
AcDbEntity
  8
LW 3591-00-01
100
AcDbVertex
100
AcDb2dVertex
 10
-26.22194790840146
 20
-42.57174134254455
 30
0.0
  0
VERTEX
  5
4540
330
452D
100
AcDbEntity
  8
LW 3591-00-01
100
AcDbVertex
100
AcDb2dVertex
 10
-26.41421103477475
 20
-42.55723714828491
 30
0.0
  0
VERTEX
  5
4541
330
452D
100
AcDbEntity
  8
LW 3591-00-01
100
AcDbVertex
100
AcDb2dVertex
 10
-26.58275866508481
 20
-42.54274606704711
 30
0.0
  0
VERTEX
  5
4542
330
452D
100
AcDbEntity
  8
LW 3591-00-01
100
AcDbVertex
100
AcDb2dVertex
 10
-26.72932291030881
 20
-42.52885103225708
 30
0.0
  0
VERTEX
  5
4543
330
452D
100
AcDbEntity
  8
LW 3591-00-01
100
AcDbVertex
100
AcDb2dVertex
 10
-26.84763216972348
 20
-42.51675844192504
 30
0.0
  0
VERTEX
  5
4544
330
452D
100
AcDbEntity
  8
LW 3591-00-01
100
AcDbVertex
100
AcDb2dVertex
 10
-26.93250799179074
 20
-42.50761866569519
 30
0.0
  0
VERTEX
  5
4545
330
452D
100
AcDbEntity
  8
LW 3591-00-01
100
AcDbVertex
100
AcDb2dVertex
 10
-26.98318386077878
 20
-42.50194668769836
 30
0.0
  0
VERTEX
  5
4546
330
452D
100
AcDbEntity
  8
LW 3591-00-01
100
AcDbVertex
100
AcDb2dVertex
 10
-26.99999952316281
 20
-42.5
 30
0.0
  0
SEQEND
  5
4547
330
452D
100
AcDbEntity
  8
LW 3591-00-01
  0
LINE
  5
4548
330
447B
100
AcDbEntity
  8
LW 3591-00-01
100
AcDbLine
 10
-28.99999999999997
 20
-42.5
 30
0.0
 11
-28.99999999999997
 21
-77.5
 31
0.0
  0
LINE
  5
4549
330
447B
100
AcDbEntity
  8
LW 3591-00-01
100
AcDbLine
 10
-31.99999999999997
 20
-45.49999999999999
 30
0.0
 11
-31.99999999999997
 21
-74.49999999999994
 31
0.0
  0
LINE
  5
454A
330
447B
100
AcDbEntity
  8
LW 3591-00-01
100
AcDbLine
 10
-9.0
 20
-77.5
 30
0.0
 11
-28.99999999999997
 21
-77.5
 31
0.0
  0
LINE
  5
454B
330
447B
100
AcDbEntity
  8
LW 3591-00-01
100
AcDbLine
 10
-9.0
 20
-42.5
 30
0.0
 11
-23.0
 21
-42.5
 31
0.0
  0
LINE
  5
454C
330
447B
100
AcDbEntity
  8
LW 3591-00-01
100
AcDbLine
 10
-26.99999999999997
 20
-42.5
 30
0.0
 11
-28.99999999999997
 21
-42.5
 31
0.0
  0
LINE
  5
454D
330
447B
100
AcDbEntity
  8
LW 3591-00-01
100
AcDbLine
 10
-31.99999999999997
 20
-45.49999999999999
 30
0.0
 11
-28.99999999999997
 21
-42.5
 31
0.0
  0
LINE
  5
454E
330
447B
100
AcDbEntity
  8
LW 3591-00-01
100
AcDbLine
 10
-31.99999999999997
 20
-74.49999999999994
 30
0.0
 11
-28.99999999999997
 21
-77.5
 31
0.0
  0
ELLIPSE
  5
454F
330
447B
100
AcDbEntity
  8
LW 3591-00-01
100
AcDbEllipse
 10
-73.75000000000003
 20
-30.0
 30
0.0
 11
0.0000000000001952
 21
2.00000000000002
 31
0.0
210
0.0
220
0.0
230
1.0
 40
0.866025403784425
 41
3.935761501374648
 42
5.489016459394978
  0
POLYLINE
  5
4550
330
447B
100
AcDbEntity
  8
LW 3591-00-01
100
AcDb2dPolyline
 66
     1
 10
0.0
 20
0.0
 30
0.0
 70
   128
  0
VERTEX
  5
4551
330
4550
100
AcDbEntity
  8
LW 3591-00-01
100
AcDbVertex
100
AcDb2dVertex
 10
-71.25000000000003
 20
-31.99999952316284
 30
0.0
  0
VERTEX
  5
4552
330
4550
100
AcDbEntity
  8
LW 3591-00-01
100
AcDbVertex
100
AcDb2dVertex
 10
-71.47222578525546
 20
-31.98318386077881
 30
0.0
  0
VERTEX
  5
4553
330
4550
100
AcDbEntity
  8
LW 3591-00-01
100
AcDbVertex
100
AcDb2dVertex
 10
-71.69854402542117
 20
-31.93250799179077
 30
0.0
  0
VERTEX
  5
4554
330
4550
100
AcDbEntity
  8
LW 3591-00-01
100
AcDbVertex
100
AcDb2dVertex
 10
-71.92147195339206
 20
-31.84763216972351
 30
0.0
  0
VERTEX
  5
4555
330
4550
100
AcDbEntity
  8
LW 3591-00-01
100
AcDbVertex
100
AcDb2dVertex
 10
-72.13380217552188
 20
-31.72932291030884
 30
0.0
  0
VERTEX
  5
4556
330
4550
100
AcDbEntity
  8
LW 3591-00-01
100
AcDbVertex
100
AcDb2dVertex
 10
-72.32961654663089
 20
-31.58275866508484
 30
0.0
  0
VERTEX
  5
4557
330
4550
100
AcDbEntity
  8
LW 3591-00-01
100
AcDbVertex
100
AcDb2dVertex
 10
-72.5033658742905
 20
-31.41421103477478
 30
0.0
  0
VERTEX
  5
4558
330
4550
100
AcDbEntity
  8
LW 3591-00-01
100
AcDbVertex
100
AcDb2dVertex
 10
-72.65658378601077
 20
-31.22194790840149
 30
0.0
  0
VERTEX
  5
4559
330
4550
100
AcDbEntity
  8
LW 3591-00-01
100
AcDbVertex
100
AcDb2dVertex
 10
-72.79047608375552
 20
-31.0038640499115
 30
0.0
  0
VERTEX
  5
455A
330
4550
100
AcDbEntity
  8
LW 3591-00-01
100
AcDbVertex
100
AcDb2dVertex
 10
-72.89900243282321
 20
-30.76566958427429
 30
0.0
  0
VERTEX
  5
455B
330
4550
100
AcDbEntity
  8
LW 3591-00-01
100
AcDbVertex
100
AcDb2dVertex
 10
-72.97709882259372
 20
-30.51353359222412
 30
0.0
  0
VERTEX
  5
455C
330
4550
100
AcDbEntity
  8
LW 3591-00-01
100
AcDbVertex
100
AcDb2dVertex
 10
-73.02383780479434
 20
-30.25547885894776
 30
0.0
  0
VERTEX
  5
455D
330
4550
100
AcDbEntity
  8
LW 3591-00-01
100
AcDbVertex
100
AcDb2dVertex
 10
-73.03938150405887
 20
-30.00000023841858
 30
0.0
  0
VERTEX
  5
455E
330
4550
100
AcDbEntity
  8
LW 3591-00-01
100
AcDbVertex
100
AcDb2dVertex
 10
-73.02383780479434
 20
-29.74452042579651
 30
0.0
  0
VERTEX
  5
455F
330
4550
100
AcDbEntity
  8
LW 3591-00-01
100
AcDbVertex
100
AcDb2dVertex
 10
-72.97709882259372
 20
-29.48646688461304
 30
0.0
  0
VERTEX
  5
4560
330
4550
100
AcDbEntity
  8
LW 3591-00-01
100
AcDbVertex
100
AcDb2dVertex
 10
-72.89900243282321
 20
-29.23433089256287
 30
0.0
  0
VERTEX
  5
4561
330
4550
100
AcDbEntity
  8
LW 3591-00-01
100
AcDbVertex
100
AcDb2dVertex
 10
-72.79047608375552
 20
-28.99613642692566
 30
0.0
  0
VERTEX
  5
4562
330
4550
100
AcDbEntity
  8
LW 3591-00-01
100
AcDbVertex
100
AcDb2dVertex
 10
-72.65658378601077
 20
-28.77805137634278
 30
0.0
  0
VERTEX
  5
4563
330
4550
100
AcDbEntity
  8
LW 3591-00-01
100
AcDbVertex
100
AcDb2dVertex
 10
-72.5033658742905
 20
-28.58578944206238
 30
0.0
  0
VERTEX
  5
4564
330
4550
100
AcDbEntity
  8
LW 3591-00-01
100
AcDbVertex
100
AcDb2dVertex
 10
-72.32961654663089
 20
-28.41724181175232
 30
0.0
  0
VERTEX
  5
4565
330
4550
100
AcDbEntity
  8
LW 3591-00-01
100
AcDbVertex
100
AcDb2dVertex
 10
-72.13380217552188
 20
-28.27067637443543
 30
0.0
  0
VERTEX
  5
4566
330
4550
100
AcDbEntity
  8
LW 3591-00-01
100
AcDbVertex
100
AcDb2dVertex
 10
-71.92147195339206
 20
-28.15236830711365
 30
0.0
  0
VERTEX
  5
4567
330
4550
100
AcDbEntity
  8
LW 3591-00-01
100
AcDbVertex
100
AcDb2dVertex
 10
-71.69854402542117
 20
-28.06749248504639
 30
0.0
  0
VERTEX
  5
4568
330
4550
100
AcDbEntity
  8
LW 3591-00-01
100
AcDbVertex
100
AcDb2dVertex
 10
-71.47222578525546
 20
-28.01681661605835
 30
0.0
  0
VERTEX
  5
4569
330
4550
100
AcDbEntity
  8
LW 3591-00-01
100
AcDbVertex
100
AcDb2dVertex
 10
-71.25000000000003
 20
-27.99999976158142
 30
0.0
  0
SEQEND
  5
456A
330
4550
100
AcDbEntity
  8
LW 3591-00-01
  0
POLYLINE
  5
456B
330
447B
100
AcDbEntity
  8
LW 3591-00-01
100
AcDb2dPolyline
 66
     1
 10
0.0
 20
0.0
 30
0.0
 70
   128
  0
VERTEX
  5
456C
330
456B
100
AcDbEntity
  8
LW 3591-00-01
100
AcDbVertex
100
AcDb2dVertex
 10
-71.25000000000003
 20
-27.99999976158142
 30
0.0
  0
VERTEX
  5
456D
330
456B
100
AcDbEntity
  8
LW 3591-00-01
100
AcDbVertex
100
AcDb2dVertex
 10
-71.02972149848941
 20
-28.01681661605835
 30
0.0
  0
VERTEX
  5
456E
330
456B
100
AcDbEntity
  8
LW 3591-00-01
100
AcDbVertex
100
AcDb2dVertex
 10
-70.80907404422763
 20
-28.06749248504639
 30
0.0
  0
VERTEX
  5
456F
330
456B
100
AcDbEntity
  8
LW 3591-00-01
100
AcDbVertex
100
AcDb2dVertex
 10
-70.59528648853305
 20
-28.15236830711365
 30
0.0
  0
VERTEX
  5
4570
330
456B
100
AcDbEntity
  8
LW 3591-00-01
100
AcDbVertex
100
AcDb2dVertex
 10
-70.39504826068881
 20
-28.27067637443543
 30
0.0
  0
VERTEX
  5
4571
330
456B
100
AcDbEntity
  8
LW 3591-00-01
100
AcDbVertex
100
AcDb2dVertex
 10
-70.21312892436984
 20
-28.41724181175232
 30
0.0
  0
VERTEX
  5
4572
330
456B
100
AcDbEntity
  8
LW 3591-00-01
100
AcDbVertex
100
AcDb2dVertex
 10
-70.05387067794803
 20
-28.58578944206238
 30
0.0
  0
VERTEX
  5
4573
330
456B
100
AcDbEntity
  8
LW 3591-00-01
100
AcDbVertex
100
AcDb2dVertex
 10
-69.91515755653384
 20
-28.77805137634278
 30
0.0
  0
VERTEX
  5
4574
330
456B
100
AcDbEntity
  8
LW 3591-00-01
100
AcDbVertex
100
AcDb2dVertex
 10
-69.79519367218021
 20
-28.99613642692566
 30
0.0
  0
VERTEX
  5
4575
330
456B
100
AcDbEntity
  8
LW 3591-00-01
100
AcDbVertex
100
AcDb2dVertex
 10
-69.69880700111392
 20
-29.23433089256287
 30
0.0
  0
VERTEX
  5
4576
330
456B
100
AcDbEntity
  8
LW 3591-00-01
100
AcDbVertex
100
AcDb2dVertex
 10
-69.6298968791962
 20
-29.48646688461304
 30
0.0
  0
VERTEX
  5
4577
330
456B
100
AcDbEntity
  8
LW 3591-00-01
100
AcDbVertex
100
AcDb2dVertex
 10
-69.58886265754703
 20
-29.74452042579651
 30
0.0
  0
VERTEX
  5
4578
330
456B
100
AcDbEntity
  8
LW 3591-00-01
100
AcDbVertex
100
AcDb2dVertex
 10
-69.57527995109561
 20
-30.00000023841858
 30
0.0
  0
VERTEX
  5
4579
330
456B
100
AcDbEntity
  8
LW 3591-00-01
100
AcDbVertex
100
AcDb2dVertex
 10
-69.58886265754703
 20
-30.25547885894776
 30
0.0
  0
VERTEX
  5
457A
330
456B
100
AcDbEntity
  8
LW 3591-00-01
100
AcDbVertex
100
AcDb2dVertex
 10
-69.6298968791962
 20
-30.51353359222412
 30
0.0
  0
VERTEX
  5
457B
330
456B
100
AcDbEntity
  8
LW 3591-00-01
100
AcDbVertex
100
AcDb2dVertex
 10
-69.69880700111392
 20
-30.76566958427429
 30
0.0
  0
VERTEX
  5
457C
330
456B
100
AcDbEntity
  8
LW 3591-00-01
100
AcDbVertex
100
AcDb2dVertex
 10
-69.79519367218021
 20
-31.0038640499115
 30
0.0
  0
VERTEX
  5
457D
330
456B
100
AcDbEntity
  8
LW 3591-00-01
100
AcDbVertex
100
AcDb2dVertex
 10
-69.91515755653384
 20
-31.22194790840149
 30
0.0
  0
VERTEX
  5
457E
330
456B
100
AcDbEntity
  8
LW 3591-00-01
100
AcDbVertex
100
AcDb2dVertex
 10
-70.05387067794803
 20
-31.41421103477478
 30
0.0
  0
VERTEX
  5
457F
330
456B
100
AcDbEntity
  8
LW 3591-00-01
100
AcDbVertex
100
AcDb2dVertex
 10
-70.21312892436984
 20
-31.58275866508484
 30
0.0
  0
VERTEX
  5
4580
330
456B
100
AcDbEntity
  8
LW 3591-00-01
100
AcDbVertex
100
AcDb2dVertex
 10
-70.39504826068881
 20
-31.72932291030884
 30
0.0
  0
VERTEX
  5
4581
330
456B
100
AcDbEntity
  8
LW 3591-00-01
100
AcDbVertex
100
AcDb2dVertex
 10
-70.59528648853305
 20
-31.84763216972351
 30
0.0
  0
VERTEX
  5
4582
330
456B
100
AcDbEntity
  8
LW 3591-00-01
100
AcDbVertex
100
AcDb2dVertex
 10
-70.80907404422763
 20
-31.93250799179077
 30
0.0
  0
VERTEX
  5
4583
330
456B
100
AcDbEntity
  8
LW 3591-00-01
100
AcDbVertex
100
AcDb2dVertex
 10
-71.02972149848941
 20
-31.98318386077881
 30
0.0
  0
VERTEX
  5
4584
330
456B
100
AcDbEntity
  8
LW 3591-00-01
100
AcDbVertex
100
AcDb2dVertex
 10
-71.25000000000003
 20
-31.99999952316284
 30
0.0
  0
SEQEND
  5
4585
330
456B
100
AcDbEntity
  8
LW 3591-00-01
  0
POLYLINE
  5
4586
330
447B
100
AcDbEntity
  8
LW 3591-00-01
100
AcDb2dPolyline
 66
     1
 10
0.0
 20
0.0
 30
0.0
 70
   128
  0
VERTEX
  5
4587
330
4586
100
AcDbEntity
  8
LW 3591-00-01
100
AcDbVertex
100
AcDb2dVertex
 10
-97.50000000000003
 20
-27.99999976158142
 30
0.0
  0
VERTEX
  5
4588
330
4586
100
AcDbEntity
  8
LW 3591-00-01
100
AcDbVertex
100
AcDb2dVertex
 10
-97.49805331230167
 20
-28.01681661605835
 30
0.0
  0
VERTEX
  5
4589
330
4586
100
AcDbEntity
  8
LW 3591-00-01
100
AcDbVertex
100
AcDb2dVertex
 10
-97.49238133430484
 20
-28.06749248504639
 30
0.0
  0
VERTEX
  5
458A
330
4586
100
AcDbEntity
  8
LW 3591-00-01
100
AcDbVertex
100
AcDb2dVertex
 10
-97.48324155807498
 20
-28.15236830711365
 30
0.0
  0
VERTEX
  5
458B
330
4586
100
AcDbEntity
  8
LW 3591-00-01
100
AcDbVertex
100
AcDb2dVertex
 10
-97.47114896774295
 20
-28.27067637443543
 30
0.0
  0
VERTEX
  5
458C
330
4586
100
AcDbEntity
  8
LW 3591-00-01
100
AcDbVertex
100
AcDb2dVertex
 10
-97.45725393295291
 20
-28.41724181175232
 30
0.0
  0
VERTEX
  5
458D
330
4586
100
AcDbEntity
  8
LW 3591-00-01
100
AcDbVertex
100
AcDb2dVertex
 10
-97.44276285171512
 20
-28.58578944206238
 30
0.0
  0
VERTEX
  5
458E
330
4586
100
AcDbEntity
  8
LW 3591-00-01
100
AcDbVertex
100
AcDb2dVertex
 10
-97.42825865745547
 20
-28.77805137634278
 30
0.0
  0
VERTEX
  5
458F
330
4586
100
AcDbEntity
  8
LW 3591-00-01
100
AcDbVertex
100
AcDb2dVertex
 10
-97.41433024406436
 20
-28.99613642692566
 30
0.0
  0
VERTEX
  5
4590
330
4586
100
AcDbEntity
  8
LW 3591-00-01
100
AcDbVertex
100
AcDb2dVertex
 10
-97.40219116210941
 20
-29.23433089256287
 30
0.0
  0
VERTEX
  5
4591
330
4586
100
AcDbEntity
  8
LW 3591-00-01
100
AcDbVertex
100
AcDb2dVertex
 10
-97.39300489425662
 20
-29.48646688461304
 30
0.0
  0
VERTEX
  5
4592
330
4586
100
AcDbEntity
  8
LW 3591-00-01
100
AcDbVertex
100
AcDb2dVertex
 10
-97.38729953765872
 20
-29.74452042579651
 30
0.0
  0
VERTEX
  5
4593
330
4586
100
AcDbEntity
  8
LW 3591-00-01
100
AcDbVertex
100
AcDb2dVertex
 10
-97.38533854484561
 20
-30.00000023841858
 30
0.0
  0
VERTEX
  5
4594
330
4586
100
AcDbEntity
  8
LW 3591-00-01
100
AcDbVertex
100
AcDb2dVertex
 10
-97.38729953765872
 20
-30.25547885894776
 30
0.0
  0
VERTEX
  5
4595
330
4586
100
AcDbEntity
  8
LW 3591-00-01
100
AcDbVertex
100
AcDb2dVertex
 10
-97.39300489425662
 20
-30.51353359222412
 30
0.0
  0
VERTEX
  5
4596
330
4586
100
AcDbEntity
  8
LW 3591-00-01
100
AcDbVertex
100
AcDb2dVertex
 10
-97.40219116210941
 20
-30.76566958427429
 30
0.0
  0
VERTEX
  5
4597
330
4586
100
AcDbEntity
  8
LW 3591-00-01
100
AcDbVertex
100
AcDb2dVertex
 10
-97.41433024406436
 20
-31.0038640499115
 30
0.0
  0
VERTEX
  5
4598
330
4586
100
AcDbEntity
  8
LW 3591-00-01
100
AcDbVertex
100
AcDb2dVertex
 10
-97.42825865745547
 20
-31.22194790840149
 30
0.0
  0
VERTEX
  5
4599
330
4586
100
AcDbEntity
  8
LW 3591-00-01
100
AcDbVertex
100
AcDb2dVertex
 10
-97.44276285171512
 20
-31.41421103477478
 30
0.0
  0
VERTEX
  5
459A
330
4586
100
AcDbEntity
  8
LW 3591-00-01
100
AcDbVertex
100
AcDb2dVertex
 10
-97.45725393295291
 20
-31.58275866508484
 30
0.0
  0
VERTEX
  5
459B
330
4586
100
AcDbEntity
  8
LW 3591-00-01
100
AcDbVertex
100
AcDb2dVertex
 10
-97.47114896774295
 20
-31.72932291030884
 30
0.0
  0
VERTEX
  5
459C
330
4586
100
AcDbEntity
  8
LW 3591-00-01
100
AcDbVertex
100
AcDb2dVertex
 10
-97.48324155807498
 20
-31.84763216972351
 30
0.0
  0
VERTEX
  5
459D
330
4586
100
AcDbEntity
  8
LW 3591-00-01
100
AcDbVertex
100
AcDb2dVertex
 10
-97.49238133430484
 20
-31.93250799179077
 30
0.0
  0
VERTEX
  5
459E
330
4586
100
AcDbEntity
  8
LW 3591-00-01
100
AcDbVertex
100
AcDb2dVertex
 10
-97.49805331230167
 20
-31.98318386077881
 30
0.0
  0
VERTEX
  5
459F
330
4586
100
AcDbEntity
  8
LW 3591-00-01
100
AcDbVertex
100
AcDb2dVertex
 10
-97.50000000000003
 20
-31.99999952316284
 30
0.0
  0
SEQEND
  5
45A0
330
4586
100
AcDbEntity
  8
LW 3591-00-01
  0
LINE
  5
45A1
330
447B
100
AcDbEntity
  8
LW 3591-00-01
100
AcDbLine
 10
-97.50000000000003
 20
-34.0
 30
0.0
 11
-62.50000000000003
 21
-34.0
 31
0.0
  0
LINE
  5
45A2
330
447B
100
AcDbEntity
  8
LW 3591-00-01
100
AcDbLine
 10
-94.50000000000001
 20
-37.0
 30
0.0
 11
-65.50000000000003
 21
-37.0
 31
0.0
  0
LINE
  5
45A3
330
447B
100
AcDbEntity
  8
LW 3591-00-01
100
AcDbLine
 10
-62.50000000000003
 20
-14.0
 30
0.0
 11
-62.50000000000003
 21
-34.0
 31
0.0
  0
LINE
  5
45A4
330
447B
100
AcDbEntity
  8
LW 3591-00-01
100
AcDbLine
 10
-97.50000000000003
 20
-14.0
 30
0.0
 11
-97.50000000000003
 21
-28.0
 31
0.0
  0
LINE
  5
45A5
330
447B
100
AcDbEntity
  8
LW 3591-00-01
100
AcDbLine
 10
-97.50000000000003
 20
-32.0
 30
0.0
 11
-97.50000000000003
 21
-34.0
 31
0.0
  0
LINE
  5
45A6
330
447B
100
AcDbEntity
  8
LW 3591-00-01
100
AcDbLine
 10
-94.50000000000001
 20
-37.0
 30
0.0
 11
-97.50000000000003
 21
-34.0
 31
0.0
  0
LINE
  5
45A7
330
447B
100
AcDbEntity
  8
LW 3591-00-01
100
AcDbLine
 10
-65.50000000000003
 20
-37.0
 30
0.0
 11
-62.50000000000003
 21
-34.0
 31
0.0
  0
LINE
  5
45A8
330
447B
100
AcDbEntity
  8
LW 3591-00-01
  6
MITTE2
 62
     3
100
AcDbLine
 10
17.91020775401529
 20
-140.0
 30
0.0
 11
-36.0980226786848
 21
-140.0
 31
0.0
  0
LINE
  5
45A9
330
447B
100
AcDbEntity
  8
LW 3591-00-01
  6
MITTE2
 62
     3
100
AcDbLine
 10
18.15121040048956
 20
-60.0
 30
0.0
 11
-36.3390253251591
 21
-60.0
 31
0.0
  0
LINE
  5
45AA
330
447B
100
AcDbEntity
  8
LW 3591-00-01
  6
MITTE2
 62
     3
100
AcDbLine
 10
-79.99999999999989
 20
27.30489739875702
 30
0.0
 11
-79.99999999999989
 21
-41.6303604871004
 31
0.0
  0
INSERT
  5
45AB
330
447B
100
AcDbEntity
  8
LW 3591-00-01
100
AcDbBlockReference
 66
     1
  2
insertpoint-ECKELT
 10
0.0
 20
0.0
 30
0.0
  0
ATTRIB
  5
45AC
330
45AB
100
AcDbEntity
  8
insertpoint_ECKELT
100
AcDbText
 10
-6.931514324693087
 20
0.0
 30
0.0
 40
0.6
  1
LW 3591/00-01
 72
     2
 11
-1.200000000000045
 21
0.0
 31
0.0
100
AcDbAttribute
  2
LINKS
 70
     0
  0
ATTRIB
  5
45AD
330
45AB
100
AcDbEntity
  8
insertpoint_ECKELT
100
AcDbText
 10
1.200000000000045
 20
0.0
 30
0.0
 40
0.6
  1

100
AcDbAttribute
  2
RECHTS
 70
     0
  0
SEQEND
  5
45AE
330
45AB
100
AcDbEntity
  8
LW 3591-00-01
  0
HATCH
  5
45AF
330
447B
100
AcDbEntity
  8
LW 3591-00-01
 62
     1
100
AcDbHatch
 10
0.0
 20
0.0
 30
0.0
210
0.0
220
0.0
230
1.0
  2
SOLID
 70
     1
 71
     0
 91
        5
 92
        7
 72
     0
 73
     1
 93
       76
 10
-26.82432087502358
 20
-17.73042025943835
 10
-26.76788523442028
 20
-17.70827078758862
 10
-26.58261329562575
 20
-17.65817174291453
 10
-26.390776357298
 20
-17.62651928383218
 10
-26.19692969510075
 20
-17.61142357833842
 10
-25.9958508884857
 20
-17.61609982965501
 10
-25.79423459670099
 20
-17.63958969621649
 10
-25.59402124287098
 20
-17.67556011211041
 10
-25.40737510703067
 20
-17.72864682343288
 10
-27.21308545759072
 20
-16.3743640605129
 10
-27.38861649263075
 20
-16.25357785323297
 10
-27.56588545871071
 20
-16.15321233567295
 10
-27.74706476963078
 20
-16.06892268023296
 10
-27.92737511503069
 20
-16.001577852433
 10
-28.10985787423081
 20
-15.9516123350329
 10
-28.29320959895083
 20
-15.91728819699301
 10
-28.47085951951462
 20
-15.90320765349997
 10
-28.6490509793907
 20
-15.90295026591309
 10
-28.82083294959134
 20
-15.92292413356273
 10
-28.98680049770437
 20
-15.95877261091778
 10
-29.14914063615075
 20
-16.00852957659299
 10
-29.30251305043081
 20
-16.07543992163312
 10
-29.44545787847082
 20
-16.16103302535316
 10
-29.58188546511062
 20
-16.25966061187307
 10
-29.70354063791072
 20
-16.37479854327307
 10
-29.81476822447073
 20
-16.50861923335304
 10
-29.9103544316707
 20
-16.65417095795317
 10
-29.98638891467076
 20
-16.80623992395306
 10
-30.03939581139068
 20
-16.9674330279131
 10
-30.07763029427073
 20
-17.13427440775308
 10
-30.09500960467071
 20
-17.30589509795322
 10
-30.09457512191065
 20
-17.48272958127302
 10
-30.07514505288353
 20
-17.6613193749435
 10
-30.03886609000969
 20
-17.83994583895878
 10
-29.9872578801907
 20
-18.01670889331308
 10
-29.91730615583051
 20
-18.19137096283305
 10
-29.82774361761526
 20
-18.36466528062465
 10
-29.72743718971069
 20
-18.532005446673
 10
-29.60838891347064
 20
-18.6918951023531
 10
-29.47456822339061
 20
-18.8465709649131
 10
-29.32336822291072
 20
-18.99255717227305
 10
-29.16000270515073
 20
-19.12594337959302
 10
-27.4646658365485
 20
-20.39744603104452
 10
-27.55525844554958
 20
-20.25066306962515
 10
-27.64773759647787
 20
-20.0680283645255
 10
-27.719792905655
 20
-19.88332476647815
 10
-27.7806882784084
 20
-19.69313043888132
 10
-27.81794441518056
 20
-19.50295134062736
 10
-27.83628092003088
 20
-19.3150068579539
 10
-27.83695225699805
 20
-19.12639304933788
 10
-27.82801845689434
 20
-19.02786259678521
 10
-28.65078891043069
 20
-18.41078475663301
 10
-28.75193997282062
 20
-18.3254714598105
 10
-28.84434229035552
 20
-18.23075248019938
 10
-28.92711994579062
 20
-18.12750199711308
 10
-28.99185787703058
 20
-18.02192268643307
 10
-29.04192419443095
 20
-17.91376949988285
 10
-29.07988060834461
 20
-17.80079529262764
 10
-29.1052578773907
 20
-17.68432958191312
 10
-29.11177511879063
 20
-17.57353647811311
 10
-27.72975806738358
 20
-18.61004926666828
 10
-27.71864437674705
 20
-18.57759023369783
 10
-27.63630945458786
 20
-18.40762399087828
 10
-27.53177054844278
 20
-18.24816602804867
 10
-27.40530255448627
 20
-18.0995781568223
 10
-27.26443635438622
 20
-17.97226609281426
 10
-27.22167809629528
 20
-17.94291958648466
 10
-28.63818891039071
 20
-16.880536475913
 10
-28.52522339279076
 20
-16.84577785511305
 10
-28.40965097863071
 20
-16.82926751023302
 10
-28.29165936446313
 20
-16.83043018609879
 10
-28.17459580547072
 20
-16.845343372353
 10
-28.05326041198211
 20
-16.88138284832951
 10
-27.93606477023067
 20
-16.92919854503304
 10
-27.81484408019074
 20
-16.99567440731306
 10
-27.69623028671069
 20
-17.076488200673
 97
        0
 92
        7
 72
     0
 73
     1
 93
       72
 10
-25.45030895544292
 20
-18.77917747504386
 10
-25.34117383785505
 20
-18.8384357097147
 10
-25.2387957961507
 20
-18.90870199959289
 10
-24.22384406879061
 20
-19.66991579511284
 10
-25.39043027939053
 20
-19.81329510591286
 10
-25.00851993335047
 20
-22.24770201019294
 10
-23.95359579207056
 20
-23.03889511615285
 10
-24.27945786207053
 20
-20.61665372915286
 10
-21.95410613055057
 20
-20.31859855579279
 10
-24.70525096687064
 20
-18.25523992855295
 10
-24.8781055881091
 20
-18.13906792818409
 10
-25.05875656799302
 20
-18.03540555544123
 10
-25.24618200307063
 20
-17.9445847551529
 10
-25.43474752091069
 20
-17.87376406527289
 10
-25.62722338359075
 20
-17.81901923751286
 10
-25.81576804625829
 20
-17.78514522361223
 10
-26.0060923503107
 20
-17.762970961473
 10
-26.19291993711065
 20
-17.75862613387295
 10
-26.37306344113083
 20
-17.77265471322789
 10
-26.55136821411062
 20
-17.80207440987306
 10
-26.72168545603083
 20
-17.84812958243299
 10
-26.88331304275059
 20
-17.91156406539289
 10
-27.03320959495071
 20
-17.99194337599294
 10
-27.17311304367067
 20
-18.08796406595297
 10
-27.29954752683065
 20
-18.20223303183303
 10
-27.41381649271071
 20
-18.33648820467306
 10
-27.50809925163057
 20
-18.48030199823302
 10
-27.58239580359063
 20
-18.63367441251296
 10
-27.63714063135055
 20
-18.79356406819301
 10
-27.67407166595067
 20
-18.95866751699299
 10
-27.6898590315179
 20
-19.13278561409743
 10
-27.68923685220571
 20
-19.30758845603179
 10
-27.67225726594475
 20
-19.48162487037734
 10
-27.6380095968706
 20
-19.65644682955292
 10
-27.58112016220727
 20
-19.83412942322059
 10
-27.51331304475062
 20
-20.00794338239302
 10
-27.42685097551058
 20
-20.17869510707305
 10
-27.3238785613905
 20
-20.34553648691304
 10
-27.20092341617269
 20
-20.50531491500647
 10
-27.06970614679065
 20
-20.65836407411302
 10
-26.91850614631059
 20
-20.80435028147304
 10
-26.75514062855061
 20
-20.93773648879301
 10
-25.23271303751048
 20
-22.07955718207291
 10
-25.41780269327055
 20
-20.84910200575291
 10
-26.23115441999059
 20
-20.23908821071296
 10
-26.28223967198264
 20
-20.19609015554477
 10
-26.35700843418326
 20
-20.12753563104855
 10
-26.44023795168877
 20
-20.03828418248929
 10
-26.51333880709334
 20
-19.94055336838608
 10
-26.56997797968685
 20
-19.84691364395075
 10
-26.59799342805175
 20
-19.79070895411706
 10
-26.62138945571215
 20
-19.73242917462164
 10
-26.6678443524115
 20
-19.57343455342737
 10
-26.68470228349938
 20
-19.47324282897136
 10
-26.68803563523417
 20
-19.38591005628046
 10
-26.68346487659901
 20
-19.29863984910673
 10
-26.66865770413827
 20
-19.21329005573227
 10
-26.64334300060952
 20
-19.13049849684887
 10
-26.60760766256507
 20
-19.04835344831212
 10
-26.56002311068991
 20
-18.97237979289861
 10
-26.52155574505051
 20
-18.92334928239813
 10
-26.47947348284797
 20
-18.87724718570012
 10
-26.43184374476559
 20
-18.8340022476317
 10
-26.38025499977434
 20
-18.79557311647522
 10
-26.28610779947562
 20
-18.74279041285939
 10
-26.21216578544758
 20
-18.7134141644903
 10
-26.1148833575526
 20
-18.6888346057915
 10
-25.93544816302856
 20
-18.66525758036743
 10
-25.86399910848016
 20
-18.66877192986578
 10
-25.77637262544349
 20
-18.67909524024344
 10
-25.68386950790844
 20
-18.69579154374457
 10
-25.56493593511707
 20
-18.73144172316813
 97
        0
 92
        7
 72
     0
 73
     1
 93
       57
 10
-21.81712240597764
 20
-21.5316570424024
 10
-21.68795937108493
 20
-21.57856380117198
 10
-21.56394061207058
 20
-21.63768821515271
 10
-21.44402337031059
 20
-21.71676407747276
 10
-20.45166474647053
 20
-22.46103304535274
 10
-19.95635440007052
 20
-21.80061925015275
 10
-20.94349923079059
 20
-21.06026062711283
 10
-21.11729233479056
 20
-20.94077786811283
 10
-21.29934061123058
 20
-20.83954338503281
 10
-21.48225785319048
 20
-20.75395028131277
 10
-21.66604406067049
 20
-20.68399855695282
 10
-21.85678199231049
 20
-20.63055717747284
 10
-22.03949068254596
 20
-20.59682393598632
 10
-22.22442044865019
 20
-20.57869557730817
 10
-22.41017746992944
 20
-20.57623988074874
 10
-22.5893581601533
 20
-20.59088194976073
 10
-22.76267854691056
 20
-20.62186752227285
 10
-22.92951992675055
 20
-20.67052959139283
 10
-23.0846302720706
 20
-20.73613648815285
 10
-23.23452682427072
 20
-20.8165157987529
 10
-23.37095441091046
 20
-20.91514338527281
 10
-23.4973888940705
 20
-21.02941235115281
 10
-23.6103544116705
 20
-21.1619295929529
 10
-23.70594061887059
 20
-21.30748131755286
 10
-23.78023717083053
 20
-21.46085373183286
 10
-23.83498199859068
 20
-21.6207433875129
 10
-23.87147855043045
 20
-21.78888821563294
 10
-23.89059579187048
 20
-21.95920545755291
 10
-23.88725201254951
 20
-22.13615812018361
 10
-23.86957377801067
 20
-22.31234783108766
 10
-23.83321626065387
 20
-22.4912504523453
 10
-23.78154061911059
 20
-22.66828132187288
 10
-23.71158889475058
 20
-22.84294339139291
 10
-23.62338889447059
 20
-23.01499856435282
 10
-23.51998199759041
 20
-23.18488132351285
 10
-23.40093372135047
 20
-23.34477097919284
 10
-23.26711303127044
 20
-23.49944684175284
 10
-23.11634751355049
 20
-23.64239166979292
 10
-22.95124406475046
 20
-23.77708132539289
 10
-21.98321647547047
 20
-24.50310201735283
 10
-21.46835440487044
 20
-23.81661925655283
 10
-22.45549923559062
 20
-23.07626063351279
 10
-22.55621233935855
 20
-22.98779994357687
 10
-22.64882668447999
 20
-22.89085815016563
 10
-22.7247221329969
 20
-22.79103139122799
 10
-22.78874751251041
 20
-22.68305373571286
 10
-22.83992958163853
 20
-22.56852408017676
 10
-22.87701703003214
 20
-22.45620159706164
 10
-22.89908875424007
 20
-22.33993401048565
 10
-22.90736130599047
 20
-22.22684683771285
 10
-21.22330612823041
 20
-23.4898882210328
 10
-20.7266923335504
 20
-22.82773649479282
 10
-22.44029233899059
 20
-21.54253649071279
 10
-22.32602337311059
 20
-21.50603993887285
 10
-22.2030647520306
 20
-21.48692269743287
 10
-22.07636957921451
 20
-21.48657511122485
 10
-21.95019578571052
 20
-21.49735028367286
 97
        0
 92
        7
 72
     0
 73
     1
 93
        6
 10
-19.77995439951039
 20
-21.94921235407276
 10
-21.80160268179045
 20
-24.64474339711279
 10
-20.01153371059033
 20
-25.98729512551279
 10
-19.49145784687036
 20
-25.29386064055268
 10
-20.4629612982304
 20
-24.56523305203268
 10
-18.96138887967046
 20
-22.5631364939527
 97
        0
 92
        7
 72
     0
 73
     1
 93
        8
 10
-18.77543025839051
 20
-22.70260545991266
 10
-19.27074060479057
 20
-23.3630192551127
 10
-18.28359577407039
 20
-24.10337787815263
 10
-19.81384405479033
 20
-26.14370891911278
 10
-18.99354060391036
 20
-26.75893650727272
 10
-17.46329232319047
 20
-24.71860546631262
 10
-16.46919576831047
 20
-25.46417788247266
 10
-15.97388542191047
 20
-24.80376408727261
 97
        0
 75
     0
 76
     1
 47
0.0142553043587597
 98
        5
 10
-27.13111085016399
 20
-16.98890710306943
 10
-25.40264487049328
 20
-18.46344781907953
 10
-21.77466278120338
 20
-21.1131579203622
 10
-19.45017937932263
 20
-22.55359519090723
 10
-18.38058127298925
 20
-23.48052768617401
450
        0
451
        0
460
0.0
461
0.0
452
        0
462
0.0
453
        0
470

  0
LWPOLYLINE
  5
45B0
330
447B
100
AcDbEntity
  8
LW 3591-00-01
 62
     1
100
AcDbPolyline
 90
        8
 70
     1
 43
0.0
 10
-17.46329232319047
 20
-24.71860546631262
 10
-18.99354060391036
 20
-26.75893650727272
 10
-19.81384405479033
 20
-26.14370891911278
 10
-18.28359577407039
 20
-24.10337787815263
 10
-19.27074060479057
 20
-23.3630192551127
 10
-18.77543025839051
 20
-22.70260545991266
 10
-15.97388542191047
 20
-24.80376408727261
 10
-16.46919576831047
 20
-25.46417788247266
  0
LWPOLYLINE
  5
45B1
330
447B
100
AcDbEntity
  8
LW 3591-00-01
 62
     1
100
AcDbPolyline
 90
       73
 70
     1
 43
0.0
 10
-26.23115441999059
 20
-20.23908821071296
 10
-25.41780269327055
 20
-20.84910200575291
 10
-25.23271303751048
 20
-22.07955718207291
 10
-26.75514062855061
 20
-20.93773648879301
 10
-26.91850614631059
 20
-20.80435028147304
 10
-27.0697061467906
 20
-20.65836407411297
 10
-27.20092341617269
 20
-20.50531491500647
 10
-27.3238785613905
 20
-20.34553648691304
 10
-27.42685097551058
 20
-20.17869510707305
 10
-27.51331304475056
 20
-20.00794338239302
 10
-27.58112016220716
 20
-19.83412942322053
 10
-27.6380095968706
 20
-19.65644682955292
 10
-27.67225726594492
 20
-19.48162487037734
 10
-27.68923685220571
 20
-19.30758845603179
 10
-27.68985903151801
 20
-19.13278561409743
 10
-27.67407166595067
 20
-18.95866751699299
 10
-27.63714063135055
 20
-18.79356406819301
 10
-27.58239580359063
 20
-18.63367441251296
 10
-27.50809925163057
 20
-18.48030199823302
 10
-27.41381649271065
 20
-18.336488204673
 10
-27.29954752683065
 20
-18.20223303183303
 10
-27.17311304367067
 20
-18.08796406595297
 10
-27.03320959495065
 20
-17.991943375993
 10
-26.88331304275064
 20
-17.91156406539295
 10
-26.72168545603071
 20
-17.84812958243299
 10
-26.55136821411062
 20
-17.80207440987306
 10
-26.37306344113077
 20
-17.77265471322784
 10
-26.19291993711076
 20
-17.75862613387289
 10
-26.0060923503107
 20
-17.762970961473
 10
-25.81576804625823
 20
-17.7851452236124
 10
-25.6272233835908
 20
-17.81901923751297
 10
-25.43474752091069
 20
-17.87376406527289
 10
-25.24618200307063
 20
-17.94458475515284
 10
-25.0587565679929
 20
-18.03540555544123
 10
-24.8781055881091
 20
-18.13906792818409
 10
-24.70525096687069
 20
-18.25523992855289
 10
-21.95410613055057
 20
-20.31859855579279
 10
-24.27945786207053
 20
-20.61665372915286
 10
-23.95359579207056
 20
-23.03889511615285
 10
-25.00851993335047
 20
-22.24770201019294
 10
-25.39043027939053
 20
-19.81329510591286
 10
-24.22384406879061
 20
-19.66991579511284
 10
-25.2387957961507
 20
-18.90870199959289
 10
-25.34117383785505
 20
-18.8384357097147
 10
-25.45030895544292
 20
-18.77917747504386
 10
-25.56493593511707
 20
-18.73144172316813
 10
-25.6838695079085
 20
-18.69579154374469
 10
-25.77637262544349
 20
-18.67909524024327
 10
-25.86399910848027
 20
-18.66877192986573
 10
-25.91251171553083
 20
-18.66638575054782
 10
-25.96108341223666
 20
-18.66862594365841
 10
-26.1148833575526
 20
-18.6888346057915
 10
-26.21216578544758
 20
-18.7134141644903
 10
-26.2861077994755
 20
-18.74279041285933
 10
-26.38025499977434
 20
-18.79557311647522
 10
-26.43184374476559
 20
-18.8340022476317
 10
-26.47947348284791
 20
-18.87724718570007
 10
-26.52155574505045
 20
-18.92334928239808
 10
-26.5600231106898
 20
-18.97237979289855
 10
-26.60760766256507
 20
-19.04835344831212
 10
-26.64334300060941
 20
-19.13049849684887
 10
-26.66865770413816
 20
-19.21329005573239
 10
-26.68346487659901
 20
-19.29863984910673
 10
-26.68803563523417
 20
-19.38591005628029
 10
-26.68470228349938
 20
-19.47324282897136
 10
-26.6678443524115
 20
-19.57343455342737
 10
-26.62138945571209
 20
-19.73242917462176
 10
-26.5979934280517
 20
-19.79070895411712
 10
-26.56997797968685
 20
-19.84691364395075
 10
-26.51333880709334
 20
-19.94055336838608
 10
-26.44023795168877
 20
-20.03828418248929
 10
-26.35700843418326
 20
-20.12753563104855
 10
-26.28223967198252
 20
-20.19609015554483
  0
LWPOLYLINE
  5
45B2
330
447B
100
AcDbEntity
  8
LW 3591-00-01
 62
     1
100
AcDbPolyline
 90
       76
 70
     1
 43
0.0
 10
-25.79423459670099
 20
-17.63958969621649
 10
-25.99585088848582
 20
-17.61609982965501
 10
-26.19692969510081
 20
-17.6114235783383
 10
-26.390776357298
 20
-17.62651928383218
 10
-26.58261329562575
 20
-17.65817174291453
 10
-26.76788523442022
 20
-17.70827078758856
 10
-26.82432087502358
 20
-17.73042025943835
 10
-27.69623028671069
 20
-17.076488200673
 10
-27.81484408019074
 20
-16.99567440731306
 10
-27.93606477023079
 20
-16.92919854503299
 10
-28.05326041198211
 20
-16.88138284832951
 10
-28.17459580547072
 20
-16.845343372353
 10
-28.29165936446301
 20
-16.83043018609885
 10
-28.40965097863076
 20
-16.82926751023308
 10
-28.52522339279082
 20
-16.845777855113
 10
-28.63818891039071
 20
-16.880536475913
 10
-27.22167809629528
 20
-17.94291958648466
 10
-27.26443635438622
 20
-17.97226609281426
 10
-27.4053025544865
 20
-18.0995781568223
 10
-27.53177054844278
 20
-18.24816602804867
 10
-27.63630945458786
 20
-18.40762399087828
 10
-27.71864437674694
 20
-18.57759023369783
 10
-27.72975806738358
 20
-18.61004926666828
 10
-29.11177511879063
 20
-17.57353647811311
 10
-29.1052578773907
 20
-17.68432958191312
 10
-29.07988060834461
 20
-17.80079529262764
 10
-29.04192419443095
 20
-17.91376949988285
 10
-28.99185787703058
 20
-18.02192268643307
 10
-28.92711994579062
 20
-18.12750199711308
 10
-28.84434229035552
 20
-18.23075248019938
 10
-28.75193997282062
 20
-18.3254714598105
 10
-28.65078891043069
 20
-18.41078475663301
 10
-27.82801845689434
 20
-19.02786259678521
 10
-27.83695225699799
 20
-19.12639304933782
 10
-27.83628092003088
 20
-19.3150068579539
 10
-27.81794441518056
 20
-19.50295134062736
 10
-27.78068827840818
 20
-19.69313043888132
 10
-27.719792905655
 20
-19.88332476647815
 10
-27.64773759647787
 20
-20.0680283645255
 10
-27.55525844554958
 20
-20.25066306962515
 10
-27.4646658365485
 20
-20.39744603104452
 10
-29.16000270515068
 20
-19.12594337959308
 10
-29.32336822291072
 20
-18.99255717227305
 10
-29.47456822339061
 20
-18.8465709649131
 10
-29.60838891347069
 20
-18.6918951023531
 10
-29.72743718971069
 20
-18.53200544667316
 10
-29.82774361761537
 20
-18.36466528062453
 10
-29.91730615583051
 20
-18.19137096283305
 10
-29.9872578801907
 20
-18.01670889331308
 10
-30.03886609000958
 20
-17.83994583895889
 10
-30.07514505288353
 20
-17.6613193749435
 10
-30.09457512191065
 20
-17.48272958127308
 10
-30.09500960467071
 20
-17.30589509795311
 10
-30.07763029427062
 20
-17.13427440775308
 10
-30.03939581139068
 20
-16.9674330279131
 10
-29.98638891467076
 20
-16.80623992395306
 10
-29.9103544316707
 20
-16.65417095795305
 10
-29.81476822447073
 20
-16.5086192333531
 10
-29.70354063791089
 20
-16.37479854327307
 10
-29.58188546511073
 20
-16.25966061187307
 10
-29.44545787847076
 20
-16.16103302535305
 10
-29.30251305043081
 20
-16.07543992163312
 10
-29.14914063615075
 20
-16.00852957659299
 10
-28.98680049770425
 20
-15.95877261091789
 10
-28.82083294959128
 20
-15.92292413356267
 10
-28.64905097939081
 20
-15.90295026591309
 10
-28.47085951951473
 20
-15.90320765350003
 10
-28.29320959895071
 20
-15.91728819699301
 10
-28.10985787423076
 20
-15.95161233503302
 10
-27.92737511503069
 20
-16.001577852433
 10
-27.74706476963078
 20
-16.06892268023307
 10
-27.56588545871071
 20
-16.15321233567295
 10
-27.38861649263075
 20
-16.25357785323297
 10
-27.21308545759072
 20
-16.37436406051302
 10
-25.40737510703056
 20
-17.72864682343288
 10
-25.59402124287098
 20
-17.67556011211041
  0
LWPOLYLINE
  5
45B3
330
447B
100
AcDbEntity
  8
LW 3591-00-01
 62
     1
100
AcDbPolyline
 90
        6
 70
     1
 43
0.0
 10
-20.01153371059033
 20
-25.98729512551279
 10
-21.80160268179045
 20
-24.64474339711279
 10
-19.77995439951039
 20
-21.94921235407276
 10
-18.96138887967046
 20
-22.5631364939527
 10
-20.4629612982304
 20
-24.56523305203268
 10
-19.49145784687036
 20
-25.29386064055268
  0
LWPOLYLINE
  5
45B4
330
447B
100
AcDbEntity
  8
LW 3591-00-01
 62
     1
100
AcDbPolyline
 90
       57
 70
     1
 43
0.0
 10
-23.86957377801067
 20
-22.31234783108766
 10
-23.88725201254962
 20
-22.13615812018361
 10
-23.8905957918706
 20
-21.95920545755291
 10
-23.87147855043045
 20
-21.78888821563294
 10
-23.83498199859068
 20
-21.6207433875129
 10
-23.78023717083053
 20
-21.46085373183286
 10
-23.70594061887059
 20
-21.30748131755286
 10
-23.6103544116705
 20
-21.1619295929529
 10
-23.49738889407055
 20
-21.02941235115281
 10
-23.37095441091057
 20
-20.91514338527293
 10
-23.23452682427072
 20
-20.8165157987529
 10
-23.0846302720706
 20
-20.7361364881528
 10
-22.92951992675066
 20
-20.67052959139289
 10
-22.76267854691056
 20
-20.62186752227274
 10
-22.58935816015352
 20
-20.59088194976061
 10
-22.41017746992944
 20
-20.57623988074874
 10
-22.22442044865008
 20
-20.57869557730817
 10
-22.03949068254562
 20
-20.59682393598643
 10
-21.85678199231049
 20
-20.63055717747284
 10
-21.6660440606706
 20
-20.68399855695282
 10
-21.48225785319048
 20
-20.75395028131277
 10
-21.29934061123058
 20
-20.83954338503281
 10
-21.11729233479056
 20
-20.94077786811283
 10
-20.94349923079059
 20
-21.06026062711283
 10
-19.95635440007052
 20
-21.80061925015275
 10
-20.45166474647053
 20
-22.46103304535274
 10
-21.44402337031053
 20
-21.71676407747282
 10
-21.56394061207052
 20
-21.63768821515282
 10
-21.68795937108493
 20
-21.57856380117198
 10
-21.81712240597776
 20
-21.5316570424024
 10
-21.95019578571052
 20
-21.49735028367286
 10
-22.07636957921451
 20
-21.48657511122485
 10
-22.2030647520306
 20
-21.48692269743276
 10
-22.32602337311059
 20
-21.50603993887285
 10
-22.44029233899059
 20
-21.54253649071279
 10
-20.7266923335504
 20
-22.82773649479282
 10
-21.22330612823041
 20
-23.4898882210328
 10
-22.90736130599047
 20
-22.22684683771285
 10
-22.89908875424007
 20
-22.33993401048565
 10
-22.87701703003214
 20
-22.45620159706164
 10
-22.83992958163853
 20
-22.56852408017676
 10
-22.78874751251041
 20
-22.68305373571286
 10
-22.7247221329969
 20
-22.79103139122799
 10
-22.64882668447999
 20
-22.89085815016563
 10
-22.55621233935855
 20
-22.98779994357687
 10
-22.45549923559062
 20
-23.07626063351279
 10
-21.46835440487044
 20
-23.81661925655283
 10
-21.98321647547047
 20
-24.50310201735283
 10
-22.95124406475046
 20
-23.77708132539289
 10
-23.11634751355049
 20
-23.64239166979292
 10
-23.26711303127044
 20
-23.49944684175284
 10
-23.40093372135047
 20
-23.34477097919284
 10
-23.51998199759041
 20
-23.18488132351285
 10
-23.62338889447059
 20
-23.01499856435282
 10
-23.71158889475052
 20
-22.84294339139285
 10
-23.78154061911059
 20
-22.66828132187288
 10
-23.83321626065387
 20
-22.4912504523453
  0
ENDBLK
  5
447D
330
447B
100
AcDbEntity
  8
0
100
AcDbBlockEnd
  0
BLOCK
  5
45B7
330
45B6
100
AcDbEntity
  8
0
100
AcDbBlockBegin
  2
LW 3591-00-01_b
 70
     0
 10
0.0
 20
0.0
 30
0.0
  3
LW 3591-00-01_b
  1

  0
LINE
  5
45B9
330
45B6
100
AcDbEntity
  8
LW 3591-00-01
100
AcDbLine
 10
-42.99999999999997
 20
-1.999999999961744
 30
0.0
 11
-31.99999999999994
 21
-1.999999999964245
 31
0.0
  0
LINE
  5
45BA
330
45B6
100
AcDbEntity
  8
LW 3591-00-01
100
AcDbLine
 10
-31.99999999999994
 20
2.000000000035868
 30
0.0
 11
-43.0
 21
2.000000000038255
 31
0.0
  0
LINE
  5
45BB
330
45B6
100
AcDbEntity
  8
LW 3591-00-01
100
AcDbLine
 10
-8.999999999999943
 20
-32.99999999999994
 30
0.0
 11
-8.999999999999943
 21
32.99999999999994
 31
0.0
  0
ARC
  5
45BC
330
45B6
100
AcDbEntity
  8
LW 3591-00-01
100
AcDbCircle
 10
-6.999999999999886
 20
32.99999999999994
 30
0.0
 40
2.00000000000001
100
AcDbArc
 50
90.0
 51
180.0
  0
ARC
  5
45BD
330
45B6
100
AcDbEntity
  8
LW 3591-00-01
100
AcDbCircle
 10
-6.999999999999943
 20
-33.00000000000006
 30
0.0
 40
2.000000000000003
100
AcDbArc
 50
180.0
 51
270.0
  0
LINE
  5
45BE
330
45B6
100
AcDbEntity
  8
LW 3591-00-01
100
AcDbLine
 10
-7.0
 20
35.00000000003826
 30
0.0
 11
-11.0
 21
35.00000000003945
 31
0.0
  0
LINE
  5
45BF
330
45B6
100
AcDbEntity
  8
LW 3591-00-01
100
AcDbLine
 10
-11.0
 20
-34.99999999996055
 30
0.0
 11
-7.0
 21
-34.99999999996175
 31
0.0
  0
LINE
  5
45C0
330
45B6
100
AcDbEntity
  8
LW 3591-00-01
100
AcDbLine
 10
-11.0
 20
35.00000000003945
 30
0.0
 11
-79.99999999999997
 21
35.00000000003945
 31
0.0
  0
LINE
  5
45C1
330
45B6
100
AcDbEntity
  8
LW 3591-00-01
100
AcDbLine
 10
-79.99999999999997
 20
-34.99999999996055
 30
0.0
 11
-11.0
 21
-34.99999999996055
 31
0.0
  0
ARC
  5
45C2
330
45B6
100
AcDbEntity
  8
LW 3591-00-01
100
AcDbCircle
 10
-79.99999999999997
 20
0.0000000000394493
 30
0.0
 40
35.0
100
AcDbArc
 50
90.0
 51
270.0
  0
LINE
  5
45C3
330
45B6
100
AcDbEntity
  8
LW 3591-00-01
100
AcDbLine
 10
0.0
 20
35.0
 30
0.0
 11
-6.999999999999943
 21
35.0
 31
0.0
  0
LINE
  5
45C4
330
45B6
100
AcDbEntity
  8
LW 3591-00-01
100
AcDbLine
 10
-6.999999999999943
 20
-35.0
 30
0.0
 11
0.0
 21
-35.0
 31
0.0
  0
LINE
  5
45C5
330
45B6
100
AcDbEntity
  8
LW 3591-00-01
100
AcDbLine
 10
0.0
 20
35.0
 30
0.0
 11
0.0
 21
-35.0
 31
0.0
  0
CIRCLE
  5
45C6
330
45B6
100
AcDbEntity
  8
LW 3591-00-01
100
AcDbCircle
 10
-79.99999999999997
 20
0.0000000000373461
 30
0.0
 40
22.5
  0
POLYLINE
  5
45C7
330
45B6
100
AcDbEntity
  8
LW 3591-00-01
100
AcDb2dPolyline
 66
     1
 10
0.0
 20
0.0
 30
0.0
 70
   128
  0
VERTEX
  5
45C8
330
45C7
100
AcDbEntity
  8
LW 3591-00-01
100
AcDbVertex
100
AcDb2dVertex
 10
-26.99999952316276
 20
15.15544414520002
 30
0.0
  0
VERTEX
  5
45C9
330
45C7
100
AcDbEntity
  8
LW 3591-00-01
100
AcDbVertex
100
AcDb2dVertex
 10
-26.98318386077872
 20
15.28149843215686
 30
0.0
  0
VERTEX
  5
45CA
330
45C7
100
AcDbEntity
  8
LW 3591-00-01
100
AcDbVertex
100
AcDb2dVertex
 10
-26.93250799179069
 20
15.40561437606561
 30
0.0
  0
VERTEX
  5
45CB
330
45C7
100
AcDbEntity
  8
LW 3591-00-01
100
AcDbVertex
100
AcDb2dVertex
 10
-26.84763216972342
 20
15.52376866340393
 30
0.0
  0
VERTEX
  5
45CC
330
45C7
100
AcDbEntity
  8
LW 3591-00-01
100
AcDbVertex
100
AcDb2dVertex
 10
-26.72932291030875
 20
15.6323945522285
 30
0.0
  0
VERTEX
  5
45CD
330
45C7
100
AcDbEntity
  8
LW 3591-00-01
100
AcDbVertex
100
AcDb2dVertex
 10
-26.58275866508475
 20
15.7294034957863
 30
0.0
  0
VERTEX
  5
45CE
330
45C7
100
AcDbEntity
  8
LW 3591-00-01
100
AcDbVertex
100
AcDb2dVertex
 10
-26.41421103477469
 20
15.8129847049691
 30
0.0
  0
VERTEX
  5
45CF
330
45C7
100
AcDbEntity
  8
LW 3591-00-01
100
AcDbVertex
100
AcDb2dVertex
 10
-26.2219479084014
 20
15.88469624519126
 30
0.0
  0
VERTEX
  5
45D0
330
45C7
100
AcDbEntity
  8
LW 3591-00-01
100
AcDbVertex
100
AcDb2dVertex
 10
-26.00386404991141
 20
15.94591498374728
 30
0.0
  0
VERTEX
  5
45D1
330
45C7
100
AcDbEntity
  8
LW 3591-00-01
100
AcDbVertex
100
AcDb2dVertex
 10
-25.76566958427421
 20
15.99455595016269
 30
0.0
  0
VERTEX
  5
45D2
330
45C7
100
AcDbEntity
  8
LW 3591-00-01
100
AcDbVertex
100
AcDb2dVertex
 10
-25.51353359222404
 20
16.02903842925821
 30
0.0
  0
VERTEX
  5
45D3
330
45C7
100
AcDbEntity
  8
LW 3591-00-01
100
AcDbVertex
100
AcDb2dVertex
 10
-25.25547885894767
 20
16.04943513870034
 30
0.0
  0
VERTEX
  5
45D4
330
45C7
100
AcDbEntity
  8
LW 3591-00-01
100
AcDbVertex
100
AcDb2dVertex
 10
-25.00000023841849
 20
16.05614542960916
 30
0.0
  0
VERTEX
  5
45D5
330
45C7
100
AcDbEntity
  8
LW 3591-00-01
100
AcDbVertex
100
AcDb2dVertex
 10
-24.74452042579642
 20
16.04943513870034
 30
0.0
  0
VERTEX
  5
45D6
330
45C7
100
AcDbEntity
  8
LW 3591-00-01
100
AcDbVertex
100
AcDb2dVertex
 10
-24.48646688461295
 20
16.02903842925821
 30
0.0
  0
VERTEX
  5
45D7
330
45C7
100
AcDbEntity
  8
LW 3591-00-01
100
AcDbVertex
100
AcDb2dVertex
 10
-24.23433089256278
 20
15.99455595016269
 30
0.0
  0
VERTEX
  5
45D8
330
45C7
100
AcDbEntity
  8
LW 3591-00-01
100
AcDbVertex
100
AcDb2dVertex
 10
-23.99613642692557
 20
15.94591498374728
 30
0.0
  0
VERTEX
  5
45D9
330
45C7
100
AcDbEntity
  8
LW 3591-00-01
100
AcDbVertex
100
AcDb2dVertex
 10
-23.77805137634269
 20
15.88469624519126
 30
0.0
  0
VERTEX
  5
45DA
330
45C7
100
AcDbEntity
  8
LW 3591-00-01
100
AcDbVertex
100
AcDb2dVertex
 10
-23.58578944206229
 20
15.8129847049691
 30
0.0
  0
VERTEX
  5
45DB
330
45C7
100
AcDbEntity
  8
LW 3591-00-01
100
AcDbVertex
100
AcDb2dVertex
 10
-23.41724181175223
 20
15.7294034957863
 30
0.0
  0
VERTEX
  5
45DC
330
45C7
100
AcDbEntity
  8
LW 3591-00-01
100
AcDbVertex
100
AcDb2dVertex
 10
-23.27067637443534
 20
15.6323945522285
 30
0.0
  0
VERTEX
  5
45DD
330
45C7
100
AcDbEntity
  8
LW 3591-00-01
100
AcDbVertex
100
AcDb2dVertex
 10
-23.15236830711356
 20
15.52376866340393
 30
0.0
  0
VERTEX
  5
45DE
330
45C7
100
AcDbEntity
  8
LW 3591-00-01
100
AcDbVertex
100
AcDb2dVertex
 10
-23.0674924850463
 20
15.40561437606561
 30
0.0
  0
VERTEX
  5
45DF
330
45C7
100
AcDbEntity
  8
LW 3591-00-01
100
AcDbVertex
100
AcDb2dVertex
 10
-23.01681661605826
 20
15.28149843215686
 30
0.0
  0
VERTEX
  5
45E0
330
45C7
100
AcDbEntity
  8
LW 3591-00-01
100
AcDbVertex
100
AcDb2dVertex
 10
-22.99999976158134
 20
15.15544414520002
 30
0.0
  0
SEQEND
  5
45E1
330
45C7
100
AcDbEntity
  8
LW 3591-00-01
  0
POLYLINE
  5
45E2
330
45B6
100
AcDbEntity
  8
LW 3591-00-01
100
AcDb2dPolyline
 66
     1
 10
0.0
 20
0.0
 30
0.0
 70
   128
  0
VERTEX
  5
45E3
330
45E2
100
AcDbEntity
  8
LW 3591-00-01
100
AcDbVertex
100
AcDb2dVertex
 10
-22.99999976158134
 20
15.15544414520002
 30
0.0
  0
VERTEX
  5
45E4
330
45E2
100
AcDbEntity
  8
LW 3591-00-01
100
AcDbVertex
100
AcDb2dVertex
 10
-23.01681661605826
 20
15.02601861953474
 30
0.0
  0
VERTEX
  5
45E5
330
45E2
100
AcDbEntity
  8
LW 3591-00-01
100
AcDbVertex
100
AcDb2dVertex
 10
-23.0674924850463
 20
14.89207863807411
 30
0.0
  0
VERTEX
  5
45E6
330
45E2
100
AcDbEntity
  8
LW 3591-00-01
100
AcDbVertex
100
AcDb2dVertex
 10
-23.15236830711356
 20
14.75809454917629
 30
0.0
  0
VERTEX
  5
45E7
330
45E2
100
AcDbEntity
  8
LW 3591-00-01
100
AcDbVertex
100
AcDb2dVertex
 10
-23.27067637443534
 20
14.62852478027059
 30
0.0
  0
VERTEX
  5
45E8
330
45E2
100
AcDbEntity
  8
LW 3591-00-01
100
AcDbVertex
100
AcDb2dVertex
 10
-23.41724181175223
 20
14.50744867324539
 30
0.0
  0
VERTEX
  5
45E9
330
45E2
100
AcDbEntity
  8
LW 3591-00-01
100
AcDbVertex
100
AcDb2dVertex
 10
-23.58578944206229
 20
14.39876794814762
 30
0.0
  0
VERTEX
  5
45EA
330
45E2
100
AcDbEntity
  8
LW 3591-00-01
100
AcDbVertex
100
AcDb2dVertex
 10
-23.77805137634269
 20
14.30193305015263
 30
0.0
  0
VERTEX
  5
45EB
330
45E2
100
AcDbEntity
  8
LW 3591-00-01
100
AcDbVertex
100
AcDb2dVertex
 10
-23.99613642692557
 20
14.21658873557737
 30
0.0
  0
VERTEX
  5
45EC
330
45E2
100
AcDbEntity
  8
LW 3591-00-01
100
AcDbVertex
100
AcDb2dVertex
 10
-24.23433089256278
 20
14.1469228267639
 30
0.0
  0
VERTEX
  5
45ED
330
45E2
100
AcDbEntity
  8
LW 3591-00-01
100
AcDbVertex
100
AcDb2dVertex
 10
-24.48646688461295
 20
14.0965294837921
 30
0.0
  0
VERTEX
  5
45EE
330
45E2
100
AcDbEntity
  8
LW 3591-00-01
100
AcDbVertex
100
AcDb2dVertex
 10
-24.74452042579642
 20
14.06625151633909
 30
0.0
  0
VERTEX
  5
45EF
330
45E2
100
AcDbEntity
  8
LW 3591-00-01
100
AcDbVertex
100
AcDb2dVertex
 10
-25.00000023841849
 20
14.05614495277092
 30
0.0
  0
VERTEX
  5
45F0
330
45E2
100
AcDbEntity
  8
LW 3591-00-01
100
AcDbVertex
100
AcDb2dVertex
 10
-25.25547885894767
 20
14.06625151633909
 30
0.0
  0
VERTEX
  5
45F1
330
45E2
100
AcDbEntity
  8
LW 3591-00-01
100
AcDbVertex
100
AcDb2dVertex
 10
-25.51353359222404
 20
14.0965294837921
 30
0.0
  0
VERTEX
  5
45F2
330
45E2
100
AcDbEntity
  8
LW 3591-00-01
100
AcDbVertex
100
AcDb2dVertex
 10
-25.76566958427421
 20
14.1469228267639
 30
0.0
  0
VERTEX
  5
45F3
330
45E2
100
AcDbEntity
  8
LW 3591-00-01
100
AcDbVertex
100
AcDb2dVertex
 10
-26.00386404991141
 20
14.21658873557737
 30
0.0
  0
VERTEX
  5
45F4
330
45E2
100
AcDbEntity
  8
LW 3591-00-01
100
AcDbVertex
100
AcDb2dVertex
 10
-26.2219479084014
 20
14.30193305015263
 30
0.0
  0
VERTEX
  5
45F5
330
45E2
100
AcDbEntity
  8
LW 3591-00-01
100
AcDbVertex
100
AcDb2dVertex
 10
-26.41421103477469
 20
14.39876794814762
 30
0.0
  0
VERTEX
  5
45F6
330
45E2
100
AcDbEntity
  8
LW 3591-00-01
100
AcDbVertex
100
AcDb2dVertex
 10
-26.58275866508475
 20
14.50744867324539
 30
0.0
  0
VERTEX
  5
45F7
330
45E2
100
AcDbEntity
  8
LW 3591-00-01
100
AcDbVertex
100
AcDb2dVertex
 10
-26.72932291030875
 20
14.62852478027059
 30
0.0
  0
VERTEX
  5
45F8
330
45E2
100
AcDbEntity
  8
LW 3591-00-01
100
AcDbVertex
100
AcDb2dVertex
 10
-26.84763216972342
 20
14.75809454917629
 30
0.0
  0
VERTEX
  5
45F9
330
45E2
100
AcDbEntity
  8
LW 3591-00-01
100
AcDbVertex
100
AcDb2dVertex
 10
-26.93250799179069
 20
14.89207863807411
 30
0.0
  0
VERTEX
  5
45FA
330
45E2
100
AcDbEntity
  8
LW 3591-00-01
100
AcDbVertex
100
AcDb2dVertex
 10
-26.98318386077872
 20
15.02601861953474
 30
0.0
  0
VERTEX
  5
45FB
330
45E2
100
AcDbEntity
  8
LW 3591-00-01
100
AcDbVertex
100
AcDb2dVertex
 10
-26.99999952316276
 20
15.15544414520002
 30
0.0
  0
SEQEND
  5
45FC
330
45E2
100
AcDbEntity
  8
LW 3591-00-01
  0
POLYLINE
  5
45FD
330
45B6
100
AcDbEntity
  8
LW 3591-00-01
100
AcDb2dPolyline
 66
     1
 10
0.0
 20
0.0
 30
0.0
 70
   128
  0
VERTEX
  5
45FE
330
45FD
100
AcDbEntity
  8
LW 3591-00-01
100
AcDbVertex
100
AcDb2dVertex
 10
-26.99999952316276
 20
-15.15544414520525
 30
0.0
  0
VERTEX
  5
45FF
330
45FD
100
AcDbEntity
  8
LW 3591-00-01
100
AcDbVertex
100
AcDb2dVertex
 10
-26.98318386077872
 20
-15.02601861953997
 30
0.0
  0
VERTEX
  5
4600
330
45FD
100
AcDbEntity
  8
LW 3591-00-01
100
AcDbVertex
100
AcDb2dVertex
 10
-26.93250799179069
 20
-14.89207863807945
 30
0.0
  0
VERTEX
  5
4601
330
45FD
100
AcDbEntity
  8
LW 3591-00-01
100
AcDbVertex
100
AcDb2dVertex
 10
-26.84763216972342
 20
-14.75809454918186
 30
0.0
  0
VERTEX
  5
4602
330
45FD
100
AcDbEntity
  8
LW 3591-00-01
100
AcDbVertex
100
AcDb2dVertex
 10
-26.72932291030875
 20
-14.62852478027628
 30
0.0
  0
VERTEX
  5
4603
330
45FD
100
AcDbEntity
  8
LW 3591-00-01
100
AcDbVertex
100
AcDb2dVertex
 10
-26.58275866508475
 20
-14.50744867325119
 30
0.0
  0
VERTEX
  5
4604
330
45FD
100
AcDbEntity
  8
LW 3591-00-01
100
AcDbVertex
100
AcDb2dVertex
 10
-26.41421103477469
 20
-14.39876794815365
 30
0.0
  0
VERTEX
  5
4605
330
45FD
100
AcDbEntity
  8
LW 3591-00-01
100
AcDbVertex
100
AcDb2dVertex
 10
-26.2219479084014
 20
-14.30193305015865
 30
0.0
  0
VERTEX
  5
4606
330
45FD
100
AcDbEntity
  8
LW 3591-00-01
100
AcDbVertex
100
AcDb2dVertex
 10
-26.00386404991141
 20
-14.21658873558351
 30
0.0
  0
VERTEX
  5
4607
330
45FD
100
AcDbEntity
  8
LW 3591-00-01
100
AcDbVertex
100
AcDb2dVertex
 10
-25.76566958427421
 20
-14.14692282677004
 30
0.0
  0
VERTEX
  5
4608
330
45FD
100
AcDbEntity
  8
LW 3591-00-01
100
AcDbVertex
100
AcDb2dVertex
 10
-25.51353359222404
 20
-14.09652948379823
 30
0.0
  0
VERTEX
  5
4609
330
45FD
100
AcDbEntity
  8
LW 3591-00-01
100
AcDbVertex
100
AcDb2dVertex
 10
-25.25547885894767
 20
-14.06625151634523
 30
0.0
  0
VERTEX
  5
460A
330
45FD
100
AcDbEntity
  8
LW 3591-00-01
100
AcDbVertex
100
AcDb2dVertex
 10
-25.00000023841849
 20
-14.05614495277717
 30
0.0
  0
VERTEX
  5
460B
330
45FD
100
AcDbEntity
  8
LW 3591-00-01
100
AcDbVertex
100
AcDb2dVertex
 10
-24.74452042579642
 20
-14.06625151634523
 30
0.0
  0
VERTEX
  5
460C
330
45FD
100
AcDbEntity
  8
LW 3591-00-01
100
AcDbVertex
100
AcDb2dVertex
 10
-24.48646688461295
 20
-14.09652948379823
 30
0.0
  0
VERTEX
  5
460D
330
45FD
100
AcDbEntity
  8
LW 3591-00-01
100
AcDbVertex
100
AcDb2dVertex
 10
-24.23433089256278
 20
-14.14692282677004
 30
0.0
  0
VERTEX
  5
460E
330
45FD
100
AcDbEntity
  8
LW 3591-00-01
100
AcDbVertex
100
AcDb2dVertex
 10
-23.99613642692557
 20
-14.21658873558351
 30
0.0
  0
VERTEX
  5
460F
330
45FD
100
AcDbEntity
  8
LW 3591-00-01
100
AcDbVertex
100
AcDb2dVertex
 10
-23.77805137634269
 20
-14.30193305015865
 30
0.0
  0
VERTEX
  5
4610
330
45FD
100
AcDbEntity
  8
LW 3591-00-01
100
AcDbVertex
100
AcDb2dVertex
 10
-23.58578944206229
 20
-14.39876794815365
 30
0.0
  0
VERTEX
  5
4611
330
45FD
100
AcDbEntity
  8
LW 3591-00-01
100
AcDbVertex
100
AcDb2dVertex
 10
-23.41724181175223
 20
-14.50744867325119
 30
0.0
  0
VERTEX
  5
4612
330
45FD
100
AcDbEntity
  8
LW 3591-00-01
100
AcDbVertex
100
AcDb2dVertex
 10
-23.27067637443534
 20
-14.62852478027628
 30
0.0
  0
VERTEX
  5
4613
330
45FD
100
AcDbEntity
  8
LW 3591-00-01
100
AcDbVertex
100
AcDb2dVertex
 10
-23.15236830711356
 20
-14.75809454918186
 30
0.0
  0
VERTEX
  5
4614
330
45FD
100
AcDbEntity
  8
LW 3591-00-01
100
AcDbVertex
100
AcDb2dVertex
 10
-23.0674924850463
 20
-14.89207863807945
 30
0.0
  0
VERTEX
  5
4615
330
45FD
100
AcDbEntity
  8
LW 3591-00-01
100
AcDbVertex
100
AcDb2dVertex
 10
-23.01681661605826
 20
-15.02601861953997
 30
0.0
  0
VERTEX
  5
4616
330
45FD
100
AcDbEntity
  8
LW 3591-00-01
100
AcDbVertex
100
AcDb2dVertex
 10
-22.99999976158134
 20
-15.15544414520525
 30
0.0
  0
SEQEND
  5
4617
330
45FD
100
AcDbEntity
  8
LW 3591-00-01
  0
POLYLINE
  5
4618
330
45B6
100
AcDbEntity
  8
LW 3591-00-01
100
AcDb2dPolyline
 66
     1
 10
0.0
 20
0.0
 30
0.0
 70
   128
  0
VERTEX
  5
4619
330
4618
100
AcDbEntity
  8
LW 3591-00-01
100
AcDbVertex
100
AcDb2dVertex
 10
-22.99999976158134
 20
-15.15544414520525
 30
0.0
  0
VERTEX
  5
461A
330
4618
100
AcDbEntity
  8
LW 3591-00-01
100
AcDbVertex
100
AcDb2dVertex
 10
-23.01681661605826
 20
-15.28149843216198
 30
0.0
  0
VERTEX
  5
461B
330
4618
100
AcDbEntity
  8
LW 3591-00-01
100
AcDbVertex
100
AcDb2dVertex
 10
-23.0674924850463
 20
-15.40561437607061
 30
0.0
  0
VERTEX
  5
461C
330
4618
100
AcDbEntity
  8
LW 3591-00-01
100
AcDbVertex
100
AcDb2dVertex
 10
-23.15236830711356
 20
-15.52376866340881
 30
0.0
  0
VERTEX
  5
461D
330
4618
100
AcDbEntity
  8
LW 3591-00-01
100
AcDbVertex
100
AcDb2dVertex
 10
-23.27067637443534
 20
-15.63239455223316
 30
0.0
  0
VERTEX
  5
461E
330
4618
100
AcDbEntity
  8
LW 3591-00-01
100
AcDbVertex
100
AcDb2dVertex
 10
-23.41724181175223
 20
-15.72940349579084
 30
0.0
  0
VERTEX
  5
461F
330
4618
100
AcDbEntity
  8
LW 3591-00-01
100
AcDbVertex
100
AcDb2dVertex
 10
-23.58578944206229
 20
-15.81298470497353
 30
0.0
  0
VERTEX
  5
4620
330
4618
100
AcDbEntity
  8
LW 3591-00-01
100
AcDbVertex
100
AcDb2dVertex
 10
-23.77805137634269
 20
-15.8846962451957
 30
0.0
  0
VERTEX
  5
4621
330
4618
100
AcDbEntity
  8
LW 3591-00-01
100
AcDbVertex
100
AcDb2dVertex
 10
-23.99613642692557
 20
-15.94591498375149
 30
0.0
  0
VERTEX
  5
4622
330
4618
100
AcDbEntity
  8
LW 3591-00-01
100
AcDbVertex
100
AcDb2dVertex
 10
-24.23433089256278
 20
-15.9945559501669
 30
0.0
  0
VERTEX
  5
4623
330
4618
100
AcDbEntity
  8
LW 3591-00-01
100
AcDbVertex
100
AcDb2dVertex
 10
-24.48646688461295
 20
-16.0290384292623
 30
0.0
  0
VERTEX
  5
4624
330
4618
100
AcDbEntity
  8
LW 3591-00-01
100
AcDbVertex
100
AcDb2dVertex
 10
-24.74452042579642
 20
-16.04943513870444
 30
0.0
  0
VERTEX
  5
4625
330
4618
100
AcDbEntity
  8
LW 3591-00-01
100
AcDbVertex
100
AcDb2dVertex
 10
-25.00000023841849
 20
-16.05614542961325
 30
0.0
  0
VERTEX
  5
4626
330
4618
100
AcDbEntity
  8
LW 3591-00-01
100
AcDbVertex
100
AcDb2dVertex
 10
-25.25547885894767
 20
-16.04943513870444
 30
0.0
  0
VERTEX
  5
4627
330
4618
100
AcDbEntity
  8
LW 3591-00-01
100
AcDbVertex
100
AcDb2dVertex
 10
-25.51353359222404
 20
-16.0290384292623
 30
0.0
  0
VERTEX
  5
4628
330
4618
100
AcDbEntity
  8
LW 3591-00-01
100
AcDbVertex
100
AcDb2dVertex
 10
-25.76566958427421
 20
-15.9945559501669
 30
0.0
  0
VERTEX
  5
4629
330
4618
100
AcDbEntity
  8
LW 3591-00-01
100
AcDbVertex
100
AcDb2dVertex
 10
-26.00386404991141
 20
-15.94591498375149
 30
0.0
  0
VERTEX
  5
462A
330
4618
100
AcDbEntity
  8
LW 3591-00-01
100
AcDbVertex
100
AcDb2dVertex
 10
-26.2219479084014
 20
-15.8846962451957
 30
0.0
  0
VERTEX
  5
462B
330
4618
100
AcDbEntity
  8
LW 3591-00-01
100
AcDbVertex
100
AcDb2dVertex
 10
-26.41421103477469
 20
-15.81298470497353
 30
0.0
  0
VERTEX
  5
462C
330
4618
100
AcDbEntity
  8
LW 3591-00-01
100
AcDbVertex
100
AcDb2dVertex
 10
-26.58275866508475
 20
-15.72940349579084
 30
0.0
  0
VERTEX
  5
462D
330
4618
100
AcDbEntity
  8
LW 3591-00-01
100
AcDbVertex
100
AcDb2dVertex
 10
-26.72932291030875
 20
-15.63239455223316
 30
0.0
  0
VERTEX
  5
462E
330
4618
100
AcDbEntity
  8
LW 3591-00-01
100
AcDbVertex
100
AcDb2dVertex
 10
-26.84763216972342
 20
-15.52376866340881
 30
0.0
  0
VERTEX
  5
462F
330
4618
100
AcDbEntity
  8
LW 3591-00-01
100
AcDbVertex
100
AcDb2dVertex
 10
-26.93250799179069
 20
-15.40561437607061
 30
0.0
  0
VERTEX
  5
4630
330
4618
100
AcDbEntity
  8
LW 3591-00-01
100
AcDbVertex
100
AcDb2dVertex
 10
-26.98318386077872
 20
-15.28149843216198
 30
0.0
  0
VERTEX
  5
4631
330
4618
100
AcDbEntity
  8
LW 3591-00-01
100
AcDbVertex
100
AcDb2dVertex
 10
-26.99999952316276
 20
-15.15544414520525
 30
0.0
  0
SEQEND
  5
4632
330
4618
100
AcDbEntity
  8
LW 3591-00-01
  0
LINE
  5
4633
330
45B6
100
AcDbEntity
  8
LW 3591-00-01
100
AcDbLine
 10
-28.99999999999991
 20
17.5
 30
0.0
 11
-28.99999999999991
 21
-17.5
 31
0.0
  0
LINE
  5
4634
330
45B6
100
AcDbEntity
  8
LW 3591-00-01
100
AcDbLine
 10
-31.99999999999992
 20
14.50000000000005
 30
0.0
 11
-31.99999999999992
 21
-14.50000000000005
 31
0.0
  0
LINE
  5
4635
330
45B6
100
AcDbEntity
  8
LW 3591-00-01
100
AcDbLine
 10
-8.999999999999886
 20
-17.5
 30
0.0
 11
-28.99999999999991
 21
-17.5
 31
0.0
  0
LINE
  5
4636
330
45B6
100
AcDbEntity
  8
LW 3591-00-01
100
AcDbLine
 10
-8.999999999999886
 20
17.5
 30
0.0
 11
-28.99999999999991
 21
17.5
 31
0.0
  0
LINE
  5
4637
330
45B6
100
AcDbEntity
  8
LW 3591-00-01
100
AcDbLine
 10
-31.99999999999992
 20
14.50000000000005
 30
0.0
 11
-28.99999999999991
 21
17.5
 31
0.0
  0
LINE
  5
4638
330
45B6
100
AcDbEntity
  8
LW 3591-00-01
100
AcDbLine
 10
-31.99999999999992
 20
-14.50000000000005
 30
0.0
 11
-28.99999999999991
 21
-17.5
 31
0.0
  0
CIRCLE
  5
4639
330
45B6
100
AcDbEntity
  8
LW 3591-00-01
100
AcDbCircle
 10
-79.99999999999997
 20
0.0000000000314344
 30
0.0
 40
17.5
  0
CIRCLE
  5
463A
330
45B6
100
AcDbEntity
  8
LW 3591-00-01
100
AcDbCircle
 10
-79.99999999999997
 20
0.0000000000305249
 30
0.0
 40
14.5
  0
LINE
  5
463B
330
45B6
100
AcDbEntity
  8
LW 3591-00-01
  6
MITTE2
 62
     3
100
AcDbLine
 10
-79.99999999999997
 20
27.50000000003735
 30
0.0
 11
-79.99999999999997
 21
-27.49999999996266
 31
0.0
  0
LINE
  5
463C
330
45B6
100
AcDbEntity
  8
LW 3591-00-01
  6
MITTE2
 62
     3
100
AcDbLine
 10
24.32023757076786
 20
0.0
 30
0.0
 11
-119.9268040422328
 21
0.0
 31
0.0
  0
INSERT
  5
463D
330
45B6
100
AcDbEntity
  8
LW 3591-00-01
100
AcDbBlockReference
 66
     1
  2
insertpoint-ECKELT
 10
0.0
 20
0.0
 30
0.0
  0
ATTRIB
  5
463E
330
463D
100
AcDbEntity
  8
insertpoint_ECKELT
100
AcDbText
 10
-6.931514324693087
 20
0.0
 30
0.0
 40
0.6
  1
LW 3591/00-01
 72
     2
 11
-1.200000000000045
 21
0.0
 31
0.0
100
AcDbAttribute
  2
LINKS
 70
     0
  0
ATTRIB
  5
463F
330
463D
100
AcDbEntity
  8
insertpoint_ECKELT
100
AcDbText
 10
1.200000000000045
 20
0.0
 30
0.0
 40
0.6
  1

100
AcDbAttribute
  2
RECHTS
 70
     0
  0
SEQEND
  5
4640
330
463D
100
AcDbEntity
  8
LW 3591-00-01
  0
HATCH
  5
4641
330
45B6
100
AcDbEntity
  8
LW 3591-00-01
 62
     1
100
AcDbHatch
 10
0.0
 20
0.0
 30
0.0
210
0.0
220
0.0
230
1.0
  2
SOLID
 70
     1
 71
     0
 91
        5
 92
        7
 72
     0
 73
     1
 93
       76
 10
-53.4204971548587
 20
26.92799040657082
 10
-53.38863832548589
 20
26.97957136841251
 10
-53.27048020125471
 20
27.13081376742849
 10
-53.13600212604194
 20
27.27123789769104
 10
-52.98998221958038
 20
27.39962245940438
 10
-52.82631342349839
 20
27.51652874232013
 10
-52.65092647013375
 20
27.61870662414179
 10
-52.46917353753338
 20
27.71005830372468
 10
-52.28800460206764
 20
27.77957661617086
 10
-54.54514254026765
 20
27.7795766161708
 10
-54.75803909266767
 20
27.77088696097076
 10
-54.96007357606766
 20
27.7448179953708
 10
-55.1555908180677
 20
27.70354213317074
 10
-55.34024599106761
 20
27.64923178817077
 10
-55.51621150886774
 20
27.57971454657076
 10
-55.68348737146767
 20
27.49716282217065
 10
-55.83405563401459
 20
27.40183730462684
 10
-55.97676323446751
 20
27.29512833877072
 10
-56.10220449003827
 20
27.17608006253062
 10
-56.21346944211564
 20
27.04782075177872
 10
-56.31348737346764
 20
26.91061109617073
 10
-56.39603909786763
 20
26.76505937157066
 10
-56.45903909806759
 20
26.61081799177055
 10
-56.50900461546746
 20
26.45005937057078
 10
-56.53724599486759
 20
26.28495592177069
 10
-56.54593565006758
 20
26.11116281777072
 10
-56.53507358106754
 20
25.93736971377064
 10
-56.50465978786758
 20
25.77009385117066
 10
-56.45034944286749
 20
25.60933522997073
 10
-56.38083220126759
 20
25.45292143637067
 10
-56.29176323546744
 20
25.30519729797061
 10
-56.18531495926754
 20
25.16399040097076
 10
-56.06261702784355
 20
25.03277660745067
 10
-55.92641797913529
 20
24.91164281396277
 10
-55.77907357866752
 20
24.80119729637067
 10
-55.61831495746742
 20
24.70343867537082
 10
-55.44268833622027
 20
24.61854074406677
 10
-55.26203909426761
 20
24.54485246797077
 10
-55.07086667986744
 20
24.48836970917074
 10
-54.8710046102675
 20
24.44492143317075
 10
-54.66245288546758
 20
24.41885246757073
 10
-54.45172874686761
 20
24.41016281237074
 10
-52.33255766111494
 20
24.41016281237086
 10
-52.49310152516739
 20
24.47323361610575
 10
-52.67666566896981
 20
24.56385388962849
 10
-52.84513207513999
 20
24.66838358256007
 10
-53.00796496990074
 20
24.78400182098551
 10
-53.15187733827087
 20
24.91379141752537
 10
-53.27931323175516
 20
25.05314510075391
 10
-53.39301858649855
 20
25.20363334546647
 10
-53.4449898179472
 20
25.2878179875708
 10
-54.47345288486758
 20
25.28781798757075
 10
-54.60556171287305
 20
25.29537798759481
 10
-54.73631495466759
 20
25.31571178076274
 10
-54.86448736886746
 20
25.34864557397071
 10
-54.97962530026746
 20
25.39426626377082
 10
-55.0845702661179
 20
25.45074902257074
 10
-55.18271992160191
 20
25.51835454002674
 10
-55.27290116326753
 20
25.59630074717069
 10
-55.34459081866748
 20
25.68102488537074
 10
-53.61706950440873
 20
25.68102488537079
 10
-53.62765397168175
 20
25.71366032612912
 10
-53.66376577964615
 20
25.89903427368023
 10
-53.67580943242785
 20
26.08932398763097
 10
-53.66378775999852
 20
26.28407508098599
 10
-53.62748203832325
 20
26.47044445225248
 10
-53.61088333564828
 20
26.51957661217074
 10
-55.3815218532676
 20
26.51957661217074
 10
-55.31200461166759
 20
26.61516281937065
 10
-55.22945288726759
 20
26.69771454377076
 10
-55.13436199041405
 20
26.76757937157868
 10
-55.0317632314676
 20
26.82588695797079
 10
-54.91307123109084
 20
26.86985661328271
 10
-54.79062529966757
 20
26.90192144097074
 10
-54.6537632302676
 20
26.92147316517071
 10
-54.51038391946759
 20
26.92799040657076
 97
        0
 92
        7
 72
     0
 73
     1
 93
       72
 10
-51.69203328983087
 20
26.91339178583479
 10
-51.56917025495807
 20
26.93146626865081
 10
-51.44510804766764
 20
26.93668006177086
 10
-50.1764183884676
 20
26.93668006177091
 10
-51.02365977046758
 20
26.12202488677099
 10
-49.25748735106743
 20
24.40364557097098
 10
-47.93883217446762
 20
24.40364557097098
 10
-49.65286666266752
 20
26.14592143857095
 10
-47.97141838146763
 20
27.77957661617103
 10
-51.41034942686758
 20
27.77957661617086
 10
-51.61833632407968
 20
27.76880144372291
 10
-51.82505453163253
 20
27.74334075398679
 10
-52.02948735986763
 20
27.70354213317086
 10
-52.22283218806762
 20
27.64705937437083
 10
-52.40965977486769
 20
27.57536971897082
 10
-52.58081991334211
 20
27.48934213249083
 10
-52.74638391386758
 20
27.39288695977081
 10
-52.89845287986759
 20
27.28426626977086
 10
-53.03415053547076
 20
27.16495730387482
 10
-53.15914253586754
 20
27.03443868277077
 10
-53.26776322586773
 20
26.89540419957075
 10
-53.35900460546759
 20
26.74768006117091
 10
-53.43069426086765
 20
26.5934386813708
 10
-53.48500460586762
 20
26.43268006017081
 10
-53.51759081286752
 20
26.26540419757077
 10
-53.52845288186756
 20
26.0894386797707
 10
-53.51759081286752
 20
25.91781798957084
 10
-53.48500460586752
 20
25.75054212697086
 10
-53.43286667466748
 20
25.58978350577087
 10
-53.36334943306758
 20
25.43554212597082
 10
-53.27150846725874
 20
25.28677522894691
 10
-53.16612901864835
 20
25.14730626298677
 10
-53.04812350103225
 20
25.01826488326691
 10
-52.91583219026756
 20
24.89895591737087
 10
-52.76371108633634
 20
24.79094350323476
 10
-52.60517701686751
 20
24.69257660637078
 10
-52.43355632666748
 20
24.60785246817085
 10
-52.25107356746741
 20
24.53616281277084
 10
-52.05684239443712
 20
24.48211315742685
 10
-51.86003908346754
 20
24.43840419177082
 10
-51.6514873586675
 20
24.41233522617086
 10
-51.44076322006753
 20
24.40364557097087
 10
-49.53772873126752
 20
24.40364557097098
 10
-50.42407356166757
 20
25.27695591857094
 10
-51.44076322006753
 20
25.27695591857088
 10
-51.50743025476208
 20
25.28070321151017
 10
-51.60837797922034
 20
25.29068557378685
 10
-51.7285124623603
 20
25.31214902213088
 10
-51.84563163514588
 20
25.34647316017077
 10
-51.94712680788189
 20
25.38740143616286
 10
-52.00326198047401
 20
25.4155559190109
 10
-52.05694667029956
 20
25.44814212601096
 10
-52.18950736037561
 20
25.54746488494681
 10
-52.26310873991952
 20
25.61750350585885
 10
-52.3181750849219
 20
25.68536971297073
 10
-52.36688060231802
 20
25.75792833389079
 10
-52.40624474037407
 20
25.83509247206678
 10
-52.43566791288117
 20
25.91651454129078
 10
-52.45636667156759
 20
26.00367178294687
 10
-52.46388322331563
 20
26.09300143840272
 10
-52.46252763710436
 20
26.15530626618681
 10
-52.45652308536114
 20
26.21743730086672
 10
-52.4443662577363
 20
26.28061109417087
 10
-52.42615274043714
 20
26.34230764609083
 10
-52.3825046023677
 20
26.44102212916272
 10
-52.34097674016675
 20
26.50888833627476
 10
-52.27789853307001
 20
26.58692143997081
 10
-52.14849659270521
 20
26.71344417702449
 10
-52.08922873936751
 20
26.75350213015486
 10
-52.01293356671158
 20
26.79781937167479
 10
-51.92891329058284
 20
26.83996419939485
 10
-51.8123763246956
 20
26.88280419953088
 97
        0
 92
        7
 72
     0
 73
     1
 93
       57
 10
-47.13399630984349
 20
26.89132006162708
 10
-47.00252182666758
 20
26.93129247554708
 10
-46.86783217106767
 20
26.95840419977111
 10
-46.72445286026766
 20
26.96709385497104
 10
-45.48400458046763
 20
26.9670938549711
 10
-45.48400458046763
 20
27.79261109897112
 10
-46.71793561886761
 20
27.79261109897101
 10
-46.92865975746758
 20
27.78392144377102
 10
-47.13503906846756
 20
27.75568006437101
 10
-47.33272872426755
 20
27.71440420217107
 10
-47.52172872486755
 20
27.66009385717103
 10
-47.70638389786756
 20
27.58840420177103
 10
-47.87279079494783
 20
27.50576558081895
 10
-48.03161162303808
 20
27.40931040809892
 10
-48.18169065799714
 20
27.29982075257897
 10
-48.31624996876906
 20
27.18059868323502
 10
-48.43631493466762
 20
27.05181799317097
 10
-48.54059079706757
 20
26.91278350997101
 10
-48.62531493526763
 20
26.76723178537094
 10
-48.69700459066769
 20
26.61299040557088
 10
-48.74697010806755
 20
26.45223178437106
 10
-48.77955631506757
 20
26.28495592177109
 10
-48.79041838406749
 20
26.111162817771
 10
-48.77955631506757
 20
25.93736971377098
 10
-48.74697010806755
 20
25.770093851171
 10
-48.69483217686763
 20
25.60933522997089
 10
-48.62314252146745
 20
25.45292143637102
 10
-48.53624596946747
 20
25.30519729797101
 10
-48.42739934843234
 20
25.16564143545901
 10
-48.30754293425878
 20
25.03529660745903
 10
-48.17111534761875
 20
24.91398902086701
 10
-48.02355631266755
 20
24.80336971017095
 10
-47.86279769146756
 20
24.70561108917093
 10
-47.68900458746759
 20
24.620886950971
 10
-47.50434941446747
 20
24.54702488177111
 10
-47.31317700006752
 20
24.49054212297102
 10
-47.11331493046748
 20
24.44709384697109
 10
-46.9069356194675
 20
24.42319729517095
 10
-46.69403906706747
 20
24.41450763997102
 10
-45.48400458046751
 20
24.41450763997108
 10
-45.48400458046751
 20
25.27261109097106
 10
-46.71793561886761
 20
25.272611090971
 10
-46.85158251584357
 20
25.28295178065895
 10
-46.98383906798745
 20
25.30493660831508
 10
-47.10445148216353
 20
25.33926074635502
 10
-47.22045837908342
 20
25.38722764305908
 10
-47.33012182770756
 20
25.44814212601108
 10
-47.42718527629153
 20
25.51574764346697
 10
-47.5146032076035
 20
25.59551867820301
 10
-47.58907355266751
 20
25.68102488537102
 10
-45.48400458046751
 20
25.68102488537107
 10
-45.48400458046751
 20
26.5087145431711
 10
-47.62600458726763
 20
26.50871454317098
 10
-47.55648734566761
 20
26.60647316417101
 10
-47.46959079366763
 20
26.69554212997093
 10
-47.36844320713953
 20
26.77183730262703
 10
-47.2610390688676
 20
26.83892144077101
 97
        0
 92
        7
 72
     0
 73
     1
 93
        6
 10
-45.25372871766751
 20
27.77957661617114
 10
-45.25372871766751
 20
24.41016281237109
 10
-43.01614250366742
 20
24.4101628123712
 10
-43.01614250366753
 20
25.27695591857122
 10
-44.2305218178675
 20
25.27695591857122
 10
-44.2305218178676
 20
27.77957661617114
 97
        0
 92
        7
 72
     0
 73
     1
 93
        8
 10
-43.99807354126767
 20
27.77957661617114
 10
-43.99807354126767
 20
26.95405937217112
 10
-42.76414250286757
 20
26.95405937217123
 10
-42.76414250286745
 20
24.40364557097121
 10
-41.7387631892675
 20
24.40364557097121
 10
-41.73876318926761
 20
26.95405937217117
 10
-40.49614249566764
 20
26.95405937217123
 10
-40.49614249566764
 20
27.77957661617126
 97
        0
 75
     0
 76
     1
 47
0.0142553043587597
 98
        5
 10
-54.11083702879238
 20
27.33712694658169
 10
-51.84333981544978
 20
27.194573961576
 10
-47.35112808324823
 20
27.25159513412382
 10
-44.6272789994166
 20
27.49393535881626
 10
-43.21544101718984
 20
27.39414822640288
450
        0
451
        0
460
0.0
461
0.0
452
        0
462
0.0
453
        0
470

  0
LWPOLYLINE
  5
4642
330
45B6
100
AcDbEntity
  8
LW 3591-00-01
 62
     1
100
AcDbPolyline
 90
        8
 70
     1
 43
0.0
 10
-41.73876318926761
 20
26.95405937217117
 10
-41.7387631892675
 20
24.40364557097121
 10
-42.76414250286745
 20
24.40364557097121
 10
-42.76414250286757
 20
26.95405937217123
 10
-43.99807354126767
 20
26.95405937217112
 10
-43.99807354126767
 20
27.77957661617114
 10
-40.49614249566764
 20
27.77957661617126
 10
-40.49614249566764
 20
26.95405937217123
  0
LWPOLYLINE
  5
4643
330
45B6
100
AcDbEntity
  8
LW 3591-00-01
 62
     1
100
AcDbPolyline
 90
       73
 70
     1
 43
0.0
 10
-51.44076322006753
 20
25.27695591857088
 10
-50.42407356166757
 20
25.27695591857094
 10
-49.53772873126752
 20
24.40364557097098
 10
-51.44076322006753
 20
24.40364557097081
 10
-51.6514873586675
 20
24.41233522617086
 10
-51.86003908346754
 20
24.43840419177087
 10
-52.05684239443712
 20
24.48211315742685
 10
-52.25107356746741
 20
24.53616281277084
 10
-52.43355632666748
 20
24.60785246817085
 10
-52.60517701686751
 20
24.69257660637083
 10
-52.76371108633623
 20
24.79094350323487
 10
-52.91583219026756
 20
24.89895591737087
 10
-53.04812350103237
 20
25.0182648832668
 10
-53.16612901864835
 20
25.14730626298677
 10
-53.27150846725874
 20
25.28677522894685
 10
-53.36334943306758
 20
25.43554212597082
 10
-53.43286667466748
 20
25.58978350577087
 10
-53.48500460586752
 20
25.75054212697086
 10
-53.51759081286752
 20
25.91781798957084
 10
-53.52845288186756
 20
26.08943867977081
 10
-53.51759081286752
 20
26.26540419757077
 10
-53.48500460586762
 20
26.43268006017081
 10
-53.43069426086754
 20
26.5934386813708
 10
-53.35900460546759
 20
26.74768006117086
 10
-53.26776322586761
 20
26.89540419957081
 10
-53.15914253586754
 20
27.03443868277077
 10
-53.03415053547076
 20
27.16495730387487
 10
-52.89845287986771
 20
27.2842662697708
 10
-52.74638391386758
 20
27.39288695977081
 10
-52.580819913342
 20
27.48934213249078
 10
-52.40965977486769
 20
27.57536971897077
 10
-52.22283218806762
 20
27.64705937437083
 10
-52.02948735986763
 20
27.70354213317091
 10
-51.82505453163241
 20
27.74334075398684
 10
-51.61833632407968
 20
27.76880144372291
 10
-51.41034942686769
 20
27.77957661617086
 10
-47.97141838146763
 20
27.77957661617103
 10
-49.65286666266752
 20
26.14592143857095
 10
-47.93883217446762
 20
24.40364557097098
 10
-49.25748735106743
 20
24.40364557097098
 10
-51.02365977046758
 20
26.12202488677099
 10
-50.1764183884676
 20
26.93668006177091
 10
-51.44510804766764
 20
26.93668006177086
 10
-51.56917025495807
 20
26.93146626865081
 10
-51.69203328983087
 20
26.91339178583479
 10
-51.8123763246956
 20
26.88280419953088
 10
-51.92891329058284
 20
26.83996419939479
 10
-52.01293356671169
 20
26.79781937167485
 10
-52.08922873936763
 20
26.75350213015486
 10
-52.12947053259881
 20
26.72630350937885
 10
-52.16698377409716
 20
26.69536833686687
 10
-52.27789853307001
 20
26.58692143997081
 10
-52.34097674016675
 20
26.50888833627476
 10
-52.38250460236759
 20
26.44102212916283
 10
-52.42615274043714
 20
26.34230764609083
 10
-52.4443662577363
 20
26.28061109417087
 10
-52.45652308536114
 20
26.21743730086683
 10
-52.46252763710436
 20
26.15530626618687
 10
-52.46388322331552
 20
26.09300143840284
 10
-52.45636667156759
 20
26.00367178294687
 10
-52.43566791288106
 20
25.91651454129084
 10
-52.40624474037395
 20
25.83509247206683
 10
-52.36688060231802
 20
25.75792833389079
 10
-52.31817508492202
 20
25.68536971297084
 10
-52.26310873991952
 20
25.61750350585885
 10
-52.18950736037561
 20
25.54746488494681
 10
-52.05694667029945
 20
25.44814212601091
 10
-52.00326198047389
 20
25.41555591901084
 10
-51.94712680788189
 20
25.38740143616286
 10
-51.84563163514588
 20
25.34647316017077
 10
-51.7285124623603
 20
25.31214902213088
 10
-51.60837797922034
 20
25.29068557378685
 10
-51.50743025476197
 20
25.28070321151023
  0
LWPOLYLINE
  5
4644
330
45B6
100
AcDbEntity
  8
LW 3591-00-01
 62
     1
100
AcDbPolyline
 90
       76
 70
     1
 43
0.0
 10
-52.65092647013375
 20
27.61870662414179
 10
-52.8263134234985
 20
27.51652874232008
 10
-52.9899822195805
 20
27.39962245940444
 10
-53.13600212604194
 20
27.27123789769104
 10
-53.27048020125471
 20
27.13081376742849
 10
-53.38863832548589
 20
26.97957136841262
 10
-53.4204971548587
 20
26.92799040657082
 10
-54.51038391946759
 20
26.92799040657082
 10
-54.6537632302676
 20
26.92147316517071
 10
-54.79062529966768
 20
26.90192144097074
 10
-54.91307123109084
 20
26.86985661328271
 10
-55.0317632314676
 20
26.82588695797079
 10
-55.13436199041393
 20
26.76757937157873
 10
-55.22945288726759
 20
26.6977145437707
 10
-55.3120046116677
 20
26.61516281937071
 10
-55.3815218532676
 20
26.51957661217074
 10
-53.61088333564828
 20
26.51957661217074
 10
-53.62748203832325
 20
26.47044445225248
 10
-53.66378775999862
 20
26.28407508098587
 10
-53.67580943242785
 20
26.08932398763097
 10
-53.66376577964615
 20
25.89903427368023
 10
-53.62765397168164
 20
25.71366032612917
 10
-53.61706950440873
 20
25.68102488537079
 10
-55.34459081866748
 20
25.68102488537074
 10
-55.27290116326753
 20
25.59630074717069
 10
-55.18271992160191
 20
25.51835454002674
 10
-55.0845702661179
 20
25.45074902257074
 10
-54.97962530026746
 20
25.39426626377082
 10
-54.86448736886746
 20
25.34864557397077
 10
-54.73631495466759
 20
25.31571178076274
 10
-54.60556171287305
 20
25.29537798759481
 10
-54.47345288486758
 20
25.28781798757075
 10
-53.4449898179472
 20
25.2878179875708
 10
-53.39301858649855
 20
25.20363334546653
 10
-53.27931323175516
 20
25.05314510075391
 10
-53.15187733827087
 20
24.91379141752537
 10
-53.00796496990063
 20
24.78400182098563
 10
-52.84513207513999
 20
24.66838358256007
 10
-52.67666566896981
 20
24.56385388962849
 10
-52.49310152516739
 20
24.47323361610575
 10
-52.33255766111494
 20
24.41016281237086
 10
-54.4517287468675
 20
24.41016281237069
 10
-54.66245288546758
 20
24.41885246757073
 10
-54.8710046102675
 20
24.44492143317075
 10
-55.07086667986754
 20
24.48836970917074
 10
-55.26203909426749
 20
24.54485246797066
 10
-55.44268833622038
 20
24.61854074406671
 10
-55.61831495746742
 20
24.70343867537082
 10
-55.77907357866752
 20
24.80119729637067
 10
-55.92641797913518
 20
24.91164281396271
 10
-56.06261702784355
 20
25.03277660745067
 10
-56.18531495926754
 20
25.1639904009707
 10
-56.29176323546755
 20
25.30519729797067
 10
-56.38083220126748
 20
25.45292143637073
 10
-56.45034944286749
 20
25.60933522997073
 10
-56.50465978786758
 20
25.77009385117066
 10
-56.53507358106754
 20
25.93736971377075
 10
-56.54593565006758
 20
26.11116281777067
 10
-56.5372459948677
 20
26.28495592177063
 10
-56.50900461546758
 20
26.45005937057073
 10
-56.45903909806759
 20
26.61081799177066
 10
-56.39603909786763
 20
26.76505937157066
 10
-56.31348737346764
 20
26.91061109617073
 10
-56.21346944211552
 20
27.04782075177872
 10
-56.10220449003827
 20
27.17608006253068
 10
-55.97676323446762
 20
27.29512833877067
 10
-55.83405563401459
 20
27.40183730462673
 10
-55.68348737146755
 20
27.49716282217077
 10
-55.51621150886763
 20
27.5797145465707
 10
-55.34024599106761
 20
27.64923178817077
 10
-55.1555908180676
 20
27.70354213317069
 10
-54.96007357606766
 20
27.7448179953708
 10
-54.75803909266767
 20
27.77088696097076
 10
-54.54514254026765
 20
27.77957661617075
 10
-52.28800460206753
 20
27.77957661617092
 10
-52.46917353753338
 20
27.71005830372468
  0
LWPOLYLINE
  5
4645
330
45B6
100
AcDbEntity
  8
LW 3591-00-01
 62
     1
100
AcDbPolyline
 90
        6
 70
     1
 43
0.0
 10
-43.01614250366742
 20
24.4101628123712
 10
-45.25372871766751
 20
24.41016281237109
 10
-45.25372871766751
 20
27.77957661617114
 10
-44.2305218178676
 20
27.77957661617114
 10
-44.2305218178675
 20
25.27695591857122
 10
-43.01614250366753
 20
25.27695591857122
  0
LWPOLYLINE
  5
4646
330
45B6
100
AcDbEntity
  8
LW 3591-00-01
 62
     1
100
AcDbPolyline
 90
       57
 70
     1
 43
0.0
 10
-48.30754293425878
 20
25.03529660745903
 10
-48.42739934843234
 20
25.16564143545895
 10
-48.53624596946758
 20
25.30519729797095
 10
-48.62314252146745
 20
25.45292143637102
 10
-48.69483217686763
 20
25.60933522997089
 10
-48.74697010806755
 20
25.770093851171
 10
-48.77955631506757
 20
25.93736971377098
 10
-48.79041838406749
 20
26.111162817771
 10
-48.77955631506757
 20
26.28495592177103
 10
-48.74697010806755
 20
26.45223178437095
 10
-48.69700459066769
 20
26.61299040557088
 10
-48.62531493526763
 20
26.767231785371
 10
-48.54059079706769
 20
26.9127835099709
 10
-48.43631493466762
 20
27.05181799317103
 10
-48.31624996876929
 20
27.18059868323496
 10
-48.18169065799714
 20
27.29982075257897
 10
-48.03161162303798
 20
27.40931040809897
 10
-47.87279079494749
 20
27.50576558081906
 10
-47.70638389786756
 20
27.58840420177103
 10
-47.52172872486767
 20
27.66009385717098
 10
-47.33272872426755
 20
27.71440420217107
 10
-47.13503906846756
 20
27.75568006437101
 10
-46.92865975746758
 20
27.78392144377102
 10
-46.71793561886761
 20
27.79261109897101
 10
-45.48400458046763
 20
27.79261109897112
 10
-45.48400458046763
 20
26.9670938549711
 10
-46.72445286026754
 20
26.96709385497104
 10
-46.86783217106756
 20
26.95840419977105
 10
-47.00252182666758
 20
26.93129247554708
 10
-47.13399630984361
 20
26.89132006162703
 10
-47.2610390688676
 20
26.83892144077101
 10
-47.36844320713953
 20
26.77183730262703
 10
-47.46959079366763
 20
26.69554212997105
 10
-47.55648734566761
 20
26.60647316417101
 10
-47.62600458726763
 20
26.50871454317098
 10
-45.48400458046751
 20
26.5087145431711
 10
-45.48400458046751
 20
25.68102488537107
 10
-47.58907355266751
 20
25.68102488537102
 10
-47.5146032076035
 20
25.59551867820301
 10
-47.42718527629153
 20
25.51574764346697
 10
-47.33012182770756
 20
25.44814212601108
 10
-47.22045837908342
 20
25.38722764305908
 10
-47.10445148216353
 20
25.33926074635502
 10
-46.98383906798745
 20
25.30493660831508
 10
-46.85158251584357
 20
25.28295178065895
 10
-46.71793561886761
 20
25.272611090971
 10
-45.48400458046751
 20
25.27261109097106
 10
-45.48400458046751
 20
24.41450763997108
 10
-46.69403906706747
 20
24.41450763997102
 10
-46.9069356194675
 20
24.42319729517095
 10
-47.11331493046748
 20
24.44709384697103
 10
-47.31317700006752
 20
24.49054212297102
 10
-47.50434941446747
 20
24.54702488177111
 10
-47.68900458746759
 20
24.620886950971
 10
-47.86279769146756
 20
24.70561108917105
 10
-48.02355631266755
 20
24.80336971017095
 10
-48.17111534761875
 20
24.91398902086701
  0
ENDBLK
  5
45B8
330
45B6
100
AcDbEntity
  8
0
100
AcDbBlockEnd
  0
BLOCK
  5
4649
330
4648
100
AcDbEntity
  8
0
100
AcDbBlockBegin
  2
LW 3591-00-01_c
 70
     0
 10
0.0
 20
0.0
 30
0.0
  3
LW 3591-00-01_c
  1

  0
LINE
  5
464B
330
4648
100
AcDbEntity
  8
LW 3591-00-01
100
AcDbLine
 10
14.00000000000978
 20
32.99999999999585
 30
0.0
 11
13.99999999999022
 21
-33.00000000000409
 31
0.0
  0
ARC
  5
464C
330
4648
100
AcDbEntity
  8
LW 3591-00-01
100
AcDbCircle
 10
145.0000000000216
 20
-0.0000000000429736
 30
0.0
 40
35.0
100
AcDbArc
 50
269.9999999999804
 51
89.99999999998046
  0
LINE
  5
464D
330
4648
100
AcDbEntity
  8
LW 3591-00-01
100
AcDbLine
 10
145.000000000032
 20
34.99999999995703
 30
0.0
 11
16.00000000003206
 21
34.99999999999523
 31
0.0
  0
LINE
  5
464E
330
4648
100
AcDbEntity
  8
LW 3591-00-01
100
AcDbLine
 10
16.00000000001125
 20
-35.00000000000478
 30
0.0
 11
145.0000000000112
 21
-35.00000000004297
 31
0.0
  0
LINE
  5
464F
330
4648
100
AcDbEntity
  8
LW 3591-00-01
100
AcDbLine
 10
16.00000000003206
 20
34.99999999999523
 30
0.0
 11
12.00000000003081
 21
34.99999999999648
 31
0.0
  0
LINE
  5
4650
330
4648
100
AcDbEntity
  8
LW 3591-00-01
100
AcDbLine
 10
12.00000000001012
 20
-35.00000000000353
 30
0.0
 11
16.00000000001125
 21
-35.00000000000478
 31
0.0
  0
ARC
  5
4651
330
4648
100
AcDbEntity
  8
LW 3591-00-01
100
AcDbCircle
 10
12.00000000000978
 20
32.99999999999642
 30
0.0
 40
2.00000000000001
100
AcDbArc
 50
0.0
 51
89.99999999998046
  0
ARC
  5
4652
330
4648
100
AcDbEntity
  8
LW 3591-00-01
100
AcDbCircle
 10
11.99999999999022
 20
-33.00000000000352
 30
0.0
 40
1.999999999999997
100
AcDbArc
 50
269.9999999999804
 51
0.0
  0
LINE
  5
4653
330
4648
100
AcDbEntity
  8
LW 3591-00-01
100
AcDbLine
 10
4.999999999989654
 20
-35.00000000000148
 30
0.0
 11
5.000000000010345
 21
34.99999999999853
 31
0.0
  0
LINE
  5
4654
330
4648
100
AcDbEntity
  8
LW 3591-00-01
100
AcDbLine
 10
12.00000000001034
 20
34.99999999999648
 30
0.0
 11
5.000000000010345
 21
34.99999999999853
 31
0.0
  0
LINE
  5
4655
330
4648
100
AcDbEntity
  8
LW 3591-00-01
100
AcDbLine
 10
4.999999999989654
 20
-35.00000000000148
 30
0.0
 11
11.99999999998954
 21
-35.00000000000353
 31
0.0
  0
LINE
  5
4656
330
4648
100
AcDbEntity
  8
LW 3591-00-01
100
AcDbLine
 10
19.00000000000659
 20
22.49999999999443
 30
0.0
 11
18.99999999999329
 21
-22.50000000000557
 31
0.0
  0
LINE
  5
4657
330
4648
100
AcDbEntity
  8
LW 3591-00-01
100
AcDbLine
 10
14.00000000000659
 20
22.49999999999591
 30
0.0
 11
19.00000000000659
 21
22.49999999999443
 31
0.0
  0
LINE
  5
4658
330
4648
100
AcDbEntity
  8
LW 3591-00-01
100
AcDbLine
 10
13.99999999999329
 20
-22.50000000000409
 30
0.0
 11
18.99999999999329
 21
-22.50000000000557
 31
0.0
  0
LINE
  5
4659
330
4648
100
AcDbEntity
  8
LW 3591-00-01
100
AcDbLine
 10
-0.0000000000067075
 20
-22.5
 30
0.0
 11
0.0000000000067075
 21
22.5
 31
0.0
  0
LINE
  5
465A
330
4648
100
AcDbEntity
  8
LW 3591-00-01
100
AcDbLine
 10
4.999999999993292
 20
-22.50000000000148
 30
0.0
 11
-0.0000000000067075
 21
-22.5
 31
0.0
  0
LINE
  5
465B
330
4648
100
AcDbEntity
  8
LW 3591-00-01
100
AcDbLine
 10
5.000000000006707
 20
22.49999999999852
 30
0.0
 11
0.0000000000067075
 21
22.5
 31
0.0
  0
CIRCLE
  5
465C
330
4648
100
AcDbEntity
  8
LW 3591-00-01
100
AcDbCircle
 10
145.0000000000151
 20
-0.0000000000429736
 30
0.0
 40
17.5
  0
CIRCLE
  5
465D
330
4648
100
AcDbEntity
  8
LW 3591-00-01
100
AcDbCircle
 10
145.0000000000143
 20
-0.0000000000429736
 30
0.0
 40
14.5
  0
CIRCLE
  5
465E
330
4648
100
AcDbEntity
  8
LW 3591-00-01
100
AcDbCircle
 10
65.00000000001512
 20
-0.0000000000192131
 30
0.0
 40
17.5
  0
CIRCLE
  5
465F
330
4648
100
AcDbEntity
  8
LW 3591-00-01
100
AcDbCircle
 10
65.00000000001432
 20
-0.0000000000192131
 30
0.0
 40
14.5
  0
POLYLINE
  5
4660
330
4648
100
AcDbEntity
  8
LW 3591-00-01
100
AcDb2dPolyline
 66
     1
 10
0.0
 20
0.0
 30
0.0
 70
   128
  0
VERTEX
  5
4661
330
4660
100
AcDbEntity
  8
LW 3591-00-01
100
AcDbVertex
100
AcDb2dVertex
 10
36.99999952315761
 20
-0.0000000000109139
 30
0.0
  0
VERTEX
  5
4662
330
4660
100
AcDbEntity
  8
LW 3591-00-01
100
AcDbVertex
100
AcDb2dVertex
 10
36.98318386077358
 20
-0.2554797381271783
 30
0.0
  0
VERTEX
  5
4663
330
4660
100
AcDbEntity
  8
LW 3591-00-01
100
AcDbVertex
100
AcDb2dVertex
 10
36.93250799178543
 20
-0.513535626243538
 30
0.0
  0
VERTEX
  5
4664
330
4660
100
AcDbEntity
  8
LW 3591-00-01
100
AcDbVertex
100
AcDb2dVertex
 10
36.84763216971806
 20
-0.7656736672033731
 30
0.0
  0
VERTEX
  5
4665
330
4660
100
AcDbEntity
  8
LW 3591-00-01
100
AcDbVertex
100
AcDb2dVertex
 10
36.72932291030338
 20
-1.003869771968254
 30
0.0
  0
VERTEX
  5
4666
330
4660
100
AcDbEntity
  8
LW 3591-00-01
100
AcDbVertex
100
AcDb2dVertex
 10
36.58275866507927
 20
-1.221954673539471
 30
0.0
  0
VERTEX
  5
4667
330
4660
100
AcDbEntity
  8
LW 3591-00-01
100
AcDbVertex
100
AcDb2dVertex
 10
36.4142110347691
 20
-1.414216607819867
 30
0.0
  0
VERTEX
  5
4668
330
4660
100
AcDbEntity
  8
LW 3591-00-01
100
AcDbVertex
100
AcDb2dVertex
 10
36.22194790839581
 20
-1.58276334406014
 30
0.0
  0
VERTEX
  5
4669
330
4660
100
AcDbEntity
  8
LW 3591-00-01
100
AcDbVertex
100
AcDb2dVertex
 10
36.00386404990582
 20
-1.729326844226022
 30
0.0
  0
VERTEX
  5
466A
330
4660
100
AcDbEntity
  8
LW 3591-00-01
100
AcDbVertex
100
AcDb2dVertex
 10
35.76566958426861
 20
-1.847633719454847
 30
0.0
  0
VERTEX
  5
466B
330
4660
100
AcDbEntity
  8
LW 3591-00-01
100
AcDbVertex
100
AcDb2dVertex
 10
35.51353359221832
 20
-1.932508051405932
 30
0.0
  0
VERTEX
  5
466C
330
4660
100
AcDbEntity
  8
LW 3591-00-01
100
AcDbVertex
100
AcDb2dVertex
 10
35.25547885894196
 20
-1.983183622370688
 30
0.0
  0
VERTEX
  5
466D
330
4660
100
AcDbEntity
  8
LW 3591-00-01
100
AcDbVertex
100
AcDb2dVertex
 10
35.00000023841278
 20
-2.000000029812667
 30
0.0
  0
VERTEX
  5
466E
330
4660
100
AcDbEntity
  8
LW 3591-00-01
100
AcDbVertex
100
AcDb2dVertex
 10
34.74452042579071
 20
-1.983183622370518
 30
0.0
  0
VERTEX
  5
466F
330
4660
100
AcDbEntity
  8
LW 3591-00-01
100
AcDbVertex
100
AcDb2dVertex
 10
34.48646688460724
 20
-1.932508051405648
 30
0.0
  0
VERTEX
  5
4670
330
4660
100
AcDbEntity
  8
LW 3591-00-01
100
AcDbVertex
100
AcDb2dVertex
 10
34.23433089255718
 20
-1.847633719454393
 30
0.0
  0
VERTEX
  5
4671
330
4660
100
AcDbEntity
  8
LW 3591-00-01
100
AcDbVertex
100
AcDb2dVertex
 10
33.99613642691998
 20
-1.729326844225454
 30
0.0
  0
VERTEX
  5
4672
330
4660
100
AcDbEntity
  8
LW 3591-00-01
100
AcDbVertex
100
AcDb2dVertex
 10
33.77805137633709
 20
-1.582763344059458
 30
0.0
  0
VERTEX
  5
4673
330
4660
100
AcDbEntity
  8
LW 3591-00-01
100
AcDbVertex
100
AcDb2dVertex
 10
33.5857894420567
 20
-1.414216607819014
 30
0.0
  0
VERTEX
  5
4674
330
4660
100
AcDbEntity
  8
LW 3591-00-01
100
AcDbVertex
100
AcDb2dVertex
 10
33.41724181174675
 20
-1.221954673538562
 30
0.0
  0
VERTEX
  5
4675
330
4660
100
AcDbEntity
  8
LW 3591-00-01
100
AcDbVertex
100
AcDb2dVertex
 10
33.27067637442997
 20
-1.003869771967288
 30
0.0
  0
VERTEX
  5
4676
330
4660
100
AcDbEntity
  8
LW 3591-00-01
100
AcDbVertex
100
AcDb2dVertex
 10
33.15236830710819
 20
-0.7656736672022362
 30
0.0
  0
VERTEX
  5
4677
330
4660
100
AcDbEntity
  8
LW 3591-00-01
100
AcDbVertex
100
AcDb2dVertex
 10
33.06749248504104
 20
-0.5135356262424012
 30
0.0
  0
VERTEX
  5
4678
330
4660
100
AcDbEntity
  8
LW 3591-00-01
100
AcDbVertex
100
AcDb2dVertex
 10
33.01681661605312
 20
-0.2554797381260414
 30
0.0
  0
VERTEX
  5
4679
330
4660
100
AcDbEntity
  8
LW 3591-00-01
100
AcDbVertex
100
AcDb2dVertex
 10
32.99999976157619
 20
-0.0000000000097202
 30
0.0
  0
SEQEND
  5
467A
330
4660
100
AcDbEntity
  8
LW 3591-00-01
  0
POLYLINE
  5
467B
330
4648
100
AcDbEntity
  8
LW 3591-00-01
100
AcDb2dPolyline
 66
     1
 10
0.0
 20
0.0
 30
0.0
 70
   128
  0
VERTEX
  5
467C
330
467B
100
AcDbEntity
  8
LW 3591-00-01
100
AcDbVertex
100
AcDb2dVertex
 10
32.99999976157619
 20
-0.0000000000097202
 30
0.0
  0
VERTEX
  5
467D
330
467B
100
AcDbEntity
  8
LW 3591-00-01
100
AcDbVertex
100
AcDb2dVertex
 10
33.01681661605324
 20
0.2554797381064873
 30
0.0
  0
VERTEX
  5
467E
330
467B
100
AcDbEntity
  8
LW 3591-00-01
100
AcDbVertex
100
AcDb2dVertex
 10
33.06749248504127
 20
0.513535626222847
 30
0.0
  0
VERTEX
  5
467F
330
467B
100
AcDbEntity
  8
LW 3591-00-01
100
AcDbVertex
100
AcDb2dVertex
 10
33.15236830710865
 20
0.7656736671826821
 30
0.0
  0
VERTEX
  5
4680
330
467B
100
AcDbEntity
  8
LW 3591-00-01
100
AcDbVertex
100
AcDb2dVertex
 10
33.27067637443054
 20
1.003869771947506
 30
0.0
  0
VERTEX
  5
4681
330
467B
100
AcDbEntity
  8
LW 3591-00-01
100
AcDbVertex
100
AcDb2dVertex
 10
33.41724181174743
 20
1.22195467351878
 30
0.0
  0
VERTEX
  5
4682
330
467B
100
AcDbEntity
  8
LW 3591-00-01
100
AcDbVertex
100
AcDb2dVertex
 10
33.5857894420576
 20
1.414216607799119
 30
0.0
  0
VERTEX
  5
4683
330
467B
100
AcDbEntity
  8
LW 3591-00-01
100
AcDbVertex
100
AcDb2dVertex
 10
33.778051376338
 20
1.582763344039449
 30
0.0
  0
VERTEX
  5
4684
330
467B
100
AcDbEntity
  8
LW 3591-00-01
100
AcDbVertex
100
AcDb2dVertex
 10
33.996136426921
 20
1.729326844205331
 30
0.0
  0
VERTEX
  5
4685
330
467B
100
AcDbEntity
  8
LW 3591-00-01
100
AcDbVertex
100
AcDb2dVertex
 10
34.23433089255821
 20
1.847633719434156
 30
0.0
  0
VERTEX
  5
4686
330
467B
100
AcDbEntity
  8
LW 3591-00-01
100
AcDbVertex
100
AcDb2dVertex
 10
34.48646688460849
 20
1.932508051385184
 30
0.0
  0
VERTEX
  5
4687
330
467B
100
AcDbEntity
  8
LW 3591-00-01
100
AcDbVertex
100
AcDb2dVertex
 10
34.74452042579196
 20
1.98318362234994
 30
0.0
  0
VERTEX
  5
4688
330
467B
100
AcDbEntity
  8
LW 3591-00-01
100
AcDbVertex
100
AcDb2dVertex
 10
35.00000023841403
 20
2.000000029791976
 30
0.0
  0
VERTEX
  5
4689
330
467B
100
AcDbEntity
  8
LW 3591-00-01
100
AcDbVertex
100
AcDb2dVertex
 10
35.25547885894321
 20
1.98318362234977
 30
0.0
  0
VERTEX
  5
468A
330
467B
100
AcDbEntity
  8
LW 3591-00-01
100
AcDbVertex
100
AcDb2dVertex
 10
35.51353359221958
 20
1.9325080513849
 30
0.0
  0
VERTEX
  5
468B
330
467B
100
AcDbEntity
  8
LW 3591-00-01
100
AcDbVertex
100
AcDb2dVertex
 10
35.76566958426963
 20
1.847633719433702
 30
0.0
  0
VERTEX
  5
468C
330
467B
100
AcDbEntity
  8
LW 3591-00-01
100
AcDbVertex
100
AcDb2dVertex
 10
36.00386404990684
 20
1.729326844204763
 30
0.0
  0
VERTEX
  5
468D
330
467B
100
AcDbEntity
  8
LW 3591-00-01
100
AcDbVertex
100
AcDb2dVertex
 10
36.22194790839671
 20
1.582763344038767
 30
0.0
  0
VERTEX
  5
468E
330
467B
100
AcDbEntity
  8
LW 3591-00-01
100
AcDbVertex
100
AcDb2dVertex
 10
36.41421103477
 20
1.414216607798266
 30
0.0
  0
VERTEX
  5
468F
330
467B
100
AcDbEntity
  8
LW 3591-00-01
100
AcDbVertex
100
AcDb2dVertex
 10
36.58275866507995
 20
1.221954673517871
 30
0.0
  0
VERTEX
  5
4690
330
467B
100
AcDbEntity
  8
LW 3591-00-01
100
AcDbVertex
100
AcDb2dVertex
 10
36.72932291030395
 20
1.00386977194654
 30
0.0
  0
VERTEX
  5
4691
330
467B
100
AcDbEntity
  8
LW 3591-00-01
100
AcDbVertex
100
AcDb2dVertex
 10
36.84763216971851
 20
0.7656736671815452
 30
0.0
  0
VERTEX
  5
4692
330
467B
100
AcDbEntity
  8
LW 3591-00-01
100
AcDbVertex
100
AcDb2dVertex
 10
36.93250799178566
 20
0.5135356262217102
 30
0.0
  0
VERTEX
  5
4693
330
467B
100
AcDbEntity
  8
LW 3591-00-01
100
AcDbVertex
100
AcDb2dVertex
 10
36.9831838607737
 20
0.2554797381053504
 30
0.0
  0
VERTEX
  5
4694
330
467B
100
AcDbEntity
  8
LW 3591-00-01
100
AcDbVertex
100
AcDb2dVertex
 10
36.99999952315761
 20
-0.0000000000109139
 30
0.0
  0
SEQEND
  5
4695
330
467B
100
AcDbEntity
  8
LW 3591-00-01
  0
LINE
  5
4696
330
4648
100
AcDbEntity
  8
LW 3591-00-01
100
AcDbLine
 10
38.99999999999477
 20
-17.50000000001148
 30
0.0
 11
39.00000000000512
 21
17.49999999998852
 31
0.0
  0
LINE
  5
4697
330
4648
100
AcDbEntity
  8
LW 3591-00-01
100
AcDbLine
 10
41.99999999999556
 20
-14.50000000001245
 30
0.0
 11
42.00000000000431
 21
14.49999999998761
 31
0.0
  0
LINE
  5
4698
330
4648
100
AcDbEntity
  8
LW 3591-00-01
100
AcDbLine
 10
19.00000000000511
 20
17.49999999999443
 30
0.0
 11
39.00000000000512
 21
17.4999999999884
 31
0.0
  0
LINE
  5
4699
330
4648
100
AcDbEntity
  8
LW 3591-00-01
100
AcDbLine
 10
18.99999999999477
 20
-17.50000000000557
 30
0.0
 11
38.99999999999477
 21
-17.50000000001159
 31
0.0
  0
LINE
  5
469A
330
4648
100
AcDbEntity
  8
LW 3591-00-01
100
AcDbLine
 10
41.99999999999568
 20
-14.50000000001245
 30
0.0
 11
38.99999999999477
 21
-17.50000000001148
 31
0.0
  0
LINE
  5
469B
330
4648
100
AcDbEntity
  8
LW 3591-00-01
100
AcDbLine
 10
42.00000000000431
 20
14.49999999998761
 30
0.0
 11
39.00000000000512
 21
17.4999999999884
 31
0.0
  0
LINE
  5
469C
330
4648
100
AcDbEntity
  8
LW 3591-00-01
100
AcDbLine
 10
70.00000000001512
 20
-0.0000000000192131
 30
0.0
 11
60.00000000001512
 21
-0.0000000000192131
 31
0.0
  0
LINE
  5
469D
330
4648
100
AcDbEntity
  8
LW 3591-00-01
  6
MITTE2
 62
     3
100
AcDbLine
 10
65.00000000001512
 20
22.49999999998079
 30
0.0
 11
65.00000000001512
 21
-22.50000000001922
 31
0.0
  0
LINE
  5
469E
330
4648
100
AcDbEntity
  8
LW 3591-00-01
  6
MITTE2
 62
     3
100
AcDbLine
 10
145.0000000000151
 20
22.49999999995702
 30
0.0
 11
145.0000000000151
 21
-22.50000000004297
 31
0.0
  0
LINE
  5
469F
330
4648
100
AcDbEntity
  8
LW 3591-00-01
  6
MITTE2
 62
     3
100
AcDbLine
 10
187.3663674569925
 20
-0.000000000055536
 30
0.0
 11
-23.30038640845748
 21
0.0000000000069349
 31
0.0
  0
LINE
  5
46A0
330
4648
100
AcDbEntity
  8
LW 3591-00-01
100
AcDbLine
 10
-15.99999999999795
 20
7.000000000005059
 30
0.0
 11
-15.99999999999795
 21
-6.99999999999494
 31
0.0
  0
LINE
  5
46A1
330
4648
100
AcDbEntity
  8
LW 3591-00-01
100
AcDbLine
 10
-16.99999999999795
 20
6.000000000005059
 30
0.0
 11
-16.99999999999795
 21
-5.99999999999494
 31
0.0
  0
LINE
  5
46A2
330
4648
100
AcDbEntity
  8
LW 3591-00-01
100
AcDbLine
 10
0.0000000000020464
 20
-6.99999999999494
 30
0.0
 11
-15.99999999999795
 21
-6.99999999999494
 31
0.0
  0
LINE
  5
46A3
330
4648
100
AcDbEntity
  8
LW 3591-00-01
100
AcDbLine
 10
0.0000000000020464
 20
7.000000000005059
 30
0.0
 11
-15.99999999999795
 21
7.000000000005059
 31
0.0
  0
LINE
  5
46A4
330
4648
100
AcDbEntity
  8
LW 3591-00-01
100
AcDbLine
 10
-16.99999999999795
 20
6.000000000005059
 30
0.0
 11
-15.99999999999795
 21
7.000000000005059
 31
0.0
  0
LINE
  5
46A5
330
4648
100
AcDbEntity
  8
LW 3591-00-01
100
AcDbLine
 10
-16.99999999999795
 20
-5.99999999999494
 30
0.0
 11
-15.99999999999795
 21
-6.99999999999494
 31
0.0
  0
LINE
  5
46A6
330
4648
100
AcDbEntity
  8
LW 3591-00-01
 62
     3
100
AcDbLine
 10
-16.99999999999795
 20
-5.794499999994911
 30
0.0
 11
0.0000000000020464
 21
-5.794499999994911
 31
0.0
  0
LINE
  5
46A7
330
4648
100
AcDbEntity
  8
LW 3591-00-01
 62
     3
100
AcDbLine
 10
0.0000000000020464
 20
5.794500000005029
 30
0.0
 11
-16.99999999999795
 21
5.794500000005029
 31
0.0
  0
LINE
  5
46A8
330
4648
100
AcDbEntity
  8
LW 3591-00-01
100
AcDbLine
 10
-15.99999999999795
 20
7.000000000005059
 30
0.0
 11
-15.99999999999795
 21
-6.99999999999494
 31
0.0
  0
INSERT
  5
46A9
330
4648
100
AcDbEntity
  8
LW 3591-00-01
100
AcDbBlockReference
 66
     1
  2
insertpoint-ECKELT
 10
0.0
 20
0.0
 30
0.0
  0
ATTRIB
  5
46AA
330
46A9
100
AcDbEntity
  8
insertpoint_ECKELT
100
AcDbText
 10
-6.931514324693087
 20
0.0
 30
0.0
 40
0.6
  1
LW 3591/00-01
 72
     2
 11
-1.200000000000045
 21
0.0
 31
0.0
100
AcDbAttribute
  2
LINKS
 70
     0
  0
ATTRIB
  5
46AB
330
46A9
100
AcDbEntity
  8
insertpoint_ECKELT
100
AcDbText
 10
1.200000000000045
 20
0.0
 30
0.0
 40
0.6
  1

100
AcDbAttribute
  2
RECHTS
 70
     0
  0
SEQEND
  5
46AC
330
46A9
100
AcDbEntity
  8
LW 3591-00-01
  0
HATCH
  5
46AD
330
4648
100
AcDbEntity
  8
LW 3591-00-01
 62
     1
100
AcDbHatch
 10
0.0
 20
0.0
 30
0.0
210
0.0
220
0.0
230
1.0
  2
SOLID
 70
     1
 71
     0
 91
        5
 92
        7
 72
     0
 73
     1
 93
       76
 10
101.6198830459461
 20
19.76920546873941
 10
101.651741875319
 20
19.82078643058111
 10
101.7698999995501
 20
19.97202882959709
 10
101.9043780747629
 20
20.11245295985964
 10
102.0503979812245
 20
20.24083752157299
 10
102.2140667773064
 20
20.35774380448874
 10
102.3894537306711
 20
20.45992168631039
 10
102.5712066632715
 20
20.55127336589328
 10
102.7523755987372
 20
20.62079167833946
 10
100.4952376605372
 20
20.6207916783394
 10
100.2823411081372
 20
20.61210202313936
 10
100.0803066247372
 20
20.5860330575394
 10
99.88478938273715
 20
20.54475719533934
 10
99.70013420973726
 20
20.49044685033937
 10
99.52416869193712
 20
20.42092960873936
 10
99.3568928293372
 20
20.33837788433925
 10
99.20632456679028
 20
20.24305236679544
 10
99.06361696633736
 20
20.13634340093933
 10
98.9381757107666
 20
20.01729512469922
 10
98.82691075868923
 20
19.88903581394732
 10
98.72689282733723
 20
19.75182615833933
 10
98.64434110293723
 20
19.60627443373926
 10
98.58134110273727
 20
19.45203305393915
 10
98.5313755853374
 20
19.29127443273938
 10
98.50313420593728
 20
19.12617098393929
 10
98.49444455073729
 20
18.95237787993932
 10
98.50530661973733
 20
18.77858477593924
 10
98.53572041293729
 20
18.61130891333926
 10
98.59003075793737
 20
18.45055029213932
 10
98.65954799953726
 20
18.29413649853927
 10
98.74861696533741
 20
18.14641236013921
 10
98.85506524153733
 20
18.00520546313936
 10
98.97776317296132
 20
17.87399166961927
 10
99.11396222166956
 20
17.75285787613137
 10
99.26130662213735
 20
17.64241235853927
 10
99.42206524333744
 20
17.54465373753942
 10
99.59769186458458
 20
17.45975580623536
 10
99.77834110653725
 20
17.38606753013937
 10
99.96951352093743
 20
17.32958477133934
 10
100.1693755905373
 20
17.28613649533935
 10
100.3779273153373
 20
17.26006752973933
 10
100.5886514539372
 20
17.25137787453934
 10
102.7078225396899
 20
17.25137787453945
 10
102.5472786756374
 20
17.31444867827434
 10
102.363714531835
 20
17.40506895179709
 10
102.1952481256648
 20
17.50959864472867
 10
102.0324152309041
 20
17.62521688315411
 10
101.888502862534
 20
17.75500647969397
 10
101.7610669690497
 20
17.89436016292251
 10
101.6473616143063
 20
18.04484840763507
 10
101.5953903828576
 20
18.1290330497394
 10
100.5669273159373
 20
18.12903304973935
 10
100.4348184879318
 20
18.1365930497634
 10
100.3040652461372
 20
18.15692684293134
 10
100.1758928319374
 20
18.18986063613931
 10
100.0607549005374
 20
18.23548132593941
 10
99.95580993468696
 20
18.29196408473933
 10
99.85766027920295
 20
18.35956960219533
 10
99.76747903753732
 20
18.43751580933929
 10
99.69578938213738
 20
18.52223994753933
 10
101.4233106963961
 20
18.52223994753939
 10
101.4127262291231
 20
18.55487538829772
 10
101.3766144211587
 20
18.74024933584883
 10
101.364570768377
 20
18.93053904979956
 10
101.3765924408063
 20
19.12529014315459
 10
101.4128981624816
 20
19.31165951442108
 10
101.4294968651566
 20
19.36079167433934
 10
99.65885834753727
 20
19.36079167433934
 10
99.72837558913727
 20
19.45637788153925
 10
99.81092731353726
 20
19.53892960593936
 10
99.90601821039081
 20
19.60879443374728
 10
100.0086169693372
 20
19.66710202013939
 10
100.127308969714
 20
19.71107167545131
 10
100.2497549011373
 20
19.74313650313934
 10
100.3866169705372
 20
19.76268822733931
 10
100.5299962813372
 20
19.76920546873936
 97
        0
 92
        7
 72
     0
 73
     1
 93
       72
 10
103.348346910974
 20
19.75460684800339
 10
103.4712099458468
 20
19.77268133081941
 10
103.5952721531372
 20
19.77789512393946
 10
104.8639618123372
 20
19.77789512393951
 10
104.0167204303372
 20
18.96323994893959
 10
105.7828928497374
 20
17.24486063313958
 10
107.1015480263372
 20
17.24486063313958
 10
105.3875135381373
 20
18.98713650073955
 10
107.0689618193372
 20
20.62079167833963
 10
103.6300307739373
 20
20.62079167833946
 10
103.4220438767252
 20
20.61001650589151
 10
103.2153256691723
 20
20.58455581615539
 10
103.0108928409372
 20
20.54475719533946
 10
102.8175480127372
 20
20.48827443653943
 10
102.6307204259371
 20
20.41658478113942
 10
102.4595602874627
 20
20.33055719465943
 10
102.2939962869372
 20
20.23410202193941
 10
102.1419273209372
 20
20.12548133193945
 10
102.0062296653341
 20
20.00617236604341
 10
101.8812376649373
 20
19.87565374493937
 10
101.7726169749371
 20
19.73661926173935
 10
101.6813755953372
 20
19.58889512333951
 10
101.6096859399372
 20
19.4346537435394
 10
101.5553755949372
 20
19.27389512233941
 10
101.5227893879373
 20
19.10661925973937
 10
101.5119273189373
 20
18.93065374193929
 10
101.5227893879373
 20
18.75903305173943
 10
101.5553755949373
 20
18.59175718913945
 10
101.6075135261374
 20
18.43099856793947
 10
101.6770307677373
 20
18.27675718813941
 10
101.7688717335461
 20
18.12799029111551
 10
101.8742511821565
 20
17.98852132515537
 10
101.9922566997726
 20
17.85947994543551
 10
102.1245480105373
 20
17.74017097953947
 10
102.2766691144685
 20
17.63215856540336
 10
102.4352031839373
 20
17.53379166853938
 10
102.6068238741373
 20
17.44906753033945
 10
102.7893066333374
 20
17.37737787493944
 10
102.9835378063677
 20
17.32332821959545
 10
103.1803411173373
 20
17.27961925393941
 10
103.3888928421373
 20
17.25355028833945
 10
103.5996169807373
 20
17.24486063313946
 10
105.5026514695373
 20
17.24486063313958
 10
104.6163066391373
 20
18.11817098073953
 10
103.5996169807373
 20
18.11817098073948
 10
103.5329499460428
 20
18.12191827367877
 10
103.4320022215845
 20
18.13190063595544
 10
103.3118677384445
 20
18.15336408429948
 10
103.194748565659
 20
18.18768822233937
 10
103.0932533929229
 20
18.22861649833146
 10
103.0371182203308
 20
18.2567709811795
 10
102.9834335305053
 20
18.28935718817956
 10
102.8508728404292
 20
18.3886799471154
 10
102.7772714608853
 20
18.45871856802745
 10
102.7222051158829
 20
18.52658477513933
 10
102.6734995984868
 20
18.59914339605939
 10
102.6341354604308
 20
18.67630753423538
 10
102.6047122879237
 20
18.75772960345938
 10
102.5840135292372
 20
18.84488684511547
 10
102.5764969774892
 20
18.93421650057132
 10
102.5778525637005
 20
18.99652132835541
 10
102.5838571154437
 20
19.05865236303532
 10
102.5960139430685
 20
19.12182615633946
 10
102.6142274603677
 20
19.18352270825943
 10
102.6578755984371
 20
19.28223719133132
 10
102.6994034606381
 20
19.35010339844336
 10
102.7624816677348
 20
19.42813650213941
 10
102.8918836080996
 20
19.55465923919308
 10
102.9511514614373
 20
19.59471719232346
 10
103.0274466340933
 20
19.63903443384339
 10
103.111466910222
 20
19.68117926156344
 10
103.2280038761092
 20
19.72401926169948
 97
        0
 92
        7
 72
     0
 73
     1
 93
       57
 10
107.9063838909613
 20
19.73253512379568
 10
108.0378583741373
 20
19.77250753771568
 10
108.1725480297372
 20
19.79961926193971
 10
108.3159273405372
 20
19.80830891713964
 10
109.5563756203372
 20
19.8083089171397
 10
109.5563756203372
 20
20.63382616113973
 10
108.3224445819372
 20
20.63382616113961
 10
108.1117204433373
 20
20.62513650593962
 10
107.9053411323373
 20
20.59689512653961
 10
107.7076514765373
 20
20.55561926433967
 10
107.5186514759373
 20
20.50130891933964
 10
107.3339963029373
 20
20.42961926393963
 10
107.167589405857
 20
20.34698064298755
 10
107.0087685777667
 20
20.25052547026752
 10
106.8586895428077
 20
20.14103581474757
 10
106.7241302320358
 20
20.02181374540362
 10
106.6040652661372
 20
19.89303305533957
 10
106.4997894037372
 20
19.75399857213961
 10
106.4150652655372
 20
19.60844684753954
 10
106.3433756101372
 20
19.45420546773948
 10
106.2934100927373
 20
19.29344684653966
 10
106.2608238857373
 20
19.12617098393969
 10
106.2499618167373
 20
18.9523778799396
 10
106.2608238857373
 20
18.77858477593958
 10
106.2934100927373
 20
18.6113089133396
 10
106.3455480239372
 20
18.45055029213949
 10
106.4172376793374
 20
18.29413649853961
 10
106.5041342313374
 20
18.14641236013961
 10
106.6129808523725
 20
18.00685649762761
 10
106.732837266546
 20
17.87651166962763
 10
106.8692648531861
 20
17.75520408303561
 10
107.0168238881373
 20
17.64458477233955
 10
107.1775825093373
 20
17.54682615133953
 10
107.3513756133372
 20
17.4621020131396
 10
107.5360307863374
 20
17.38823994393971
 10
107.7272032007373
 20
17.33175718513962
 10
107.9270652703373
 20
17.28830890913968
 10
108.1334445813373
 20
17.26441235733955
 10
108.3463411337374
 20
17.25572270213962
 10
109.5563756203373
 20
17.25572270213968
 10
109.5563756203373
 20
18.11382615313965
 10
108.3224445819372
 20
18.1138261531396
 10
108.1887976849613
 20
18.12416684282755
 10
108.0565411328174
 20
18.14615167048367
 10
107.9359287186413
 20
18.18047580852362
 10
107.8199218217214
 20
18.22844270522768
 10
107.7102583730973
 20
18.28935718817968
 10
107.6131949245133
 20
18.35696270563557
 10
107.5257769932013
 20
18.43673374037161
 10
107.4513066481373
 20
18.52223994753962
 10
109.5563756203373
 20
18.52223994753967
 10
109.5563756203373
 20
19.34992960533969
 10
107.4143756135372
 20
19.34992960533958
 10
107.4838928551372
 20
19.4476882263396
 10
107.5707894071372
 20
19.53675719213953
 10
107.6719369936653
 20
19.61305236479563
 10
107.7793411319372
 20
19.6801365029396
 97
        0
 92
        7
 72
     0
 73
     1
 93
        6
 10
109.7866514831373
 20
20.62079167833974
 10
109.7866514831373
 20
17.25137787453968
 10
112.0242376971374
 20
17.2513778745398
 10
112.0242376971373
 20
18.11817098073982
 10
110.8098583829373
 20
18.11817098073982
 10
110.8098583829372
 20
20.62079167833974
 97
        0
 92
        7
 72
     0
 73
     1
 93
        8
 10
111.0423066595372
 20
20.62079167833974
 10
111.0423066595372
 20
19.79527443433972
 10
112.2762376979373
 20
19.79527443433983
 10
112.2762376979374
 20
17.24486063313981
 10
113.3016170115373
 20
17.24486063313981
 10
113.3016170115372
 20
19.79527443433977
 10
114.5442377051372
 20
19.79527443433983
 10
114.5442377051372
 20
20.62079167833986
 97
        0
 75
     0
 76
     1
 47
0.0142553043587597
 98
        5
 10
100.9295431720125
 20
20.17834200875029
 10
103.1970403853551
 20
20.0357890237446
 10
107.6892521175566
 20
20.09281019629242
 10
110.4131012013882
 20
20.33515042098486
 10
111.824939183615
 20
20.23536328857148
450
        0
451
        0
460
0.0
461
0.0
452
        0
462
0.0
453
        0
470

  0
LWPOLYLINE
  5
46AE
330
4648
100
AcDbEntity
  8
LW 3591-00-01
 62
     1
100
AcDbPolyline
 90
        8
 70
     1
 43
0.0
 10
113.3016170115372
 20
19.79527443433977
 10
113.3016170115373
 20
17.24486063313981
 10
112.2762376979374
 20
17.24486063313981
 10
112.2762376979373
 20
19.79527443433983
 10
111.0423066595372
 20
19.79527443433972
 10
111.0423066595372
 20
20.62079167833974
 10
114.5442377051372
 20
20.62079167833986
 10
114.5442377051372
 20
19.79527443433983
  0
LWPOLYLINE
  5
46AF
330
4648
100
AcDbEntity
  8
LW 3591-00-01
 62
     1
100
AcDbPolyline
 90
       73
 70
     1
 43
0.0
 10
103.5996169807373
 20
18.11817098073948
 10
104.6163066391373
 20
18.11817098073953
 10
105.5026514695373
 20
17.24486063313958
 10
103.5996169807373
 20
17.24486063313941
 10
103.3888928421373
 20
17.25355028833945
 10
103.1803411173373
 20
17.27961925393947
 10
102.9835378063677
 20
17.32332821959545
 10
102.7893066333374
 20
17.37737787493944
 10
102.6068238741373
 20
17.44906753033945
 10
102.4352031839373
 20
17.53379166853943
 10
102.2766691144686
 20
17.63215856540347
 10
102.1245480105373
 20
17.74017097953947
 10
101.9922566997725
 20
17.85947994543539
 10
101.8742511821565
 20
17.98852132515537
 10
101.7688717335461
 20
18.12799029111545
 10
101.6770307677373
 20
18.27675718813941
 10
101.6075135261374
 20
18.43099856793947
 10
101.5553755949373
 20
18.59175718913945
 10
101.5227893879373
 20
18.75903305173943
 10
101.5119273189373
 20
18.93065374193941
 10
101.5227893879373
 20
19.10661925973937
 10
101.5553755949372
 20
19.27389512233941
 10
101.6096859399373
 20
19.4346537435394
 10
101.6813755953372
 20
19.58889512333945
 10
101.7726169749372
 20
19.7366192617394
 10
101.8812376649373
 20
19.87565374493937
 10
102.0062296653341
 20
20.00617236604347
 10
102.1419273209371
 20
20.1254813319394
 10
102.2939962869372
 20
20.23410202193941
 10
102.4595602874628
 20
20.33055719465938
 10
102.6307204259371
 20
20.41658478113936
 10
102.8175480127372
 20
20.48827443653943
 10
103.0108928409372
 20
20.54475719533952
 10
103.2153256691724
 20
20.58455581615544
 10
103.4220438767252
 20
20.61001650589151
 10
103.6300307739371
 20
20.62079167833946
 10
107.0689618193372
 20
20.62079167833963
 10
105.3875135381373
 20
18.98713650073955
 10
107.1015480263372
 20
17.24486063313958
 10
105.7828928497374
 20
17.24486063313958
 10
104.0167204303372
 20
18.96323994893959
 10
104.8639618123372
 20
19.77789512393951
 10
103.5952721531372
 20
19.77789512393946
 10
103.4712099458468
 20
19.77268133081941
 10
103.348346910974
 20
19.75460684800339
 10
103.2280038761092
 20
19.72401926169948
 10
103.111466910222
 20
19.68117926156338
 10
103.0274466340932
 20
19.63903443384345
 10
102.9511514614372
 20
19.59471719232346
 10
102.910909668206
 20
19.56751857154745
 10
102.8733964267077
 20
19.53658339903546
 10
102.7624816677348
 20
19.42813650213941
 10
102.6994034606381
 20
19.35010339844336
 10
102.6578755984372
 20
19.28223719133143
 10
102.6142274603677
 20
19.18352270825943
 10
102.5960139430685
 20
19.12182615633946
 10
102.5838571154437
 20
19.05865236303543
 10
102.5778525637005
 20
18.99652132835547
 10
102.5764969774893
 20
18.93421650057144
 10
102.5840135292372
 20
18.84488684511547
 10
102.6047122879238
 20
18.75772960345944
 10
102.6341354604309
 20
18.67630753423543
 10
102.6734995984868
 20
18.59914339605939
 10
102.7222051158828
 20
18.52658477513944
 10
102.7772714608853
 20
18.45871856802745
 10
102.8508728404292
 20
18.3886799471154
 10
102.9834335305054
 20
18.28935718817951
 10
103.0371182203309
 20
18.25677098117944
 10
103.0932533929229
 20
18.22861649833146
 10
103.194748565659
 20
18.18768822233937
 10
103.3118677384445
 20
18.15336408429948
 10
103.4320022215845
 20
18.13190063595544
 10
103.5329499460429
 20
18.12191827367883
  0
LWPOLYLINE
  5
46B0
330
4648
100
AcDbEntity
  8
LW 3591-00-01
 62
     1
100
AcDbPolyline
 90
       76
 70
     1
 43
0.0
 10
102.3894537306711
 20
20.45992168631039
 10
102.2140667773063
 20
20.35774380448868
 10
102.0503979812243
 20
20.24083752157304
 10
101.9043780747629
 20
20.11245295985964
 10
101.7698999995501
 20
19.97202882959709
 10
101.651741875319
 20
19.82078643058122
 10
101.6198830459461
 20
19.76920546873941
 10
100.5299962813372
 20
19.76920546873941
 10
100.3866169705372
 20
19.76268822733931
 10
100.2497549011372
 20
19.74313650313934
 10
100.127308969714
 20
19.71107167545131
 10
100.0086169693372
 20
19.66710202013939
 10
99.90601821039092
 20
19.60879443374733
 10
99.81092731353726
 20
19.5389296059393
 10
99.72837558913717
 20
19.45637788153931
 10
99.65885834753727
 20
19.36079167433934
 10
101.4294968651566
 20
19.36079167433934
 10
101.4128981624816
 20
19.31165951442108
 10
101.3765924408062
 20
19.12529014315447
 10
101.364570768377
 20
18.93053904979956
 10
101.3766144211587
 20
18.74024933584883
 10
101.4127262291232
 20
18.55487538829777
 10
101.4233106963961
 20
18.52223994753939
 10
99.69578938213738
 20
18.52223994753933
 10
99.76747903753732
 20
18.43751580933929
 10
99.85766027920295
 20
18.35956960219533
 10
99.95580993468696
 20
18.29196408473933
 10
100.0607549005374
 20
18.23548132593941
 10
100.1758928319374
 20
18.18986063613937
 10
100.3040652461372
 20
18.15692684293134
 10
100.4348184879318
 20
18.1365930497634
 10
100.5669273159373
 20
18.12903304973935
 10
101.5953903828576
 20
18.1290330497394
 10
101.6473616143063
 20
18.04484840763513
 10
101.7610669690497
 20
17.89436016292251
 10
101.888502862534
 20
17.75500647969397
 10
102.0324152309042
 20
17.62521688315422
 10
102.1952481256648
 20
17.50959864472867
 10
102.363714531835
 20
17.40506895179709
 10
102.5472786756374
 20
17.31444867827434
 10
102.7078225396899
 20
17.25137787453945
 10
100.5886514539373
 20
17.25137787453929
 10
100.3779273153373
 20
17.26006752973933
 10
100.1693755905373
 20
17.28613649533935
 10
99.96951352093731
 20
17.32958477133934
 10
99.77834110653738
 20
17.38606753013925
 10
99.59769186458448
 20
17.45975580623531
 10
99.42206524333744
 20
17.54465373753942
 10
99.26130662213735
 20
17.64241235853927
 10
99.11396222166969
 20
17.75285787613131
 10
98.97776317296132
 20
17.87399166961927
 10
98.85506524153733
 20
18.0052054631393
 10
98.74861696533731
 20
18.14641236013926
 10
98.65954799953739
 20
18.29413649853933
 10
98.59003075793737
 20
18.45055029213932
 10
98.53572041293729
 20
18.61130891333926
 10
98.50530661973733
 20
18.77858477593935
 10
98.49444455073729
 20
18.95237787993926
 10
98.50313420593716
 20
19.12617098393923
 10
98.53137558533729
 20
19.29127443273933
 10
98.58134110273727
 20
19.45203305393926
 10
98.64434110293723
 20
19.60627443373926
 10
98.72689282733723
 20
19.75182615833933
 10
98.82691075868933
 20
19.88903581394732
 10
98.9381757107666
 20
20.01729512469927
 10
99.06361696633723
 20
20.13634340093927
 10
99.20632456679028
 20
20.24305236679532
 10
99.35689282933731
 20
20.33837788433936
 10
99.52416869193724
 20
20.4209296087393
 10
99.70013420973726
 20
20.49044685033937
 10
99.88478938273727
 20
20.54475719533929
 10
100.0803066247372
 20
20.5860330575394
 10
100.2823411081372
 20
20.61210202313936
 10
100.4952376605372
 20
20.62079167833934
 10
102.7523755987373
 20
20.62079167833951
 10
102.5712066632715
 20
20.55127336589328
  0
LWPOLYLINE
  5
46B1
330
4648
100
AcDbEntity
  8
LW 3591-00-01
 62
     1
100
AcDbPolyline
 90
        6
 70
     1
 43
0.0
 10
112.0242376971374
 20
17.2513778745398
 10
109.7866514831373
 20
17.25137787453968
 10
109.7866514831373
 20
20.62079167833974
 10
110.8098583829372
 20
20.62079167833974
 10
110.8098583829373
 20
18.11817098073982
 10
112.0242376971373
 20
18.11817098073982
  0
LWPOLYLINE
  5
46B2
330
4648
100
AcDbEntity
  8
LW 3591-00-01
 62
     1
100
AcDbPolyline
 90
       57
 70
     1
 43
0.0
 10
106.732837266546
 20
17.87651166962763
 10
106.6129808523725
 20
18.00685649762755
 10
106.5041342313372
 20
18.14641236013955
 10
106.4172376793374
 20
18.29413649853961
 10
106.3455480239372
 20
18.45055029213949
 10
106.2934100927373
 20
18.6113089133396
 10
106.2608238857373
 20
18.77858477593958
 10
106.2499618167373
 20
18.9523778799396
 10
106.2608238857373
 20
19.12617098393963
 10
106.2934100927373
 20
19.29344684653955
 10
106.3433756101372
 20
19.45420546773948
 10
106.4150652655372
 20
19.6084468475396
 10
106.4997894037371
 20
19.75399857213949
 10
106.6040652661372
 20
19.89303305533963
 10
106.7241302320355
 20
20.02181374540356
 10
106.8586895428077
 20
20.14103581474757
 10
107.0087685777669
 20
20.25052547026758
 10
107.1675894058573
 20
20.34698064298766
 10
107.3339963029373
 20
20.42961926393963
 10
107.5186514759372
 20
20.50130891933958
 10
107.7076514765373
 20
20.55561926433967
 10
107.9053411323373
 20
20.59689512653961
 10
108.1117204433373
 20
20.62513650593962
 10
108.3224445819372
 20
20.63382616113961
 10
109.5563756203372
 20
20.63382616113973
 10
109.5563756203372
 20
19.8083089171397
 10
108.3159273405373
 20
19.80830891713964
 10
108.1725480297373
 20
19.79961926193965
 10
108.0378583741373
 20
19.77250753771568
 10
107.9063838909612
 20
19.73253512379563
 10
107.7793411319372
 20
19.6801365029396
 10
107.6719369936653
 20
19.61305236479563
 10
107.5707894071372
 20
19.53675719213964
 10
107.4838928551372
 20
19.4476882263396
 10
107.4143756135372
 20
19.34992960533958
 10
109.5563756203373
 20
19.34992960533969
 10
109.5563756203373
 20
18.52223994753967
 10
107.4513066481373
 20
18.52223994753962
 10
107.5257769932013
 20
18.43673374037161
 10
107.6131949245133
 20
18.35696270563557
 10
107.7102583730973
 20
18.28935718817968
 10
107.8199218217214
 20
18.22844270522768
 10
107.9359287186413
 20
18.18047580852362
 10
108.0565411328174
 20
18.14615167048367
 10
108.1887976849613
 20
18.12416684282755
 10
108.3224445819372
 20
18.1138261531396
 10
109.5563756203373
 20
18.11382615313965
 10
109.5563756203373
 20
17.25572270213968
 10
108.3463411337374
 20
17.25572270213962
 10
108.1334445813373
 20
17.26441235733955
 10
107.9270652703373
 20
17.28830890913963
 10
107.7272032007373
 20
17.33175718513962
 10
107.5360307863374
 20
17.38823994393971
 10
107.3513756133372
 20
17.4621020131396
 10
107.1775825093373
 20
17.54682615133964
 10
107.0168238881373
 20
17.64458477233955
 10
106.8692648531861
 20
17.75520408303561
  0
ENDBLK
  5
464A
330
4648
100
AcDbEntity
  8
0
100
AcDbBlockEnd
  0
ENDSEC
  0
SECTION
  2
ENTITIES
  0
INSERT
  5
45B5
330
23
100
AcDbEntity
  8
0
100
AcDbBlockReference
  2
LW 3591-00-01_a
 10
267.1401696236951
 20
335.1866254961618
 30
0.0
  0
INSERT
  5
4647
330
23
100
AcDbEntity
  8
0
100
AcDbBlockReference
  2
LW 3591-00-01_b
 10
267.1401696238896
 20
465.3278722640318
 30
0.0
  0
INSERT
  5
46B3
330
23
100
AcDbEntity
  8
0
100
AcDbBlockReference
  2
LW 3591-00-01_c
 10
515.667533200067
 20
465.3278722639973
 30
0.0
  0
ENDSEC
  0
SECTION
  2
OBJECTS
  0
DICTIONARY
  5
C
330
0
100
AcDbDictionary
281
     1
  3
ACAD_COLOR
350
1C
  3
ACAD_GROUP
350
D
  3
ACAD_LAYOUT
350
1A
  3
ACAD_MATERIAL
350
1B
  3
ACAD_MLINESTYLE
350
17
  3
ACAD_PLOTSETTINGS
350
19
  3
ACAD_PLOTSTYLENAME
350
E
  3
ACAD_TABLESTYLE
350
1D
  3
AcDbVariableDictionary
350
61C
  0
DICTIONARY
  5
9C6
330
2
100
AcDbDictionary
280
     1
281
     1
  3
ACAD_LAYERFILTERS
360
4478
  3
ACLYDICTIONARY
360
4477
  0
DICTIONARY
  5
9A6
330
23
100
AcDbDictionary
280
     1
281
     1
  3
ACAD_SORTENTS
360
9A7
  0
DICTIONARY
  5
627
330
626
100
AcDbDictionary
280
     1
281
     1
  3
ACAD_SORTENTS
360
628
  0
DICTIONARY
  5
1C
102
{ACAD_REACTORS
330
C
102
}
330
C
100
AcDbDictionary
281
     1
  0
DICTIONARY
  5
D
102
{ACAD_REACTORS
330
C
102
}
330
C
100
AcDbDictionary
281
     1
  0
DICTIONARY
  5
1A
102
{ACAD_REACTORS
330
C
102
}
330
C
100
AcDbDictionary
281
     1
  3
Layout1
350
22
  3
Layout2
350
2A
  3
Model
350
26
  0
DICTIONARY
  5
1B
102
{ACAD_REACTORS
330
C
102
}
330
C
100
AcDbDictionary
281
     1
  0
DICTIONARY
  5
17
102
{ACAD_REACTORS
330
C
102
}
330
C
100
AcDbDictionary
281
     1
  3
Standard
350
18
  0
DICTIONARY
  5
19
102
{ACAD_REACTORS
330
C
102
}
330
C
100
AcDbDictionary
281
     1
  0
ACDBDICTIONARYWDFLT
  5
E
102
{ACAD_REACTORS
330
C
102
}
330
C
100
AcDbDictionary
281
     1
  3
Normal
350
F
100
AcDbDictionaryWithDefault
340
F
  0
DICTIONARY
  5
1D
102
{ACAD_REACTORS
330
C
102
}
330
C
100
AcDbDictionary
281
     1
  3
Standard
350
1E
  0
DICTIONARY
  5
61C
102
{ACAD_REACTORS
330
C
102
}
330
C
100
AcDbDictionary
281
     1
  3
CTABLESTYLE
350
61D
  0
DICTIONARY
  5
4478
102
{ACAD_REACTORS
330
9C6
102
}
330
9C6
100
AcDbDictionary
281
     1
  0
DICTIONARY
  5
4477
102
{ACAD_REACTORS
330
9C6
102
}
330
9C6
100
AcDbDictionary
281
     1
1001
ACAD
1000
<All
  0
SORTENTSTABLE
  5
9A7
102
{ACAD_REACTORS
330
9A6
102
}
330
9A6
100
AcDbSortentsTable
330
23
  0
SORTENTSTABLE
  5
628
102
{ACAD_REACTORS
330
627
102
}
330
627
100
AcDbSortentsTable
330
626
  0
LAYOUT
  5
22
102
{ACAD_REACTORS
330
1A
102
}
330
1A
100
AcDbPlotSettings
  1

  2

  4

  6

 40
0.0
 41
0.0
 42
0.0
 43
0.0
 44
0.0
 45
0.0
 46
0.0
 47
0.0
 48
0.0
 49
0.0
140
0.0
141
0.0
142
1.0
143
1.0
 70
   688
 72
     0
 73
     0
 74
     5
  7

 75
    16
147
1.0
 76
     0
 77
     2
 78
   300
148
0.0
149
0.0
100
AcDbLayout
  1
Layout1
 70
     1
 71
     1
 10
0.0
 20
0.0
 11
840.0
 21
594.0
 12
0.0
 22
0.0
 32
0.0
 14
0.0
 24
0.0
 34
0.0
 15
840.0
 25
594.0
 35
0.0
146
0.0
 13
0.0
 23
0.0
 33
0.0
 16
1.0
 26
0.0
 36
0.0
 17
0.0
 27
1.0
 37
0.0
 76
     0
330
1F
  0
LAYOUT
  5
2A
102
{ACAD_REACTORS
330
1A
102
}
330
1A
100
AcDbPlotSettings
  1

  2

  4

  6

 40
0.0
 41
0.0
 42
0.0
 43
0.0
 44
0.0
 45
0.0
 46
0.0
 47
0.0
 48
0.0
 49
0.0
140
0.0
141
0.0
142
1.0
143
1.0
 70
   688
 72
     0
 73
     0
 74
     5
  7

 75
    16
147
1.0
 76
     0
 77
     2
 78
   300
148
0.0
149
0.0
100
AcDbLayout
  1
Layout2
 70
     1
 71
     2
 10
0.0
 20
0.0
 11
12.0
 21
9.0
 12
0.0
 22
0.0
 32
0.0
 14
0.0
 24
0.0
 34
0.0
 15
0.0
 25
0.0
 35
0.0
146
0.0
 13
0.0
 23
0.0
 33
0.0
 16
1.0
 26
0.0
 36
0.0
 17
0.0
 27
1.0
 37
0.0
 76
     0
330
27
  0
LAYOUT
  5
26
102
{ACAD_REACTORS
330
1A
102
}
330
1A
100
AcDbPlotSettings
  1

  2

  4

  6

 40
0.0
 41
0.0
 42
0.0
 43
0.0
 44
0.0
 45
0.0
 46
0.0
 47
0.0
 48
0.0
 49
0.0
140
0.0
141
0.0
142
1.0
143
1.0
 70
  1712
 72
     0
 73
     0
 74
     0
  7

 75
     0
147
1.0
 76
     0
 77
     2
 78
   300
148
0.0
149
0.0
100
AcDbLayout
  1
Model
 70
     1
 71
     0
 10
0.0
 20
0.0
 11
12.0
 21
9.0
 12
0.0
 22
0.0
 32
0.0
 14
0.0
 24
0.0
 34
0.0
 15
0.0
 25
0.0
 35
0.0
146
0.0
 13
0.0
 23
0.0
 33
0.0
 16
1.0
 26
0.0
 36
0.0
 17
0.0
 27
1.0
 37
0.0
 76
     0
330
23
  0
MLINESTYLE
  5
18
102
{ACAD_REACTORS
330
17
102
}
330
17
100
AcDbMlineStyle
  2
STANDARD
 70
     0
  3

 62
   256
 51
90.0
 52
90.0
 71
     2
 49
0.5
 62
   256
  6
BYLAYER
 49
-0.5
 62
   256
  6
BYLAYER
  0
ACDBPLACEHOLDER
  5
F
102
{ACAD_REACTORS
330
E
102
}
330
E
  0
TABLESTYLE
  5
1E
102
{ACAD_REACTORS
330
1D
102
}
330
1D
100
AcDbTableStyle
  3
Standard
 70
     0
 71
     0
 40
0.06
 41
0.06
280
     0
281
     0
  7
Standard
140
0.18
170
     2
 62
     0
 63
     7
283
     0
274
    -2
284
     1
 64
     0
275
    -2
285
     1
 65
     0
276
    -2
286
     1
 66
     0
277
    -2
287
     1
 67
     0
278
    -2
288
     1
 68
     0
279
    -2
289
     1
 69
     0
  7
Standard
140
0.25
170
     5
 62
     0
 63
     7
283
     0
274
    -2
284
     1
 64
     0
275
    -2
285
     1
 65
     0
276
    -2
286
     1
 66
     0
277
    -2
287
     1
 67
     0
278
    -2
288
     1
 68
     0
279
    -2
289
     1
 69
     0
  7
Standard
140
0.18
170
     5
 62
     0
 63
     7
283
     0
274
    -2
284
     1
 64
     0
275
    -2
285
     1
 65
     0
276
    -2
286
     1
 66
     0
277
    -2
287
     1
 67
     0
278
    -2
288
     1
 68
     0
279
    -2
289
     1
 69
     0
  0
DICTIONARYVAR
  5
61D
102
{ACAD_REACTORS
330
61C
102
}
330
61C
100
DictionaryVariables
280
     0
  1
STANDARD
  0
ENDSEC
  0
EOF
