  0
SECTION
  2
HEADER
  9
$ACADVER
  1
AC1018
  9
$ACADMAINTVER
 70
    76
  9
$DWGCODEPAGE
  3
ANSI_1252
  9
$AUTHOR
  1
Grandl
  9
$CUSTOMPROPERTYTAG
  1
Manager
  9
$CUSTOMPROPERTY
  1

  9
$CUSTOMPROPERTYTAG
  1
Firma
  9
$CUSTOMPROPERTY
  1

  9
$CUSTOMPROPERTYTAG
  1
Kategorie
  9
$CUSTOMPROPERTY
  1

  9
$CUSTOMPROPERTYTAG
  1
Bauteilnummer
  9
$CUSTOMPROPERTY
  1
3500-19-01
  9
$CUSTOMPROPERTYTAG
  1
Bezeichnung
  9
$CUSTOMPROPERTY
  1

  9
$CUSTOMPROPERTYTAG
  1
Projekt
  9
$CUSTOMPROPERTY
  1

  9
$CUSTOMPROPERTYTAG
  1
Konstrukteur
  9
$CUSTOMPROPERTY
  1
Grandl
  9
$CUSTOMPROPERTYTAG
  1
Ingenieur
  9
$CUSTOMPROPERTY
  1

  9
$CUSTOMPROPERTYTAG
  1
Bevollmächtigter
  9
$CUSTOMPROPERTY
  1

  9
$CUSTOMPROPERTYTAG
  1
Kostenstelle
  9
$CUSTOMPROPERTY
  1

  9
$CUSTOMPROPERTYTAG
  1
Händler
  9
$CUSTOMPROPERTY
  1

  9
$CUSTOMPROPERTYTAG
  1
Benutzerstatus
  9
$CUSTOMPROPERTY
  1

  9
$CUSTOMPROPERTYTAG
  1
Konstruktionsstatus
  9
$CUSTOMPROPERTY
  1
InBearbeitung
  9
$CUSTOMPROPERTYTAG
  1
Überprüft von
  9
$CUSTOMPROPERTY
  1

  9
$CUSTOMPROPERTYTAG
  1
Konstruktion genehmigt von
  9
$CUSTOMPROPERTY
  1

  9
$CUSTOMPROPERTYTAG
  1
Fertigung genehmigt von
  9
$CUSTOMPROPERTY
  1

  9
$INSBASE
 10
0.0
 20
0.0
 30
0.0
  9
$EXTMIN
 10
147.2133655816568
 20
215.2598214541235
 30
0.0
  9
$EXTMAX
 10
432.2814163916046
 20
500.3278722640713
 30
0.0
  9
$LIMMIN
 10
0.0
 20
0.0
  9
$LIMMAX
 10
840.0
 20
594.0
  9
$ORTHOMODE
 70
     1
  9
$REGENMODE
 70
     1
  9
$FILLMODE
 70
     1
  9
$QTEXTMODE
 70
     0
  9
$MIRRTEXT
 70
     0
  9
$LTSCALE
 40
2.0
  9
$ATTMODE
 70
     1
  9
$TEXTSIZE
 40
0.2
  9
$TRACEWID
 40
0.05
  9
$TEXTSTYLE
  7
Standard
  9
$CLAYER
  8
0
  9
$CELTYPE
  6
ByLayer
  9
$CECOLOR
 62
   256
  9
$CELTSCALE
 40
1.0
  9
$DISPSILH
 70
     0
  9
$DIMSCALE
 40
1.0
  9
$DIMASZ
 40
1.799999999999999
  9
$DIMEXO
 40
0.0625
  9
$DIMDLI
 40
0.38
  9
$DIMRND
 40
0.0
  9
$DIMDLE
 40
0.0
  9
$DIMEXE
 40
0.18
  9
$DIMTP
 40
0.0
  9
$DIMTM
 40
0.0
  9
$DIMTXT
 40
0.3000000119209289
  9
$DIMCEN
 40
0.09
  9
$DIMTSZ
 40
0.0
  9
$DIMTOL
 70
     0
  9
$DIMLIM
 70
     0
  9
$DIMTIH
 70
     1
  9
$DIMTOH
 70
     1
  9
$DIMSE1
 70
     0
  9
$DIMSE2
 70
     0
  9
$DIMTAD
 70
     0
  9
$DIMZIN
 70
     0
  9
$DIMBLK
  1

  9
$DIMASO
 70
     1
  9
$DIMSHO
 70
     1
  9
$DIMPOST
  1

  9
$DIMAPOST
  1

  9
$DIMALT
 70
     0
  9
$DIMALTD
 70
     2
  9
$DIMALTF
 40
25.4
  9
$DIMLFAC
 40
1.0
  9
$DIMTOFL
 70
     0
  9
$DIMTVP
 40
0.0
  9
$DIMTIX
 70
     0
  9
$DIMSOXD
 70
     0
  9
$DIMSAH
 70
     0
  9
$DIMBLK1
  1

  9
$DIMBLK2
  1

  9
$DIMSTYLE
  2
Standard
  9
$DIMCLRD
 70
     0
  9
$DIMCLRE
 70
     0
  9
$DIMCLRT
 70
     0
  9
$DIMTFAC
 40
1.0
  9
$DIMGAP
 40
0.09
  9
$DIMJUST
 70
     0
  9
$DIMSD1
 70
     0
  9
$DIMSD2
 70
     0
  9
$DIMTOLJ
 70
     1
  9
$DIMTZIN
 70
     0
  9
$DIMALTZ
 70
     0
  9
$DIMALTTZ
 70
     0
  9
$DIMUPT
 70
     0
  9
$DIMDEC
 70
     4
  9
$DIMTDEC
 70
     4
  9
$DIMALTU
 70
     2
  9
$DIMALTTD
 70
     2
  9
$DIMTXSTY
  7
Standard
  9
$DIMAUNIT
 70
     0
  9
$DIMADEC
 70
     0
  9
$DIMALTRND
 40
0.0
  9
$DIMAZIN
 70
     0
  9
$DIMDSEP
 70
    46
  9
$DIMATFIT
 70
     3
  9
$DIMFRAC
 70
     0
  9
$DIMLDRBLK
  1

  9
$DIMLUNIT
 70
     2
  9
$DIMLWD
 70
    -2
  9
$DIMLWE
 70
    -2
  9
$DIMTMOVE
 70
     0
  9
$LUNITS
 70
     2
  9
$LUPREC
 70
     4
  9
$SKETCHINC
 40
0.1
  9
$FILLETRAD
 40
2.0
  9
$AUNITS
 70
     0
  9
$AUPREC
 70
     0
  9
$MENU
  1
.
  9
$ELEVATION
 40
0.0
  9
$PELEVATION
 40
0.0
  9
$THICKNESS
 40
0.0
  9
$LIMCHECK
 70
     0
  9
$CHAMFERA
 40
0.0
  9
$CHAMFERB
 40
0.0
  9
$CHAMFERC
 40
0.0
  9
$CHAMFERD
 40
0.0
  9
$SKPOLY
 70
     0
  9
$TDCREATE
 40
2453706.351795776
  9
$TDUCREATE
 40
2453706.310129109
  9
$TDUPDATE
 40
2453710.470308137
  9
$TDUUPDATE
 40
2453710.428641470
  9
$TDINDWG
 40
0.4485905671
  9
$TDUSRTIMER
 40
0.4485905671
  9
$USRTIMER
 70
     1
  9
$ANGBASE
 50
0.0
  9
$ANGDIR
 70
     0
  9
$PDMODE
 70
     0
  9
$PDSIZE
 40
0.0
  9
$PLINEWID
 40
0.0
  9
$SPLFRAME
 70
     0
  9
$SPLINETYPE
 70
     6
  9
$SPLINESEGS
 70
     8
  9
$HANDSEED
  5
4C5D
  9
$SURFTAB1
 70
     6
  9
$SURFTAB2
 70
     6
  9
$SURFTYPE
 70
     6
  9
$SURFU
 70
     6
  9
$SURFV
 70
     6
  9
$UCSBASE
  2

  9
$UCSNAME
  2

  9
$UCSORG
 10
0.0
 20
0.0
 30
0.0
  9
$UCSXDIR
 10
1.0
 20
0.0
 30
0.0
  9
$UCSYDIR
 10
0.0
 20
1.0
 30
0.0
  9
$UCSORTHOREF
  2

  9
$UCSORTHOVIEW
 70
     0
  9
$UCSORGTOP
 10
0.0
 20
0.0
 30
0.0
  9
$UCSORGBOTTOM
 10
0.0
 20
0.0
 30
0.0
  9
$UCSORGLEFT
 10
0.0
 20
0.0
 30
0.0
  9
$UCSORGRIGHT
 10
0.0
 20
0.0
 30
0.0
  9
$UCSORGFRONT
 10
0.0
 20
0.0
 30
0.0
  9
$UCSORGBACK
 10
0.0
 20
0.0
 30
0.0
  9
$PUCSBASE
  2

  9
$PUCSNAME
  2

  9
$PUCSORG
 10
0.0
 20
0.0
 30
0.0
  9
$PUCSXDIR
 10
1.0
 20
0.0
 30
0.0
  9
$PUCSYDIR
 10
0.0
 20
1.0
 30
0.0
  9
$PUCSORTHOREF
  2

  9
$PUCSORTHOVIEW
 70
     0
  9
$PUCSORGTOP
 10
0.0
 20
0.0
 30
0.0
  9
$PUCSORGBOTTOM
 10
0.0
 20
0.0
 30
0.0
  9
$PUCSORGLEFT
 10
0.0
 20
0.0
 30
0.0
  9
$PUCSORGRIGHT
 10
0.0
 20
0.0
 30
0.0
  9
$PUCSORGFRONT
 10
0.0
 20
0.0
 30
0.0
  9
$PUCSORGBACK
 10
0.0
 20
0.0
 30
0.0
  9
$USERI1
 70
     0
  9
$USERI2
 70
     0
  9
$USERI3
 70
     0
  9
$USERI4
 70
     0
  9
$USERI5
 70
     0
  9
$USERR1
 40
0.0
  9
$USERR2
 40
0.0
  9
$USERR3
 40
0.0
  9
$USERR4
 40
0.0
  9
$USERR5
 40
0.0
  9
$WORLDVIEW
 70
     1
  9
$SHADEDGE
 70
     3
  9
$SHADEDIF
 70
    70
  9
$TILEMODE
 70
     1
  9
$MAXACTVP
 70
    64
  9
$PINSBASE
 10
0.0
 20
0.0
 30
0.0
  9
$PLIMCHECK
 70
     0
  9
$PEXTMIN
 10
0.0
 20
0.0
 30
0.0
  9
$PEXTMAX
 10
840.0
 20
594.0
 30
0.0
  9
$PLIMMIN
 10
0.0
 20
0.0
  9
$PLIMMAX
 10
840.0
 20
594.0
  9
$UNITMODE
 70
     0
  9
$VISRETAIN
 70
     1
  9
$PLINEGEN
 70
     0
  9
$PSLTSCALE
 70
     1
  9
$TREEDEPTH
 70
  3020
  9
$CMLSTYLE
  2
Standard
  9
$CMLJUST
 70
     0
  9
$CMLSCALE
 40
1.0
  9
$PROXYGRAPHICS
 70
     1
  9
$MEASUREMENT
 70
     1
  9
$CELWEIGHT
370
    -1
  9
$ENDCAPS
280
     0
  9
$JOINSTYLE
280
     0
  9
$LWDISPLAY
290
     0
  9
$INSUNITS
 70
     0
  9
$HYPERLINKBASE
  1

  9
$STYLESHEET
  1

  9
$XEDIT
290
     1
  9
$CEPSNTYPE
380
     0
  9
$PSTYLEMODE
290
     1
  9
$FINGERPRINTGUID
  2
{CD339A04-B85F-4A73-AC85-5D4F30B09856}
  9
$VERSIONGUID
  2
{74FC4ABD-BC6A-4953-9FBB-4CAEF934A403}
  9
$EXTNAMES
290
     1
  9
$PSVPSCALE
 40
0.0
  9
$OLESTARTUP
290
     0
  9
$SORTENTS
280
   127
  9
$INDEXCTL
280
     0
  9
$HIDETEXT
280
     1
  9
$XCLIPFRAME
290
     0
  9
$HALOGAP
280
     0
  9
$OBSCOLOR
 70
   257
  9
$OBSLTYPE
280
     0
  9
$INTERSECTIONDISPLAY
280
     0
  9
$INTERSECTIONCOLOR
 70
   257
  9
$DIMASSOC
280
     1
  9
$PROJECTNAME
  1

  0
ENDSEC
  0
SECTION
  2
CLASSES
  0
CLASS
  1
ACDBDICTIONARYWDFLT
  2
AcDbDictionaryWithDefault
  3
ObjectDBX Classes
 90
        0
 91
        1
280
     0
281
     0
  0
CLASS
  1
TABLESTYLE
  2
AcDbTableStyle
  3
ObjectDBX Classes
 90
     2047
 91
        1
280
     0
281
     0
  0
CLASS
  1
DICTIONARYVAR
  2
AcDbDictionaryVar
  3
ObjectDBX Classes
 90
        0
 91
        4
280
     0
281
     0
  0
CLASS
  1
SORTENTSTABLE
  2
AcDbSortentsTable
  3
ObjectDBX Classes
 90
        0
 91
        2
280
     0
281
     0
  0
ENDSEC
  0
SECTION
  2
TABLES
  0
TABLE
  2
VPORT
  5
8
330
0
100
AcDbSymbolTable
 70
     3
  0
VPORT
  5
4C5C
330
8
100
AcDbSymbolTableRecord
100
AcDbViewportTableRecord
  2
*Active
 70
     0
 10
0.0
 20
0.0
 11
1.0
 21
1.0
 12
289.7433489721074
 22
357.7949080699996
 13
0.0
 23
0.0
 14
1.0
 24
1.0
 15
0.0
 25
0.0
 16
0.0
 26
0.0
 36
1.0
 17
0.0
 27
0.0
 37
0.0
 40
287.6479088286225
 41
1.773333333333333
 42
50.0
 43
0.0
 44
0.0
 50
0.0
 51
0.0
 71
     0
 72
   100
 73
     1
 74
     1
 75
     0
 76
     0
 77
     0
 78
     0
281
     0
 65
     1
110
0.0
120
0.0
130
0.0
111
1.0
121
0.0
131
0.0
112
0.0
122
1.0
132
0.0
 79
     0
146
0.0
  0
ENDTAB
  0
TABLE
  2
LTYPE
  5
5
330
0
100
AcDbSymbolTable
 70
     2
  0
LTYPE
  5
14
330
5
100
AcDbSymbolTableRecord
100
AcDbLinetypeTableRecord
  2
ByBlock
 70
     0
  3

 72
    65
 73
     0
 40
0.0
  0
LTYPE
  5
15
330
5
100
AcDbSymbolTableRecord
100
AcDbLinetypeTableRecord
  2
ByLayer
 70
     0
  3

 72
    65
 73
     0
 40
0.0
  0
LTYPE
  5
16
330
5
100
AcDbSymbolTableRecord
100
AcDbLinetypeTableRecord
  2
Continuous
 70
     0
  3
Solid line
 72
    65
 73
     0
 40
0.0
  0
LTYPE
  5
7E7
330
5
100
AcDbSymbolTableRecord
100
AcDbLinetypeTableRecord
  2
MITTE2
 70
     0
  3
Mitte (.5x) ___ _ ___ _ ___ _ ___ _ ___ _ ___
 72
    65
 73
     4
 40
28.575
 49
19.05
 74
     0
 49
-3.174999999999999
 74
     0
 49
3.174999999999999
 74
     0
 49
-3.174999999999999
 74
     0
  0
ENDTAB
  0
TABLE
  2
LAYER
  5
2
102
{ACAD_XDICTIONARY
360
9C6
102
}
330
0
100
AcDbSymbolTable
 70
     3
  0
LAYER
  5
10
330
2
100
AcDbSymbolTableRecord
100
AcDbLayerTableRecord
  2
0
 70
     0
 62
     7
  6
Continuous
370
    -3
390
F
  0
LAYER
  5
7E9
330
2
100
AcDbSymbolTableRecord
100
AcDbLayerTableRecord
  2
LW 3593-00-01
 70
     0
 62
     7
  6
Continuous
370
    -3
390
F
  0
LAYER
  5
7EA
330
2
100
AcDbSymbolTableRecord
100
AcDbLayerTableRecord
  2
insertpoint_ECKELT
 70
     0
 62
   141
  6
Continuous
370
    -3
390
F
  0
ENDTAB
  0
TABLE
  2
STYLE
  5
3
330
0
100
AcDbSymbolTable
 70
     1
  0
STYLE
  5
11
330
3
100
AcDbSymbolTableRecord
100
AcDbTextStyleTableRecord
  2
Standard
 70
     0
 40
0.0
 41
1.0
 50
0.0
 71
     0
 42
0.2
  3
ARIAL.TTF
  4

1001
ACAD
1000
Arial
1071
      256
  0
ENDTAB
  0
TABLE
  2
VIEW
  5
6
330
0
100
AcDbSymbolTable
 70
     0
  0
ENDTAB
  0
TABLE
  2
UCS
  5
7
330
0
100
AcDbSymbolTable
 70
     0
  0
ENDTAB
  0
TABLE
  2
APPID
  5
9
330
0
100
AcDbSymbolTable
 70
     3
  0
APPID
  5
12
330
9
100
AcDbSymbolTableRecord
100
AcDbRegAppTableRecord
  2
ACAD
 70
     0
  0
APPID
  5
A3E
330
9
100
AcDbSymbolTableRecord
100
AcDbRegAppTableRecord
  2
ACAD_PSEXT
 70
     0
  0
APPID
  5
2F1E
330
9
100
AcDbSymbolTableRecord
100
AcDbRegAppTableRecord
  2
ACAD_EXEMPT_FROM_CAD_STANDARDS
 70
     0
  0
ENDTAB
  0
TABLE
  2
DIMSTYLE
  5
A
330
0
100
AcDbSymbolTable
 70
     1
100
AcDbDimStyleTable
 71
     1
340
2B
  0
DIMSTYLE
105
2B
330
A
100
AcDbSymbolTableRecord
100
AcDbDimStyleTableRecord
  2
Standard
 70
     0
340
11
  0
ENDTAB
  0
TABLE
  2
BLOCK_RECORD
  5
1
330
0
100
AcDbSymbolTable
 70
     5
  0
BLOCK_RECORD
  5
23
102
{ACAD_XDICTIONARY
360
9A6
102
}
330
1
100
AcDbSymbolTableRecord
100
AcDbBlockTableRecord
  2
*Model_Space
340
26
  0
BLOCK_RECORD
  5
1F
330
1
100
AcDbSymbolTableRecord
100
AcDbBlockTableRecord
  2
*Paper_Space
340
22
  0
BLOCK_RECORD
  5
27
330
1
100
AcDbSymbolTableRecord
100
AcDbBlockTableRecord
  2
*Paper_Space0
340
2A
  0
BLOCK_RECORD
  5
626
102
{ACAD_XDICTIONARY
360
627
102
}
330
1
100
AcDbSymbolTableRecord
100
AcDbBlockTableRecord
  2
insertpoint-ECKELT
340
0
102
{BLKREFS
331
4A8F
331
4B8F
331
4C30
102
}
  0
BLOCK_RECORD
  5
4A1A
330
1
100
AcDbSymbolTableRecord
100
AcDbBlockTableRecord
  2
LW 3593-00-01_a
340
0
310
2800000020000000200000000100080000000000000400000000000000000000000000000000000000000000000080000080000000808000800000008000800080800000C0C0C000C0DCC000F0CAA6000020400000206000002080000020A0000020C0000020E00000400000004020000040400000406000004080000040A0
310
000040C0000040E00000600000006020000060400000606000006080000060A0000060C0000060E00000800000008020000080400000806000008080000080A0000080C0000080E00000A0000000A0200000A0400000A0600000A0800000A0A00000A0C00000A0E00000C0000000C0200000C0400000C0600000C0800000C0
310
A00000C0C00000C0E00000E0000000E0200000E0400000E0600000E0800000E0A00000E0C00000E0E00040000000400020004000400040006000400080004000A0004000C0004000E00040200000402020004020400040206000402080004020A0004020C0004020E000404000004040200040404000404060004040800040
310
40A0004040C0004040E00040600000406020004060400040606000406080004060A0004060C0004060E00040800000408020004080400040806000408080004080A0004080C0004080E00040A0000040A0200040A0400040A0600040A0800040A0A00040A0C00040A0E00040C0000040C0200040C0400040C0600040C08000
310
40C0A00040C0C00040C0E00040E0000040E0200040E0400040E0600040E0800040E0A00040E0C00040E0E00080000000800020008000400080006000800080008000A0008000C0008000E00080200000802020008020400080206000802080008020A0008020C0008020E00080400000804020008040400080406000804080
310
008040A0008040C0008040E00080600000806020008060400080606000806080008060A0008060C0008060E00080800000808020008080400080806000808080008080A0008080C0008080E00080A0000080A0200080A0400080A0600080A0800080A0A00080A0C00080A0E00080C0000080C0200080C0400080C0600080C0
310
800080C0A00080C0C00080C0E00080E0000080E0200080E0400080E0600080E0800080E0A00080E0C00080E0E000C0000000C0002000C0004000C0006000C0008000C000A000C000C000C000E000C0200000C0202000C0204000C0206000C0208000C020A000C020C000C020E000C0400000C0402000C0404000C0406000C0
310
408000C040A000C040C000C040E000C0600000C0602000C0604000C0606000C0608000C060A000C060C000C060E000C0800000C0802000C0804000C0806000C0808000C080A000C080C000C080E000C0A00000C0A02000C0A04000C0A06000C0A08000C0A0A000C0A0C000C0A0E000C0C00000C0C02000C0C04000C0C06000
310
C0C08000C0C0A000F0FBFF00A4A0A000808080000000FF0000FF000000FFFF00FF000000FF00FF00FFFF0000FFFFFF0000000000000000000000000000000000000000000000000000000000000000000000000000000000000000000000000000000000000000FFFF00000000000000000000000000000000000000000000
310
00000000000000FF00FF0000000000000000000000000000000000000000000000000000000000FF00FF00000000000000000000000000000000000000000000000000000000FFFF00FFFF0000000000000000000000000000000000000000000000FFFFFFFFFFFF00FFFF0000000000000000000000000000000000000000
310
000000FF000000FFFF00FFFF0000000000000000000000000000000000000000000000FF000000FFFF00FFFAFAFAFFFA000000000000000000000000000000000000FAFAFAFAFAFAFAFAFAFAFAFAFAFAFA000000000000000000000000000000000000FF000000FFFF00FFFAFAFAFFFA000000000000000000000000000000
310
00000000FFFFFF00FFFF00FFFFFFFFFFFF00000000000000000000000000000000000000FF000000FFFF00FFFF0000000000000000000000000000000000000000000000FFFFFFFFFFFF00FFFF000000000000000000000000000000000000000000000000000000FFFF00FFFF000000000000000000000000000000000000
310
00000000000000000000FF00FF0000000000000000000000000000000000000000000000000000000000FF00FF000000000000000000000000000000FA000000000000000000000000FFFF00FF000000000000000000000000FFFFFFFAFFFFFFFF00000000000000FF00FF00FF000000000000000000000000FF0000FA00FF
310
00FF000000000000FFF900FF00FF000000000000000000000000FF0000FA00FF00FF0000000000FFF9F9F9FF00FF000000000000000000000000FF0000FA000000FF00000000FFF9F9F900FF00FF0000000000000000000000FFFFFFFFFAFFFFFFFFFF0000FF00F9F90000FF00FF000000000000000000FFFFFFFFFFFFFAFF
310
FFFFFFFFFFFFFFFFFFFFFFFFFF00FF0000000000000000FF000000000000FA000000000000000000000000000000FF0000000000000000FFFFFFFFFFFFFFFAFFFFFFFFFFFFFFFFFFFFFFFFFFFF09090900000000000000000000FFFFFFFAFAFAFFFFFFFF00000000000000000000090000000000000000000000000000FAFA
310
FAFF00000000000000000000000000000000000000000000000000000000FAFAFAFF00000000000000000000000000000000000000000000000000000000FFFAFFFF00000000000000000000000000000000000000000000000000000000FAFAFAFF0000000000000000000000000000000000000000000000000000000000
310
FA00000000000000000000000000000000000000000000000000000000000000000000000000000000000000000000000000000000000000
102
{BLKREFS
331
4B07
102
}
  0
BLOCK_RECORD
  5
4B08
330
1
100
AcDbSymbolTableRecord
100
AcDbBlockTableRecord
  2
LW 3593-00-01_b
340
0
310
2800000020000000200000000100080000000000000400000000000000000000000000000000000000000000000080000080000000808000800000008000800080800000C0C0C000C0DCC000F0CAA6000020400000206000002080000020A0000020C0000020E00000400000004020000040400000406000004080000040A0
310
000040C0000040E00000600000006020000060400000606000006080000060A0000060C0000060E00000800000008020000080400000806000008080000080A0000080C0000080E00000A0000000A0200000A0400000A0600000A0800000A0A00000A0C00000A0E00000C0000000C0200000C0400000C0600000C0800000C0
310
A00000C0C00000C0E00000E0000000E0200000E0400000E0600000E0800000E0A00000E0C00000E0E00040000000400020004000400040006000400080004000A0004000C0004000E00040200000402020004020400040206000402080004020A0004020C0004020E000404000004040200040404000404060004040800040
310
40A0004040C0004040E00040600000406020004060400040606000406080004060A0004060C0004060E00040800000408020004080400040806000408080004080A0004080C0004080E00040A0000040A0200040A0400040A0600040A0800040A0A00040A0C00040A0E00040C0000040C0200040C0400040C0600040C08000
310
40C0A00040C0C00040C0E00040E0000040E0200040E0400040E0600040E0800040E0A00040E0C00040E0E00080000000800020008000400080006000800080008000A0008000C0008000E00080200000802020008020400080206000802080008020A0008020C0008020E00080400000804020008040400080406000804080
310
008040A0008040C0008040E00080600000806020008060400080606000806080008060A0008060C0008060E00080800000808020008080400080806000808080008080A0008080C0008080E00080A0000080A0200080A0400080A0600080A0800080A0A00080A0C00080A0E00080C0000080C0200080C0400080C0600080C0
310
800080C0A00080C0C00080C0E00080E0000080E0200080E0400080E0600080E0800080E0A00080E0C00080E0E000C0000000C0002000C0004000C0006000C0008000C000A000C000C000C000E000C0200000C0202000C0204000C0206000C0208000C020A000C020C000C020E000C0400000C0402000C0404000C0406000C0
310
408000C040A000C040C000C040E000C0600000C0602000C0604000C0606000C0608000C060A000C060C000C060E000C0800000C0802000C0804000C0806000C0808000C080A000C080C000C080E000C0A00000C0A02000C0A04000C0A06000C0A08000C0A0A000C0A0C000C0A0E000C0C00000C0C02000C0C04000C0C06000
310
C0C08000C0C0A000F0FBFF00A4A0A000808080000000FF0000FF000000FFFF00FF000000FF00FF00FFFF0000FFFFFF0000000000000000000000000000000000000000000000000000000000000000000000000000000000000000000000000000000000000000000000000000000000000000000000000000000000000000
310
00000000000000000000000000000000000000000000000000000000000000000000000000000000000000000000000000000000000000000000000000000000000000000000000000000000000000000000000000000000000000000000000000000000000000000000000000000000000000000000000000000000000000
310
000000000000000000000000000000000000000000000000000000000000000000000000000000000000000000000000000000000000000000000000000000000000000000000000000000000000000000000000000000000000FFFFFFFFFFFFFFFFFFFFFFFFFFFFFFFFFFFF0000000000000000000000FFFFFF00FA000000
310
00000000000000000000FF00FF00000000000000000000FF000000FFFAFFFF00000000000000000000FFFF00FFFF000000000000000000FF0000FF00FAFF00FF0000000000FFFFFFFFFFFF00FFFF0000000000000000FF0000FFFFFFFAFFFFFFFF00000000FFFF0000FFFF00FFFF0000000000000000FF0000FFFF00FA00FF
310
FFFF00000000FF000000FFFF00FFFAFAFAFF000000FAFAFAFAFAFAFAFAFAFAFAFAFAFAFAFAFAFAFAFAFAFFFA0909FFFAFAFFFA00000000FF00FFFF0000FA0000FFFFFF00FFFFFF000000FFFF0909FF0000FF0000000000FF0000FFFF00FA0000FFFFFF000000FF000000FFFF00FFFAFAFAFF0000000000FF0000FFFFFFFAFF
310
FFFFFF00000000FFFF0000FFFF00FFFF000000000000000000FF0000FF00FAFFFFFF0000000000FFFFFFFFFFFF00FFFF000000000000000000FF000000FFFAFFFF0000F9F9F9F900000000FFFF00FFFF00000000000000000000FFFF0000FA00000000F9F9F9F90000000000FF00FF00000000000000000000000000FFFFFF
310
FFFFFFFFFFFFFFFFFFFFFFFFFFFFFFFF000000000000000000000000000000000000000000000000000000000000000000000000000000000000000000000000000000000000000000000000000000000000000000000000000000000000000000000000000000000000000000000000000000000000000000000000000000
310
00000000000000000000000000000000000000000000000000000000000000000000000000000000000000000000000000000000000000000000000000000000000000000000000000000000000000000000000000000000000000000000000000000000000000000000000000000000000000000000000000000000000000
310
0000000000000000000000000000000000000000000000000000000000000000000000000000000000000000000000000000000000000000
102
{BLKREFS
331
4BA8
102
}
  0
BLOCK_RECORD
  5
4BA9
330
1
100
AcDbSymbolTableRecord
100
AcDbBlockTableRecord
  2
LW 3593-00-01_c
340
0
310
2800000020000000200000000100080000000000000400000000000000000000000000000000000000000000000080000080000000808000800000008000800080800000C0C0C000C0DCC000F0CAA6000020400000206000002080000020A0000020C0000020E00000400000004020000040400000406000004080000040A0
310
000040C0000040E00000600000006020000060400000606000006080000060A0000060C0000060E00000800000008020000080400000806000008080000080A0000080C0000080E00000A0000000A0200000A0400000A0600000A0800000A0A00000A0C00000A0E00000C0000000C0200000C0400000C0600000C0800000C0
310
A00000C0C00000C0E00000E0000000E0200000E0400000E0600000E0800000E0A00000E0C00000E0E00040000000400020004000400040006000400080004000A0004000C0004000E00040200000402020004020400040206000402080004020A0004020C0004020E000404000004040200040404000404060004040800040
310
40A0004040C0004040E00040600000406020004060400040606000406080004060A0004060C0004060E00040800000408020004080400040806000408080004080A0004080C0004080E00040A0000040A0200040A0400040A0600040A0800040A0A00040A0C00040A0E00040C0000040C0200040C0400040C0600040C08000
310
40C0A00040C0C00040C0E00040E0000040E0200040E0400040E0600040E0800040E0A00040E0C00040E0E00080000000800020008000400080006000800080008000A0008000C0008000E00080200000802020008020400080206000802080008020A0008020C0008020E00080400000804020008040400080406000804080
310
008040A0008040C0008040E00080600000806020008060400080606000806080008060A0008060C0008060E00080800000808020008080400080806000808080008080A0008080C0008080E00080A0000080A0200080A0400080A0600080A0800080A0A00080A0C00080A0E00080C0000080C0200080C0400080C0600080C0
310
800080C0A00080C0C00080C0E00080E0000080E0200080E0400080E0600080E0800080E0A00080E0C00080E0E000C0000000C0002000C0004000C0006000C0008000C000A000C000C000C000E000C0200000C0202000C0204000C0206000C0208000C020A000C020C000C020E000C0400000C0402000C0404000C0406000C0
310
408000C040A000C040C000C040E000C0600000C0602000C0604000C0606000C0608000C060A000C060C000C060E000C0800000C0802000C0804000C0806000C0808000C080A000C080C000C080E000C0A00000C0A02000C0A04000C0A06000C0A08000C0A0A000C0A0C000C0A0E000C0C00000C0C02000C0C04000C0C06000
310
C0C08000C0C0A000F0FBFF00A4A0A000808080000000FF0000FF000000FFFF00FF000000FF00FF00FFFF0000FFFFFF000000000000000000000000000000000000000000000000000000000000000000000000000000000000000000000000FA00000000000000000000000000000000000000000000000000000000000000
310
FA0000000000000000000000000000000000000000000000000000000000FFFFFAFFFFFF000000000000000000000000000000000000000000000000FFFF0000FA000000FFFF000000000000000000000000000000000000000000FF000000FFFAFFFF000000FF0000000000000000000000000000000000000000FF0000FF
310
FFFAFF00FF0000FF0000000000000000000000000000000000000000FF00FFFFFFFA00FFFFFF0000FF000000000000000000000000000000000000FF0000FFFF00FA0000FFFFFF00FF000000000000000000000000000000000000FFFAFAFAFAFAFAFAFAFAFAFAFAFF000000000000000000000000000000000000FF00FFFF
310
FF00FA0000FFFFFF00FF000000000000000000000000000000000000FF0000FFFFFFFA0000FFFF0000FF000000000000000000000000000000000000FF0000FF00FFFAFFFF00FF0000FF000000000000000000000000000000000000FF000000FFFFFAFFFFFF000000FF000000000000000000000000000000000000FFF9F9
310
000000FA000000000000FF000000000000000000000000000000000000FFF9F9000000FA000000000000FF000000000000000000000000000000000000FFF9F9000000FAFF0000000000FF000000000000000000000000000000000000FFF9F9000000FAFF0000000000FF000000000000000000000000000000000000FF00
310
00FFFFFFFAFFFFFFFF0000FF000000000000000000000000000000000000FF0000FFFF00FA0000FFFF0000FF000000000000000000000000000000000000FF0000FF0000FA000000FF0000FF000000000000000000000000000000000000FF0000FF0000FA000000FF0000FF000000000000000000000000000000000000FF
310
00FFFFFFFFFFFFFFFFFFFF00FF000000000000000000000000000000000000FFFFFFFFFFFFFAFFFFFFFFFFFFFF000000000000000000000000000000000000FF000000000009000000000000FF000000000000000000000000000000000000FFFFFFFFFFFF09FFFFFFFFFFFFFF000000000000000000000000000000000000
310
0000FFFFFFFAFFFFFAFFFFFF00000000000000000000000000000000000000000000000000FAFA00FA00000000000000000000000000000000000000000000000000000000FAFA00FA00000000000000000000000000000000000000000000000000000000FFFFFFFF00000000000000000000000000000000000000000000
310
00000000000000FA000000000000000000000000000000000000000000000000000000000000000000000000000000000000000000000000
102
{BLKREFS
331
4C49
102
}
  0
ENDTAB
  0
ENDSEC
  0
SECTION
  2
BLOCKS
  0
BLOCK
  5
24
330
23
100
AcDbEntity
  8
0
100
AcDbBlockBegin
  2
*Model_Space
 70
     0
 10
0.0
 20
0.0
 30
0.0
  3
*Model_Space
  1

  0
ENDBLK
  5
25
330
23
100
AcDbEntity
  8
0
100
AcDbBlockEnd
  0
BLOCK
  5
20
330
1F
100
AcDbEntity
 67
     1
  8
0
100
AcDbBlockBegin
  2
*Paper_Space
 70
     0
 10
0.0
 20
0.0
 30
0.0
  3
*Paper_Space
  1

  0
ENDBLK
  5
21
330
1F
100
AcDbEntity
 67
     1
  8
0
100
AcDbBlockEnd
  0
BLOCK
  5
28
330
27
100
AcDbEntity
 67
     1
  8
0
100
AcDbBlockBegin
  2
*Paper_Space0
 70
     0
 10
0.0
 20
0.0
 30
0.0
  3
*Paper_Space0
  1

  0
ENDBLK
  5
29
330
27
100
AcDbEntity
 67
     1
  8
0
100
AcDbBlockEnd
  0
BLOCK
  5
629
330
626
100
AcDbEntity
  8
0
100
AcDbBlockBegin
  2
insertpoint-ECKELT
 70
     2
 10
0.0
 20
0.0
 30
0.0
  3
insertpoint-ECKELT
  1

  0
ATTDEF
  5
62A
330
626
100
AcDbEntity
  8
insertpoint_ECKELT
100
AcDbText
 10
-2.457298772169167
 20
-0.0000000000000284
 30
0.0
 40
0.6
  1
LW
 72
     2
 11
-1.199999999999999
 21
-0.0000000000000284
 31
0.0
100
AcDbAttributeDefinition
  3
Nr. links
  2
LINKS
 70
     0
  0
ATTDEF
  5
62B
330
626
100
AcDbEntity
  8
insertpoint_ECKELT
100
AcDbText
 10
1.199999999999999
 20
-0.0000000000000284
 30
0.0
 40
0.6
  1
LW
100
AcDbAttributeDefinition
  3
Nr. rechts
  2
RECHTS
 70
     0
  0
LINE
  5
62C
102
{ACAD_REACTORS
330
62F
102
}
330
626
100
AcDbEntity
  8
insertpoint_ECKELT
100
AcDbLine
 10
0.0
 20
1.799999999999997
 30
0.0
 11
0.0
 21
-1.799999999999997
 31
0.0
  0
LINE
  5
62D
102
{ACAD_REACTORS
330
62F
102
}
330
626
100
AcDbEntity
  8
insertpoint_ECKELT
100
AcDbLine
 10
-1.8
 20
-0.0000000000000284
 30
0.0
 11
1.8
 21
-0.0000000000000284
 31
0.0
  0
CIRCLE
  5
62E
102
{ACAD_REACTORS
330
62F
102
}
330
626
100
AcDbEntity
  8
insertpoint_ECKELT
100
AcDbCircle
 10
0.0
 20
0.0
 30
0.0
 40
1.199999999999999
  0
HATCH
  5
62F
330
626
100
AcDbEntity
  8
insertpoint_ECKELT
100
AcDbHatch
 10
0.0
 20
0.0
 30
0.0
210
0.0
220
0.0
230
1.0
  2
SOLID
 70
     1
 71
     1
 91
        2
 92
        7
 72
     1
 73
     1
 93
        3
 10
0.0
 20
-0.0000000000000284
 42
0.0
 10
0.0
 20
1.200000000000002
 42
0.4142135623731013
 10
-1.199999999999999
 20
-0.0000000000000284
 42
0.0
 97
        3
330
62E
330
62D
330
62C
 92
        7
 72
     1
 73
     1
 93
        3
 10
1.199999999999999
 20
-0.0000000000000284
 42
0.0
 10
0.0
 20
-0.0000000000000284
 42
0.0
 10
0.0
 20
-1.200000000000002
 42
0.4142135623730888
 97
        3
330
62D
330
62C
330
62E
 75
     0
 76
     1
 47
0.0223086566480813
 98
        2
 10
-0.3163651093721391
 20
0.271413292077348
 10
0.7415965996738798
 20
-0.4513871917946233
450
        0
451
        0
460
0.0
461
0.0
452
        0
462
0.0
453
        0
470

  0
ENDBLK
  5
630
330
626
100
AcDbEntity
  8
0
100
AcDbBlockEnd
  0
BLOCK
  5
4A1B
330
4A1A
100
AcDbEntity
  8
0
100
AcDbBlockBegin
  2
LW 3593-00-01_a
 70
     0
 10
0.0
 20
0.0
 30
0.0
  3
LW 3593-00-01_a
  1

  0
LINE
  5
4A1D
330
4A1A
100
AcDbEntity
  8
LW 3593-00-01
100
AcDbLine
 10
-9.000000000000056
 20
-11.0
 30
0.0
 11
-9.0
 21
-113.0
 31
0.0
  0
LINE
  5
4A1E
330
4A1A
100
AcDbEntity
  8
LW 3593-00-01
100
AcDbLine
 10
-80.00000000000003
 20
-9.0
 30
0.0
 11
-11.0
 21
-9.0
 31
0.0
  0
LINE
  5
4A1F
330
4A1A
100
AcDbEntity
  8
LW 3593-00-01
100
AcDbLine
 10
-80.00000000000003
 20
-9.0
 30
0.0
 11
-113.0
 21
-9.0
 31
0.0
  0
ARC
  5
4A20
330
4A1A
100
AcDbEntity
  8
LW 3593-00-01
100
AcDbCircle
 10
-11.0
 20
-11.0
 30
0.0
 40
1.999999999999988
100
AcDbArc
 50
0.0
 51
90.0
  0
ARC
  5
4A21
330
4A1A
100
AcDbEntity
  8
LW 3593-00-01
100
AcDbCircle
 10
-113.0
 20
-7.0
 30
0.0
 40
2.0
100
AcDbArc
 50
180.0
 51
270.0
  0
LINE
  5
4A22
330
4A1A
100
AcDbEntity
  8
LW 3593-00-01
100
AcDbLine
 10
-115.0
 20
0.0
 30
0.0
 11
-80.00000000000005
 21
0.0
 31
0.0
  0
LINE
  5
4A23
330
4A1A
100
AcDbEntity
  8
LW 3593-00-01
100
AcDbLine
 10
-115.0
 20
-7.0
 30
0.0
 11
-115.0
 21
0.0
 31
0.0
  0
LINE
  5
4A24
330
4A1A
100
AcDbEntity
  8
LW 3593-00-01
100
AcDbLine
 10
-80.00000000000003
 20
0.0
 30
0.0
 11
0.0
 21
0.0
 31
0.0
  0
LINE
  5
4A25
330
4A1A
100
AcDbEntity
  8
LW 3593-00-01
100
AcDbLine
 10
0.0
 20
0.0
 30
0.0
 11
0.0000000000000568
 21
-114.9999999999999
 31
0.0
  0
LINE
  5
4A26
330
4A1A
100
AcDbEntity
  8
LW 3593-00-01
100
AcDbLine
 10
-57.50000000000003
 20
-14.0
 30
0.0
 11
-102.5
 21
-14.0
 31
0.0
  0
LINE
  5
4A27
330
4A1A
100
AcDbEntity
  8
LW 3593-00-01
100
AcDbLine
 10
-57.50000000000003
 20
-9.0
 30
0.0
 11
-57.50000000000003
 21
-14.0
 31
0.0
  0
LINE
  5
4A28
330
4A1A
100
AcDbEntity
  8
LW 3593-00-01
100
AcDbLine
 10
-102.5
 20
-9.0
 30
0.0
 11
-102.5
 21
-14.0
 31
0.0
  0
LINE
  5
4A29
330
4A1A
100
AcDbEntity
  8
LW 3593-00-01
100
AcDbLine
 10
-102.5
 20
5.0
 30
0.0
 11
-57.50000000000003
 21
5.0
 31
0.0
  0
LINE
  5
4A2A
330
4A1A
100
AcDbEntity
  8
LW 3593-00-01
100
AcDbLine
 10
-102.5
 20
0.0
 30
0.0
 11
-102.5
 21
5.0
 31
0.0
  0
LINE
  5
4A2B
330
4A1A
100
AcDbEntity
  8
LW 3593-00-01
100
AcDbLine
 10
-57.50000000000003
 20
0.0
 30
0.0
 11
-57.50000000000003
 21
5.0
 31
0.0
  0
LINE
  5
4A2C
330
4A1A
100
AcDbEntity
  8
LW 3593-00-01
100
AcDbLine
 10
-73.0
 20
21.0
 30
0.0
 11
-86.99999999999997
 21
21.0
 31
0.0
  0
LINE
  5
4A2D
330
4A1A
100
AcDbEntity
  8
LW 3593-00-01
100
AcDbLine
 10
-73.99999999999997
 20
22.0
 30
0.0
 11
-86.0
 21
22.0
 31
0.0
  0
LINE
  5
4A2E
330
4A1A
100
AcDbEntity
  8
LW 3593-00-01
100
AcDbLine
 10
-86.99999999999997
 20
5.0
 30
0.0
 11
-86.99999999999997
 21
21.0
 31
0.0
  0
LINE
  5
4A2F
330
4A1A
100
AcDbEntity
  8
LW 3593-00-01
100
AcDbLine
 10
-73.0
 20
5.0
 30
0.0
 11
-73.0
 21
21.0
 31
0.0
  0
LINE
  5
4A30
330
4A1A
100
AcDbEntity
  8
LW 3593-00-01
100
AcDbLine
 10
-74.0
 20
22.0
 30
0.0
 11
-73.0
 21
21.0
 31
0.0
  0
LINE
  5
4A31
330
4A1A
100
AcDbEntity
  8
LW 3593-00-01
100
AcDbLine
 10
-86.0
 20
22.0
 30
0.0
 11
-87.0
 21
21.0
 31
0.0
  0
LINE
  5
4A32
330
4A1A
100
AcDbEntity
  8
LW 3593-00-01
 62
     3
100
AcDbLine
 10
-85.79449999999999
 20
22.0
 30
0.0
 11
-85.79449999999999
 21
5.0
 31
0.0
  0
LINE
  5
4A33
330
4A1A
100
AcDbEntity
  8
LW 3593-00-01
 62
     3
100
AcDbLine
 10
-74.2055
 20
5.0
 30
0.0
 11
-74.2055
 21
22.0
 31
0.0
  0
LINE
  5
4A34
330
4A1A
100
AcDbEntity
  8
LW 3593-00-01
100
AcDbLine
 10
-73.00000000000003
 20
21.0
 30
0.0
 11
-87.0
 21
21.0
 31
0.0
  0
ELLIPSE
  5
4A35
330
4A1A
100
AcDbEntity
  8
LW 3593-00-01
100
AcDbEllipse
 10
-73.75000000000003
 20
-30.0
 30
0.0
 11
0.0000000000001952
 21
2.00000000000002
 31
0.0
210
0.0
220
0.0
230
1.0
 40
0.866025403784425
 41
3.935761501374648
 42
5.489016459394978
  0
POLYLINE
  5
4A36
330
4A1A
100
AcDbEntity
  8
LW 3593-00-01
100
AcDb2dPolyline
 66
     1
 10
0.0
 20
0.0
 30
0.0
 70
   128
  0
VERTEX
  5
4A37
330
4A36
100
AcDbEntity
  8
LW 3593-00-01
100
AcDbVertex
100
AcDb2dVertex
 10
-71.25000000000003
 20
-31.99999952316284
 30
0.0
  0
VERTEX
  5
4A38
330
4A36
100
AcDbEntity
  8
LW 3593-00-01
100
AcDbVertex
100
AcDb2dVertex
 10
-71.47222578525546
 20
-31.98318386077881
 30
0.0
  0
VERTEX
  5
4A39
330
4A36
100
AcDbEntity
  8
LW 3593-00-01
100
AcDbVertex
100
AcDb2dVertex
 10
-71.69854402542117
 20
-31.93250799179077
 30
0.0
  0
VERTEX
  5
4A3A
330
4A36
100
AcDbEntity
  8
LW 3593-00-01
100
AcDbVertex
100
AcDb2dVertex
 10
-71.92147195339206
 20
-31.84763216972351
 30
0.0
  0
VERTEX
  5
4A3B
330
4A36
100
AcDbEntity
  8
LW 3593-00-01
100
AcDbVertex
100
AcDb2dVertex
 10
-72.13380217552188
 20
-31.72932291030884
 30
0.0
  0
VERTEX
  5
4A3C
330
4A36
100
AcDbEntity
  8
LW 3593-00-01
100
AcDbVertex
100
AcDb2dVertex
 10
-72.32961654663089
 20
-31.58275866508484
 30
0.0
  0
VERTEX
  5
4A3D
330
4A36
100
AcDbEntity
  8
LW 3593-00-01
100
AcDbVertex
100
AcDb2dVertex
 10
-72.5033658742905
 20
-31.41421103477478
 30
0.0
  0
VERTEX
  5
4A3E
330
4A36
100
AcDbEntity
  8
LW 3593-00-01
100
AcDbVertex
100
AcDb2dVertex
 10
-72.65658378601077
 20
-31.22194790840149
 30
0.0
  0
VERTEX
  5
4A3F
330
4A36
100
AcDbEntity
  8
LW 3593-00-01
100
AcDbVertex
100
AcDb2dVertex
 10
-72.79047608375552
 20
-31.0038640499115
 30
0.0
  0
VERTEX
  5
4A40
330
4A36
100
AcDbEntity
  8
LW 3593-00-01
100
AcDbVertex
100
AcDb2dVertex
 10
-72.89900243282321
 20
-30.76566958427429
 30
0.0
  0
VERTEX
  5
4A41
330
4A36
100
AcDbEntity
  8
LW 3593-00-01
100
AcDbVertex
100
AcDb2dVertex
 10
-72.97709882259372
 20
-30.51353359222412
 30
0.0
  0
VERTEX
  5
4A42
330
4A36
100
AcDbEntity
  8
LW 3593-00-01
100
AcDbVertex
100
AcDb2dVertex
 10
-73.02383780479434
 20
-30.25547885894776
 30
0.0
  0
VERTEX
  5
4A43
330
4A36
100
AcDbEntity
  8
LW 3593-00-01
100
AcDbVertex
100
AcDb2dVertex
 10
-73.03938150405887
 20
-30.00000023841858
 30
0.0
  0
VERTEX
  5
4A44
330
4A36
100
AcDbEntity
  8
LW 3593-00-01
100
AcDbVertex
100
AcDb2dVertex
 10
-73.02383780479434
 20
-29.74452042579651
 30
0.0
  0
VERTEX
  5
4A45
330
4A36
100
AcDbEntity
  8
LW 3593-00-01
100
AcDbVertex
100
AcDb2dVertex
 10
-72.97709882259372
 20
-29.48646688461304
 30
0.0
  0
VERTEX
  5
4A46
330
4A36
100
AcDbEntity
  8
LW 3593-00-01
100
AcDbVertex
100
AcDb2dVertex
 10
-72.89900243282321
 20
-29.23433089256287
 30
0.0
  0
VERTEX
  5
4A47
330
4A36
100
AcDbEntity
  8
LW 3593-00-01
100
AcDbVertex
100
AcDb2dVertex
 10
-72.79047608375552
 20
-28.99613642692566
 30
0.0
  0
VERTEX
  5
4A48
330
4A36
100
AcDbEntity
  8
LW 3593-00-01
100
AcDbVertex
100
AcDb2dVertex
 10
-72.65658378601077
 20
-28.77805137634278
 30
0.0
  0
VERTEX
  5
4A49
330
4A36
100
AcDbEntity
  8
LW 3593-00-01
100
AcDbVertex
100
AcDb2dVertex
 10
-72.5033658742905
 20
-28.58578944206238
 30
0.0
  0
VERTEX
  5
4A4A
330
4A36
100
AcDbEntity
  8
LW 3593-00-01
100
AcDbVertex
100
AcDb2dVertex
 10
-72.32961654663089
 20
-28.41724181175232
 30
0.0
  0
VERTEX
  5
4A4B
330
4A36
100
AcDbEntity
  8
LW 3593-00-01
100
AcDbVertex
100
AcDb2dVertex
 10
-72.13380217552188
 20
-28.27067637443543
 30
0.0
  0
VERTEX
  5
4A4C
330
4A36
100
AcDbEntity
  8
LW 3593-00-01
100
AcDbVertex
100
AcDb2dVertex
 10
-71.92147195339206
 20
-28.15236830711365
 30
0.0
  0
VERTEX
  5
4A4D
330
4A36
100
AcDbEntity
  8
LW 3593-00-01
100
AcDbVertex
100
AcDb2dVertex
 10
-71.69854402542117
 20
-28.06749248504639
 30
0.0
  0
VERTEX
  5
4A4E
330
4A36
100
AcDbEntity
  8
LW 3593-00-01
100
AcDbVertex
100
AcDb2dVertex
 10
-71.47222578525546
 20
-28.01681661605835
 30
0.0
  0
VERTEX
  5
4A4F
330
4A36
100
AcDbEntity
  8
LW 3593-00-01
100
AcDbVertex
100
AcDb2dVertex
 10
-71.25000000000003
 20
-27.99999976158142
 30
0.0
  0
SEQEND
  5
4A50
330
4A36
100
AcDbEntity
  8
LW 3593-00-01
  0
POLYLINE
  5
4A51
330
4A1A
100
AcDbEntity
  8
LW 3593-00-01
100
AcDb2dPolyline
 66
     1
 10
0.0
 20
0.0
 30
0.0
 70
   128
  0
VERTEX
  5
4A52
330
4A51
100
AcDbEntity
  8
LW 3593-00-01
100
AcDbVertex
100
AcDb2dVertex
 10
-71.25000000000003
 20
-27.99999976158142
 30
0.0
  0
VERTEX
  5
4A53
330
4A51
100
AcDbEntity
  8
LW 3593-00-01
100
AcDbVertex
100
AcDb2dVertex
 10
-71.02972149848941
 20
-28.01681661605835
 30
0.0
  0
VERTEX
  5
4A54
330
4A51
100
AcDbEntity
  8
LW 3593-00-01
100
AcDbVertex
100
AcDb2dVertex
 10
-70.80907404422763
 20
-28.06749248504639
 30
0.0
  0
VERTEX
  5
4A55
330
4A51
100
AcDbEntity
  8
LW 3593-00-01
100
AcDbVertex
100
AcDb2dVertex
 10
-70.59528648853305
 20
-28.15236830711365
 30
0.0
  0
VERTEX
  5
4A56
330
4A51
100
AcDbEntity
  8
LW 3593-00-01
100
AcDbVertex
100
AcDb2dVertex
 10
-70.39504826068881
 20
-28.27067637443543
 30
0.0
  0
VERTEX
  5
4A57
330
4A51
100
AcDbEntity
  8
LW 3593-00-01
100
AcDbVertex
100
AcDb2dVertex
 10
-70.21312892436984
 20
-28.41724181175232
 30
0.0
  0
VERTEX
  5
4A58
330
4A51
100
AcDbEntity
  8
LW 3593-00-01
100
AcDbVertex
100
AcDb2dVertex
 10
-70.05387067794803
 20
-28.58578944206238
 30
0.0
  0
VERTEX
  5
4A59
330
4A51
100
AcDbEntity
  8
LW 3593-00-01
100
AcDbVertex
100
AcDb2dVertex
 10
-69.91515755653384
 20
-28.77805137634278
 30
0.0
  0
VERTEX
  5
4A5A
330
4A51
100
AcDbEntity
  8
LW 3593-00-01
100
AcDbVertex
100
AcDb2dVertex
 10
-69.79519367218021
 20
-28.99613642692566
 30
0.0
  0
VERTEX
  5
4A5B
330
4A51
100
AcDbEntity
  8
LW 3593-00-01
100
AcDbVertex
100
AcDb2dVertex
 10
-69.69880700111392
 20
-29.23433089256287
 30
0.0
  0
VERTEX
  5
4A5C
330
4A51
100
AcDbEntity
  8
LW 3593-00-01
100
AcDbVertex
100
AcDb2dVertex
 10
-69.6298968791962
 20
-29.48646688461304
 30
0.0
  0
VERTEX
  5
4A5D
330
4A51
100
AcDbEntity
  8
LW 3593-00-01
100
AcDbVertex
100
AcDb2dVertex
 10
-69.58886265754703
 20
-29.74452042579651
 30
0.0
  0
VERTEX
  5
4A5E
330
4A51
100
AcDbEntity
  8
LW 3593-00-01
100
AcDbVertex
100
AcDb2dVertex
 10
-69.57527995109561
 20
-30.00000023841858
 30
0.0
  0
VERTEX
  5
4A5F
330
4A51
100
AcDbEntity
  8
LW 3593-00-01
100
AcDbVertex
100
AcDb2dVertex
 10
-69.58886265754703
 20
-30.25547885894776
 30
0.0
  0
VERTEX
  5
4A60
330
4A51
100
AcDbEntity
  8
LW 3593-00-01
100
AcDbVertex
100
AcDb2dVertex
 10
-69.6298968791962
 20
-30.51353359222412
 30
0.0
  0
VERTEX
  5
4A61
330
4A51
100
AcDbEntity
  8
LW 3593-00-01
100
AcDbVertex
100
AcDb2dVertex
 10
-69.69880700111392
 20
-30.76566958427429
 30
0.0
  0
VERTEX
  5
4A62
330
4A51
100
AcDbEntity
  8
LW 3593-00-01
100
AcDbVertex
100
AcDb2dVertex
 10
-69.79519367218021
 20
-31.0038640499115
 30
0.0
  0
VERTEX
  5
4A63
330
4A51
100
AcDbEntity
  8
LW 3593-00-01
100
AcDbVertex
100
AcDb2dVertex
 10
-69.91515755653384
 20
-31.22194790840149
 30
0.0
  0
VERTEX
  5
4A64
330
4A51
100
AcDbEntity
  8
LW 3593-00-01
100
AcDbVertex
100
AcDb2dVertex
 10
-70.05387067794803
 20
-31.41421103477478
 30
0.0
  0
VERTEX
  5
4A65
330
4A51
100
AcDbEntity
  8
LW 3593-00-01
100
AcDbVertex
100
AcDb2dVertex
 10
-70.21312892436984
 20
-31.58275866508484
 30
0.0
  0
VERTEX
  5
4A66
330
4A51
100
AcDbEntity
  8
LW 3593-00-01
100
AcDbVertex
100
AcDb2dVertex
 10
-70.39504826068881
 20
-31.72932291030884
 30
0.0
  0
VERTEX
  5
4A67
330
4A51
100
AcDbEntity
  8
LW 3593-00-01
100
AcDbVertex
100
AcDb2dVertex
 10
-70.59528648853305
 20
-31.84763216972351
 30
0.0
  0
VERTEX
  5
4A68
330
4A51
100
AcDbEntity
  8
LW 3593-00-01
100
AcDbVertex
100
AcDb2dVertex
 10
-70.80907404422763
 20
-31.93250799179077
 30
0.0
  0
VERTEX
  5
4A69
330
4A51
100
AcDbEntity
  8
LW 3593-00-01
100
AcDbVertex
100
AcDb2dVertex
 10
-71.02972149848941
 20
-31.98318386077881
 30
0.0
  0
VERTEX
  5
4A6A
330
4A51
100
AcDbEntity
  8
LW 3593-00-01
100
AcDbVertex
100
AcDb2dVertex
 10
-71.25000000000003
 20
-31.99999952316284
 30
0.0
  0
SEQEND
  5
4A6B
330
4A51
100
AcDbEntity
  8
LW 3593-00-01
  0
POLYLINE
  5
4A6C
330
4A1A
100
AcDbEntity
  8
LW 3593-00-01
100
AcDb2dPolyline
 66
     1
 10
0.0
 20
0.0
 30
0.0
 70
   128
  0
VERTEX
  5
4A6D
330
4A6C
100
AcDbEntity
  8
LW 3593-00-01
100
AcDbVertex
100
AcDb2dVertex
 10
-97.50000000000003
 20
-27.99999976158142
 30
0.0
  0
VERTEX
  5
4A6E
330
4A6C
100
AcDbEntity
  8
LW 3593-00-01
100
AcDbVertex
100
AcDb2dVertex
 10
-97.49805331230167
 20
-28.01681661605835
 30
0.0
  0
VERTEX
  5
4A6F
330
4A6C
100
AcDbEntity
  8
LW 3593-00-01
100
AcDbVertex
100
AcDb2dVertex
 10
-97.49238133430484
 20
-28.06749248504639
 30
0.0
  0
VERTEX
  5
4A70
330
4A6C
100
AcDbEntity
  8
LW 3593-00-01
100
AcDbVertex
100
AcDb2dVertex
 10
-97.48324155807498
 20
-28.15236830711365
 30
0.0
  0
VERTEX
  5
4A71
330
4A6C
100
AcDbEntity
  8
LW 3593-00-01
100
AcDbVertex
100
AcDb2dVertex
 10
-97.47114896774295
 20
-28.27067637443543
 30
0.0
  0
VERTEX
  5
4A72
330
4A6C
100
AcDbEntity
  8
LW 3593-00-01
100
AcDbVertex
100
AcDb2dVertex
 10
-97.45725393295291
 20
-28.41724181175232
 30
0.0
  0
VERTEX
  5
4A73
330
4A6C
100
AcDbEntity
  8
LW 3593-00-01
100
AcDbVertex
100
AcDb2dVertex
 10
-97.44276285171512
 20
-28.58578944206238
 30
0.0
  0
VERTEX
  5
4A74
330
4A6C
100
AcDbEntity
  8
LW 3593-00-01
100
AcDbVertex
100
AcDb2dVertex
 10
-97.42825865745547
 20
-28.77805137634278
 30
0.0
  0
VERTEX
  5
4A75
330
4A6C
100
AcDbEntity
  8
LW 3593-00-01
100
AcDbVertex
100
AcDb2dVertex
 10
-97.41433024406436
 20
-28.99613642692566
 30
0.0
  0
VERTEX
  5
4A76
330
4A6C
100
AcDbEntity
  8
LW 3593-00-01
100
AcDbVertex
100
AcDb2dVertex
 10
-97.40219116210941
 20
-29.23433089256287
 30
0.0
  0
VERTEX
  5
4A77
330
4A6C
100
AcDbEntity
  8
LW 3593-00-01
100
AcDbVertex
100
AcDb2dVertex
 10
-97.39300489425662
 20
-29.48646688461304
 30
0.0
  0
VERTEX
  5
4A78
330
4A6C
100
AcDbEntity
  8
LW 3593-00-01
100
AcDbVertex
100
AcDb2dVertex
 10
-97.38729953765872
 20
-29.74452042579651
 30
0.0
  0
VERTEX
  5
4A79
330
4A6C
100
AcDbEntity
  8
LW 3593-00-01
100
AcDbVertex
100
AcDb2dVertex
 10
-97.38533854484561
 20
-30.00000023841858
 30
0.0
  0
VERTEX
  5
4A7A
330
4A6C
100
AcDbEntity
  8
LW 3593-00-01
100
AcDbVertex
100
AcDb2dVertex
 10
-97.38729953765872
 20
-30.25547885894776
 30
0.0
  0
VERTEX
  5
4A7B
330
4A6C
100
AcDbEntity
  8
LW 3593-00-01
100
AcDbVertex
100
AcDb2dVertex
 10
-97.39300489425662
 20
-30.51353359222412
 30
0.0
  0
VERTEX
  5
4A7C
330
4A6C
100
AcDbEntity
  8
LW 3593-00-01
100
AcDbVertex
100
AcDb2dVertex
 10
-97.40219116210941
 20
-30.76566958427429
 30
0.0
  0
VERTEX
  5
4A7D
330
4A6C
100
AcDbEntity
  8
LW 3593-00-01
100
AcDbVertex
100
AcDb2dVertex
 10
-97.41433024406436
 20
-31.0038640499115
 30
0.0
  0
VERTEX
  5
4A7E
330
4A6C
100
AcDbEntity
  8
LW 3593-00-01
100
AcDbVertex
100
AcDb2dVertex
 10
-97.42825865745547
 20
-31.22194790840149
 30
0.0
  0
VERTEX
  5
4A7F
330
4A6C
100
AcDbEntity
  8
LW 3593-00-01
100
AcDbVertex
100
AcDb2dVertex
 10
-97.44276285171512
 20
-31.41421103477478
 30
0.0
  0
VERTEX
  5
4A80
330
4A6C
100
AcDbEntity
  8
LW 3593-00-01
100
AcDbVertex
100
AcDb2dVertex
 10
-97.45725393295291
 20
-31.58275866508484
 30
0.0
  0
VERTEX
  5
4A81
330
4A6C
100
AcDbEntity
  8
LW 3593-00-01
100
AcDbVertex
100
AcDb2dVertex
 10
-97.47114896774295
 20
-31.72932291030884
 30
0.0
  0
VERTEX
  5
4A82
330
4A6C
100
AcDbEntity
  8
LW 3593-00-01
100
AcDbVertex
100
AcDb2dVertex
 10
-97.48324155807498
 20
-31.84763216972351
 30
0.0
  0
VERTEX
  5
4A83
330
4A6C
100
AcDbEntity
  8
LW 3593-00-01
100
AcDbVertex
100
AcDb2dVertex
 10
-97.49238133430484
 20
-31.93250799179077
 30
0.0
  0
VERTEX
  5
4A84
330
4A6C
100
AcDbEntity
  8
LW 3593-00-01
100
AcDbVertex
100
AcDb2dVertex
 10
-97.49805331230167
 20
-31.98318386077881
 30
0.0
  0
VERTEX
  5
4A85
330
4A6C
100
AcDbEntity
  8
LW 3593-00-01
100
AcDbVertex
100
AcDb2dVertex
 10
-97.50000000000003
 20
-31.99999952316284
 30
0.0
  0
SEQEND
  5
4A86
330
4A6C
100
AcDbEntity
  8
LW 3593-00-01
  0
LINE
  5
4A87
330
4A1A
100
AcDbEntity
  8
LW 3593-00-01
100
AcDbLine
 10
-97.50000000000003
 20
-34.0
 30
0.0
 11
-62.50000000000003
 21
-34.0
 31
0.0
  0
LINE
  5
4A88
330
4A1A
100
AcDbEntity
  8
LW 3593-00-01
100
AcDbLine
 10
-94.50000000000001
 20
-37.0
 30
0.0
 11
-65.50000000000003
 21
-37.0
 31
0.0
  0
LINE
  5
4A89
330
4A1A
100
AcDbEntity
  8
LW 3593-00-01
100
AcDbLine
 10
-62.50000000000003
 20
-14.0
 30
0.0
 11
-62.50000000000003
 21
-34.0
 31
0.0
  0
LINE
  5
4A8A
330
4A1A
100
AcDbEntity
  8
LW 3593-00-01
100
AcDbLine
 10
-97.50000000000003
 20
-14.0
 30
0.0
 11
-97.50000000000003
 21
-28.0
 31
0.0
  0
LINE
  5
4A8B
330
4A1A
100
AcDbEntity
  8
LW 3593-00-01
100
AcDbLine
 10
-97.50000000000003
 20
-32.0
 30
0.0
 11
-97.50000000000003
 21
-34.0
 31
0.0
  0
LINE
  5
4A8C
330
4A1A
100
AcDbEntity
  8
LW 3593-00-01
100
AcDbLine
 10
-94.50000000000001
 20
-37.0
 30
0.0
 11
-97.50000000000003
 21
-34.0
 31
0.0
  0
LINE
  5
4A8D
330
4A1A
100
AcDbEntity
  8
LW 3593-00-01
100
AcDbLine
 10
-65.50000000000003
 20
-37.0
 30
0.0
 11
-62.50000000000003
 21
-34.0
 31
0.0
  0
LINE
  5
4A8E
330
4A1A
100
AcDbEntity
  8
LW 3593-00-01
  6
MITTE2
 62
     3
100
AcDbLine
 10
-79.99999999999989
 20
27.30489739875702
 30
0.0
 11
-79.99999999999989
 21
-41.6303604871004
 31
0.0
  0
INSERT
  5
4A8F
330
4A1A
100
AcDbEntity
  8
LW 3593-00-01
100
AcDbBlockReference
 66
     1
  2
insertpoint-ECKELT
 10
0.0
 20
0.0
 30
0.0
  0
ATTRIB
  5
4A90
330
4A8F
100
AcDbEntity
  8
insertpoint_ECKELT
100
AcDbText
 10
-6.931514324693087
 20
0.0
 30
0.0
 40
0.6
  1
LW 3593/00-01
 72
     2
 11
-1.200000000000045
 21
0.0
 31
0.0
100
AcDbAttribute
  2
LINKS
 70
     0
  0
ATTRIB
  5
4A91
330
4A8F
100
AcDbEntity
  8
insertpoint_ECKELT
100
AcDbText
 10
1.200000000000045
 20
0.0
 30
0.0
 40
0.6
  1

100
AcDbAttribute
  2
RECHTS
 70
     0
  0
SEQEND
  5
4A92
330
4A8F
100
AcDbEntity
  8
LW 3593-00-01
  0
HATCH
  5
4A93
330
4A1A
100
AcDbEntity
  8
LW 3593-00-01
 62
     1
100
AcDbHatch
 10
0.0
 20
0.0
 30
0.0
210
0.0
220
0.0
230
1.0
  2
SOLID
 70
     1
 71
     0
 91
        5
 92
        7
 72
     0
 73
     1
 93
       76
 10
-27.61356253579223
 20
-18.9456228087227
 10
-27.55456169360363
 20
-18.93167715511441
 10
-27.36406675676037
 20
-18.90828304006345
 10
-27.16968154310561
 20
-18.90407854421647
 10
-26.97564828287122
 20
-18.91654861607645
 10
-26.77725174188001
 20
-18.94961470624167
 10
-26.58098376470079
 20
-19.00138133717416
 10
-26.38786964145274
 20
-19.06530467621059
 10
-26.21060698849723
 20
-19.14425358887132
 10
-27.80664453067184
 20
-17.54821604669672
 10
-27.96332964068322
 20
-17.40381996492152
 10
-28.12462313628314
 20
-17.27939355403015
 10
-28.29206114600126
 20
-17.17032842843394
 10
-28.46103528424871
 20
-17.07816071666264
 10
-28.63461780808492
 20
-17.00289041871588
 10
-28.81127258898013
 20
-16.94298140606457
 10
-28.98514574833391
 20
-16.90391888646155
 10
-29.16150989371132
 20
-16.87846400782467
 10
-29.33439009958383
 20
-16.87394348878797
 10
-29.50375933008914
 20
-16.88596031504857
 10
-29.67150456551306
 20
-16.912258835474
 10
-29.8327980611131
 20
-16.95680656283031
 10
-29.98641091406543
 20
-17.02132396107032
 10
-30.135415381429
 20
-17.09966651607595
 10
-30.27213082055661
 20
-17.19644261343592
 10
-30.40116561703664
 20
-17.31318838167965
 10
-30.51637525675082
 20
-17.44375930668923
 10
-30.61315135411084
 20
-17.58354700287572
 10
-30.68842165205743
 20
-17.73562372729856
 10
-30.7498667932384
 20
-17.89538109436893
 10
-30.79134226353554
 20
-18.06281910408711
 10
-30.81592032000785
 20
-18.23793775645259
 10
-30.82194194384366
 20
-18.41748045898333
 10
-30.8112891997171
 20
-18.59944225672222
 10
-30.78519774941745
 20
-18.78172725590389
 10
-30.74065002206109
 20
-18.96452655091718
 10
-30.67649515015418
 20
-19.14874522869178
 10
-30.60086232587466
 20
-19.32858901241406
 10
-30.50562235704419
 20
-19.50370766477982
 10
-30.39502110291849
 20
-19.67575406008649
 10
-30.26598630643864
 20
-19.84165594127489
 10
-30.12312635319304
 20
-19.99680492275672
 10
-28.62464610796278
 20
-21.49528516798688
 10
-28.6935699698964
 20
-21.33716572002169
 10
-28.75929121084087
 20
-21.14328805923538
 10
-28.80450129433862
 20
-20.95025066632303
 10
-28.83788709800476
 20
-20.75335598181795
 10
-28.84787340573505
 20
-20.55981946640605
 10
-28.83944625579014
 20
-20.37117074756247
 10
-28.81343682486127
 20
-20.18435766184115
 10
-28.79065850374147
 20
-20.08808092035343
 10
-29.51789171256078
 20
-19.36084771153412
 10
-29.6059610334153
 20
-19.26208693611409
 10
-29.68403937431404
 20
-19.15525226914269
 10
-29.75138324904825
 20
-19.04133297739338
 10
-29.80053936199297
 20
-18.92765946620864
 10
-29.83480731722958
 20
-18.81351282743685
 10
-29.85640528435474
 20
-18.6963062206342
 10
-29.86505676023305
 20
-18.57742216147739
 10
-29.85583998905585
 20
-18.46682090735169
 10
-28.63429795309915
 20
-19.68836294330833
 10
-28.618705560216
 20
-19.65780185325712
 10
-28.51316128913979
 20
-19.50118777359586
 10
-28.38712229056736
 20
-19.35811647791905
 10
-28.24091186571647
 20
-19.22890726526032
 10
-28.0834567974961
 20
-19.12279624102473
 10
-28.03697805882317
 20
-19.09979161279261
 10
-29.2890085616618
 20
-17.84776110995375
 10
-29.17226279341807
 20
-17.82932756759953
 10
-29.05551702517423
 20
-17.82932756759947
 10
-28.93887571367057
 20
-17.84716509208436
 10
-28.82509774574575
 20
-17.87848368054421
 10
-28.71007858596923
 20
-17.93132035744571
 10
-28.60082298043537
 20
-17.99522944878805
 10
-28.49022172630979
 20
-18.07818038938228
 10
-28.38422885777263
 20
-18.17495648674224
 97
        0
 92
        7
 72
     0
 73
     1
 93
       72
 10
-26.40167679951358
 20
-20.17815411243828
 10
-26.30201892503223
 20
-20.25225080818831
 10
-26.21060698849729
 20
-20.33628932778146
 10
-25.3135079272557
 20
-21.23338838902299
 10
-26.48864625234089
 20
-21.21034646108012
 10
-26.45485142469144
 20
-23.67429662243546
 10
-25.52242140727091
 20
-24.606726639856
 10
-25.50245173638703
 20
-22.16274614938459
 10
-23.15831960033458
 20
-22.19654097703409
 10
-25.59001106256986
 20
-19.76484951479887
 10
-25.74469920549288
 20
-19.62539976688868
 10
-25.90887447821425
 20
-19.49723134689941
 10
-26.08157219201726
 20
-19.380817382418
 10
-26.25822697291247
 20
-19.28404128505798
 10
-26.44102626792582
 20
-19.20262647299324
 10
-26.62288545227901
 20
-19.14242866817829
 10
-26.80816098648179
 20
-19.09356134739715
 10
-26.99249641002453
 20
-19.0628387768067
 10
-27.17281332133413
 20
-19.05125022317998
 10
-27.35348661446247
 20
-19.05515813415917
 10
-27.52860526682829
 20
-19.07666393357238
 10
-27.69757940507563
 20
-19.11660327533991
 10
-27.85733677214617
 20
-19.17497615946178
 10
-28.00941349656895
 20
-19.25024645740848
 10
-28.1507373212851
 20
-19.345486426239
 10
-28.28284437482418
 20
-19.46223219448274
 10
-28.39651788600875
 20
-19.59126699096265
 10
-28.49175785483922
 20
-19.73259081567874
 10
-28.56856428131536
 20
-19.88313141157209
 10
-28.62847329396684
 20
-20.04135265011291
 10
-28.66872600595431
 20
-20.2114881015288
 10
-28.69283093483975
 20
-20.38462207583444
 10
-28.70063446776962
 20
-20.55931061221179
 10
-28.69145456367724
 20
-20.73721887398688
 10
-28.66026501001389
 20
-20.92116104862629
 10
-28.6177203942602
 20
-21.10281746401353
 10
-28.55627525307923
 20
-21.28408063049733
 10
-28.47793269807349
 20
-21.46380766845152
 10
-28.37880939632052
 20
-21.63936872583366
 10
-28.270555346588
 20
-21.80943658759423
 10
-28.14152055010803
 20
-21.97533846878275
 10
-27.99866059686233
 20
-22.13048745026458
 10
-26.65301200499991
 20
-23.47613604212694
 10
-26.6622287761771
 20
-22.23187193321308
 10
-27.38113692799399
 20
-21.51296378139625
 10
-27.42562790405961
 20
-21.46317333283361
 10
-27.48995012851131
 20
-21.38473391626582
 10
-27.55972108632213
 20
-21.28460905871145
 10
-27.61826601683945
 20
-21.17752246666146
 10
-27.66109328024246
 20
-21.07681388026577
 10
-27.68087861570277
 20
-21.01721209332021
 10
-27.6957974959814
 20
-20.95620935715573
 10
-27.7193002624833
 20
-20.79224299791452
 10
-27.72181951327159
 20
-20.69067417954244
 10
-27.71276864397569
 20
-20.60374773831393
 10
-27.69590195272153
 20
-20.51800104379578
 10
-27.66917331630791
 20
-20.43560310947208
 10
-27.63240454382512
 20
-20.35722368738181
 10
-27.58541129985
 20
-20.28095797814797
 10
-27.52756069942822
 20
-20.2124773683019
 10
-27.48254598899902
 20
-20.16937974627763
 10
-27.43436685379905
 20
-20.12969232958892
 10
-27.38110006090918
 20
-20.0936178872015
 10
-27.3245951090793
 20
-20.06287073855452
 10
-27.22392953428275
 20
-20.02393295258816
 10
-27.14657624604988
 20
-20.00530893029634
 10
-27.04679548128618
 20
-19.99473422149896
 10
-26.8658294064106
 20
-19.99677012568475
 10
-26.79559545511021
 20
-20.01035357638727
 10
-26.7103095991512
 20
-20.03296538834189
 10
-26.62109739867057
 20
-20.06257580187685
 10
-26.50840086523064
 20
-20.11468742611242
 97
        0
 92
        7
 72
     0
 73
     1
 93
       57
 10
-23.19426500792534
 20
-23.41678003574617
 10
-23.07303374437546
 20
-23.4814817694097
 10
-22.95862289149662
 20
-23.55755085419162
 10
-22.85109389443002
 20
-23.65279082302214
 10
-21.9739645040722
 20
-24.52992021337986
 10
-21.39023566285337
 20
-23.94619137216108
 10
-22.2627566676226
 20
-23.07367036739197
 10
-22.41790564910443
 20
-22.93081041414627
 10
-22.58380753029294
 20
-22.80484787472534
 10
-22.75278166854034
 20
-22.69424662059964
 10
-22.924828063847
 20
-22.59900665176923
 10
-23.10609123033069
 20
-22.51912796823404
 10
-23.28219300495553
 20
-22.45989485213545
 10
-23.46270039620262
 20
-22.41579567431001
 10
-23.64624317742411
 20
-22.38709464886449
 10
-23.8256937122429
 20
-22.37624958144607
 10
-24.00165416304285
 20
-22.38241252910643
 10
-24.1737005583494
 20
-22.4069905855788
 10
-24.33653018247893
 20
-22.45000218440543
 10
-24.49628754954947
 20
-22.50837506852736
 10
-24.64529201691298
 20
-22.58671762353299
 10
-24.78661584162919
 20
-22.6819575923634
 10
-24.91718676663865
 20
-22.7971672320777
 10
-25.03239640635295
 20
-22.92773815708716
 10
-25.12763637518336
 20
-23.06906198180326
 10
-25.20444280165967
 20
-23.21960257769655
 10
-25.26435181431092
 20
-23.38089607329658
 10
-25.30736341313761
 20
-23.5467979544851
 10
-25.32907812603091
 20
-23.72244503506482
 10
-25.33649455457149
 20
-23.89936403006704
 10
-25.32580310000603
 20
-24.08161031880962
 10
-25.29968277049008
 20
-24.26416997777238
 10
-25.25513504313389
 20
-24.44696927278568
 10
-25.19215377342348
 20
-24.62976856779881
 10
-25.11381121841762
 20
-24.81256786281216
 10
-25.01857124958721
 20
-24.98768651517782
 10
-24.90796999546157
 20
-25.15973291048442
 10
-24.77893519898166
 20
-25.32256253461395
 10
-24.63453911720646
 20
-25.47924764462528
 10
-23.77891552626207
 20
-26.33487123556972
 10
-23.17214475710031
 20
-25.72810046640808
 10
-24.04466576186965
 20
-24.8555794616388
 10
-24.13185641720534
 20
-24.75376486270204
 10
-24.20983030136378
 20
-24.6446997371059
 10
-24.2708453265565
 20
-24.53514305038022
 10
-24.3189568721011
 20
-24.41919606897193
 10
-24.3534275963037
 20
-24.29857925683359
 10
-24.37425749916403
 20
-24.18214071429583
 10
-24.37966467158791
 20
-24.06392026266372
 10
-24.37186113865792
 20
-23.95079975774962
 10
-22.88335259354992
 20
-25.43930830285769
 10
-22.29808762380153
 20
-24.85404333310936
 10
-23.81271035391157
 20
-23.33942060299933
 10
-23.69442845713829
 20
-23.31945093211562
 10
-23.57000204624691
 20
-23.31791480358612
 10
-23.44453106795535
 20
-23.33548811396389
 10
-23.32114922446405
 20
-23.3639986594718
 97
        0
 92
        7
 72
     0
 73
     1
 93
        6
 10
-21.23662280990092
 20
-24.11823776746775
 10
-23.61915815919164
 20
-26.50077311675818
 10
-22.03694577378266
 20
-28.08298550216722
 10
-21.42403049050287
 20
-27.47007021888737
 10
-22.28272633850631
 20
-26.61137437088382
 10
-20.51310627249555
 20
-24.84175430487312
 97
        0
 92
        7
 72
     0
 73
     1
 93
        8
 10
-20.34874051983664
 20
-25.00612005753209
 10
-20.93246936105552
 20
-25.58984889875091
 10
-20.05994835628619
 20
-26.46236990352014
 10
-21.86336324994656
 20
-28.26578479718051
 10
-21.13831058401164
 20
-28.99083746311544
 10
-19.33489569035137
 20
-27.18742256945513
 10
-18.45623017146411
 20
-28.06608808834244
 10
-17.87250133024523
 20
-27.48235924712361
 97
        0
 75
     0
 76
     1
 47
0.0142553043587597
 98
        5
 10
-27.81240332010125
 20
-18.16817558066782
 10
-26.30984084660102
 20
-19.87233841891992
 10
-23.09304741045597
 20
-23.00849173950576
 10
-20.99563483611567
 20
-24.76318348137767
 10
-20.06787478295107
 20
-25.83206385055166
450
        0
451
        0
460
0.0
461
0.0
452
        0
462
0.0
453
        0
470

  0
LWPOLYLINE
  5
4A94
330
4A1A
100
AcDbEntity
  8
LW 3593-00-01
 62
     1
100
AcDbPolyline
 90
        8
 70
     1
 43
0.0
 10
-19.33489569035137
 20
-27.18742256945513
 10
-21.13831058401164
 20
-28.99083746311544
 10
-21.86336324994656
 20
-28.26578479718051
 10
-20.05994835628619
 20
-26.46236990352014
 10
-20.93246936105552
 20
-25.58984889875091
 10
-20.34874051983664
 20
-25.00612005753209
 10
-17.87250133024523
 20
-27.48235924712361
 10
-18.45623017146411
 20
-28.06608808834244
  0
LWPOLYLINE
  5
4A95
330
4A1A
100
AcDbEntity
  8
LW 3593-00-01
 62
     1
100
AcDbPolyline
 90
       73
 70
     1
 43
0.0
 10
-27.38113692799399
 20
-21.51296378139625
 10
-26.6622287761771
 20
-22.23187193321308
 10
-26.65301200499991
 20
-23.47613604212694
 10
-27.99866059686233
 20
-22.13048745026458
 10
-28.14152055010803
 20
-21.97533846878275
 10
-28.27055534658794
 20
-21.80943658759423
 10
-28.37880939632052
 20
-21.63936872583366
 10
-28.47793269807349
 20
-21.46380766845152
 10
-28.55627525307923
 20
-21.28408063049733
 10
-28.61772039426015
 20
-21.10281746401353
 10
-28.66026501001377
 20
-20.92116104862623
 10
-28.69145456367724
 20
-20.73721887398688
 10
-28.70063446776973
 20
-20.55931061221173
 10
-28.69283093483975
 20
-20.38462207583444
 10
-28.66872600595442
 20
-20.21148810152874
 10
-28.62847329396684
 20
-20.04135265011291
 10
-28.56856428131536
 20
-19.88313141157209
 10
-28.49175785483922
 20
-19.73259081567874
 10
-28.39651788600875
 20
-19.59126699096265
 10
-28.28284437482407
 20
-19.46223219448268
 10
-28.1507373212851
 20
-19.345486426239
 10
-28.00941349656895
 20
-19.25024645740848
 10
-27.85733677214611
 20
-19.17497615946189
 10
-27.69757940507569
 20
-19.11660327533997
 10
-27.52860526682818
 20
-19.07666393357238
 10
-27.35348661446247
 20
-19.05515813415917
 10
-27.17281332133408
 20
-19.05125022317992
 10
-26.99249641002464
 20
-19.06283877680664
 10
-26.80816098648179
 20
-19.09356134739715
 10
-26.62288545227895
 20
-19.14242866817847
 10
-26.44102626792588
 20
-19.20262647299336
 10
-26.25822697291247
 20
-19.28404128505798
 10
-26.08157219201726
 20
-19.38081738241794
 10
-25.90887447821413
 20
-19.49723134689941
 10
-25.74469920549288
 20
-19.62539976688868
 10
-25.59001106256986
 20
-19.76484951479875
 10
-23.15831960033458
 20
-22.19654097703409
 10
-25.50245173638703
 20
-22.16274614938459
 10
-25.52242140727091
 20
-24.606726639856
 10
-26.45485142469144
 20
-23.67429662243546
 10
-26.48864625234089
 20
-21.21034646108012
 10
-25.3135079272557
 20
-21.23338838902299
 10
-26.21060698849729
 20
-20.33628932778146
 10
-26.30201892503223
 20
-20.25225080818831
 10
-26.40167679951358
 20
-20.17815411243828
 10
-26.50840086523064
 20
-20.11468742611242
 10
-26.62109739867069
 20
-20.06257580187696
 10
-26.7103095991512
 20
-20.03296538834172
 10
-26.79559545511032
 20
-20.01035357638722
 10
-26.84328302918081
 20
-20.00113066069594
 10
-26.891683366889
 20
-19.9964792635086
 10
-27.04679548128618
 20
-19.99473422149896
 10
-27.14657624604988
 20
-20.00530893029634
 10
-27.22392953428264
 20
-20.02393295258816
 10
-27.3245951090793
 20
-20.06287073855452
 10
-27.38110006090918
 20
-20.0936178872015
 10
-27.43436685379899
 20
-20.12969232958886
 10
-27.48254598899896
 20
-20.16937974627757
 10
-27.52756069942811
 20
-20.21247736830185
 10
-27.58541129985
 20
-20.28095797814797
 10
-27.63240454382501
 20
-20.35722368738186
 10
-27.66917331630779
 20
-20.4356031094722
 10
-27.69590195272153
 20
-20.51800104379578
 10
-27.71276864397569
 20
-20.60374773831376
 10
-27.72181951327159
 20
-20.69067417954244
 10
-27.7193002624833
 20
-20.79224299791452
 10
-27.6957974959814
 20
-20.95620935715584
 10
-27.68087861570277
 20
-21.01721209332027
 10
-27.66109328024246
 20
-21.07681388026577
 10
-27.61826601683945
 20
-21.17752246666146
 10
-27.55972108632213
 20
-21.28460905871145
 10
-27.48995012851131
 20
-21.38473391626582
 10
-27.4256279040595
 20
-21.46317333283366
  0
LWPOLYLINE
  5
4A96
330
4A1A
100
AcDbEntity
  8
LW 3593-00-01
 62
     1
100
AcDbPolyline
 90
       76
 70
     1
 43
0.0
 10
-26.58098376470079
 20
-19.00138133717416
 10
-26.77725174188012
 20
-18.94961470624167
 10
-26.97564828287128
 20
-18.91654861607634
 10
-27.16968154310561
 20
-18.90407854421647
 10
-27.36406675676037
 20
-18.90828304006345
 10
-27.55456169360352
 20
-18.93167715511436
 10
-27.61356253579223
 20
-18.9456228087227
 10
-28.38422885777263
 20
-18.17495648674224
 10
-28.49022172630979
 20
-18.07818038938228
 10
-28.60082298043548
 20
-17.99522944878799
 10
-28.71007858596923
 20
-17.93132035744571
 10
-28.82509774574575
 20
-17.87848368054421
 10
-28.93887571367051
 20
-17.84716509208442
 10
-29.05551702517434
 20
-17.82932756759953
 10
-29.17226279341813
 20
-17.82932756759947
 10
-29.2890085616618
 20
-17.84776110995375
 10
-28.03697805882317
 20
-19.09979161279261
 10
-28.0834567974961
 20
-19.12279624102473
 10
-28.2409118657167
 20
-19.22890726526026
 10
-28.38712229056736
 20
-19.35811647791905
 10
-28.51316128913979
 20
-19.50118777359586
 10
-28.61870556021589
 20
-19.65780185325718
 10
-28.63429795309915
 20
-19.68836294330833
 10
-29.85583998905585
 20
-18.46682090735169
 10
-29.86505676023305
 20
-18.57742216147739
 10
-29.85640528435474
 20
-18.6963062206342
 10
-29.83480731722958
 20
-18.81351282743685
 10
-29.80053936199297
 20
-18.92765946620864
 10
-29.75138324904825
 20
-19.04133297739338
 10
-29.68403937431404
 20
-19.15525226914269
 10
-29.6059610334153
 20
-19.26208693611409
 10
-29.51789171256078
 20
-19.36084771153412
 10
-28.79065850374147
 20
-20.08808092035343
 10
-28.81343682486122
 20
-20.18435766184109
 10
-28.83944625579014
 20
-20.37117074756247
 10
-28.84787340573505
 20
-20.55981946640605
 10
-28.83788709800453
 20
-20.753355981818
 10
-28.80450129433862
 20
-20.95025066632303
 10
-28.75929121084087
 20
-21.14328805923538
 10
-28.6935699698964
 20
-21.33716572002169
 10
-28.62464610796278
 20
-21.49528516798688
 10
-30.12312635319299
 20
-19.99680492275678
 10
-30.26598630643864
 20
-19.84165594127489
 10
-30.39502110291849
 20
-19.67575406008649
 10
-30.50562235704425
 20
-19.50370766477982
 10
-30.60086232587472
 20
-19.32858901241423
 10
-30.6764951501543
 20
-19.14874522869166
 10
-30.74065002206109
 20
-18.96452655091718
 10
-30.78519774941745
 20
-18.78172725590389
 10
-30.81128919971698
 20
-18.5994422567224
 10
-30.82194194384366
 20
-18.41748045898333
 10
-30.81592032000785
 20
-18.23793775645265
 10
-30.79134226353554
 20
-18.06281910408699
 10
-30.74986679323828
 20
-17.89538109436898
 10
-30.68842165205743
 20
-17.73562372729856
 10
-30.61315135411084
 20
-17.58354700287572
 10
-30.51637525675082
 20
-17.44375930668911
 10
-30.40116561703664
 20
-17.31318838167971
 10
-30.27213082055684
 20
-17.19644261343592
 10
-30.13541538142912
 20
-17.09966651607595
 10
-29.98641091406532
 20
-17.02132396107021
 10
-29.8327980611131
 20
-16.95680656283031
 10
-29.67150456551306
 20
-16.912258835474
 10
-29.50375933008908
 20
-16.88596031504869
 10
-29.33439009958377
 20
-16.87394348878791
 10
-29.16150989371144
 20
-16.87846400782462
 10
-28.98514574833397
 20
-16.90391888646161
 10
-28.81127258898002
 20
-16.94298140606457
 10
-28.63461780808487
 20
-17.00289041871599
 10
-28.46103528424871
 20
-17.07816071666264
 10
-28.29206114600126
 20
-17.17032842843406
 10
-28.12462313628314
 20
-17.27939355403015
 10
-27.96332964068322
 20
-17.40381996492152
 10
-27.80664453067189
 20
-17.54821604669684
 10
-26.21060698849712
 20
-19.14425358887138
 10
-26.38786964145274
 20
-19.06530467621059
  0
LWPOLYLINE
  5
4A97
330
4A1A
100
AcDbEntity
  8
LW 3593-00-01
 62
     1
100
AcDbPolyline
 90
        6
 70
     1
 43
0.0
 10
-22.03694577378266
 20
-28.08298550216722
 10
-23.61915815919164
 20
-26.50077311675818
 10
-21.23662280990092
 20
-24.11823776746775
 10
-20.51310627249555
 20
-24.84175430487312
 10
-22.28272633850631
 20
-26.61137437088382
 10
-21.42403049050287
 20
-27.47007021888737
  0
LWPOLYLINE
  5
4A98
330
4A1A
100
AcDbEntity
  8
LW 3593-00-01
 62
     1
100
AcDbPolyline
 90
       57
 70
     1
 43
0.0
 10
-25.33649455457149
 20
-23.89936403006704
 10
-25.32907812603102
 20
-23.72244503506482
 10
-25.30736341313772
 20
-23.54679795448504
 10
-25.26435181431092
 20
-23.38089607329658
 10
-25.20444280165967
 20
-23.21960257769655
 10
-25.12763637518336
 20
-23.06906198180326
 10
-25.03239640635295
 20
-22.92773815708716
 10
-24.91718676663865
 20
-22.7971672320777
 10
-24.78661584162924
 20
-22.6819575923634
 10
-24.64529201691309
 20
-22.58671762353305
 10
-24.49628754954947
 20
-22.50837506852736
 10
-24.33653018247893
 20
-22.45000218440538
 10
-24.17370055834957
 20
-22.40699058557885
 10
-24.00165416304285
 20
-22.38241252910632
 10
-23.82569371224307
 20
-22.37624958144591
 10
-23.64624317742411
 20
-22.38709464886449
 10
-23.46270039620251
 20
-22.41579567431001
 10
-23.28219300495519
 20
-22.45989485213562
 10
-23.10609123033069
 20
-22.51912796823404
 10
-22.92482806384712
 20
-22.59900665176923
 10
-22.75278166854034
 20
-22.69424662059964
 10
-22.58380753029294
 20
-22.80484787472534
 10
-22.41790564910443
 20
-22.93081041414627
 10
-22.2627566676226
 20
-23.07367036739197
 10
-21.39023566285337
 20
-23.94619137216108
 10
-21.9739645040722
 20
-24.52992021337986
 10
-22.85109389442997
 20
-23.6527908230222
 10
-22.95862289149656
 20
-23.55755085419173
 10
-23.07303374437546
 20
-23.4814817694097
 10
-23.19426500792545
 20
-23.41678003574617
 10
-23.32114922446405
 20
-23.3639986594718
 10
-23.44453106795535
 20
-23.33548811396389
 10
-23.57000204624686
 20
-23.31791480358601
 10
-23.69442845713829
 20
-23.31945093211562
 10
-23.81271035391157
 20
-23.33942060299933
 10
-22.29808762380153
 20
-24.85404333310936
 10
-22.88335259354992
 20
-25.43930830285769
 10
-24.37186113865792
 20
-23.95079975774962
 10
-24.37966467158791
 20
-24.06392026266372
 10
-24.37425749916403
 20
-24.18214071429583
 10
-24.3534275963037
 20
-24.29857925683359
 10
-24.3189568721011
 20
-24.41919606897193
 10
-24.2708453265565
 20
-24.53514305038022
 10
-24.20983030136378
 20
-24.6446997371059
 10
-24.13185641720534
 20
-24.75376486270204
 10
-24.04466576186965
 20
-24.8555794616388
 10
-23.17214475710031
 20
-25.72810046640808
 10
-23.77891552626207
 20
-26.33487123556972
 10
-24.63453911720646
 20
-25.47924764462528
 10
-24.77893519898166
 20
-25.32256253461395
 10
-24.90796999546157
 20
-25.15973291048442
 10
-25.01857124958721
 20
-24.98768651517782
 10
-25.11381121841762
 20
-24.81256786281216
 10
-25.19215377342348
 20
-24.62976856779881
 10
-25.25513504313384
 20
-24.44696927278562
 10
-25.29968277049008
 20
-24.26416997777238
 10
-25.32580310000603
 20
-24.08161031880962
  0
ARC
  5
4A99
330
4A1A
100
AcDbEntity
  8
LW 3593-00-01
100
AcDbCircle
 10
-7.0
 20
-113.0
 30
0.0
 40
2.0
100
AcDbArc
 50
180.0
 51
270.0
  0
LINE
  5
4A9A
330
4A1A
100
AcDbEntity
  8
LW 3593-00-01
100
AcDbLine
 10
-7.0
 20
-115.0
 30
0.0
 11
0.0
 21
-115.0
 31
0.0
  0
LINE
  5
4A9B
330
4A1A
100
AcDbEntity
  8
LW 3593-00-01
100
AcDbLine
 10
-14.0
 20
-57.5
 30
0.0
 11
-14.0
 21
-102.5
 31
0.0
  0
LINE
  5
4A9C
330
4A1A
100
AcDbEntity
  8
LW 3593-00-01
100
AcDbLine
 10
-9.0
 20
-57.5
 30
0.0
 11
-14.0
 21
-57.5
 31
0.0
  0
LINE
  5
4A9D
330
4A1A
100
AcDbEntity
  8
LW 3593-00-01
100
AcDbLine
 10
-9.0
 20
-102.5
 30
0.0
 11
-14.0
 21
-102.5
 31
0.0
  0
LINE
  5
4A9E
330
4A1A
100
AcDbEntity
  8
LW 3593-00-01
100
AcDbLine
 10
5.0
 20
-102.5
 30
0.0
 11
5.0
 21
-57.5
 31
0.0
  0
LINE
  5
4A9F
330
4A1A
100
AcDbEntity
  8
LW 3593-00-01
100
AcDbLine
 10
0.0
 20
-102.5
 30
0.0
 11
5.0
 21
-102.5
 31
0.0
  0
LINE
  5
4AA0
330
4A1A
100
AcDbEntity
  8
LW 3593-00-01
100
AcDbLine
 10
0.0
 20
-57.5
 30
0.0
 11
5.0
 21
-57.5
 31
0.0
  0
LINE
  5
4AA1
330
4A1A
100
AcDbEntity
  8
LW 3593-00-01
100
AcDbLine
 10
21.0
 20
-73.0
 30
0.0
 11
21.0
 21
-86.99999999999997
 31
0.0
  0
LINE
  5
4AA2
330
4A1A
100
AcDbEntity
  8
LW 3593-00-01
100
AcDbLine
 10
22.0
 20
-74.0
 30
0.0
 11
22.0
 21
-86.0
 31
0.0
  0
LINE
  5
4AA3
330
4A1A
100
AcDbEntity
  8
LW 3593-00-01
100
AcDbLine
 10
5.0
 20
-86.99999999999997
 30
0.0
 11
21.0
 21
-86.99999999999997
 31
0.0
  0
LINE
  5
4AA4
330
4A1A
100
AcDbEntity
  8
LW 3593-00-01
100
AcDbLine
 10
5.0
 20
-73.0
 30
0.0
 11
21.0
 21
-73.0
 31
0.0
  0
LINE
  5
4AA5
330
4A1A
100
AcDbEntity
  8
LW 3593-00-01
100
AcDbLine
 10
22.0
 20
-74.0
 30
0.0
 11
21.0
 21
-73.0
 31
0.0
  0
LINE
  5
4AA6
330
4A1A
100
AcDbEntity
  8
LW 3593-00-01
100
AcDbLine
 10
22.0
 20
-86.0
 30
0.0
 11
21.0
 21
-87.0
 31
0.0
  0
LINE
  5
4AA7
330
4A1A
100
AcDbEntity
  8
LW 3593-00-01
 62
     3
100
AcDbLine
 10
22.0
 20
-85.79449999999999
 30
0.0
 11
5.0
 21
-85.79449999999999
 31
0.0
  0
LINE
  5
4AA8
330
4A1A
100
AcDbEntity
  8
LW 3593-00-01
 62
     3
100
AcDbLine
 10
5.0
 20
-74.20550000000003
 30
0.0
 11
22.0
 21
-74.20550000000003
 31
0.0
  0
LINE
  5
4AA9
330
4A1A
100
AcDbEntity
  8
LW 3593-00-01
100
AcDbLine
 10
21.0
 20
-73.0
 30
0.0
 11
21.0
 21
-87.0
 31
0.0
  0
ELLIPSE
  5
4AAA
330
4A1A
100
AcDbEntity
  8
LW 3593-00-01
100
AcDbEllipse
 10
-30.0
 20
-73.75
 30
0.0
 11
2.00000000000002
 21
0.0000000000001952
 31
0.0
210
0.0
220
0.0
230
-1.0
 40
0.866025403784425
 41
3.935761501374648
 42
5.489016459394978
  0
POLYLINE
  5
4AAB
330
4A1A
100
AcDbEntity
  8
LW 3593-00-01
100
AcDb2dPolyline
 66
     1
 10
0.0
 20
0.0
 30
0.0
 70
   128
  0
VERTEX
  5
4AAC
330
4AAB
100
AcDbEntity
  8
LW 3593-00-01
100
AcDbVertex
100
AcDb2dVertex
 10
-31.99999952316284
 20
-71.25
 30
0.0
  0
VERTEX
  5
4AAD
330
4AAB
100
AcDbEntity
  8
LW 3593-00-01
100
AcDbVertex
100
AcDb2dVertex
 10
-31.98318386077881
 20
-71.47222578525543
 30
0.0
  0
VERTEX
  5
4AAE
330
4AAB
100
AcDbEntity
  8
LW 3593-00-01
100
AcDbVertex
100
AcDb2dVertex
 10
-31.93250799179077
 20
-71.69854402542114
 30
0.0
  0
VERTEX
  5
4AAF
330
4AAB
100
AcDbEntity
  8
LW 3593-00-01
100
AcDbVertex
100
AcDb2dVertex
 10
-31.84763216972351
 20
-71.92147195339202
 30
0.0
  0
VERTEX
  5
4AB0
330
4AAB
100
AcDbEntity
  8
LW 3593-00-01
100
AcDbVertex
100
AcDb2dVertex
 10
-31.72932291030884
 20
-72.13380217552185
 30
0.0
  0
VERTEX
  5
4AB1
330
4AAB
100
AcDbEntity
  8
LW 3593-00-01
100
AcDbVertex
100
AcDb2dVertex
 10
-31.58275866508484
 20
-72.32961654663085
 30
0.0
  0
VERTEX
  5
4AB2
330
4AAB
100
AcDbEntity
  8
LW 3593-00-01
100
AcDbVertex
100
AcDb2dVertex
 10
-31.41421103477478
 20
-72.50336587429046
 30
0.0
  0
VERTEX
  5
4AB3
330
4AAB
100
AcDbEntity
  8
LW 3593-00-01
100
AcDbVertex
100
AcDb2dVertex
 10
-31.22194790840149
 20
-72.65658378601074
 30
0.0
  0
VERTEX
  5
4AB4
330
4AAB
100
AcDbEntity
  8
LW 3593-00-01
100
AcDbVertex
100
AcDb2dVertex
 10
-31.0038640499115
 20
-72.79047608375549
 30
0.0
  0
VERTEX
  5
4AB5
330
4AAB
100
AcDbEntity
  8
LW 3593-00-01
100
AcDbVertex
100
AcDb2dVertex
 10
-30.76566958427429
 20
-72.89900243282318
 30
0.0
  0
VERTEX
  5
4AB6
330
4AAB
100
AcDbEntity
  8
LW 3593-00-01
100
AcDbVertex
100
AcDb2dVertex
 10
-30.51353359222412
 20
-72.97709882259368
 30
0.0
  0
VERTEX
  5
4AB7
330
4AAB
100
AcDbEntity
  8
LW 3593-00-01
100
AcDbVertex
100
AcDb2dVertex
 10
-30.25547885894776
 20
-73.02383780479431
 30
0.0
  0
VERTEX
  5
4AB8
330
4AAB
100
AcDbEntity
  8
LW 3593-00-01
100
AcDbVertex
100
AcDb2dVertex
 10
-30.00000023841858
 20
-73.03938150405883
 30
0.0
  0
VERTEX
  5
4AB9
330
4AAB
100
AcDbEntity
  8
LW 3593-00-01
100
AcDbVertex
100
AcDb2dVertex
 10
-29.74452042579651
 20
-73.02383780479431
 30
0.0
  0
VERTEX
  5
4ABA
330
4AAB
100
AcDbEntity
  8
LW 3593-00-01
100
AcDbVertex
100
AcDb2dVertex
 10
-29.48646688461304
 20
-72.97709882259368
 30
0.0
  0
VERTEX
  5
4ABB
330
4AAB
100
AcDbEntity
  8
LW 3593-00-01
100
AcDbVertex
100
AcDb2dVertex
 10
-29.23433089256287
 20
-72.89900243282318
 30
0.0
  0
VERTEX
  5
4ABC
330
4AAB
100
AcDbEntity
  8
LW 3593-00-01
100
AcDbVertex
100
AcDb2dVertex
 10
-28.99613642692566
 20
-72.79047608375549
 30
0.0
  0
VERTEX
  5
4ABD
330
4AAB
100
AcDbEntity
  8
LW 3593-00-01
100
AcDbVertex
100
AcDb2dVertex
 10
-28.77805137634278
 20
-72.65658378601074
 30
0.0
  0
VERTEX
  5
4ABE
330
4AAB
100
AcDbEntity
  8
LW 3593-00-01
100
AcDbVertex
100
AcDb2dVertex
 10
-28.58578944206238
 20
-72.50336587429046
 30
0.0
  0
VERTEX
  5
4ABF
330
4AAB
100
AcDbEntity
  8
LW 3593-00-01
100
AcDbVertex
100
AcDb2dVertex
 10
-28.41724181175232
 20
-72.32961654663085
 30
0.0
  0
VERTEX
  5
4AC0
330
4AAB
100
AcDbEntity
  8
LW 3593-00-01
100
AcDbVertex
100
AcDb2dVertex
 10
-28.27067637443543
 20
-72.13380217552185
 30
0.0
  0
VERTEX
  5
4AC1
330
4AAB
100
AcDbEntity
  8
LW 3593-00-01
100
AcDbVertex
100
AcDb2dVertex
 10
-28.15236830711365
 20
-71.92147195339202
 30
0.0
  0
VERTEX
  5
4AC2
330
4AAB
100
AcDbEntity
  8
LW 3593-00-01
100
AcDbVertex
100
AcDb2dVertex
 10
-28.06749248504639
 20
-71.69854402542114
 30
0.0
  0
VERTEX
  5
4AC3
330
4AAB
100
AcDbEntity
  8
LW 3593-00-01
100
AcDbVertex
100
AcDb2dVertex
 10
-28.01681661605835
 20
-71.47222578525543
 30
0.0
  0
VERTEX
  5
4AC4
330
4AAB
100
AcDbEntity
  8
LW 3593-00-01
100
AcDbVertex
100
AcDb2dVertex
 10
-27.99999976158142
 20
-71.25
 30
0.0
  0
SEQEND
  5
4AC5
330
4AAB
100
AcDbEntity
  8
LW 3593-00-01
  0
POLYLINE
  5
4AC6
330
4A1A
100
AcDbEntity
  8
LW 3593-00-01
100
AcDb2dPolyline
 66
     1
 10
0.0
 20
0.0
 30
0.0
 70
   128
  0
VERTEX
  5
4AC7
330
4AC6
100
AcDbEntity
  8
LW 3593-00-01
100
AcDbVertex
100
AcDb2dVertex
 10
-27.99999976158142
 20
-71.25
 30
0.0
  0
VERTEX
  5
4AC8
330
4AC6
100
AcDbEntity
  8
LW 3593-00-01
100
AcDbVertex
100
AcDb2dVertex
 10
-28.01681661605835
 20
-71.02972149848937
 30
0.0
  0
VERTEX
  5
4AC9
330
4AC6
100
AcDbEntity
  8
LW 3593-00-01
100
AcDbVertex
100
AcDb2dVertex
 10
-28.06749248504639
 20
-70.8090740442276
 30
0.0
  0
VERTEX
  5
4ACA
330
4AC6
100
AcDbEntity
  8
LW 3593-00-01
100
AcDbVertex
100
AcDb2dVertex
 10
-28.15236830711365
 20
-70.59528648853302
 30
0.0
  0
VERTEX
  5
4ACB
330
4AC6
100
AcDbEntity
  8
LW 3593-00-01
100
AcDbVertex
100
AcDb2dVertex
 10
-28.27067637443543
 20
-70.39504826068878
 30
0.0
  0
VERTEX
  5
4ACC
330
4AC6
100
AcDbEntity
  8
LW 3593-00-01
100
AcDbVertex
100
AcDb2dVertex
 10
-28.41724181175232
 20
-70.21312892436981
 30
0.0
  0
VERTEX
  5
4ACD
330
4AC6
100
AcDbEntity
  8
LW 3593-00-01
100
AcDbVertex
100
AcDb2dVertex
 10
-28.58578944206238
 20
-70.05387067794799
 30
0.0
  0
VERTEX
  5
4ACE
330
4AC6
100
AcDbEntity
  8
LW 3593-00-01
100
AcDbVertex
100
AcDb2dVertex
 10
-28.77805137634278
 20
-69.91515755653381
 30
0.0
  0
VERTEX
  5
4ACF
330
4AC6
100
AcDbEntity
  8
LW 3593-00-01
100
AcDbVertex
100
AcDb2dVertex
 10
-28.99613642692566
 20
-69.79519367218017
 30
0.0
  0
VERTEX
  5
4AD0
330
4AC6
100
AcDbEntity
  8
LW 3593-00-01
100
AcDbVertex
100
AcDb2dVertex
 10
-29.23433089256287
 20
-69.69880700111389
 30
0.0
  0
VERTEX
  5
4AD1
330
4AC6
100
AcDbEntity
  8
LW 3593-00-01
100
AcDbVertex
100
AcDb2dVertex
 10
-29.48646688461304
 20
-69.62989687919616
 30
0.0
  0
VERTEX
  5
4AD2
330
4AC6
100
AcDbEntity
  8
LW 3593-00-01
100
AcDbVertex
100
AcDb2dVertex
 10
-29.74452042579651
 20
-69.58886265754699
 30
0.0
  0
VERTEX
  5
4AD3
330
4AC6
100
AcDbEntity
  8
LW 3593-00-01
100
AcDbVertex
100
AcDb2dVertex
 10
-30.00000023841858
 20
-69.57527995109558
 30
0.0
  0
VERTEX
  5
4AD4
330
4AC6
100
AcDbEntity
  8
LW 3593-00-01
100
AcDbVertex
100
AcDb2dVertex
 10
-30.25547885894776
 20
-69.58886265754699
 30
0.0
  0
VERTEX
  5
4AD5
330
4AC6
100
AcDbEntity
  8
LW 3593-00-01
100
AcDbVertex
100
AcDb2dVertex
 10
-30.51353359222412
 20
-69.62989687919616
 30
0.0
  0
VERTEX
  5
4AD6
330
4AC6
100
AcDbEntity
  8
LW 3593-00-01
100
AcDbVertex
100
AcDb2dVertex
 10
-30.76566958427429
 20
-69.69880700111389
 30
0.0
  0
VERTEX
  5
4AD7
330
4AC6
100
AcDbEntity
  8
LW 3593-00-01
100
AcDbVertex
100
AcDb2dVertex
 10
-31.0038640499115
 20
-69.79519367218017
 30
0.0
  0
VERTEX
  5
4AD8
330
4AC6
100
AcDbEntity
  8
LW 3593-00-01
100
AcDbVertex
100
AcDb2dVertex
 10
-31.22194790840149
 20
-69.91515755653381
 30
0.0
  0
VERTEX
  5
4AD9
330
4AC6
100
AcDbEntity
  8
LW 3593-00-01
100
AcDbVertex
100
AcDb2dVertex
 10
-31.41421103477478
 20
-70.05387067794799
 30
0.0
  0
VERTEX
  5
4ADA
330
4AC6
100
AcDbEntity
  8
LW 3593-00-01
100
AcDbVertex
100
AcDb2dVertex
 10
-31.58275866508484
 20
-70.21312892436981
 30
0.0
  0
VERTEX
  5
4ADB
330
4AC6
100
AcDbEntity
  8
LW 3593-00-01
100
AcDbVertex
100
AcDb2dVertex
 10
-31.72932291030884
 20
-70.39504826068878
 30
0.0
  0
VERTEX
  5
4ADC
330
4AC6
100
AcDbEntity
  8
LW 3593-00-01
100
AcDbVertex
100
AcDb2dVertex
 10
-31.84763216972351
 20
-70.59528648853302
 30
0.0
  0
VERTEX
  5
4ADD
330
4AC6
100
AcDbEntity
  8
LW 3593-00-01
100
AcDbVertex
100
AcDb2dVertex
 10
-31.93250799179077
 20
-70.8090740442276
 30
0.0
  0
VERTEX
  5
4ADE
330
4AC6
100
AcDbEntity
  8
LW 3593-00-01
100
AcDbVertex
100
AcDb2dVertex
 10
-31.98318386077881
 20
-71.02972149848937
 30
0.0
  0
VERTEX
  5
4ADF
330
4AC6
100
AcDbEntity
  8
LW 3593-00-01
100
AcDbVertex
100
AcDb2dVertex
 10
-31.99999952316284
 20
-71.25
 30
0.0
  0
SEQEND
  5
4AE0
330
4AC6
100
AcDbEntity
  8
LW 3593-00-01
  0
POLYLINE
  5
4AE1
330
4A1A
100
AcDbEntity
  8
LW 3593-00-01
100
AcDb2dPolyline
 66
     1
 10
0.0
 20
0.0
 30
0.0
 70
   128
  0
VERTEX
  5
4AE2
330
4AE1
100
AcDbEntity
  8
LW 3593-00-01
100
AcDbVertex
100
AcDb2dVertex
 10
-27.99999976158142
 20
-97.50000000000003
 30
0.0
  0
VERTEX
  5
4AE3
330
4AE1
100
AcDbEntity
  8
LW 3593-00-01
100
AcDbVertex
100
AcDb2dVertex
 10
-28.01681661605835
 20
-97.49805331230167
 30
0.0
  0
VERTEX
  5
4AE4
330
4AE1
100
AcDbEntity
  8
LW 3593-00-01
100
AcDbVertex
100
AcDb2dVertex
 10
-28.06749248504639
 20
-97.49238133430484
 30
0.0
  0
VERTEX
  5
4AE5
330
4AE1
100
AcDbEntity
  8
LW 3593-00-01
100
AcDbVertex
100
AcDb2dVertex
 10
-28.15236830711365
 20
-97.48324155807498
 30
0.0
  0
VERTEX
  5
4AE6
330
4AE1
100
AcDbEntity
  8
LW 3593-00-01
100
AcDbVertex
100
AcDb2dVertex
 10
-28.27067637443543
 20
-97.47114896774295
 30
0.0
  0
VERTEX
  5
4AE7
330
4AE1
100
AcDbEntity
  8
LW 3593-00-01
100
AcDbVertex
100
AcDb2dVertex
 10
-28.41724181175232
 20
-97.45725393295291
 30
0.0
  0
VERTEX
  5
4AE8
330
4AE1
100
AcDbEntity
  8
LW 3593-00-01
100
AcDbVertex
100
AcDb2dVertex
 10
-28.58578944206238
 20
-97.44276285171512
 30
0.0
  0
VERTEX
  5
4AE9
330
4AE1
100
AcDbEntity
  8
LW 3593-00-01
100
AcDbVertex
100
AcDb2dVertex
 10
-28.77805137634278
 20
-97.42825865745547
 30
0.0
  0
VERTEX
  5
4AEA
330
4AE1
100
AcDbEntity
  8
LW 3593-00-01
100
AcDbVertex
100
AcDb2dVertex
 10
-28.99613642692566
 20
-97.41433024406436
 30
0.0
  0
VERTEX
  5
4AEB
330
4AE1
100
AcDbEntity
  8
LW 3593-00-01
100
AcDbVertex
100
AcDb2dVertex
 10
-29.23433089256287
 20
-97.40219116210941
 30
0.0
  0
VERTEX
  5
4AEC
330
4AE1
100
AcDbEntity
  8
LW 3593-00-01
100
AcDbVertex
100
AcDb2dVertex
 10
-29.48646688461304
 20
-97.39300489425662
 30
0.0
  0
VERTEX
  5
4AED
330
4AE1
100
AcDbEntity
  8
LW 3593-00-01
100
AcDbVertex
100
AcDb2dVertex
 10
-29.74452042579651
 20
-97.38729953765872
 30
0.0
  0
VERTEX
  5
4AEE
330
4AE1
100
AcDbEntity
  8
LW 3593-00-01
100
AcDbVertex
100
AcDb2dVertex
 10
-30.00000023841858
 20
-97.38533854484561
 30
0.0
  0
VERTEX
  5
4AEF
330
4AE1
100
AcDbEntity
  8
LW 3593-00-01
100
AcDbVertex
100
AcDb2dVertex
 10
-30.25547885894776
 20
-97.38729953765872
 30
0.0
  0
VERTEX
  5
4AF0
330
4AE1
100
AcDbEntity
  8
LW 3593-00-01
100
AcDbVertex
100
AcDb2dVertex
 10
-30.51353359222412
 20
-97.39300489425662
 30
0.0
  0
VERTEX
  5
4AF1
330
4AE1
100
AcDbEntity
  8
LW 3593-00-01
100
AcDbVertex
100
AcDb2dVertex
 10
-30.76566958427429
 20
-97.40219116210941
 30
0.0
  0
VERTEX
  5
4AF2
330
4AE1
100
AcDbEntity
  8
LW 3593-00-01
100
AcDbVertex
100
AcDb2dVertex
 10
-31.0038640499115
 20
-97.41433024406436
 30
0.0
  0
VERTEX
  5
4AF3
330
4AE1
100
AcDbEntity
  8
LW 3593-00-01
100
AcDbVertex
100
AcDb2dVertex
 10
-31.22194790840149
 20
-97.42825865745547
 30
0.0
  0
VERTEX
  5
4AF4
330
4AE1
100
AcDbEntity
  8
LW 3593-00-01
100
AcDbVertex
100
AcDb2dVertex
 10
-31.41421103477478
 20
-97.44276285171512
 30
0.0
  0
VERTEX
  5
4AF5
330
4AE1
100
AcDbEntity
  8
LW 3593-00-01
100
AcDbVertex
100
AcDb2dVertex
 10
-31.58275866508484
 20
-97.45725393295291
 30
0.0
  0
VERTEX
  5
4AF6
330
4AE1
100
AcDbEntity
  8
LW 3593-00-01
100
AcDbVertex
100
AcDb2dVertex
 10
-31.72932291030884
 20
-97.47114896774295
 30
0.0
  0
VERTEX
  5
4AF7
330
4AE1
100
AcDbEntity
  8
LW 3593-00-01
100
AcDbVertex
100
AcDb2dVertex
 10
-31.84763216972351
 20
-97.48324155807498
 30
0.0
  0
VERTEX
  5
4AF8
330
4AE1
100
AcDbEntity
  8
LW 3593-00-01
100
AcDbVertex
100
AcDb2dVertex
 10
-31.93250799179077
 20
-97.49238133430484
 30
0.0
  0
VERTEX
  5
4AF9
330
4AE1
100
AcDbEntity
  8
LW 3593-00-01
100
AcDbVertex
100
AcDb2dVertex
 10
-31.98318386077881
 20
-97.49805331230167
 30
0.0
  0
VERTEX
  5
4AFA
330
4AE1
100
AcDbEntity
  8
LW 3593-00-01
100
AcDbVertex
100
AcDb2dVertex
 10
-31.99999952316284
 20
-97.50000000000003
 30
0.0
  0
SEQEND
  5
4AFB
330
4AE1
100
AcDbEntity
  8
LW 3593-00-01
  0
LINE
  5
4AFC
330
4A1A
100
AcDbEntity
  8
LW 3593-00-01
100
AcDbLine
 10
-34.0
 20
-97.50000000000003
 30
0.0
 11
-34.0
 21
-62.5
 31
0.0
  0
LINE
  5
4AFD
330
4A1A
100
AcDbEntity
  8
LW 3593-00-01
100
AcDbLine
 10
-37.0
 20
-94.50000000000001
 30
0.0
 11
-37.0
 21
-65.5
 31
0.0
  0
LINE
  5
4AFE
330
4A1A
100
AcDbEntity
  8
LW 3593-00-01
100
AcDbLine
 10
-14.0
 20
-62.5
 30
0.0
 11
-34.0
 21
-62.5
 31
0.0
  0
LINE
  5
4AFF
330
4A1A
100
AcDbEntity
  8
LW 3593-00-01
100
AcDbLine
 10
-14.0
 20
-97.50000000000003
 30
0.0
 11
-28.0
 21
-97.50000000000003
 31
0.0
  0
LINE
  5
4B00
330
4A1A
100
AcDbEntity
  8
LW 3593-00-01
100
AcDbLine
 10
-32.0
 20
-97.50000000000003
 30
0.0
 11
-34.0
 21
-97.50000000000003
 31
0.0
  0
LINE
  5
4B01
330
4A1A
100
AcDbEntity
  8
LW 3593-00-01
100
AcDbLine
 10
-37.0
 20
-94.50000000000001
 30
0.0
 11
-34.0
 21
-97.50000000000003
 31
0.0
  0
LINE
  5
4B02
330
4A1A
100
AcDbEntity
  8
LW 3593-00-01
100
AcDbLine
 10
-37.0
 20
-65.5
 30
0.0
 11
-34.0
 21
-62.5
 31
0.0
  0
LINE
  5
4B03
330
4A1A
100
AcDbEntity
  8
LW 3593-00-01
  6
MITTE2
 62
     3
100
AcDbLine
 10
27.30489739875702
 20
-79.99999999999989
 30
0.0
 11
-41.6303604871004
 21
-79.99999999999989
 31
0.0
  0
ARC
  5
4B04
330
4A1A
100
AcDbEntity
  8
0
100
AcDbCircle
 10
-49.66666666666672
 20
-11.00000000000005
 30
0.0
 40
2.000000000000056
100
AcDbArc
 50
45.0
 51
90.0
  0
ARC
  5
4B05
330
4A1A
100
AcDbEntity
  8
0
100
AcDbCircle
 10
-11.00000000000005
 20
-49.66666666666674
 30
0.0
 40
2.000000000000056
100
AcDbArc
 50
0.0
 51
45.0
  0
LINE
  5
4B06
330
4A1A
100
AcDbEntity
  8
0
100
AcDbLine
 10
-9.585786437626893
 20
-48.25245310429358
 30
0.0
 11
-48.25245310429358
 21
-9.585786437626893
 31
0.0
  0
ENDBLK
  5
4A1C
330
4A1A
100
AcDbEntity
  8
0
100
AcDbBlockEnd
  0
BLOCK
  5
4B09
330
4B08
100
AcDbEntity
  8
0
100
AcDbBlockBegin
  2
LW 3593-00-01_b
 70
     0
 10
0.0
 20
0.0
 30
0.0
  3
LW 3593-00-01_b
  1

  0
LINE
  5
4B0B
330
4B08
100
AcDbEntity
  8
LW 3593-00-01
100
AcDbLine
 10
-49.17000000000669
 20
-1.99999999996146
 30
0.0
 11
-42.00000000000662
 21
-1.999999999963165
 31
0.0
  0
LINE
  5
4B0C
330
4B08
100
AcDbEntity
  8
LW 3593-00-01
100
AcDbLine
 10
-42.00000000000662
 20
2.000000000036891
 30
0.0
 11
-49.17000000000669
 21
2.000000000038482
 31
0.0
  0
LINE
  5
4B0D
330
4B08
100
AcDbEntity
  8
LW 3593-00-01
100
AcDbLine
 10
-14.00000000000665
 20
-32.99999999999994
 30
0.0
 11
-14.00000000000665
 21
32.99999999999994
 31
0.0
  0
ARC
  5
4B0E
330
4B08
100
AcDbEntity
  8
LW 3593-00-01
100
AcDbCircle
 10
-12.00000000000659
 20
32.99999999999994
 30
0.0
 40
2.00000000000001
100
AcDbArc
 50
90.0
 51
180.0
  0
ARC
  5
4B0F
330
4B08
100
AcDbEntity
  8
LW 3593-00-01
100
AcDbCircle
 10
-12.00000000000665
 20
-33.00000000000006
 30
0.0
 40
2.000000000000003
100
AcDbArc
 50
180.0
 51
270.0
  0
LINE
  5
4B10
330
4B08
100
AcDbEntity
  8
LW 3593-00-01
100
AcDbLine
 10
-12.0000000000067
 20
35.00000000003826
 30
0.0
 11
-16.00000000000671
 21
35.00000000003945
 31
0.0
  0
LINE
  5
4B11
330
4B08
100
AcDbEntity
  8
LW 3593-00-01
100
AcDbLine
 10
-16.00000000000671
 20
-34.99999999996055
 30
0.0
 11
-12.0000000000067
 21
-34.99999999996175
 31
0.0
  0
LINE
  5
4B12
330
4B08
100
AcDbEntity
  8
LW 3593-00-01
100
AcDbLine
 10
-16.00000000000671
 20
35.00000000003945
 30
0.0
 11
-85.00000000000667
 21
35.00000000003945
 31
0.0
  0
LINE
  5
4B13
330
4B08
100
AcDbEntity
  8
LW 3593-00-01
100
AcDbLine
 10
-85.00000000000667
 20
-34.99999999996055
 30
0.0
 11
-16.00000000000671
 21
-34.99999999996055
 31
0.0
  0
ARC
  5
4B14
330
4B08
100
AcDbEntity
  8
LW 3593-00-01
100
AcDbCircle
 10
-85.00000000000667
 20
0.0000000000394493
 30
0.0
 40
35.0
100
AcDbArc
 50
90.0
 51
270.0
  0
LINE
  5
4B15
330
4B08
100
AcDbEntity
  8
LW 3593-00-01
100
AcDbLine
 10
-5.000000000006707
 20
35.0
 30
0.0
 11
-12.00000000000665
 21
35.0
 31
0.0
  0
LINE
  5
4B16
330
4B08
100
AcDbEntity
  8
LW 3593-00-01
100
AcDbLine
 10
-12.00000000000665
 20
-35.0
 30
0.0
 11
-5.000000000006707
 21
-35.0
 31
0.0
  0
LINE
  5
4B17
330
4B08
100
AcDbEntity
  8
LW 3593-00-01
100
AcDbLine
 10
-5.000000000006707
 20
35.0
 30
0.0
 11
-5.000000000006707
 21
-35.0
 31
0.0
  0
CIRCLE
  5
4B18
330
4B08
100
AcDbEntity
  8
LW 3593-00-01
100
AcDbCircle
 10
-85.00000000000667
 20
0.0000000000373461
 30
0.0
 40
22.5
  0
POLYLINE
  5
4B19
330
4B08
100
AcDbEntity
  8
LW 3593-00-01
100
AcDb2dPolyline
 66
     1
 10
0.0
 20
0.0
 30
0.0
 70
   128
  0
VERTEX
  5
4B1A
330
4B19
100
AcDbEntity
  8
LW 3593-00-01
100
AcDbVertex
100
AcDb2dVertex
 10
-36.99999952316947
 20
15.15544414520002
 30
0.0
  0
VERTEX
  5
4B1B
330
4B19
100
AcDbEntity
  8
LW 3593-00-01
100
AcDbVertex
100
AcDb2dVertex
 10
-36.98318386078543
 20
15.28149843215686
 30
0.0
  0
VERTEX
  5
4B1C
330
4B19
100
AcDbEntity
  8
LW 3593-00-01
100
AcDbVertex
100
AcDb2dVertex
 10
-36.9325079917974
 20
15.40561437606561
 30
0.0
  0
VERTEX
  5
4B1D
330
4B19
100
AcDbEntity
  8
LW 3593-00-01
100
AcDbVertex
100
AcDb2dVertex
 10
-36.84763216973014
 20
15.52376866340393
 30
0.0
  0
VERTEX
  5
4B1E
330
4B19
100
AcDbEntity
  8
LW 3593-00-01
100
AcDbVertex
100
AcDb2dVertex
 10
-36.72932291031546
 20
15.6323945522285
 30
0.0
  0
VERTEX
  5
4B1F
330
4B19
100
AcDbEntity
  8
LW 3593-00-01
100
AcDbVertex
100
AcDb2dVertex
 10
-36.58275866509146
 20
15.7294034957863
 30
0.0
  0
VERTEX
  5
4B20
330
4B19
100
AcDbEntity
  8
LW 3593-00-01
100
AcDbVertex
100
AcDb2dVertex
 10
-36.4142110347814
 20
15.8129847049691
 30
0.0
  0
VERTEX
  5
4B21
330
4B19
100
AcDbEntity
  8
LW 3593-00-01
100
AcDbVertex
100
AcDb2dVertex
 10
-36.22194790840811
 20
15.88469624519126
 30
0.0
  0
VERTEX
  5
4B22
330
4B19
100
AcDbEntity
  8
LW 3593-00-01
100
AcDbVertex
100
AcDb2dVertex
 10
-36.00386404991812
 20
15.94591498374728
 30
0.0
  0
VERTEX
  5
4B23
330
4B19
100
AcDbEntity
  8
LW 3593-00-01
100
AcDbVertex
100
AcDb2dVertex
 10
-35.76566958428092
 20
15.99455595016269
 30
0.0
  0
VERTEX
  5
4B24
330
4B19
100
AcDbEntity
  8
LW 3593-00-01
100
AcDbVertex
100
AcDb2dVertex
 10
-35.51353359223075
 20
16.02903842925821
 30
0.0
  0
VERTEX
  5
4B25
330
4B19
100
AcDbEntity
  8
LW 3593-00-01
100
AcDbVertex
100
AcDb2dVertex
 10
-35.25547885895438
 20
16.04943513870034
 30
0.0
  0
VERTEX
  5
4B26
330
4B19
100
AcDbEntity
  8
LW 3593-00-01
100
AcDbVertex
100
AcDb2dVertex
 10
-35.0000002384252
 20
16.05614542960916
 30
0.0
  0
VERTEX
  5
4B27
330
4B19
100
AcDbEntity
  8
LW 3593-00-01
100
AcDbVertex
100
AcDb2dVertex
 10
-34.74452042580313
 20
16.04943513870034
 30
0.0
  0
VERTEX
  5
4B28
330
4B19
100
AcDbEntity
  8
LW 3593-00-01
100
AcDbVertex
100
AcDb2dVertex
 10
-34.48646688461966
 20
16.02903842925821
 30
0.0
  0
VERTEX
  5
4B29
330
4B19
100
AcDbEntity
  8
LW 3593-00-01
100
AcDbVertex
100
AcDb2dVertex
 10
-34.23433089256949
 20
15.99455595016269
 30
0.0
  0
VERTEX
  5
4B2A
330
4B19
100
AcDbEntity
  8
LW 3593-00-01
100
AcDbVertex
100
AcDb2dVertex
 10
-33.99613642693228
 20
15.94591498374728
 30
0.0
  0
VERTEX
  5
4B2B
330
4B19
100
AcDbEntity
  8
LW 3593-00-01
100
AcDbVertex
100
AcDb2dVertex
 10
-33.7780513763494
 20
15.88469624519126
 30
0.0
  0
VERTEX
  5
4B2C
330
4B19
100
AcDbEntity
  8
LW 3593-00-01
100
AcDbVertex
100
AcDb2dVertex
 10
-33.585789442069
 20
15.8129847049691
 30
0.0
  0
VERTEX
  5
4B2D
330
4B19
100
AcDbEntity
  8
LW 3593-00-01
100
AcDbVertex
100
AcDb2dVertex
 10
-33.41724181175894
 20
15.7294034957863
 30
0.0
  0
VERTEX
  5
4B2E
330
4B19
100
AcDbEntity
  8
LW 3593-00-01
100
AcDbVertex
100
AcDb2dVertex
 10
-33.27067637444205
 20
15.6323945522285
 30
0.0
  0
VERTEX
  5
4B2F
330
4B19
100
AcDbEntity
  8
LW 3593-00-01
100
AcDbVertex
100
AcDb2dVertex
 10
-33.15236830712027
 20
15.52376866340393
 30
0.0
  0
VERTEX
  5
4B30
330
4B19
100
AcDbEntity
  8
LW 3593-00-01
100
AcDbVertex
100
AcDb2dVertex
 10
-33.06749248505301
 20
15.40561437606561
 30
0.0
  0
VERTEX
  5
4B31
330
4B19
100
AcDbEntity
  8
LW 3593-00-01
100
AcDbVertex
100
AcDb2dVertex
 10
-33.01681661606497
 20
15.28149843215686
 30
0.0
  0
VERTEX
  5
4B32
330
4B19
100
AcDbEntity
  8
LW 3593-00-01
100
AcDbVertex
100
AcDb2dVertex
 10
-32.99999976158805
 20
15.15544414520002
 30
0.0
  0
SEQEND
  5
4B33
330
4B19
100
AcDbEntity
  8
LW 3593-00-01
  0
POLYLINE
  5
4B34
330
4B08
100
AcDbEntity
  8
LW 3593-00-01
100
AcDb2dPolyline
 66
     1
 10
0.0
 20
0.0
 30
0.0
 70
   128
  0
VERTEX
  5
4B35
330
4B34
100
AcDbEntity
  8
LW 3593-00-01
100
AcDbVertex
100
AcDb2dVertex
 10
-32.99999976158805
 20
15.15544414520002
 30
0.0
  0
VERTEX
  5
4B36
330
4B34
100
AcDbEntity
  8
LW 3593-00-01
100
AcDbVertex
100
AcDb2dVertex
 10
-33.01681661606497
 20
15.02601861953474
 30
0.0
  0
VERTEX
  5
4B37
330
4B34
100
AcDbEntity
  8
LW 3593-00-01
100
AcDbVertex
100
AcDb2dVertex
 10
-33.06749248505301
 20
14.89207863807411
 30
0.0
  0
VERTEX
  5
4B38
330
4B34
100
AcDbEntity
  8
LW 3593-00-01
100
AcDbVertex
100
AcDb2dVertex
 10
-33.15236830712027
 20
14.75809454917629
 30
0.0
  0
VERTEX
  5
4B39
330
4B34
100
AcDbEntity
  8
LW 3593-00-01
100
AcDbVertex
100
AcDb2dVertex
 10
-33.27067637444205
 20
14.62852478027059
 30
0.0
  0
VERTEX
  5
4B3A
330
4B34
100
AcDbEntity
  8
LW 3593-00-01
100
AcDbVertex
100
AcDb2dVertex
 10
-33.41724181175894
 20
14.50744867324539
 30
0.0
  0
VERTEX
  5
4B3B
330
4B34
100
AcDbEntity
  8
LW 3593-00-01
100
AcDbVertex
100
AcDb2dVertex
 10
-33.585789442069
 20
14.39876794814762
 30
0.0
  0
VERTEX
  5
4B3C
330
4B34
100
AcDbEntity
  8
LW 3593-00-01
100
AcDbVertex
100
AcDb2dVertex
 10
-33.7780513763494
 20
14.30193305015263
 30
0.0
  0
VERTEX
  5
4B3D
330
4B34
100
AcDbEntity
  8
LW 3593-00-01
100
AcDbVertex
100
AcDb2dVertex
 10
-33.99613642693228
 20
14.21658873557737
 30
0.0
  0
VERTEX
  5
4B3E
330
4B34
100
AcDbEntity
  8
LW 3593-00-01
100
AcDbVertex
100
AcDb2dVertex
 10
-34.23433089256949
 20
14.1469228267639
 30
0.0
  0
VERTEX
  5
4B3F
330
4B34
100
AcDbEntity
  8
LW 3593-00-01
100
AcDbVertex
100
AcDb2dVertex
 10
-34.48646688461966
 20
14.0965294837921
 30
0.0
  0
VERTEX
  5
4B40
330
4B34
100
AcDbEntity
  8
LW 3593-00-01
100
AcDbVertex
100
AcDb2dVertex
 10
-34.74452042580313
 20
14.06625151633909
 30
0.0
  0
VERTEX
  5
4B41
330
4B34
100
AcDbEntity
  8
LW 3593-00-01
100
AcDbVertex
100
AcDb2dVertex
 10
-35.0000002384252
 20
14.05614495277092
 30
0.0
  0
VERTEX
  5
4B42
330
4B34
100
AcDbEntity
  8
LW 3593-00-01
100
AcDbVertex
100
AcDb2dVertex
 10
-35.25547885895438
 20
14.06625151633909
 30
0.0
  0
VERTEX
  5
4B43
330
4B34
100
AcDbEntity
  8
LW 3593-00-01
100
AcDbVertex
100
AcDb2dVertex
 10
-35.51353359223075
 20
14.0965294837921
 30
0.0
  0
VERTEX
  5
4B44
330
4B34
100
AcDbEntity
  8
LW 3593-00-01
100
AcDbVertex
100
AcDb2dVertex
 10
-35.76566958428092
 20
14.1469228267639
 30
0.0
  0
VERTEX
  5
4B45
330
4B34
100
AcDbEntity
  8
LW 3593-00-01
100
AcDbVertex
100
AcDb2dVertex
 10
-36.00386404991812
 20
14.21658873557737
 30
0.0
  0
VERTEX
  5
4B46
330
4B34
100
AcDbEntity
  8
LW 3593-00-01
100
AcDbVertex
100
AcDb2dVertex
 10
-36.22194790840811
 20
14.30193305015263
 30
0.0
  0
VERTEX
  5
4B47
330
4B34
100
AcDbEntity
  8
LW 3593-00-01
100
AcDbVertex
100
AcDb2dVertex
 10
-36.4142110347814
 20
14.39876794814762
 30
0.0
  0
VERTEX
  5
4B48
330
4B34
100
AcDbEntity
  8
LW 3593-00-01
100
AcDbVertex
100
AcDb2dVertex
 10
-36.58275866509146
 20
14.50744867324539
 30
0.0
  0
VERTEX
  5
4B49
330
4B34
100
AcDbEntity
  8
LW 3593-00-01
100
AcDbVertex
100
AcDb2dVertex
 10
-36.72932291031546
 20
14.62852478027059
 30
0.0
  0
VERTEX
  5
4B4A
330
4B34
100
AcDbEntity
  8
LW 3593-00-01
100
AcDbVertex
100
AcDb2dVertex
 10
-36.84763216973014
 20
14.75809454917629
 30
0.0
  0
VERTEX
  5
4B4B
330
4B34
100
AcDbEntity
  8
LW 3593-00-01
100
AcDbVertex
100
AcDb2dVertex
 10
-36.9325079917974
 20
14.89207863807411
 30
0.0
  0
VERTEX
  5
4B4C
330
4B34
100
AcDbEntity
  8
LW 3593-00-01
100
AcDbVertex
100
AcDb2dVertex
 10
-36.98318386078543
 20
15.02601861953474
 30
0.0
  0
VERTEX
  5
4B4D
330
4B34
100
AcDbEntity
  8
LW 3593-00-01
100
AcDbVertex
100
AcDb2dVertex
 10
-36.99999952316947
 20
15.15544414520002
 30
0.0
  0
SEQEND
  5
4B4E
330
4B34
100
AcDbEntity
  8
LW 3593-00-01
  0
POLYLINE
  5
4B4F
330
4B08
100
AcDbEntity
  8
LW 3593-00-01
100
AcDb2dPolyline
 66
     1
 10
0.0
 20
0.0
 30
0.0
 70
   128
  0
VERTEX
  5
4B50
330
4B4F
100
AcDbEntity
  8
LW 3593-00-01
100
AcDbVertex
100
AcDb2dVertex
 10
-36.99999952316947
 20
-15.15544414520525
 30
0.0
  0
VERTEX
  5
4B51
330
4B4F
100
AcDbEntity
  8
LW 3593-00-01
100
AcDbVertex
100
AcDb2dVertex
 10
-36.98318386078543
 20
-15.02601861953997
 30
0.0
  0
VERTEX
  5
4B52
330
4B4F
100
AcDbEntity
  8
LW 3593-00-01
100
AcDbVertex
100
AcDb2dVertex
 10
-36.9325079917974
 20
-14.89207863807945
 30
0.0
  0
VERTEX
  5
4B53
330
4B4F
100
AcDbEntity
  8
LW 3593-00-01
100
AcDbVertex
100
AcDb2dVertex
 10
-36.84763216973014
 20
-14.75809454918186
 30
0.0
  0
VERTEX
  5
4B54
330
4B4F
100
AcDbEntity
  8
LW 3593-00-01
100
AcDbVertex
100
AcDb2dVertex
 10
-36.72932291031546
 20
-14.62852478027628
 30
0.0
  0
VERTEX
  5
4B55
330
4B4F
100
AcDbEntity
  8
LW 3593-00-01
100
AcDbVertex
100
AcDb2dVertex
 10
-36.58275866509146
 20
-14.50744867325119
 30
0.0
  0
VERTEX
  5
4B56
330
4B4F
100
AcDbEntity
  8
LW 3593-00-01
100
AcDbVertex
100
AcDb2dVertex
 10
-36.4142110347814
 20
-14.39876794815365
 30
0.0
  0
VERTEX
  5
4B57
330
4B4F
100
AcDbEntity
  8
LW 3593-00-01
100
AcDbVertex
100
AcDb2dVertex
 10
-36.22194790840811
 20
-14.30193305015865
 30
0.0
  0
VERTEX
  5
4B58
330
4B4F
100
AcDbEntity
  8
LW 3593-00-01
100
AcDbVertex
100
AcDb2dVertex
 10
-36.00386404991812
 20
-14.21658873558351
 30
0.0
  0
VERTEX
  5
4B59
330
4B4F
100
AcDbEntity
  8
LW 3593-00-01
100
AcDbVertex
100
AcDb2dVertex
 10
-35.76566958428092
 20
-14.14692282677004
 30
0.0
  0
VERTEX
  5
4B5A
330
4B4F
100
AcDbEntity
  8
LW 3593-00-01
100
AcDbVertex
100
AcDb2dVertex
 10
-35.51353359223075
 20
-14.09652948379823
 30
0.0
  0
VERTEX
  5
4B5B
330
4B4F
100
AcDbEntity
  8
LW 3593-00-01
100
AcDbVertex
100
AcDb2dVertex
 10
-35.25547885895438
 20
-14.06625151634523
 30
0.0
  0
VERTEX
  5
4B5C
330
4B4F
100
AcDbEntity
  8
LW 3593-00-01
100
AcDbVertex
100
AcDb2dVertex
 10
-35.0000002384252
 20
-14.05614495277717
 30
0.0
  0
VERTEX
  5
4B5D
330
4B4F
100
AcDbEntity
  8
LW 3593-00-01
100
AcDbVertex
100
AcDb2dVertex
 10
-34.74452042580313
 20
-14.06625151634523
 30
0.0
  0
VERTEX
  5
4B5E
330
4B4F
100
AcDbEntity
  8
LW 3593-00-01
100
AcDbVertex
100
AcDb2dVertex
 10
-34.48646688461966
 20
-14.09652948379823
 30
0.0
  0
VERTEX
  5
4B5F
330
4B4F
100
AcDbEntity
  8
LW 3593-00-01
100
AcDbVertex
100
AcDb2dVertex
 10
-34.23433089256949
 20
-14.14692282677004
 30
0.0
  0
VERTEX
  5
4B60
330
4B4F
100
AcDbEntity
  8
LW 3593-00-01
100
AcDbVertex
100
AcDb2dVertex
 10
-33.99613642693228
 20
-14.21658873558351
 30
0.0
  0
VERTEX
  5
4B61
330
4B4F
100
AcDbEntity
  8
LW 3593-00-01
100
AcDbVertex
100
AcDb2dVertex
 10
-33.7780513763494
 20
-14.30193305015865
 30
0.0
  0
VERTEX
  5
4B62
330
4B4F
100
AcDbEntity
  8
LW 3593-00-01
100
AcDbVertex
100
AcDb2dVertex
 10
-33.585789442069
 20
-14.39876794815365
 30
0.0
  0
VERTEX
  5
4B63
330
4B4F
100
AcDbEntity
  8
LW 3593-00-01
100
AcDbVertex
100
AcDb2dVertex
 10
-33.41724181175894
 20
-14.50744867325119
 30
0.0
  0
VERTEX
  5
4B64
330
4B4F
100
AcDbEntity
  8
LW 3593-00-01
100
AcDbVertex
100
AcDb2dVertex
 10
-33.27067637444205
 20
-14.62852478027628
 30
0.0
  0
VERTEX
  5
4B65
330
4B4F
100
AcDbEntity
  8
LW 3593-00-01
100
AcDbVertex
100
AcDb2dVertex
 10
-33.15236830712027
 20
-14.75809454918186
 30
0.0
  0
VERTEX
  5
4B66
330
4B4F
100
AcDbEntity
  8
LW 3593-00-01
100
AcDbVertex
100
AcDb2dVertex
 10
-33.06749248505301
 20
-14.89207863807945
 30
0.0
  0
VERTEX
  5
4B67
330
4B4F
100
AcDbEntity
  8
LW 3593-00-01
100
AcDbVertex
100
AcDb2dVertex
 10
-33.01681661606497
 20
-15.02601861953997
 30
0.0
  0
VERTEX
  5
4B68
330
4B4F
100
AcDbEntity
  8
LW 3593-00-01
100
AcDbVertex
100
AcDb2dVertex
 10
-32.99999976158805
 20
-15.15544414520525
 30
0.0
  0
SEQEND
  5
4B69
330
4B4F
100
AcDbEntity
  8
LW 3593-00-01
  0
POLYLINE
  5
4B6A
330
4B08
100
AcDbEntity
  8
LW 3593-00-01
100
AcDb2dPolyline
 66
     1
 10
0.0
 20
0.0
 30
0.0
 70
   128
  0
VERTEX
  5
4B6B
330
4B6A
100
AcDbEntity
  8
LW 3593-00-01
100
AcDbVertex
100
AcDb2dVertex
 10
-32.99999976158805
 20
-15.15544414520525
 30
0.0
  0
VERTEX
  5
4B6C
330
4B6A
100
AcDbEntity
  8
LW 3593-00-01
100
AcDbVertex
100
AcDb2dVertex
 10
-33.01681661606497
 20
-15.28149843216198
 30
0.0
  0
VERTEX
  5
4B6D
330
4B6A
100
AcDbEntity
  8
LW 3593-00-01
100
AcDbVertex
100
AcDb2dVertex
 10
-33.06749248505301
 20
-15.40561437607061
 30
0.0
  0
VERTEX
  5
4B6E
330
4B6A
100
AcDbEntity
  8
LW 3593-00-01
100
AcDbVertex
100
AcDb2dVertex
 10
-33.15236830712027
 20
-15.52376866340881
 30
0.0
  0
VERTEX
  5
4B6F
330
4B6A
100
AcDbEntity
  8
LW 3593-00-01
100
AcDbVertex
100
AcDb2dVertex
 10
-33.27067637444205
 20
-15.63239455223316
 30
0.0
  0
VERTEX
  5
4B70
330
4B6A
100
AcDbEntity
  8
LW 3593-00-01
100
AcDbVertex
100
AcDb2dVertex
 10
-33.41724181175894
 20
-15.72940349579084
 30
0.0
  0
VERTEX
  5
4B71
330
4B6A
100
AcDbEntity
  8
LW 3593-00-01
100
AcDbVertex
100
AcDb2dVertex
 10
-33.585789442069
 20
-15.81298470497353
 30
0.0
  0
VERTEX
  5
4B72
330
4B6A
100
AcDbEntity
  8
LW 3593-00-01
100
AcDbVertex
100
AcDb2dVertex
 10
-33.7780513763494
 20
-15.8846962451957
 30
0.0
  0
VERTEX
  5
4B73
330
4B6A
100
AcDbEntity
  8
LW 3593-00-01
100
AcDbVertex
100
AcDb2dVertex
 10
-33.99613642693228
 20
-15.94591498375149
 30
0.0
  0
VERTEX
  5
4B74
330
4B6A
100
AcDbEntity
  8
LW 3593-00-01
100
AcDbVertex
100
AcDb2dVertex
 10
-34.23433089256949
 20
-15.9945559501669
 30
0.0
  0
VERTEX
  5
4B75
330
4B6A
100
AcDbEntity
  8
LW 3593-00-01
100
AcDbVertex
100
AcDb2dVertex
 10
-34.48646688461966
 20
-16.0290384292623
 30
0.0
  0
VERTEX
  5
4B76
330
4B6A
100
AcDbEntity
  8
LW 3593-00-01
100
AcDbVertex
100
AcDb2dVertex
 10
-34.74452042580313
 20
-16.04943513870444
 30
0.0
  0
VERTEX
  5
4B77
330
4B6A
100
AcDbEntity
  8
LW 3593-00-01
100
AcDbVertex
100
AcDb2dVertex
 10
-35.0000002384252
 20
-16.05614542961325
 30
0.0
  0
VERTEX
  5
4B78
330
4B6A
100
AcDbEntity
  8
LW 3593-00-01
100
AcDbVertex
100
AcDb2dVertex
 10
-35.25547885895438
 20
-16.04943513870444
 30
0.0
  0
VERTEX
  5
4B79
330
4B6A
100
AcDbEntity
  8
LW 3593-00-01
100
AcDbVertex
100
AcDb2dVertex
 10
-35.51353359223075
 20
-16.0290384292623
 30
0.0
  0
VERTEX
  5
4B7A
330
4B6A
100
AcDbEntity
  8
LW 3593-00-01
100
AcDbVertex
100
AcDb2dVertex
 10
-35.76566958428092
 20
-15.9945559501669
 30
0.0
  0
VERTEX
  5
4B7B
330
4B6A
100
AcDbEntity
  8
LW 3593-00-01
100
AcDbVertex
100
AcDb2dVertex
 10
-36.00386404991812
 20
-15.94591498375149
 30
0.0
  0
VERTEX
  5
4B7C
330
4B6A
100
AcDbEntity
  8
LW 3593-00-01
100
AcDbVertex
100
AcDb2dVertex
 10
-36.22194790840811
 20
-15.8846962451957
 30
0.0
  0
VERTEX
  5
4B7D
330
4B6A
100
AcDbEntity
  8
LW 3593-00-01
100
AcDbVertex
100
AcDb2dVertex
 10
-36.4142110347814
 20
-15.81298470497353
 30
0.0
  0
VERTEX
  5
4B7E
330
4B6A
100
AcDbEntity
  8
LW 3593-00-01
100
AcDbVertex
100
AcDb2dVertex
 10
-36.58275866509146
 20
-15.72940349579084
 30
0.0
  0
VERTEX
  5
4B7F
330
4B6A
100
AcDbEntity
  8
LW 3593-00-01
100
AcDbVertex
100
AcDb2dVertex
 10
-36.72932291031546
 20
-15.63239455223316
 30
0.0
  0
VERTEX
  5
4B80
330
4B6A
100
AcDbEntity
  8
LW 3593-00-01
100
AcDbVertex
100
AcDb2dVertex
 10
-36.84763216973014
 20
-15.52376866340881
 30
0.0
  0
VERTEX
  5
4B81
330
4B6A
100
AcDbEntity
  8
LW 3593-00-01
100
AcDbVertex
100
AcDb2dVertex
 10
-36.9325079917974
 20
-15.40561437607061
 30
0.0
  0
VERTEX
  5
4B82
330
4B6A
100
AcDbEntity
  8
LW 3593-00-01
100
AcDbVertex
100
AcDb2dVertex
 10
-36.98318386078543
 20
-15.28149843216198
 30
0.0
  0
VERTEX
  5
4B83
330
4B6A
100
AcDbEntity
  8
LW 3593-00-01
100
AcDbVertex
100
AcDb2dVertex
 10
-36.99999952316947
 20
-15.15544414520525
 30
0.0
  0
SEQEND
  5
4B84
330
4B6A
100
AcDbEntity
  8
LW 3593-00-01
  0
LINE
  5
4B85
330
4B08
100
AcDbEntity
  8
LW 3593-00-01
100
AcDbLine
 10
-39.00000000000662
 20
17.5
 30
0.0
 11
-39.00000000000662
 21
-17.5
 31
0.0
  0
LINE
  5
4B86
330
4B08
100
AcDbEntity
  8
LW 3593-00-01
100
AcDbLine
 10
-42.00000000000662
 20
14.50000000000005
 30
0.0
 11
-42.00000000000662
 21
-14.50000000000005
 31
0.0
  0
LINE
  5
4B87
330
4B08
100
AcDbEntity
  8
LW 3593-00-01
100
AcDbLine
 10
-19.00000000000659
 20
-17.5
 30
0.0
 11
-39.00000000000662
 21
-17.5
 31
0.0
  0
LINE
  5
4B88
330
4B08
100
AcDbEntity
  8
LW 3593-00-01
100
AcDbLine
 10
-19.00000000000659
 20
17.5
 30
0.0
 11
-39.00000000000662
 21
17.5
 31
0.0
  0
LINE
  5
4B89
330
4B08
100
AcDbEntity
  8
LW 3593-00-01
100
AcDbLine
 10
-42.00000000000662
 20
14.50000000000005
 30
0.0
 11
-39.00000000000662
 21
17.5
 31
0.0
  0
LINE
  5
4B8A
330
4B08
100
AcDbEntity
  8
LW 3593-00-01
100
AcDbLine
 10
-42.00000000000662
 20
-14.50000000000005
 30
0.0
 11
-39.00000000000662
 21
-17.5
 31
0.0
  0
CIRCLE
  5
4B8B
330
4B08
100
AcDbEntity
  8
LW 3593-00-01
100
AcDbCircle
 10
-85.00000000000667
 20
0.0000000000314344
 30
0.0
 40
17.5
  0
CIRCLE
  5
4B8C
330
4B08
100
AcDbEntity
  8
LW 3593-00-01
100
AcDbCircle
 10
-85.00000000000667
 20
0.0000000000305249
 30
0.0
 40
14.5
  0
LINE
  5
4B8D
330
4B08
100
AcDbEntity
  8
LW 3593-00-01
  6
MITTE2
 62
     3
100
AcDbLine
 10
-85.00000000000667
 20
27.50000000003735
 30
0.0
 11
-85.00000000000667
 21
-27.49999999996266
 31
0.0
  0
LINE
  5
4B8E
330
4B08
100
AcDbEntity
  8
LW 3593-00-01
  6
MITTE2
 62
     3
100
AcDbLine
 10
19.32023757076115
 20
0.0
 30
0.0
 11
-124.9268040422395
 21
0.0
 31
0.0
  0
INSERT
  5
4B8F
330
4B08
100
AcDbEntity
  8
LW 3593-00-01
100
AcDbBlockReference
 66
     1
  2
insertpoint-ECKELT
 10
0.0
 20
0.0
 30
0.0
  0
ATTRIB
  5
4B90
330
4B8F
100
AcDbEntity
  8
insertpoint_ECKELT
100
AcDbText
 10
-6.931514324693087
 20
0.0
 30
0.0
 40
0.6
  1
LW 3593/00-01
 72
     2
 11
-1.200000000000045
 21
0.0
 31
0.0
100
AcDbAttribute
  2
LINKS
 70
     0
  0
ATTRIB
  5
4B91
330
4B8F
100
AcDbEntity
  8
insertpoint_ECKELT
100
AcDbText
 10
1.200000000000045
 20
0.0
 30
0.0
 40
0.6
  1

100
AcDbAttribute
  2
RECHTS
 70
     0
  0
SEQEND
  5
4B92
330
4B8F
100
AcDbEntity
  8
LW 3593-00-01
  0
HATCH
  5
4B93
330
4B08
100
AcDbEntity
  8
LW 3593-00-01
 62
     1
100
AcDbHatch
 10
0.0
 20
0.0
 30
0.0
210
0.0
220
0.0
230
1.0
  2
SOLID
 70
     1
 71
     0
 91
        5
 92
        7
 72
     0
 73
     1
 93
       76
 10
-58.42049715486542
 20
26.92799040657082
 10
-58.38863832549259
 20
26.97957136841251
 10
-58.27048020126142
 20
27.13081376742849
 10
-58.13600212604865
 20
27.27123789769104
 10
-57.98998221958709
 20
27.39962245940438
 10
-57.8263134235051
 20
27.51652874232013
 10
-57.65092647014046
 20
27.61870662414179
 10
-57.46917353754009
 20
27.71005830372468
 10
-57.28800460207435
 20
27.77957661617086
 10
-59.54514254027436
 20
27.7795766161708
 10
-59.75803909267438
 20
27.77088696097076
 10
-59.96007357607436
 20
27.7448179953708
 10
-60.15559081807442
 20
27.70354213317074
 10
-60.34024599107431
 20
27.64923178817077
 10
-60.51621150887445
 20
27.57971454657076
 10
-60.68348737147437
 20
27.49716282217065
 10
-60.8340556340213
 20
27.40183730462684
 10
-60.97676323447422
 20
27.29512833877072
 10
-61.10220449004498
 20
27.17608006253062
 10
-61.21346944212234
 20
27.04782075177872
 10
-61.31348737347434
 20
26.91061109617073
 10
-61.39603909787433
 20
26.76505937157066
 10
-61.45903909807429
 20
26.61081799177055
 10
-61.50900461547417
 20
26.45005937057078
 10
-61.53724599487429
 20
26.28495592177069
 10
-61.54593565007428
 20
26.11116281777072
 10
-61.53507358107424
 20
25.93736971377064
 10
-61.50465978787429
 20
25.77009385117066
 10
-61.4503494428742
 20
25.60933522997073
 10
-61.3808322012743
 20
25.45292143637067
 10
-61.29176323547415
 20
25.30519729797061
 10
-61.18531495927425
 20
25.16399040097076
 10
-61.06261702785025
 20
25.03277660745067
 10
-60.926417979142
 20
24.91164281396277
 10
-60.77907357867423
 20
24.80119729637067
 10
-60.61831495747412
 20
24.70343867537082
 10
-60.44268833622698
 20
24.61854074406677
 10
-60.26203909427431
 20
24.54485246797077
 10
-60.07086667987414
 20
24.48836970917074
 10
-59.87100461027421
 20
24.44492143317075
 10
-59.6624528854743
 20
24.41885246757073
 10
-59.45172874687433
 20
24.41016281237074
 10
-57.33255766112165
 20
24.41016281237086
 10
-57.49310152517409
 20
24.47323361610575
 10
-57.67666566897651
 20
24.56385388962849
 10
-57.84513207514669
 20
24.66838358256007
 10
-58.00796496990745
 20
24.78400182098551
 10
-58.15187733827759
 20
24.91379141752537
 10
-58.27931323176187
 20
25.05314510075391
 10
-58.39301858650526
 20
25.20363334546647
 10
-58.44498981795391
 20
25.2878179875708
 10
-59.47345288487429
 20
25.28781798757075
 10
-59.60556171287976
 20
25.29537798759481
 10
-59.73631495467429
 20
25.31571178076274
 10
-59.86448736887417
 20
25.34864557397071
 10
-59.97962530027416
 20
25.39426626377082
 10
-60.08457026612461
 20
25.45074902257074
 10
-60.18271992160862
 20
25.51835454002674
 10
-60.27290116327424
 20
25.59630074717069
 10
-60.34459081867419
 20
25.68102488537074
 10
-58.61706950441543
 20
25.68102488537079
 10
-58.62765397168846
 20
25.71366032612912
 10
-58.66376577965286
 20
25.89903427368023
 10
-58.67580943243456
 20
26.08932398763097
 10
-58.66378776000522
 20
26.28407508098599
 10
-58.62748203832996
 20
26.47044445225248
 10
-58.61088333565499
 20
26.51957661217074
 10
-60.3815218532743
 20
26.51957661217074
 10
-60.31200461167429
 20
26.61516281937065
 10
-60.22945288727431
 20
26.69771454377076
 10
-60.13436199042075
 20
26.76757937157868
 10
-60.03176323147432
 20
26.82588695797079
 10
-59.91307123109755
 20
26.86985661328271
 10
-59.79062529967428
 20
26.90192144097074
 10
-59.65376323027431
 20
26.92147316517071
 10
-59.51038391947429
 20
26.92799040657076
 97
        0
 92
        7
 72
     0
 73
     1
 93
       72
 10
-56.69203328983758
 20
26.91339178583479
 10
-56.56917025496477
 20
26.93146626865081
 10
-56.44510804767435
 20
26.93668006177086
 10
-55.1764183884743
 20
26.93668006177091
 10
-56.0236597704743
 20
26.12202488677099
 10
-54.25748735107413
 20
24.40364557097098
 10
-52.93883217447433
 20
24.40364557097098
 10
-54.65286666267423
 20
26.14592143857095
 10
-52.97141838147434
 20
27.77957661617103
 10
-56.41034942687429
 20
27.77957661617086
 10
-56.61833632408638
 20
27.76880144372291
 10
-56.82505453163924
 20
27.74334075398679
 10
-57.02948735987433
 20
27.70354213317086
 10
-57.22283218807433
 20
27.64705937437083
 10
-57.4096597748744
 20
27.57536971897082
 10
-57.58081991334882
 20
27.48934213249083
 10
-57.7463839138743
 20
27.39288695977081
 10
-57.8984528798743
 20
27.28426626977086
 10
-58.03415053547746
 20
27.16495730387482
 10
-58.15914253587425
 20
27.03443868277077
 10
-58.26776322587443
 20
26.89540419957075
 10
-58.3590046054743
 20
26.74768006117091
 10
-58.43069426087436
 20
26.5934386813708
 10
-58.48500460587434
 20
26.43268006017081
 10
-58.51759081287423
 20
26.26540419757077
 10
-58.52845288187427
 20
26.0894386797707
 10
-58.51759081287423
 20
25.91781798957084
 10
-58.48500460587422
 20
25.75054212697086
 10
-58.43286667467419
 20
25.58978350577087
 10
-58.36334943307429
 20
25.43554212597082
 10
-58.27150846726545
 20
25.28677522894691
 10
-58.16612901865505
 20
25.14730626298677
 10
-58.04812350103896
 20
25.01826488326691
 10
-57.91583219027427
 20
24.89895591737087
 10
-57.76371108634305
 20
24.79094350323476
 10
-57.60517701687422
 20
24.69257660637078
 10
-57.43355632667419
 20
24.60785246817085
 10
-57.25107356747412
 20
24.53616281277084
 10
-57.05684239444384
 20
24.48211315742685
 10
-56.86003908347425
 20
24.43840419177082
 10
-56.65148735867422
 20
24.41233522617086
 10
-56.44076322007425
 20
24.40364557097087
 10
-54.53772873127423
 20
24.40364557097098
 10
-55.42407356167427
 20
25.27695591857094
 10
-56.44076322007425
 20
25.27695591857088
 10
-56.50743025476879
 20
25.28070321151017
 10
-56.60837797922704
 20
25.29068557378685
 10
-56.728512462367
 20
25.31214902213088
 10
-56.84563163515258
 20
25.34647316017077
 10
-56.94712680788859
 20
25.38740143616286
 10
-57.00326198048071
 20
25.4155559190109
 10
-57.05694667030627
 20
25.44814212601096
 10
-57.18950736038232
 20
25.54746488494681
 10
-57.26310873992622
 20
25.61750350585885
 10
-57.31817508492861
 20
25.68536971297073
 10
-57.36688060232473
 20
25.75792833389079
 10
-57.40624474038077
 20
25.83509247206678
 10
-57.43566791288788
 20
25.91651454129078
 10
-57.4563666715743
 20
26.00367178294687
 10
-57.46388322332234
 20
26.09300143840272
 10
-57.46252763711106
 20
26.15530626618681
 10
-57.45652308536785
 20
26.21743730086672
 10
-57.44436625774302
 20
26.28061109417087
 10
-57.42615274044386
 20
26.34230764609083
 10
-57.38250460237441
 20
26.44102212916272
 10
-57.34097674017346
 20
26.50888833627476
 10
-57.27789853307672
 20
26.58692143997081
 10
-57.14849659271192
 20
26.71344417702449
 10
-57.08922873937422
 20
26.75350213015486
 10
-57.01293356671829
 20
26.79781937167479
 10
-56.92891329058955
 20
26.83996419939485
 10
-56.81237632470232
 20
26.88280419953088
 97
        0
 92
        7
 72
     0
 73
     1
 93
       57
 10
-52.1339963098502
 20
26.89132006162708
 10
-52.0025218266743
 20
26.93129247554708
 10
-51.86783217107438
 20
26.95840419977111
 10
-51.72445286027437
 20
26.96709385497104
 10
-50.48400458047433
 20
26.9670938549711
 10
-50.48400458047433
 20
27.79261109897112
 10
-51.71793561887432
 20
27.79261109897101
 10
-51.92865975747429
 20
27.78392144377102
 10
-52.13503906847427
 20
27.75568006437101
 10
-52.33272872427426
 20
27.71440420217107
 10
-52.52172872487427
 20
27.66009385717103
 10
-52.70638389787428
 20
27.58840420177103
 10
-52.87279079495454
 20
27.50576558081895
 10
-53.0316116230448
 20
27.40931040809892
 10
-53.18169065800384
 20
27.29982075257897
 10
-53.31624996877576
 20
27.18059868323502
 10
-53.43631493467433
 20
27.05181799317097
 10
-53.54059079707429
 20
26.91278350997101
 10
-53.62531493527433
 20
26.76723178537094
 10
-53.69700459067439
 20
26.61299040557088
 10
-53.74697010807427
 20
26.45223178437106
 10
-53.77955631507427
 20
26.28495592177109
 10
-53.7904183840742
 20
26.111162817771
 10
-53.77955631507427
 20
25.93736971377098
 10
-53.74697010807427
 20
25.770093851171
 10
-53.69483217687434
 20
25.60933522997089
 10
-53.62314252147417
 20
25.45292143637102
 10
-53.53624596947418
 20
25.30519729797101
 10
-53.42739934843905
 20
25.16564143545901
 10
-53.30754293426548
 20
25.03529660745903
 10
-53.17111534762545
 20
24.91398902086701
 10
-53.02355631267426
 20
24.80336971017095
 10
-52.86279769147427
 20
24.70561108917093
 10
-52.6890045874743
 20
24.620886950971
 10
-52.50434941447418
 20
24.54702488177111
 10
-52.31317700007423
 20
24.49054212297102
 10
-52.11331493047419
 20
24.44709384697109
 10
-51.90693561947421
 20
24.42319729517095
 10
-51.69403906707419
 20
24.41450763997102
 10
-50.48400458047422
 20
24.41450763997108
 10
-50.48400458047422
 20
25.27261109097106
 10
-51.71793561887432
 20
25.272611090971
 10
-51.85158251585028
 20
25.28295178065895
 10
-51.98383906799415
 20
25.30493660831508
 10
-52.10445148217025
 20
25.33926074635502
 10
-52.22045837909013
 20
25.38722764305908
 10
-52.33012182771426
 20
25.44814212601108
 10
-52.42718527629825
 20
25.51574764346697
 10
-52.51460320761021
 20
25.59551867820301
 10
-52.58907355267422
 20
25.68102488537102
 10
-50.48400458047422
 20
25.68102488537107
 10
-50.48400458047422
 20
26.5087145431711
 10
-52.62600458727433
 20
26.50871454317098
 10
-52.55648734567433
 20
26.60647316417101
 10
-52.46959079367434
 20
26.69554212997093
 10
-52.36844320714624
 20
26.77183730262703
 10
-52.26103906887431
 20
26.83892144077101
 97
        0
 92
        7
 72
     0
 73
     1
 93
        6
 10
-50.25372871767422
 20
27.77957661617114
 10
-50.25372871767422
 20
24.41016281237109
 10
-48.01614250367413
 20
24.4101628123712
 10
-48.01614250367425
 20
25.27695591857122
 10
-49.2305218178742
 20
25.27695591857122
 10
-49.23052181787432
 20
27.77957661617114
 97
        0
 92
        7
 72
     0
 73
     1
 93
        8
 10
-48.99807354127438
 20
27.77957661617114
 10
-48.99807354127438
 20
26.95405937217112
 10
-47.76414250287428
 20
26.95405937217123
 10
-47.76414250287416
 20
24.40364557097121
 10
-46.73876318927421
 20
24.40364557097121
 10
-46.73876318927432
 20
26.95405937217117
 10
-45.49614249567435
 20
26.95405937217123
 10
-45.49614249567435
 20
27.77957661617126
 97
        0
 75
     0
 76
     1
 47
0.0142553043587597
 98
        5
 10
-59.1108370287991
 20
27.33712694658169
 10
-56.84333981545648
 20
27.194573961576
 10
-52.35112808325493
 20
27.25159513412382
 10
-49.62727899942331
 20
27.49393535881626
 10
-48.21544101719656
 20
27.39414822640288
450
        0
451
        0
460
0.0
461
0.0
452
        0
462
0.0
453
        0
470

  0
LWPOLYLINE
  5
4B94
330
4B08
100
AcDbEntity
  8
LW 3593-00-01
 62
     1
100
AcDbPolyline
 90
        8
 70
     1
 43
0.0
 10
-46.73876318927432
 20
26.95405937217117
 10
-46.73876318927421
 20
24.40364557097121
 10
-47.76414250287416
 20
24.40364557097121
 10
-47.76414250287428
 20
26.95405937217123
 10
-48.99807354127438
 20
26.95405937217112
 10
-48.99807354127438
 20
27.77957661617114
 10
-45.49614249567435
 20
27.77957661617126
 10
-45.49614249567435
 20
26.95405937217123
  0
LWPOLYLINE
  5
4B95
330
4B08
100
AcDbEntity
  8
LW 3593-00-01
 62
     1
100
AcDbPolyline
 90
       73
 70
     1
 43
0.0
 10
-56.44076322007425
 20
25.27695591857088
 10
-55.42407356167427
 20
25.27695591857094
 10
-54.53772873127423
 20
24.40364557097098
 10
-56.44076322007425
 20
24.40364557097081
 10
-56.65148735867422
 20
24.41233522617086
 10
-56.86003908347425
 20
24.43840419177087
 10
-57.05684239444384
 20
24.48211315742685
 10
-57.25107356747412
 20
24.53616281277084
 10
-57.43355632667419
 20
24.60785246817085
 10
-57.60517701687422
 20
24.69257660637083
 10
-57.76371108634293
 20
24.79094350323487
 10
-57.91583219027427
 20
24.89895591737087
 10
-58.04812350103907
 20
25.0182648832668
 10
-58.16612901865505
 20
25.14730626298677
 10
-58.27150846726545
 20
25.28677522894685
 10
-58.36334943307429
 20
25.43554212597082
 10
-58.43286667467419
 20
25.58978350577087
 10
-58.48500460587422
 20
25.75054212697086
 10
-58.51759081287423
 20
25.91781798957084
 10
-58.52845288187427
 20
26.08943867977081
 10
-58.51759081287423
 20
26.26540419757077
 10
-58.48500460587434
 20
26.43268006017081
 10
-58.43069426087424
 20
26.5934386813708
 10
-58.3590046054743
 20
26.74768006117086
 10
-58.26776322587432
 20
26.89540419957081
 10
-58.15914253587425
 20
27.03443868277077
 10
-58.03415053547746
 20
27.16495730387487
 10
-57.89845287987441
 20
27.2842662697708
 10
-57.7463839138743
 20
27.39288695977081
 10
-57.5808199133487
 20
27.48934213249078
 10
-57.4096597748744
 20
27.57536971897077
 10
-57.22283218807433
 20
27.64705937437083
 10
-57.02948735987433
 20
27.70354213317091
 10
-56.82505453163912
 20
27.74334075398684
 10
-56.61833632408638
 20
27.76880144372291
 10
-56.4103494268744
 20
27.77957661617086
 10
-52.97141838147434
 20
27.77957661617103
 10
-54.65286666267423
 20
26.14592143857095
 10
-52.93883217447433
 20
24.40364557097098
 10
-54.25748735107413
 20
24.40364557097098
 10
-56.0236597704743
 20
26.12202488677099
 10
-55.1764183884743
 20
26.93668006177091
 10
-56.44510804767435
 20
26.93668006177086
 10
-56.56917025496477
 20
26.93146626865081
 10
-56.69203328983758
 20
26.91339178583479
 10
-56.81237632470232
 20
26.88280419953088
 10
-56.92891329058955
 20
26.83996419939479
 10
-57.0129335667184
 20
26.79781937167485
 10
-57.08922873937433
 20
26.75350213015486
 10
-57.12947053260553
 20
26.72630350937885
 10
-57.16698377410387
 20
26.69536833686687
 10
-57.27789853307672
 20
26.58692143997081
 10
-57.34097674017346
 20
26.50888833627476
 10
-57.3825046023743
 20
26.44102212916283
 10
-57.42615274044386
 20
26.34230764609083
 10
-57.44436625774302
 20
26.28061109417087
 10
-57.45652308536785
 20
26.21743730086683
 10
-57.46252763711106
 20
26.15530626618687
 10
-57.46388322332222
 20
26.09300143840284
 10
-57.4563666715743
 20
26.00367178294687
 10
-57.43566791288777
 20
25.91651454129084
 10
-57.40624474038066
 20
25.83509247206683
 10
-57.36688060232473
 20
25.75792833389079
 10
-57.31817508492873
 20
25.68536971297084
 10
-57.26310873992622
 20
25.61750350585885
 10
-57.18950736038232
 20
25.54746488494681
 10
-57.05694667030616
 20
25.44814212601091
 10
-57.0032619804806
 20
25.41555591901084
 10
-56.94712680788859
 20
25.38740143616286
 10
-56.84563163515258
 20
25.34647316017077
 10
-56.728512462367
 20
25.31214902213088
 10
-56.60837797922704
 20
25.29068557378685
 10
-56.50743025476868
 20
25.28070321151023
  0
LWPOLYLINE
  5
4B96
330
4B08
100
AcDbEntity
  8
LW 3593-00-01
 62
     1
100
AcDbPolyline
 90
       76
 70
     1
 43
0.0
 10
-57.65092647014046
 20
27.61870662414179
 10
-57.82631342350521
 20
27.51652874232008
 10
-57.9899822195872
 20
27.39962245940444
 10
-58.13600212604865
 20
27.27123789769104
 10
-58.27048020126142
 20
27.13081376742849
 10
-58.38863832549259
 20
26.97957136841262
 10
-58.42049715486542
 20
26.92799040657082
 10
-59.51038391947429
 20
26.92799040657082
 10
-59.65376323027431
 20
26.92147316517071
 10
-59.79062529967439
 20
26.90192144097074
 10
-59.91307123109755
 20
26.86985661328271
 10
-60.03176323147432
 20
26.82588695797079
 10
-60.13436199042065
 20
26.76757937157873
 10
-60.22945288727431
 20
26.6977145437707
 10
-60.31200461167441
 20
26.61516281937071
 10
-60.3815218532743
 20
26.51957661217074
 10
-58.61088333565499
 20
26.51957661217074
 10
-58.62748203832996
 20
26.47044445225248
 10
-58.66378776000534
 20
26.28407508098587
 10
-58.67580943243456
 20
26.08932398763097
 10
-58.66376577965286
 20
25.89903427368023
 10
-58.62765397168835
 20
25.71366032612917
 10
-58.61706950441543
 20
25.68102488537079
 10
-60.34459081867419
 20
25.68102488537074
 10
-60.27290116327424
 20
25.59630074717069
 10
-60.18271992160862
 20
25.51835454002674
 10
-60.08457026612461
 20
25.45074902257074
 10
-59.97962530027416
 20
25.39426626377082
 10
-59.86448736887417
 20
25.34864557397077
 10
-59.73631495467429
 20
25.31571178076274
 10
-59.60556171287976
 20
25.29537798759481
 10
-59.47345288487429
 20
25.28781798757075
 10
-58.44498981795391
 20
25.2878179875708
 10
-58.39301858650526
 20
25.20363334546653
 10
-58.27931323176187
 20
25.05314510075391
 10
-58.15187733827759
 20
24.91379141752537
 10
-58.00796496990733
 20
24.78400182098563
 10
-57.84513207514669
 20
24.66838358256007
 10
-57.67666566897651
 20
24.56385388962849
 10
-57.49310152517409
 20
24.47323361610575
 10
-57.33255766112165
 20
24.41016281237086
 10
-59.45172874687421
 20
24.41016281237069
 10
-59.6624528854743
 20
24.41885246757073
 10
-59.87100461027421
 20
24.44492143317075
 10
-60.07086667987426
 20
24.48836970917074
 10
-60.2620390942742
 20
24.54485246797066
 10
-60.44268833622709
 20
24.61854074406671
 10
-60.61831495747412
 20
24.70343867537082
 10
-60.77907357867423
 20
24.80119729637067
 10
-60.92641797914189
 20
24.91164281396271
 10
-61.06261702785025
 20
25.03277660745067
 10
-61.18531495927425
 20
25.1639904009707
 10
-61.29176323547426
 20
25.30519729797067
 10
-61.38083220127419
 20
25.45292143637073
 10
-61.4503494428742
 20
25.60933522997073
 10
-61.50465978787429
 20
25.77009385117066
 10
-61.53507358107424
 20
25.93736971377075
 10
-61.54593565007428
 20
26.11116281777067
 10
-61.53724599487441
 20
26.28495592177063
 10
-61.50900461547428
 20
26.45005937057073
 10
-61.45903909807429
 20
26.61081799177066
 10
-61.39603909787433
 20
26.76505937157066
 10
-61.31348737347434
 20
26.91061109617073
 10
-61.21346944212223
 20
27.04782075177872
 10
-61.10220449004498
 20
27.17608006253068
 10
-60.97676323447434
 20
27.29512833877067
 10
-60.8340556340213
 20
27.40183730462673
 10
-60.68348737147426
 20
27.49716282217077
 10
-60.51621150887434
 20
27.5797145465707
 10
-60.34024599107431
 20
27.64923178817077
 10
-60.1555908180743
 20
27.70354213317069
 10
-59.96007357607436
 20
27.7448179953708
 10
-59.75803909267438
 20
27.77088696097076
 10
-59.54514254027436
 20
27.77957661617075
 10
-57.28800460207423
 20
27.77957661617092
 10
-57.46917353754009
 20
27.71005830372468
  0
LWPOLYLINE
  5
4B97
330
4B08
100
AcDbEntity
  8
LW 3593-00-01
 62
     1
100
AcDbPolyline
 90
        6
 70
     1
 43
0.0
 10
-48.01614250367413
 20
24.4101628123712
 10
-50.25372871767422
 20
24.41016281237109
 10
-50.25372871767422
 20
27.77957661617114
 10
-49.23052181787432
 20
27.77957661617114
 10
-49.2305218178742
 20
25.27695591857122
 10
-48.01614250367425
 20
25.27695591857122
  0
LWPOLYLINE
  5
4B98
330
4B08
100
AcDbEntity
  8
LW 3593-00-01
 62
     1
100
AcDbPolyline
 90
       57
 70
     1
 43
0.0
 10
-53.30754293426548
 20
25.03529660745903
 10
-53.42739934843905
 20
25.16564143545895
 10
-53.5362459694743
 20
25.30519729797095
 10
-53.62314252147417
 20
25.45292143637102
 10
-53.69483217687434
 20
25.60933522997089
 10
-53.74697010807427
 20
25.770093851171
 10
-53.77955631507427
 20
25.93736971377098
 10
-53.7904183840742
 20
26.111162817771
 10
-53.77955631507427
 20
26.28495592177103
 10
-53.74697010807427
 20
26.45223178437095
 10
-53.69700459067439
 20
26.61299040557088
 10
-53.62531493527433
 20
26.767231785371
 10
-53.5405907970744
 20
26.9127835099709
 10
-53.43631493467433
 20
27.05181799317103
 10
-53.31624996877599
 20
27.18059868323496
 10
-53.18169065800384
 20
27.29982075257897
 10
-53.03161162304468
 20
27.40931040809897
 10
-52.87279079495419
 20
27.50576558081906
 10
-52.70638389787428
 20
27.58840420177103
 10
-52.52172872487438
 20
27.66009385717098
 10
-52.33272872427426
 20
27.71440420217107
 10
-52.13503906847427
 20
27.75568006437101
 10
-51.92865975747429
 20
27.78392144377102
 10
-51.71793561887432
 20
27.79261109897101
 10
-50.48400458047433
 20
27.79261109897112
 10
-50.48400458047433
 20
26.9670938549711
 10
-51.72445286027425
 20
26.96709385497104
 10
-51.86783217107427
 20
26.95840419977105
 10
-52.0025218266743
 20
26.93129247554708
 10
-52.13399630985032
 20
26.89132006162703
 10
-52.26103906887431
 20
26.83892144077101
 10
-52.36844320714624
 20
26.77183730262703
 10
-52.46959079367434
 20
26.69554212997105
 10
-52.55648734567433
 20
26.60647316417101
 10
-52.62600458727433
 20
26.50871454317098
 10
-50.48400458047422
 20
26.5087145431711
 10
-50.48400458047422
 20
25.68102488537107
 10
-52.58907355267422
 20
25.68102488537102
 10
-52.51460320761021
 20
25.59551867820301
 10
-52.42718527629825
 20
25.51574764346697
 10
-52.33012182771426
 20
25.44814212601108
 10
-52.22045837909013
 20
25.38722764305908
 10
-52.10445148217025
 20
25.33926074635502
 10
-51.98383906799415
 20
25.30493660831508
 10
-51.85158251585028
 20
25.28295178065895
 10
-51.71793561887432
 20
25.272611090971
 10
-50.48400458047422
 20
25.27261109097106
 10
-50.48400458047422
 20
24.41450763997108
 10
-51.69403906707419
 20
24.41450763997102
 10
-51.90693561947421
 20
24.42319729517095
 10
-52.11331493047419
 20
24.44709384697103
 10
-52.31317700007423
 20
24.49054212297102
 10
-52.50434941447418
 20
24.54702488177111
 10
-52.6890045874743
 20
24.620886950971
 10
-52.86279769147427
 20
24.70561108917105
 10
-53.02355631267426
 20
24.80336971017095
 10
-53.17111534762545
 20
24.91398902086701
  0
LINE
  5
4B99
330
4B08
100
AcDbEntity
  8
LW 3593-00-01
100
AcDbLine
 10
0.0000000000067075
 20
-22.50000000003445
 30
0.0
 11
-0.0000000000067075
 21
22.49999999996555
 31
0.0
  0
LINE
  5
4B9A
330
4B08
100
AcDbEntity
  8
LW 3593-00-01
100
AcDbLine
 10
-4.999999999993292
 20
-22.50000000003593
 30
0.0
 11
0.0000000000067075
 21
-22.50000000003445
 31
0.0
  0
LINE
  5
4B9B
330
4B08
100
AcDbEntity
  8
LW 3593-00-01
100
AcDbLine
 10
-5.000000000006707
 20
22.49999999996408
 30
0.0
 11
-0.0000000000067075
 21
22.49999999996555
 31
0.0
  0
LINE
  5
4B9C
330
4B08
100
AcDbEntity
  8
LW 3593-00-01
100
AcDbLine
 10
15.99999999999795
 20
6.999999999970611
 30
0.0
 11
15.99999999999795
 21
-7.000000000029388
 31
0.0
  0
LINE
  5
4B9D
330
4B08
100
AcDbEntity
  8
LW 3593-00-01
100
AcDbLine
 10
16.99999999999795
 20
5.999999999970611
 30
0.0
 11
16.99999999999795
 21
-6.000000000029388
 31
0.0
  0
LINE
  5
4B9E
330
4B08
100
AcDbEntity
  8
LW 3593-00-01
100
AcDbLine
 10
-0.0000000000020464
 20
-7.000000000029388
 30
0.0
 11
15.99999999999795
 21
-7.000000000029388
 31
0.0
  0
LINE
  5
4B9F
330
4B08
100
AcDbEntity
  8
LW 3593-00-01
100
AcDbLine
 10
-0.0000000000020464
 20
6.999999999970611
 30
0.0
 11
15.99999999999795
 21
6.999999999970611
 31
0.0
  0
LINE
  5
4BA0
330
4B08
100
AcDbEntity
  8
LW 3593-00-01
100
AcDbLine
 10
16.99999999999795
 20
5.999999999970611
 30
0.0
 11
15.99999999999795
 21
6.999999999970611
 31
0.0
  0
LINE
  5
4BA1
330
4B08
100
AcDbEntity
  8
LW 3593-00-01
100
AcDbLine
 10
16.99999999999795
 20
-6.000000000029388
 30
0.0
 11
15.99999999999795
 21
-7.000000000029388
 31
0.0
  0
LINE
  5
4BA2
330
4B08
100
AcDbEntity
  8
LW 3593-00-01
 62
     3
100
AcDbLine
 10
16.99999999999795
 20
-5.794500000029358
 30
0.0
 11
-0.0000000000020464
 21
-5.794500000029358
 31
0.0
  0
LINE
  5
4BA3
330
4B08
100
AcDbEntity
  8
LW 3593-00-01
 62
     3
100
AcDbLine
 10
-0.0000000000020464
 20
5.794499999970582
 30
0.0
 11
16.99999999999795
 21
5.794499999970582
 31
0.0
  0
LINE
  5
4BA4
330
4B08
100
AcDbEntity
  8
LW 3593-00-01
100
AcDbLine
 10
15.99999999999795
 20
6.999999999970611
 30
0.0
 11
15.99999999999795
 21
-7.000000000029388
 31
0.0
  0
LINE
  5
4BA5
330
4B08
100
AcDbEntity
  8
LW 3593-00-01
100
AcDbLine
 10
-19.00000000000807
 20
-22.50000000003445
 30
0.0
 11
-18.99999999999465
 21
22.49999999996555
 31
0.0
  0
LINE
  5
4BA6
330
4B08
100
AcDbEntity
  8
LW 3593-00-01
100
AcDbLine
 10
-14.00000000000807
 20
-22.50000000003593
 30
0.0
 11
-19.00000000000807
 21
-22.50000000003445
 31
0.0
  0
LINE
  5
4BA7
330
4B08
100
AcDbEntity
  8
LW 3593-00-01
100
AcDbLine
 10
-13.99999999999465
 20
22.49999999996408
 30
0.0
 11
-18.99999999999465
 21
22.49999999996555
 31
0.0
  0
ENDBLK
  5
4B0A
330
4B08
100
AcDbEntity
  8
0
100
AcDbBlockEnd
  0
BLOCK
  5
4BAA
330
4BA9
100
AcDbEntity
  8
0
100
AcDbBlockBegin
  2
LW 3593-00-01_c
 70
     0
 10
0.0
 20
0.0
 30
0.0
  3
LW 3593-00-01_c
  1

  0
LINE
  5
4BAC
330
4BA9
100
AcDbEntity
  8
LW 3593-00-01
100
AcDbLine
 10
-1.99999999996146
 20
-49.17000000000666
 30
0.0
 11
-1.999999999963165
 21
-42.00000000000659
 31
0.0
  0
LINE
  5
4BAD
330
4BA9
100
AcDbEntity
  8
LW 3593-00-01
100
AcDbLine
 10
2.000000000036891
 20
-42.00000000000659
 30
0.0
 11
2.000000000038482
 21
-49.17000000000666
 31
0.0
  0
LINE
  5
4BAE
330
4BA9
100
AcDbEntity
  8
LW 3593-00-01
100
AcDbLine
 10
-32.99999999999994
 20
-14.00000000000665
 30
0.0
 11
32.99999999999994
 21
-14.00000000000665
 31
0.0
  0
ARC
  5
4BAF
330
4BA9
100
AcDbEntity
  8
LW 3593-00-01
100
AcDbCircle
 10
32.99999999999994
 20
-12.00000000000659
 30
0.0
 40
2.00000000000001
100
AcDbArc
 50
270.0
 51
0.0
  0
ARC
  5
4BB0
330
4BA9
100
AcDbEntity
  8
LW 3593-00-01
100
AcDbCircle
 10
-33.00000000000006
 20
-12.00000000000665
 30
0.0
 40
2.000000000000003
100
AcDbArc
 50
180.0
 51
270.0
  0
LINE
  5
4BB1
330
4BA9
100
AcDbEntity
  8
LW 3593-00-01
100
AcDbLine
 10
35.00000000003826
 20
-12.0000000000067
 30
0.0
 11
35.00000000003945
 21
-16.00000000000671
 31
0.0
  0
LINE
  5
4BB2
330
4BA9
100
AcDbEntity
  8
LW 3593-00-01
100
AcDbLine
 10
-34.99999999996055
 20
-16.00000000000671
 30
0.0
 11
-34.99999999996175
 21
-12.0000000000067
 31
0.0
  0
LINE
  5
4BB3
330
4BA9
100
AcDbEntity
  8
LW 3593-00-01
100
AcDbLine
 10
35.00000000003945
 20
-16.00000000000671
 30
0.0
 11
35.00000000003945
 21
-85.00000000000667
 31
0.0
  0
LINE
  5
4BB4
330
4BA9
100
AcDbEntity
  8
LW 3593-00-01
100
AcDbLine
 10
-34.99999999996055
 20
-85.00000000000667
 30
0.0
 11
-34.99999999996055
 21
-16.00000000000671
 31
0.0
  0
ARC
  5
4BB5
330
4BA9
100
AcDbEntity
  8
LW 3593-00-01
100
AcDbCircle
 10
0.0000000000394493
 20
-85.00000000000667
 30
0.0
 40
35.0
100
AcDbArc
 50
180.0
 51
0.0
  0
LINE
  5
4BB6
330
4BA9
100
AcDbEntity
  8
LW 3593-00-01
100
AcDbLine
 10
35.0
 20
-5.000000000006707
 30
0.0
 11
35.0
 21
-12.00000000000665
 31
0.0
  0
LINE
  5
4BB7
330
4BA9
100
AcDbEntity
  8
LW 3593-00-01
100
AcDbLine
 10
-35.0
 20
-12.00000000000665
 30
0.0
 11
-35.0
 21
-5.000000000006707
 31
0.0
  0
LINE
  5
4BB8
330
4BA9
100
AcDbEntity
  8
LW 3593-00-01
100
AcDbLine
 10
35.0
 20
-5.000000000006707
 30
0.0
 11
-35.0
 21
-5.000000000006707
 31
0.0
  0
CIRCLE
  5
4BB9
330
4BA9
100
AcDbEntity
  8
LW 3593-00-01
100
AcDbCircle
 10
0.0000000000373461
 20
-85.00000000000667
 30
0.0
 40
22.5
  0
POLYLINE
  5
4BBA
330
4BA9
100
AcDbEntity
  8
LW 3593-00-01
100
AcDb2dPolyline
 66
     1
 10
0.0
 20
0.0
 30
0.0
 70
   128
  0
VERTEX
  5
4BBB
330
4BBA
100
AcDbEntity
  8
LW 3593-00-01
100
AcDbVertex
100
AcDb2dVertex
 10
15.15544414520002
 20
-36.99999952316944
 30
0.0
  0
VERTEX
  5
4BBC
330
4BBA
100
AcDbEntity
  8
LW 3593-00-01
100
AcDbVertex
100
AcDb2dVertex
 10
15.28149843215686
 20
-36.9831838607854
 30
0.0
  0
VERTEX
  5
4BBD
330
4BBA
100
AcDbEntity
  8
LW 3593-00-01
100
AcDbVertex
100
AcDb2dVertex
 10
15.40561437606561
 20
-36.93250799179736
 30
0.0
  0
VERTEX
  5
4BBE
330
4BBA
100
AcDbEntity
  8
LW 3593-00-01
100
AcDbVertex
100
AcDb2dVertex
 10
15.52376866340393
 20
-36.8476321697301
 30
0.0
  0
VERTEX
  5
4BBF
330
4BBA
100
AcDbEntity
  8
LW 3593-00-01
100
AcDbVertex
100
AcDb2dVertex
 10
15.6323945522285
 20
-36.72932291031543
 30
0.0
  0
VERTEX
  5
4BC0
330
4BBA
100
AcDbEntity
  8
LW 3593-00-01
100
AcDbVertex
100
AcDb2dVertex
 10
15.7294034957863
 20
-36.58275866509143
 30
0.0
  0
VERTEX
  5
4BC1
330
4BBA
100
AcDbEntity
  8
LW 3593-00-01
100
AcDbVertex
100
AcDb2dVertex
 10
15.8129847049691
 20
-36.41421103478137
 30
0.0
  0
VERTEX
  5
4BC2
330
4BBA
100
AcDbEntity
  8
LW 3593-00-01
100
AcDbVertex
100
AcDb2dVertex
 10
15.88469624519126
 20
-36.22194790840808
 30
0.0
  0
VERTEX
  5
4BC3
330
4BBA
100
AcDbEntity
  8
LW 3593-00-01
100
AcDbVertex
100
AcDb2dVertex
 10
15.94591498374728
 20
-36.00386404991809
 30
0.0
  0
VERTEX
  5
4BC4
330
4BBA
100
AcDbEntity
  8
LW 3593-00-01
100
AcDbVertex
100
AcDb2dVertex
 10
15.99455595016269
 20
-35.76566958428089
 30
0.0
  0
VERTEX
  5
4BC5
330
4BBA
100
AcDbEntity
  8
LW 3593-00-01
100
AcDbVertex
100
AcDb2dVertex
 10
16.02903842925821
 20
-35.51353359223071
 30
0.0
  0
VERTEX
  5
4BC6
330
4BBA
100
AcDbEntity
  8
LW 3593-00-01
100
AcDbVertex
100
AcDb2dVertex
 10
16.04943513870034
 20
-35.25547885895435
 30
0.0
  0
VERTEX
  5
4BC7
330
4BBA
100
AcDbEntity
  8
LW 3593-00-01
100
AcDbVertex
100
AcDb2dVertex
 10
16.05614542960916
 20
-35.00000023842517
 30
0.0
  0
VERTEX
  5
4BC8
330
4BBA
100
AcDbEntity
  8
LW 3593-00-01
100
AcDbVertex
100
AcDb2dVertex
 10
16.04943513870034
 20
-34.7445204258031
 30
0.0
  0
VERTEX
  5
4BC9
330
4BBA
100
AcDbEntity
  8
LW 3593-00-01
100
AcDbVertex
100
AcDb2dVertex
 10
16.02903842925821
 20
-34.48646688461963
 30
0.0
  0
VERTEX
  5
4BCA
330
4BBA
100
AcDbEntity
  8
LW 3593-00-01
100
AcDbVertex
100
AcDb2dVertex
 10
15.99455595016269
 20
-34.23433089256946
 30
0.0
  0
VERTEX
  5
4BCB
330
4BBA
100
AcDbEntity
  8
LW 3593-00-01
100
AcDbVertex
100
AcDb2dVertex
 10
15.94591498374728
 20
-33.99613642693225
 30
0.0
  0
VERTEX
  5
4BCC
330
4BBA
100
AcDbEntity
  8
LW 3593-00-01
100
AcDbVertex
100
AcDb2dVertex
 10
15.88469624519126
 20
-33.77805137634937
 30
0.0
  0
VERTEX
  5
4BCD
330
4BBA
100
AcDbEntity
  8
LW 3593-00-01
100
AcDbVertex
100
AcDb2dVertex
 10
15.8129847049691
 20
-33.58578944206897
 30
0.0
  0
VERTEX
  5
4BCE
330
4BBA
100
AcDbEntity
  8
LW 3593-00-01
100
AcDbVertex
100
AcDb2dVertex
 10
15.7294034957863
 20
-33.41724181175891
 30
0.0
  0
VERTEX
  5
4BCF
330
4BBA
100
AcDbEntity
  8
LW 3593-00-01
100
AcDbVertex
100
AcDb2dVertex
 10
15.6323945522285
 20
-33.27067637444202
 30
0.0
  0
VERTEX
  5
4BD0
330
4BBA
100
AcDbEntity
  8
LW 3593-00-01
100
AcDbVertex
100
AcDb2dVertex
 10
15.52376866340393
 20
-33.15236830712024
 30
0.0
  0
VERTEX
  5
4BD1
330
4BBA
100
AcDbEntity
  8
LW 3593-00-01
100
AcDbVertex
100
AcDb2dVertex
 10
15.40561437606561
 20
-33.06749248505298
 30
0.0
  0
VERTEX
  5
4BD2
330
4BBA
100
AcDbEntity
  8
LW 3593-00-01
100
AcDbVertex
100
AcDb2dVertex
 10
15.28149843215686
 20
-33.01681661606494
 30
0.0
  0
VERTEX
  5
4BD3
330
4BBA
100
AcDbEntity
  8
LW 3593-00-01
100
AcDbVertex
100
AcDb2dVertex
 10
15.15544414520002
 20
-32.99999976158801
 30
0.0
  0
SEQEND
  5
4BD4
330
4BBA
100
AcDbEntity
  8
LW 3593-00-01
  0
POLYLINE
  5
4BD5
330
4BA9
100
AcDbEntity
  8
LW 3593-00-01
100
AcDb2dPolyline
 66
     1
 10
0.0
 20
0.0
 30
0.0
 70
   128
  0
VERTEX
  5
4BD6
330
4BD5
100
AcDbEntity
  8
LW 3593-00-01
100
AcDbVertex
100
AcDb2dVertex
 10
15.15544414520002
 20
-32.99999976158801
 30
0.0
  0
VERTEX
  5
4BD7
330
4BD5
100
AcDbEntity
  8
LW 3593-00-01
100
AcDbVertex
100
AcDb2dVertex
 10
15.02601861953474
 20
-33.01681661606494
 30
0.0
  0
VERTEX
  5
4BD8
330
4BD5
100
AcDbEntity
  8
LW 3593-00-01
100
AcDbVertex
100
AcDb2dVertex
 10
14.89207863807411
 20
-33.06749248505298
 30
0.0
  0
VERTEX
  5
4BD9
330
4BD5
100
AcDbEntity
  8
LW 3593-00-01
100
AcDbVertex
100
AcDb2dVertex
 10
14.75809454917629
 20
-33.15236830712024
 30
0.0
  0
VERTEX
  5
4BDA
330
4BD5
100
AcDbEntity
  8
LW 3593-00-01
100
AcDbVertex
100
AcDb2dVertex
 10
14.62852478027059
 20
-33.27067637444202
 30
0.0
  0
VERTEX
  5
4BDB
330
4BD5
100
AcDbEntity
  8
LW 3593-00-01
100
AcDbVertex
100
AcDb2dVertex
 10
14.50744867324539
 20
-33.41724181175891
 30
0.0
  0
VERTEX
  5
4BDC
330
4BD5
100
AcDbEntity
  8
LW 3593-00-01
100
AcDbVertex
100
AcDb2dVertex
 10
14.39876794814762
 20
-33.58578944206897
 30
0.0
  0
VERTEX
  5
4BDD
330
4BD5
100
AcDbEntity
  8
LW 3593-00-01
100
AcDbVertex
100
AcDb2dVertex
 10
14.30193305015263
 20
-33.77805137634937
 30
0.0
  0
VERTEX
  5
4BDE
330
4BD5
100
AcDbEntity
  8
LW 3593-00-01
100
AcDbVertex
100
AcDb2dVertex
 10
14.21658873557737
 20
-33.99613642693225
 30
0.0
  0
VERTEX
  5
4BDF
330
4BD5
100
AcDbEntity
  8
LW 3593-00-01
100
AcDbVertex
100
AcDb2dVertex
 10
14.1469228267639
 20
-34.23433089256946
 30
0.0
  0
VERTEX
  5
4BE0
330
4BD5
100
AcDbEntity
  8
LW 3593-00-01
100
AcDbVertex
100
AcDb2dVertex
 10
14.0965294837921
 20
-34.48646688461963
 30
0.0
  0
VERTEX
  5
4BE1
330
4BD5
100
AcDbEntity
  8
LW 3593-00-01
100
AcDbVertex
100
AcDb2dVertex
 10
14.06625151633909
 20
-34.7445204258031
 30
0.0
  0
VERTEX
  5
4BE2
330
4BD5
100
AcDbEntity
  8
LW 3593-00-01
100
AcDbVertex
100
AcDb2dVertex
 10
14.05614495277092
 20
-35.00000023842517
 30
0.0
  0
VERTEX
  5
4BE3
330
4BD5
100
AcDbEntity
  8
LW 3593-00-01
100
AcDbVertex
100
AcDb2dVertex
 10
14.06625151633909
 20
-35.25547885895435
 30
0.0
  0
VERTEX
  5
4BE4
330
4BD5
100
AcDbEntity
  8
LW 3593-00-01
100
AcDbVertex
100
AcDb2dVertex
 10
14.0965294837921
 20
-35.51353359223071
 30
0.0
  0
VERTEX
  5
4BE5
330
4BD5
100
AcDbEntity
  8
LW 3593-00-01
100
AcDbVertex
100
AcDb2dVertex
 10
14.1469228267639
 20
-35.76566958428089
 30
0.0
  0
VERTEX
  5
4BE6
330
4BD5
100
AcDbEntity
  8
LW 3593-00-01
100
AcDbVertex
100
AcDb2dVertex
 10
14.21658873557737
 20
-36.00386404991809
 30
0.0
  0
VERTEX
  5
4BE7
330
4BD5
100
AcDbEntity
  8
LW 3593-00-01
100
AcDbVertex
100
AcDb2dVertex
 10
14.30193305015263
 20
-36.22194790840808
 30
0.0
  0
VERTEX
  5
4BE8
330
4BD5
100
AcDbEntity
  8
LW 3593-00-01
100
AcDbVertex
100
AcDb2dVertex
 10
14.39876794814762
 20
-36.41421103478137
 30
0.0
  0
VERTEX
  5
4BE9
330
4BD5
100
AcDbEntity
  8
LW 3593-00-01
100
AcDbVertex
100
AcDb2dVertex
 10
14.50744867324539
 20
-36.58275866509143
 30
0.0
  0
VERTEX
  5
4BEA
330
4BD5
100
AcDbEntity
  8
LW 3593-00-01
100
AcDbVertex
100
AcDb2dVertex
 10
14.62852478027059
 20
-36.72932291031543
 30
0.0
  0
VERTEX
  5
4BEB
330
4BD5
100
AcDbEntity
  8
LW 3593-00-01
100
AcDbVertex
100
AcDb2dVertex
 10
14.75809454917629
 20
-36.8476321697301
 30
0.0
  0
VERTEX
  5
4BEC
330
4BD5
100
AcDbEntity
  8
LW 3593-00-01
100
AcDbVertex
100
AcDb2dVertex
 10
14.89207863807411
 20
-36.93250799179736
 30
0.0
  0
VERTEX
  5
4BED
330
4BD5
100
AcDbEntity
  8
LW 3593-00-01
100
AcDbVertex
100
AcDb2dVertex
 10
15.02601861953474
 20
-36.9831838607854
 30
0.0
  0
VERTEX
  5
4BEE
330
4BD5
100
AcDbEntity
  8
LW 3593-00-01
100
AcDbVertex
100
AcDb2dVertex
 10
15.15544414520002
 20
-36.99999952316944
 30
0.0
  0
SEQEND
  5
4BEF
330
4BD5
100
AcDbEntity
  8
LW 3593-00-01
  0
POLYLINE
  5
4BF0
330
4BA9
100
AcDbEntity
  8
LW 3593-00-01
100
AcDb2dPolyline
 66
     1
 10
0.0
 20
0.0
 30
0.0
 70
   128
  0
VERTEX
  5
4BF1
330
4BF0
100
AcDbEntity
  8
LW 3593-00-01
100
AcDbVertex
100
AcDb2dVertex
 10
-15.15544414520525
 20
-36.99999952316944
 30
0.0
  0
VERTEX
  5
4BF2
330
4BF0
100
AcDbEntity
  8
LW 3593-00-01
100
AcDbVertex
100
AcDb2dVertex
 10
-15.02601861953997
 20
-36.9831838607854
 30
0.0
  0
VERTEX
  5
4BF3
330
4BF0
100
AcDbEntity
  8
LW 3593-00-01
100
AcDbVertex
100
AcDb2dVertex
 10
-14.89207863807945
 20
-36.93250799179736
 30
0.0
  0
VERTEX
  5
4BF4
330
4BF0
100
AcDbEntity
  8
LW 3593-00-01
100
AcDbVertex
100
AcDb2dVertex
 10
-14.75809454918186
 20
-36.8476321697301
 30
0.0
  0
VERTEX
  5
4BF5
330
4BF0
100
AcDbEntity
  8
LW 3593-00-01
100
AcDbVertex
100
AcDb2dVertex
 10
-14.62852478027628
 20
-36.72932291031543
 30
0.0
  0
VERTEX
  5
4BF6
330
4BF0
100
AcDbEntity
  8
LW 3593-00-01
100
AcDbVertex
100
AcDb2dVertex
 10
-14.50744867325119
 20
-36.58275866509143
 30
0.0
  0
VERTEX
  5
4BF7
330
4BF0
100
AcDbEntity
  8
LW 3593-00-01
100
AcDbVertex
100
AcDb2dVertex
 10
-14.39876794815365
 20
-36.41421103478137
 30
0.0
  0
VERTEX
  5
4BF8
330
4BF0
100
AcDbEntity
  8
LW 3593-00-01
100
AcDbVertex
100
AcDb2dVertex
 10
-14.30193305015865
 20
-36.22194790840808
 30
0.0
  0
VERTEX
  5
4BF9
330
4BF0
100
AcDbEntity
  8
LW 3593-00-01
100
AcDbVertex
100
AcDb2dVertex
 10
-14.21658873558351
 20
-36.00386404991809
 30
0.0
  0
VERTEX
  5
4BFA
330
4BF0
100
AcDbEntity
  8
LW 3593-00-01
100
AcDbVertex
100
AcDb2dVertex
 10
-14.14692282677004
 20
-35.76566958428089
 30
0.0
  0
VERTEX
  5
4BFB
330
4BF0
100
AcDbEntity
  8
LW 3593-00-01
100
AcDbVertex
100
AcDb2dVertex
 10
-14.09652948379823
 20
-35.51353359223071
 30
0.0
  0
VERTEX
  5
4BFC
330
4BF0
100
AcDbEntity
  8
LW 3593-00-01
100
AcDbVertex
100
AcDb2dVertex
 10
-14.06625151634523
 20
-35.25547885895435
 30
0.0
  0
VERTEX
  5
4BFD
330
4BF0
100
AcDbEntity
  8
LW 3593-00-01
100
AcDbVertex
100
AcDb2dVertex
 10
-14.05614495277717
 20
-35.00000023842517
 30
0.0
  0
VERTEX
  5
4BFE
330
4BF0
100
AcDbEntity
  8
LW 3593-00-01
100
AcDbVertex
100
AcDb2dVertex
 10
-14.06625151634523
 20
-34.7445204258031
 30
0.0
  0
VERTEX
  5
4BFF
330
4BF0
100
AcDbEntity
  8
LW 3593-00-01
100
AcDbVertex
100
AcDb2dVertex
 10
-14.09652948379823
 20
-34.48646688461963
 30
0.0
  0
VERTEX
  5
4C00
330
4BF0
100
AcDbEntity
  8
LW 3593-00-01
100
AcDbVertex
100
AcDb2dVertex
 10
-14.14692282677004
 20
-34.23433089256946
 30
0.0
  0
VERTEX
  5
4C01
330
4BF0
100
AcDbEntity
  8
LW 3593-00-01
100
AcDbVertex
100
AcDb2dVertex
 10
-14.21658873558351
 20
-33.99613642693225
 30
0.0
  0
VERTEX
  5
4C02
330
4BF0
100
AcDbEntity
  8
LW 3593-00-01
100
AcDbVertex
100
AcDb2dVertex
 10
-14.30193305015865
 20
-33.77805137634937
 30
0.0
  0
VERTEX
  5
4C03
330
4BF0
100
AcDbEntity
  8
LW 3593-00-01
100
AcDbVertex
100
AcDb2dVertex
 10
-14.39876794815365
 20
-33.58578944206897
 30
0.0
  0
VERTEX
  5
4C04
330
4BF0
100
AcDbEntity
  8
LW 3593-00-01
100
AcDbVertex
100
AcDb2dVertex
 10
-14.50744867325119
 20
-33.41724181175891
 30
0.0
  0
VERTEX
  5
4C05
330
4BF0
100
AcDbEntity
  8
LW 3593-00-01
100
AcDbVertex
100
AcDb2dVertex
 10
-14.62852478027628
 20
-33.27067637444202
 30
0.0
  0
VERTEX
  5
4C06
330
4BF0
100
AcDbEntity
  8
LW 3593-00-01
100
AcDbVertex
100
AcDb2dVertex
 10
-14.75809454918186
 20
-33.15236830712024
 30
0.0
  0
VERTEX
  5
4C07
330
4BF0
100
AcDbEntity
  8
LW 3593-00-01
100
AcDbVertex
100
AcDb2dVertex
 10
-14.89207863807945
 20
-33.06749248505298
 30
0.0
  0
VERTEX
  5
4C08
330
4BF0
100
AcDbEntity
  8
LW 3593-00-01
100
AcDbVertex
100
AcDb2dVertex
 10
-15.02601861953997
 20
-33.01681661606494
 30
0.0
  0
VERTEX
  5
4C09
330
4BF0
100
AcDbEntity
  8
LW 3593-00-01
100
AcDbVertex
100
AcDb2dVertex
 10
-15.15544414520525
 20
-32.99999976158801
 30
0.0
  0
SEQEND
  5
4C0A
330
4BF0
100
AcDbEntity
  8
LW 3593-00-01
  0
POLYLINE
  5
4C0B
330
4BA9
100
AcDbEntity
  8
LW 3593-00-01
100
AcDb2dPolyline
 66
     1
 10
0.0
 20
0.0
 30
0.0
 70
   128
  0
VERTEX
  5
4C0C
330
4C0B
100
AcDbEntity
  8
LW 3593-00-01
100
AcDbVertex
100
AcDb2dVertex
 10
-15.15544414520525
 20
-32.99999976158801
 30
0.0
  0
VERTEX
  5
4C0D
330
4C0B
100
AcDbEntity
  8
LW 3593-00-01
100
AcDbVertex
100
AcDb2dVertex
 10
-15.28149843216198
 20
-33.01681661606494
 30
0.0
  0
VERTEX
  5
4C0E
330
4C0B
100
AcDbEntity
  8
LW 3593-00-01
100
AcDbVertex
100
AcDb2dVertex
 10
-15.40561437607061
 20
-33.06749248505298
 30
0.0
  0
VERTEX
  5
4C0F
330
4C0B
100
AcDbEntity
  8
LW 3593-00-01
100
AcDbVertex
100
AcDb2dVertex
 10
-15.52376866340881
 20
-33.15236830712024
 30
0.0
  0
VERTEX
  5
4C10
330
4C0B
100
AcDbEntity
  8
LW 3593-00-01
100
AcDbVertex
100
AcDb2dVertex
 10
-15.63239455223316
 20
-33.27067637444202
 30
0.0
  0
VERTEX
  5
4C11
330
4C0B
100
AcDbEntity
  8
LW 3593-00-01
100
AcDbVertex
100
AcDb2dVertex
 10
-15.72940349579084
 20
-33.41724181175891
 30
0.0
  0
VERTEX
  5
4C12
330
4C0B
100
AcDbEntity
  8
LW 3593-00-01
100
AcDbVertex
100
AcDb2dVertex
 10
-15.81298470497353
 20
-33.58578944206897
 30
0.0
  0
VERTEX
  5
4C13
330
4C0B
100
AcDbEntity
  8
LW 3593-00-01
100
AcDbVertex
100
AcDb2dVertex
 10
-15.8846962451957
 20
-33.77805137634937
 30
0.0
  0
VERTEX
  5
4C14
330
4C0B
100
AcDbEntity
  8
LW 3593-00-01
100
AcDbVertex
100
AcDb2dVertex
 10
-15.94591498375149
 20
-33.99613642693225
 30
0.0
  0
VERTEX
  5
4C15
330
4C0B
100
AcDbEntity
  8
LW 3593-00-01
100
AcDbVertex
100
AcDb2dVertex
 10
-15.9945559501669
 20
-34.23433089256946
 30
0.0
  0
VERTEX
  5
4C16
330
4C0B
100
AcDbEntity
  8
LW 3593-00-01
100
AcDbVertex
100
AcDb2dVertex
 10
-16.0290384292623
 20
-34.48646688461963
 30
0.0
  0
VERTEX
  5
4C17
330
4C0B
100
AcDbEntity
  8
LW 3593-00-01
100
AcDbVertex
100
AcDb2dVertex
 10
-16.04943513870444
 20
-34.7445204258031
 30
0.0
  0
VERTEX
  5
4C18
330
4C0B
100
AcDbEntity
  8
LW 3593-00-01
100
AcDbVertex
100
AcDb2dVertex
 10
-16.05614542961325
 20
-35.00000023842517
 30
0.0
  0
VERTEX
  5
4C19
330
4C0B
100
AcDbEntity
  8
LW 3593-00-01
100
AcDbVertex
100
AcDb2dVertex
 10
-16.04943513870444
 20
-35.25547885895435
 30
0.0
  0
VERTEX
  5
4C1A
330
4C0B
100
AcDbEntity
  8
LW 3593-00-01
100
AcDbVertex
100
AcDb2dVertex
 10
-16.0290384292623
 20
-35.51353359223071
 30
0.0
  0
VERTEX
  5
4C1B
330
4C0B
100
AcDbEntity
  8
LW 3593-00-01
100
AcDbVertex
100
AcDb2dVertex
 10
-15.9945559501669
 20
-35.76566958428089
 30
0.0
  0
VERTEX
  5
4C1C
330
4C0B
100
AcDbEntity
  8
LW 3593-00-01
100
AcDbVertex
100
AcDb2dVertex
 10
-15.94591498375149
 20
-36.00386404991809
 30
0.0
  0
VERTEX
  5
4C1D
330
4C0B
100
AcDbEntity
  8
LW 3593-00-01
100
AcDbVertex
100
AcDb2dVertex
 10
-15.8846962451957
 20
-36.22194790840808
 30
0.0
  0
VERTEX
  5
4C1E
330
4C0B
100
AcDbEntity
  8
LW 3593-00-01
100
AcDbVertex
100
AcDb2dVertex
 10
-15.81298470497353
 20
-36.41421103478137
 30
0.0
  0
VERTEX
  5
4C1F
330
4C0B
100
AcDbEntity
  8
LW 3593-00-01
100
AcDbVertex
100
AcDb2dVertex
 10
-15.72940349579084
 20
-36.58275866509143
 30
0.0
  0
VERTEX
  5
4C20
330
4C0B
100
AcDbEntity
  8
LW 3593-00-01
100
AcDbVertex
100
AcDb2dVertex
 10
-15.63239455223316
 20
-36.72932291031543
 30
0.0
  0
VERTEX
  5
4C21
330
4C0B
100
AcDbEntity
  8
LW 3593-00-01
100
AcDbVertex
100
AcDb2dVertex
 10
-15.52376866340881
 20
-36.8476321697301
 30
0.0
  0
VERTEX
  5
4C22
330
4C0B
100
AcDbEntity
  8
LW 3593-00-01
100
AcDbVertex
100
AcDb2dVertex
 10
-15.40561437607061
 20
-36.93250799179736
 30
0.0
  0
VERTEX
  5
4C23
330
4C0B
100
AcDbEntity
  8
LW 3593-00-01
100
AcDbVertex
100
AcDb2dVertex
 10
-15.28149843216198
 20
-36.9831838607854
 30
0.0
  0
VERTEX
  5
4C24
330
4C0B
100
AcDbEntity
  8
LW 3593-00-01
100
AcDbVertex
100
AcDb2dVertex
 10
-15.15544414520525
 20
-36.99999952316944
 30
0.0
  0
SEQEND
  5
4C25
330
4C0B
100
AcDbEntity
  8
LW 3593-00-01
  0
LINE
  5
4C26
330
4BA9
100
AcDbEntity
  8
LW 3593-00-01
100
AcDbLine
 10
17.5
 20
-39.00000000000659
 30
0.0
 11
-17.5
 21
-39.00000000000659
 31
0.0
  0
LINE
  5
4C27
330
4BA9
100
AcDbEntity
  8
LW 3593-00-01
100
AcDbLine
 10
14.50000000000005
 20
-42.00000000000659
 30
0.0
 11
-14.50000000000005
 21
-42.00000000000659
 31
0.0
  0
LINE
  5
4C28
330
4BA9
100
AcDbEntity
  8
LW 3593-00-01
100
AcDbLine
 10
-17.5
 20
-19.00000000000659
 30
0.0
 11
-17.5
 21
-39.00000000000659
 31
0.0
  0
LINE
  5
4C29
330
4BA9
100
AcDbEntity
  8
LW 3593-00-01
100
AcDbLine
 10
17.5
 20
-19.00000000000659
 30
0.0
 11
17.5
 21
-39.00000000000659
 31
0.0
  0
LINE
  5
4C2A
330
4BA9
100
AcDbEntity
  8
LW 3593-00-01
100
AcDbLine
 10
14.50000000000005
 20
-42.00000000000659
 30
0.0
 11
17.5
 21
-39.00000000000659
 31
0.0
  0
LINE
  5
4C2B
330
4BA9
100
AcDbEntity
  8
LW 3593-00-01
100
AcDbLine
 10
-14.50000000000005
 20
-42.00000000000659
 30
0.0
 11
-17.5
 21
-39.00000000000659
 31
0.0
  0
CIRCLE
  5
4C2C
330
4BA9
100
AcDbEntity
  8
LW 3593-00-01
100
AcDbCircle
 10
0.0000000000314344
 20
-85.00000000000667
 30
0.0
 40
17.5
  0
CIRCLE
  5
4C2D
330
4BA9
100
AcDbEntity
  8
LW 3593-00-01
100
AcDbCircle
 10
0.0000000000305249
 20
-85.00000000000667
 30
0.0
 40
14.5
  0
LINE
  5
4C2E
330
4BA9
100
AcDbEntity
  8
LW 3593-00-01
  6
MITTE2
 62
     3
100
AcDbLine
 10
27.50000000003735
 20
-85.00000000000667
 30
0.0
 11
-27.49999999996266
 21
-85.00000000000667
 31
0.0
  0
LINE
  5
4C2F
330
4BA9
100
AcDbEntity
  8
LW 3593-00-01
  6
MITTE2
 62
     3
100
AcDbLine
 10
0.0
 20
19.32023757076115
 30
0.0
 11
0.0
 21
-124.9268040422395
 31
0.0
  0
INSERT
  5
4C30
330
4BA9
100
AcDbEntity
  8
LW 3593-00-01
100
AcDbBlockReference
 66
     1
  2
insertpoint-ECKELT
 10
0.0
 20
0.0
 30
0.0
 50
90.0
  0
ATTRIB
  5
4C31
330
4C30
100
AcDbEntity
  8
insertpoint_ECKELT
100
AcDbText
 10
-0.0000000000000004
 20
-6.931514324693087
 30
0.0
 40
0.6
  1
LW 3593/00-01
 50
90.0
 72
     2
 11
0.0
 21
-1.200000000000045
 31
0.0
100
AcDbAttribute
  2
LINKS
 70
     0
  0
ATTRIB
  5
4C32
330
4C30
100
AcDbEntity
  8
insertpoint_ECKELT
100
AcDbText
 10
0.0
 20
1.200000000000045
 30
0.0
 40
0.6
  1

 50
90.0
100
AcDbAttribute
  2
RECHTS
 70
     0
  0
SEQEND
  5
4C33
330
4C30
100
AcDbEntity
  8
LW 3593-00-01
  0
HATCH
  5
4C34
330
4BA9
100
AcDbEntity
  8
LW 3593-00-01
 62
     1
100
AcDbHatch
 10
0.0
 20
0.0
 30
0.0
210
0.0
220
0.0
230
1.0
  2
SOLID
 70
     1
 71
     0
 91
        5
 92
        7
 72
     0
 73
     1
 93
       76
 10
-26.76100523022791
 20
-58.42049715486542
 10
-26.8125861920696
 20
-58.38863832549259
 10
-26.96382859108559
 20
-58.27048020126142
 10
-27.10425272134813
 20
-58.13600212604865
 10
-27.23263728306148
 20
-57.98998221958709
 10
-27.34954356597723
 20
-57.8263134235051
 10
-27.45172144779889
 20
-57.65092647014046
 10
-27.54307312738177
 20
-57.46917353754009
 10
-27.61259143982795
 20
-57.28800460207435
 10
-27.6125914398279
 20
-59.54514254027436
 10
-27.60390178462785
 20
-59.75803909267438
 10
-27.57783281902789
 20
-59.96007357607436
 10
-27.53655695682784
 20
-60.15559081807442
 10
-27.48224661182786
 20
-60.34024599107431
 10
-27.41272937022785
 20
-60.51621150887445
 10
-27.33017764582775
 20
-60.68348737147437
 10
-27.23485212828393
 20
-60.8340556340213
 10
-27.12814316242782
 20
-60.97676323447422
 10
-27.00909488618771
 20
-61.10220449004498
 10
-26.88083557543581
 20
-61.21346944212234
 10
-26.74362591982782
 20
-61.31348737347434
 10
-26.59807419522775
 20
-61.39603909787433
 10
-26.44383281542764
 20
-61.45903909807429
 10
-26.28307419422788
 20
-61.50900461547417
 10
-26.11797074542778
 20
-61.53724599487429
 10
-25.94417764142781
 20
-61.54593565007428
 10
-25.77038453742773
 20
-61.53507358107424
 10
-25.60310867482775
 20
-61.50465978787429
 10
-25.44235005362782
 20
-61.4503494428742
 10
-25.28593626002777
 20
-61.3808322012743
 10
-25.1382121216277
 20
-61.29176323547415
 10
-24.99700522462786
 20
-61.18531495927425
 10
-24.86579143110777
 20
-61.06261702785025
 10
-24.74465763761987
 20
-60.926417979142
 10
-24.63421212002777
 20
-60.77907357867423
 10
-24.53645349902791
 20
-60.61831495747412
 10
-24.45155556772386
 20
-60.44268833622698
 10
-24.37786729162787
 20
-60.26203909427431
 10
-24.32138453282784
 20
-60.07086667987414
 10
-24.27793625682785
 20
-59.87100461027421
 10
-24.25186729122783
 20
-59.6624528854743
 10
-24.24317763602784
 20
-59.45172874687433
 10
-24.24317763602795
 20
-57.33255766112165
 10
-24.30624843976284
 20
-57.49310152517409
 10
-24.39686871328559
 20
-57.67666566897651
 10
-24.50139840621716
 20
-57.84513207514669
 10
-24.61701664464261
 20
-58.00796496990745
 10
-24.74680624118247
 20
-58.15187733827759
 10
-24.88615992441101
 20
-58.27931323176187
 10
-25.03664816912357
 20
-58.39301858650526
 10
-25.1208328112279
 20
-58.44498981795391
 10
-25.12083281122784
 20
-59.47345288487429
 10
-25.1283928112519
 20
-59.60556171287976
 10
-25.14872660441984
 20
-59.73631495467429
 10
-25.18166039762781
 20
-59.86448736887417
 10
-25.22728108742791
 20
-59.97962530027416
 10
-25.28376384622783
 20
-60.08457026612461
 10
-25.35136936368383
 20
-60.18271992160862
 10
-25.42931557082778
 20
-60.27290116327424
 10
-25.51403970902783
 20
-60.34459081867419
 10
-25.51403970902788
 20
-58.61706950441543
 10
-25.54667514978621
 20
-58.62765397168846
 10
-25.73204909733732
 20
-58.66376577965286
 10
-25.92233881128806
 20
-58.67580943243456
 10
-26.11708990464308
 20
-58.66378776000522
 10
-26.30345927590957
 20
-58.62748203832996
 10
-26.35259143582783
 20
-58.61088333565499
 10
-26.35259143582783
 20
-60.3815218532743
 10
-26.44817764302775
 20
-60.31200461167429
 10
-26.53072936742785
 20
-60.22945288727431
 10
-26.60059419523577
 20
-60.13436199042075
 10
-26.65890178162789
 20
-60.03176323147432
 10
-26.7028714369398
 20
-59.91307123109755
 10
-26.73493626462783
 20
-59.79062529967428
 10
-26.75448798882781
 20
-59.65376323027431
 10
-26.76100523022785
 20
-59.51038391947429
 97
        0
 92
        7
 72
     0
 73
     1
 93
       72
 10
-26.74640660949189
 20
-56.69203328983758
 10
-26.7644810923079
 20
-56.56917025496477
 10
-26.76969488542795
 20
-56.44510804767435
 10
-26.76969488542801
 20
-55.1764183884743
 10
-25.95503971042808
 20
-56.0236597704743
 10
-24.23666039462808
 20
-54.25748735107413
 10
-24.23666039462808
 20
-52.93883217447433
 10
-25.97893626222805
 20
-54.65286666267423
 10
-27.61259143982812
 20
-52.97141838147434
 10
-27.61259143982795
 20
-56.41034942687429
 10
-27.60181626738
 20
-56.61833632408638
 10
-27.57635557764388
 20
-56.82505453163924
 10
-27.53655695682795
 20
-57.02948735987433
 10
-27.48007419802792
 20
-57.22283218807433
 10
-27.40838454262791
 20
-57.4096597748744
 10
-27.32235695614793
 20
-57.58081991334882
 10
-27.2259017834279
 20
-57.7463839138743
 10
-27.11728109342795
 20
-57.8984528798743
 10
-26.99797212753191
 20
-58.03415053547746
 10
-26.86745350642786
 20
-58.15914253587425
 10
-26.72841902322784
 20
-58.26776322587443
 10
-26.58069488482801
 20
-58.3590046054743
 10
-26.42645350502789
 20
-58.43069426087436
 10
-26.26569488382791
 20
-58.48500460587434
 10
-26.09841902122787
 20
-58.51759081287423
 10
-25.92245350342779
 20
-58.52845288187427
 10
-25.75083281322793
 20
-58.51759081287423
 10
-25.58355695062795
 20
-58.48500460587422
 10
-25.42279832942796
 20
-58.43286667467419
 10
-25.26855694962791
 20
-58.36334943307429
 10
-25.119790052604
 20
-58.27150846726545
 10
-24.98032108664387
 20
-58.16612901865505
 10
-24.851279706924
 20
-58.04812350103896
 10
-24.73197074102797
 20
-57.91583219027427
 10
-24.62395832689185
 20
-57.76371108634305
 10
-24.52559143002787
 20
-57.60517701687422
 10
-24.44086729182795
 20
-57.43355632667419
 10
-24.36917763642794
 20
-57.25107356747412
 10
-24.31512798108395
 20
-57.05684239444384
 10
-24.27141901542791
 20
-56.86003908347425
 10
-24.24535004982795
 20
-56.65148735867422
 10
-24.23666039462796
 20
-56.44076322007425
 10
-24.23666039462808
 20
-54.53772873127423
 10
-25.10997074222803
 20
-55.42407356167427
 10
-25.10997074222797
 20
-56.44076322007425
 10
-25.11371803516727
 20
-56.50743025476879
 10
-25.12370039744394
 20
-56.60837797922704
 10
-25.14516384578798
 20
-56.728512462367
 10
-25.17948798382787
 20
-56.84563163515258
 10
-25.22041625981996
 20
-56.94712680788859
 10
-25.248570742668
 20
-57.00326198048071
 10
-25.28115694966806
 20
-57.05694667030627
 10
-25.3804797086039
 20
-57.18950736038232
 10
-25.45051832951595
 20
-57.26310873992622
 10
-25.51838453662782
 20
-57.31817508492861
 10
-25.59094315754788
 20
-57.36688060232473
 10
-25.66810729572387
 20
-57.40624474038077
 10
-25.74952936494788
 20
-57.43566791288788
 10
-25.83668660660396
 20
-57.4563666715743
 10
-25.92601626205982
 20
-57.46388322332234
 10
-25.98832108984391
 20
-57.46252763711106
 10
-26.05045212452381
 20
-57.45652308536785
 10
-26.11362591782796
 20
-57.44436625774302
 10
-26.17532246974793
 20
-57.42615274044386
 10
-26.27403695281981
 20
-57.38250460237441
 10
-26.34190315993186
 20
-57.34097674017346
 10
-26.4199362636279
 20
-57.27789853307672
 10
-26.54645900068158
 20
-57.14849659271192
 10
-26.58651695381195
 20
-57.08922873937422
 10
-26.63083419533189
 20
-57.01293356671829
 10
-26.67297902305194
 20
-56.92891329058955
 10
-26.71581902318798
 20
-56.81237632470232
 97
        0
 92
        7
 72
     0
 73
     1
 93
       57
 10
-26.72433488528418
 20
-52.1339963098502
 10
-26.76430729920418
 20
-52.0025218266743
 10
-26.7914190234282
 20
-51.86783217107438
 10
-26.80010867862814
 20
-51.72445286027437
 10
-26.80010867862819
 20
-50.48400458047433
 10
-27.62562592262822
 20
-50.48400458047433
 10
-27.6256259226281
 20
-51.71793561887432
 10
-27.61693626742812
 20
-51.92865975747429
 10
-27.5886948880281
 20
-52.13503906847427
 10
-27.54741902582817
 20
-52.33272872427426
 10
-27.49310868082813
 20
-52.52172872487427
 10
-27.42141902542812
 20
-52.70638389787428
 10
-27.33878040447604
 20
-52.87279079495454
 10
-27.24232523175601
 20
-53.0316116230448
 10
-27.13283557623606
 20
-53.18169065800384
 10
-27.01361350689211
 20
-53.31624996877576
 10
-26.88483281682807
 20
-53.43631493467433
 10
-26.7457983336281
 20
-53.54059079707429
 10
-26.60024660902803
 20
-53.62531493527433
 10
-26.44600522922798
 20
-53.69700459067439
 10
-26.28524660802816
 20
-53.74697010807427
 10
-26.11797074542818
 20
-53.77955631507427
 10
-25.9441776414281
 20
-53.7904183840742
 10
-25.77038453742807
 20
-53.77955631507427
 10
-25.60310867482809
 20
-53.74697010807427
 10
-25.44235005362799
 20
-53.69483217687434
 10
-25.28593626002811
 20
-53.62314252147417
 10
-25.1382121216281
 20
-53.53624596947418
 10
-24.9986562591161
 20
-53.42739934843905
 10
-24.86831143111613
 20
-53.30754293426548
 10
-24.7470038445241
 20
-53.17111534762545
 10
-24.63638453382805
 20
-53.02355631267426
 10
-24.53862591282803
 20
-52.86279769147427
 10
-24.45390177462809
 20
-52.6890045874743
 10
-24.3800397054282
 20
-52.50434941447418
 10
-24.32355694662812
 20
-52.31317700007423
 10
-24.28010867062818
 20
-52.11331493047419
 10
-24.25621211882805
 20
-51.90693561947421
 10
-24.24752246362812
 20
-51.69403906707419
 10
-24.24752246362817
 20
-50.48400458047422
 10
-25.10562591462815
 20
-50.48400458047422
 10
-25.1056259146281
 20
-51.71793561887432
 10
-25.11596660431604
 20
-51.85158251585028
 10
-25.13795143197217
 20
-51.98383906799415
 10
-25.17227557001212
 20
-52.10445148217025
 10
-25.22024246671617
 20
-52.22045837909013
 10
-25.28115694966817
 20
-52.33012182771426
 10
-25.34876246712406
 20
-52.42718527629825
 10
-25.4285335018601
 20
-52.51460320761021
 10
-25.51403970902811
 20
-52.58907355267422
 10
-25.51403970902817
 20
-50.48400458047422
 10
-26.34172936682819
 20
-50.48400458047422
 10
-26.34172936682808
 20
-52.62600458727433
 10
-26.4394879878281
 20
-52.55648734567433
 10
-26.52855695362803
 20
-52.46959079367434
 10
-26.60485212628413
 20
-52.36844320714624
 10
-26.6719362644281
 20
-52.26103906887431
 97
        0
 92
        7
 72
     0
 73
     1
 93
        6
 10
-27.61259143982824
 20
-50.25372871767422
 10
-24.24317763602818
 20
-50.25372871767422
 10
-24.24317763602829
 20
-48.01614250367413
 10
-25.10997074222832
 20
-48.01614250367425
 10
-25.10997074222832
 20
-49.2305218178742
 10
-27.61259143982824
 20
-49.23052181787432
 97
        0
 92
        7
 72
     0
 73
     1
 93
        8
 10
-27.61259143982824
 20
-48.99807354127438
 10
-26.78707419582821
 20
-48.99807354127438
 10
-26.78707419582833
 20
-47.76414250287428
 10
-24.2366603946283
 20
-47.76414250287416
 10
-24.2366603946283
 20
-46.73876318927421
 10
-26.78707419582827
 20
-46.73876318927432
 10
-26.78707419582833
 20
-45.49614249567435
 10
-27.61259143982835
 20
-45.49614249567435
 97
        0
 75
     0
 76
     1
 47
0.0142553043587597
 98
        5
 10
-27.17014177023879
 20
-59.1108370287991
 10
-27.02758878523309
 20
-56.84333981545648
 10
-27.08460995778092
 20
-52.35112808325493
 10
-27.32695018247336
 20
-49.62727899942331
 10
-27.22716305005997
 20
-48.21544101719656
450
        0
451
        0
460
0.0
461
0.0
452
        0
462
0.0
453
        0
470

  0
LWPOLYLINE
  5
4C35
330
4BA9
100
AcDbEntity
  8
LW 3593-00-01
 62
     1
100
AcDbPolyline
 90
        8
 70
     1
 43
0.0
 10
-26.78707419582827
 20
-46.73876318927432
 10
-24.2366603946283
 20
-46.73876318927421
 10
-24.2366603946283
 20
-47.76414250287416
 10
-26.78707419582833
 20
-47.76414250287428
 10
-26.78707419582821
 20
-48.99807354127438
 10
-27.61259143982824
 20
-48.99807354127438
 10
-27.61259143982835
 20
-45.49614249567435
 10
-26.78707419582833
 20
-45.49614249567435
  0
LWPOLYLINE
  5
4C36
330
4BA9
100
AcDbEntity
  8
LW 3593-00-01
 62
     1
100
AcDbPolyline
 90
       73
 70
     1
 43
0.0
 10
-25.10997074222797
 20
-56.44076322007425
 10
-25.10997074222803
 20
-55.42407356167427
 10
-24.23666039462808
 20
-54.53772873127423
 10
-24.23666039462791
 20
-56.44076322007425
 10
-24.24535004982795
 20
-56.65148735867422
 10
-24.27141901542797
 20
-56.86003908347425
 10
-24.31512798108395
 20
-57.05684239444384
 10
-24.36917763642794
 20
-57.25107356747412
 10
-24.44086729182795
 20
-57.43355632667419
 10
-24.52559143002793
 20
-57.60517701687422
 10
-24.62395832689197
 20
-57.76371108634293
 10
-24.73197074102797
 20
-57.91583219027427
 10
-24.85127970692389
 20
-58.04812350103907
 10
-24.98032108664387
 20
-58.16612901865505
 10
-25.11979005260395
 20
-58.27150846726545
 10
-25.26855694962791
 20
-58.36334943307429
 10
-25.42279832942796
 20
-58.43286667467419
 10
-25.58355695062795
 20
-58.48500460587422
 10
-25.75083281322793
 20
-58.51759081287423
 10
-25.9224535034279
 20
-58.52845288187427
 10
-26.09841902122787
 20
-58.51759081287423
 10
-26.26569488382791
 20
-58.48500460587434
 10
-26.42645350502789
 20
-58.43069426087424
 10
-26.58069488482795
 20
-58.3590046054743
 10
-26.7284190232279
 20
-58.26776322587432
 10
-26.86745350642786
 20
-58.15914253587425
 10
-26.99797212753197
 20
-58.03415053547746
 10
-27.11728109342789
 20
-57.89845287987441
 10
-27.2259017834279
 20
-57.7463839138743
 10
-27.32235695614787
 20
-57.5808199133487
 10
-27.40838454262786
 20
-57.4096597748744
 10
-27.48007419802792
 20
-57.22283218807433
 10
-27.53655695682801
 20
-57.02948735987433
 10
-27.57635557764394
 20
-56.82505453163912
 10
-27.60181626738
 20
-56.61833632408638
 10
-27.61259143982795
 20
-56.4103494268744
 10
-27.61259143982812
 20
-52.97141838147434
 10
-25.97893626222805
 20
-54.65286666267423
 10
-24.23666039462808
 20
-52.93883217447433
 10
-24.23666039462808
 20
-54.25748735107413
 10
-25.95503971042808
 20
-56.0236597704743
 10
-26.76969488542801
 20
-55.1764183884743
 10
-26.76969488542795
 20
-56.44510804767435
 10
-26.7644810923079
 20
-56.56917025496477
 10
-26.74640660949189
 20
-56.69203328983758
 10
-26.71581902318798
 20
-56.81237632470232
 10
-26.67297902305188
 20
-56.92891329058955
 10
-26.63083419533194
 20
-57.0129335667184
 10
-26.58651695381195
 20
-57.08922873937433
 10
-26.55931833303595
 20
-57.12947053260553
 10
-26.52838316052396
 20
-57.16698377410387
 10
-26.4199362636279
 20
-57.27789853307672
 10
-26.34190315993186
 20
-57.34097674017346
 10
-26.27403695281993
 20
-57.3825046023743
 10
-26.17532246974793
 20
-57.42615274044386
 10
-26.11362591782796
 20
-57.44436625774302
 10
-26.05045212452393
 20
-57.45652308536785
 10
-25.98832108984396
 20
-57.46252763711106
 10
-25.92601626205993
 20
-57.46388322332222
 10
-25.83668660660396
 20
-57.4563666715743
 10
-25.74952936494793
 20
-57.43566791288777
 10
-25.66810729572393
 20
-57.40624474038066
 10
-25.59094315754788
 20
-57.36688060232473
 10
-25.51838453662794
 20
-57.31817508492873
 10
-25.45051832951595
 20
-57.26310873992622
 10
-25.3804797086039
 20
-57.18950736038232
 10
-25.281156949668
 20
-57.05694667030616
 10
-25.24857074266794
 20
-57.0032619804806
 10
-25.22041625981996
 20
-56.94712680788859
 10
-25.17948798382787
 20
-56.84563163515258
 10
-25.14516384578798
 20
-56.728512462367
 10
-25.12370039744394
 20
-56.60837797922704
 10
-25.11371803516733
 20
-56.50743025476868
  0
LWPOLYLINE
  5
4C37
330
4BA9
100
AcDbEntity
  8
LW 3593-00-01
 62
     1
100
AcDbPolyline
 90
       76
 70
     1
 43
0.0
 10
-27.45172144779889
 20
-57.65092647014046
 10
-27.34954356597717
 20
-57.82631342350521
 10
-27.23263728306154
 20
-57.9899822195872
 10
-27.10425272134813
 20
-58.13600212604865
 10
-26.96382859108559
 20
-58.27048020126142
 10
-26.81258619206972
 20
-58.38863832549259
 10
-26.76100523022791
 20
-58.42049715486542
 10
-26.76100523022791
 20
-59.51038391947429
 10
-26.75448798882781
 20
-59.65376323027431
 10
-26.73493626462783
 20
-59.79062529967439
 10
-26.7028714369398
 20
-59.91307123109755
 10
-26.65890178162789
 20
-60.03176323147432
 10
-26.60059419523583
 20
-60.13436199042065
 10
-26.5307293674278
 20
-60.22945288727431
 10
-26.44817764302781
 20
-60.31200461167441
 10
-26.35259143582783
 20
-60.3815218532743
 10
-26.35259143582783
 20
-58.61088333565499
 10
-26.30345927590957
 20
-58.62748203832996
 10
-26.11708990464297
 20
-58.66378776000534
 10
-25.92233881128806
 20
-58.67580943243456
 10
-25.73204909733732
 20
-58.66376577965286
 10
-25.54667514978627
 20
-58.62765397168835
 10
-25.51403970902788
 20
-58.61706950441543
 10
-25.51403970902783
 20
-60.34459081867419
 10
-25.42931557082778
 20
-60.27290116327424
 10
-25.35136936368383
 20
-60.18271992160862
 10
-25.28376384622783
 20
-60.08457026612461
 10
-25.22728108742791
 20
-59.97962530027416
 10
-25.18166039762787
 20
-59.86448736887417
 10
-25.14872660441984
 20
-59.73631495467429
 10
-25.1283928112519
 20
-59.60556171287976
 10
-25.12083281122784
 20
-59.47345288487429
 10
-25.1208328112279
 20
-58.44498981795391
 10
-25.03664816912362
 20
-58.39301858650526
 10
-24.88615992441101
 20
-58.27931323176187
 10
-24.74680624118247
 20
-58.15187733827759
 10
-24.61701664464272
 20
-58.00796496990733
 10
-24.50139840621716
 20
-57.84513207514669
 10
-24.39686871328559
 20
-57.67666566897651
 10
-24.30624843976284
 20
-57.49310152517409
 10
-24.24317763602795
 20
-57.33255766112165
 10
-24.24317763602778
 20
-59.45172874687421
 10
-24.25186729122783
 20
-59.6624528854743
 10
-24.27793625682785
 20
-59.87100461027421
 10
-24.32138453282784
 20
-60.07086667987426
 10
-24.37786729162775
 20
-60.2620390942742
 10
-24.4515555677238
 20
-60.44268833622709
 10
-24.53645349902791
 20
-60.61831495747412
 10
-24.63421212002777
 20
-60.77907357867423
 10
-24.74465763761981
 20
-60.92641797914189
 10
-24.86579143110777
 20
-61.06261702785025
 10
-24.9970052246278
 20
-61.18531495927425
 10
-25.13821212162776
 20
-61.29176323547426
 10
-25.28593626002783
 20
-61.38083220127419
 10
-25.44235005362782
 20
-61.4503494428742
 10
-25.60310867482775
 20
-61.50465978787429
 10
-25.77038453742785
 20
-61.53507358107424
 10
-25.94417764142776
 20
-61.54593565007428
 10
-26.11797074542773
 20
-61.53724599487441
 10
-26.28307419422782
 20
-61.50900461547428
 10
-26.44383281542776
 20
-61.45903909807429
 10
-26.59807419522775
 20
-61.39603909787433
 10
-26.74362591982782
 20
-61.31348737347434
 10
-26.88083557543581
 20
-61.21346944212223
 10
-27.00909488618777
 20
-61.10220449004498
 10
-27.12814316242776
 20
-60.97676323447434
 10
-27.23485212828382
 20
-60.8340556340213
 10
-27.33017764582786
 20
-60.68348737147426
 10
-27.4127293702278
 20
-60.51621150887434
 10
-27.48224661182786
 20
-60.34024599107431
 10
-27.53655695682778
 20
-60.1555908180743
 10
-27.57783281902789
 20
-59.96007357607436
 10
-27.60390178462785
 20
-59.75803909267438
 10
-27.61259143982784
 20
-59.54514254027436
 10
-27.61259143982801
 20
-57.28800460207423
 10
-27.54307312738177
 20
-57.46917353754009
  0
LWPOLYLINE
  5
4C38
330
4BA9
100
AcDbEntity
  8
LW 3593-00-01
 62
     1
100
AcDbPolyline
 90
        6
 70
     1
 43
0.0
 10
-24.24317763602829
 20
-48.01614250367413
 10
-24.24317763602818
 20
-50.25372871767422
 10
-27.61259143982824
 20
-50.25372871767422
 10
-27.61259143982824
 20
-49.23052181787432
 10
-25.10997074222832
 20
-49.2305218178742
 10
-25.10997074222832
 20
-48.01614250367425
  0
LWPOLYLINE
  5
4C39
330
4BA9
100
AcDbEntity
  8
LW 3593-00-01
 62
     1
100
AcDbPolyline
 90
       57
 70
     1
 43
0.0
 10
-24.86831143111613
 20
-53.30754293426548
 10
-24.99865625911605
 20
-53.42739934843905
 10
-25.13821212162805
 20
-53.5362459694743
 10
-25.28593626002811
 20
-53.62314252147417
 10
-25.44235005362799
 20
-53.69483217687434
 10
-25.60310867482809
 20
-53.74697010807427
 10
-25.77038453742807
 20
-53.77955631507427
 10
-25.9441776414281
 20
-53.7904183840742
 10
-26.11797074542812
 20
-53.77955631507427
 10
-26.28524660802805
 20
-53.74697010807427
 10
-26.44600522922798
 20
-53.69700459067439
 10
-26.60024660902809
 20
-53.62531493527433
 10
-26.74579833362799
 20
-53.5405907970744
 10
-26.88483281682812
 20
-53.43631493467433
 10
-27.01361350689206
 20
-53.31624996877599
 10
-27.13283557623606
 20
-53.18169065800384
 10
-27.24232523175607
 20
-53.03161162304468
 10
-27.33878040447616
 20
-52.87279079495419
 10
-27.42141902542812
 20
-52.70638389787428
 10
-27.49310868082807
 20
-52.52172872487438
 10
-27.54741902582817
 20
-52.33272872427426
 10
-27.5886948880281
 20
-52.13503906847427
 10
-27.61693626742812
 20
-51.92865975747429
 10
-27.6256259226281
 20
-51.71793561887432
 10
-27.62562592262822
 20
-50.48400458047433
 10
-26.80010867862819
 20
-50.48400458047433
 10
-26.80010867862814
 20
-51.72445286027425
 10
-26.79141902342815
 20
-51.86783217107427
 10
-26.76430729920418
 20
-52.0025218266743
 10
-26.72433488528412
 20
-52.13399630985032
 10
-26.6719362644281
 20
-52.26103906887431
 10
-26.60485212628413
 20
-52.36844320714624
 10
-26.52855695362814
 20
-52.46959079367434
 10
-26.4394879878281
 20
-52.55648734567433
 10
-26.34172936682808
 20
-52.62600458727433
 10
-26.34172936682819
 20
-50.48400458047422
 10
-25.51403970902817
 20
-50.48400458047422
 10
-25.51403970902811
 20
-52.58907355267422
 10
-25.4285335018601
 20
-52.51460320761021
 10
-25.34876246712406
 20
-52.42718527629825
 10
-25.28115694966817
 20
-52.33012182771426
 10
-25.22024246671617
 20
-52.22045837909013
 10
-25.17227557001212
 20
-52.10445148217025
 10
-25.13795143197217
 20
-51.98383906799415
 10
-25.11596660431604
 20
-51.85158251585028
 10
-25.1056259146281
 20
-51.71793561887432
 10
-25.10562591462815
 20
-50.48400458047422
 10
-24.24752246362817
 20
-50.48400458047422
 10
-24.24752246362812
 20
-51.69403906707419
 10
-24.25621211882805
 20
-51.90693561947421
 10
-24.28010867062813
 20
-52.11331493047419
 10
-24.32355694662812
 20
-52.31317700007423
 10
-24.3800397054282
 20
-52.50434941447418
 10
-24.45390177462809
 20
-52.6890045874743
 10
-24.53862591282814
 20
-52.86279769147427
 10
-24.63638453382805
 20
-53.02355631267426
 10
-24.7470038445241
 20
-53.17111534762545
  0
LINE
  5
4C3A
330
4BA9
100
AcDbEntity
  8
LW 3593-00-01
100
AcDbLine
 10
-22.50000000003445
 20
0.0000000000067075
 30
0.0
 11
22.49999999996555
 21
-0.0000000000067075
 31
0.0
  0
LINE
  5
4C3B
330
4BA9
100
AcDbEntity
  8
LW 3593-00-01
100
AcDbLine
 10
-22.50000000003593
 20
-4.999999999993292
 30
0.0
 11
-22.50000000003445
 21
0.0000000000067075
 31
0.0
  0
LINE
  5
4C3C
330
4BA9
100
AcDbEntity
  8
LW 3593-00-01
100
AcDbLine
 10
22.49999999996408
 20
-5.000000000006707
 30
0.0
 11
22.49999999996555
 21
-0.0000000000067075
 31
0.0
  0
LINE
  5
4C3D
330
4BA9
100
AcDbEntity
  8
LW 3593-00-01
100
AcDbLine
 10
6.999999999970611
 20
15.99999999999795
 30
0.0
 11
-7.000000000029388
 21
15.99999999999795
 31
0.0
  0
LINE
  5
4C3E
330
4BA9
100
AcDbEntity
  8
LW 3593-00-01
100
AcDbLine
 10
5.999999999970611
 20
16.99999999999795
 30
0.0
 11
-6.000000000029388
 21
16.99999999999795
 31
0.0
  0
LINE
  5
4C3F
330
4BA9
100
AcDbEntity
  8
LW 3593-00-01
100
AcDbLine
 10
-7.000000000029388
 20
-0.0000000000020464
 30
0.0
 11
-7.000000000029388
 21
15.99999999999795
 31
0.0
  0
LINE
  5
4C40
330
4BA9
100
AcDbEntity
  8
LW 3593-00-01
100
AcDbLine
 10
6.999999999970611
 20
-0.0000000000020464
 30
0.0
 11
6.999999999970611
 21
15.99999999999795
 31
0.0
  0
LINE
  5
4C41
330
4BA9
100
AcDbEntity
  8
LW 3593-00-01
100
AcDbLine
 10
5.999999999970611
 20
16.99999999999795
 30
0.0
 11
6.999999999970611
 21
15.99999999999795
 31
0.0
  0
LINE
  5
4C42
330
4BA9
100
AcDbEntity
  8
LW 3593-00-01
100
AcDbLine
 10
-6.000000000029388
 20
16.99999999999795
 30
0.0
 11
-7.000000000029388
 21
15.99999999999795
 31
0.0
  0
LINE
  5
4C43
330
4BA9
100
AcDbEntity
  8
LW 3593-00-01
 62
     3
100
AcDbLine
 10
-5.794500000029358
 20
16.99999999999795
 30
0.0
 11
-5.794500000029358
 21
-0.0000000000020464
 31
0.0
  0
LINE
  5
4C44
330
4BA9
100
AcDbEntity
  8
LW 3593-00-01
 62
     3
100
AcDbLine
 10
5.794499999970582
 20
-0.0000000000020464
 30
0.0
 11
5.794499999970582
 21
16.99999999999795
 31
0.0
  0
LINE
  5
4C45
330
4BA9
100
AcDbEntity
  8
LW 3593-00-01
100
AcDbLine
 10
6.999999999970611
 20
15.99999999999795
 30
0.0
 11
-7.000000000029388
 21
15.99999999999795
 31
0.0
  0
LINE
  5
4C46
330
4BA9
100
AcDbEntity
  8
LW 3593-00-01
100
AcDbLine
 10
-22.50000000003445
 20
-19.00000000000807
 30
0.0
 11
22.49999999996555
 21
-18.99999999999465
 31
0.0
  0
LINE
  5
4C47
330
4BA9
100
AcDbEntity
  8
LW 3593-00-01
100
AcDbLine
 10
-22.50000000003593
 20
-14.00000000000807
 30
0.0
 11
-22.50000000003445
 21
-19.00000000000807
 31
0.0
  0
LINE
  5
4C48
330
4BA9
100
AcDbEntity
  8
LW 3593-00-01
100
AcDbLine
 10
22.49999999996408
 20
-13.99999999999465
 30
0.0
 11
22.49999999996555
 21
-18.99999999999465
 31
0.0
  0
ENDBLK
  5
4BAB
330
4BA9
100
AcDbEntity
  8
0
100
AcDbBlockEnd
  0
ENDSEC
  0
SECTION
  2
ENTITIES
  0
INSERT
  5
4B07
330
23
100
AcDbEntity
  8
0
100
AcDbBlockReference
  2
LW 3593-00-01_a
 10
267.1401696236951
 20
335.1866254961618
 30
0.0
  0
INSERT
  5
4BA8
330
23
100
AcDbEntity
  8
0
100
AcDbBlockReference
  2
LW 3593-00-01_b
 10
272.1401696238963
 20
465.3278722640318
 30
0.0
  0
INSERT
  5
4C49
330
23
100
AcDbEntity
  8
0
100
AcDbBlockReference
  2
LW 3593-00-01_c
 10
397.2814163915651
 20
340.186625496363
 30
0.0
  0
ENDSEC
  0
SECTION
  2
OBJECTS
  0
DICTIONARY
  5
C
330
0
100
AcDbDictionary
281
     1
  3
ACAD_COLOR
350
1C
  3
ACAD_GROUP
350
D
  3
ACAD_LAYOUT
350
1A
  3
ACAD_MATERIAL
350
1B
  3
ACAD_MLINESTYLE
350
17
  3
ACAD_PLOTSETTINGS
350
19
  3
ACAD_PLOTSTYLENAME
350
E
  3
ACAD_TABLESTYLE
350
1D
  3
AcDbVariableDictionary
350
61C
  0
DICTIONARY
  5
9C6
330
2
100
AcDbDictionary
280
     1
281
     1
  3
ACAD_LAYERFILTERS
360
46BC
  3
ACLYDICTIONARY
360
46BB
  0
DICTIONARY
  5
9A6
330
23
100
AcDbDictionary
280
     1
281
     1
  3
ACAD_SORTENTS
360
9A7
  0
DICTIONARY
  5
627
330
626
100
AcDbDictionary
280
     1
281
     1
  3
ACAD_SORTENTS
360
628
  0
DICTIONARY
  5
1C
102
{ACAD_REACTORS
330
C
102
}
330
C
100
AcDbDictionary
281
     1
  0
DICTIONARY
  5
D
102
{ACAD_REACTORS
330
C
102
}
330
C
100
AcDbDictionary
281
     1
  0
DICTIONARY
  5
1A
102
{ACAD_REACTORS
330
C
102
}
330
C
100
AcDbDictionary
281
     1
  3
Layout1
350
22
  3
Layout2
350
2A
  3
Model
350
26
  0
DICTIONARY
  5
1B
102
{ACAD_REACTORS
330
C
102
}
330
C
100
AcDbDictionary
281
     1
  0
DICTIONARY
  5
17
102
{ACAD_REACTORS
330
C
102
}
330
C
100
AcDbDictionary
281
     1
  3
Standard
350
18
  0
DICTIONARY
  5
19
102
{ACAD_REACTORS
330
C
102
}
330
C
100
AcDbDictionary
281
     1
  0
ACDBDICTIONARYWDFLT
  5
E
102
{ACAD_REACTORS
330
C
102
}
330
C
100
AcDbDictionary
281
     1
  3
Normal
350
F
100
AcDbDictionaryWithDefault
340
F
  0
DICTIONARY
  5
1D
102
{ACAD_REACTORS
330
C
102
}
330
C
100
AcDbDictionary
281
     1
  3
Standard
350
1E
  0
DICTIONARY
  5
61C
102
{ACAD_REACTORS
330
C
102
}
330
C
100
AcDbDictionary
281
     1
  3
CTABLESTYLE
350
61D
  0
DICTIONARY
  5
46BC
102
{ACAD_REACTORS
330
9C6
102
}
330
9C6
100
AcDbDictionary
281
     1
  0
DICTIONARY
  5
46BB
102
{ACAD_REACTORS
330
9C6
102
}
330
9C6
100
AcDbDictionary
281
     1
1001
ACAD
1000
<All
  0
SORTENTSTABLE
  5
9A7
102
{ACAD_REACTORS
330
9A6
102
}
330
9A6
100
AcDbSortentsTable
330
23
  0
SORTENTSTABLE
  5
628
102
{ACAD_REACTORS
330
627
102
}
330
627
100
AcDbSortentsTable
330
626
  0
LAYOUT
  5
22
102
{ACAD_REACTORS
330
1A
102
}
330
1A
100
AcDbPlotSettings
  1

  2

  4

  6

 40
0.0
 41
0.0
 42
0.0
 43
0.0
 44
0.0
 45
0.0
 46
0.0
 47
0.0
 48
0.0
 49
0.0
140
0.0
141
0.0
142
1.0
143
1.0
 70
   688
 72
     0
 73
     0
 74
     5
  7

 75
    16
147
1.0
 76
     0
 77
     2
 78
   300
148
0.0
149
0.0
100
AcDbLayout
  1
Layout1
 70
     1
 71
     1
 10
0.0
 20
0.0
 11
840.0
 21
594.0
 12
0.0
 22
0.0
 32
0.0
 14
0.0
 24
0.0
 34
0.0
 15
840.0
 25
594.0
 35
0.0
146
0.0
 13
0.0
 23
0.0
 33
0.0
 16
1.0
 26
0.0
 36
0.0
 17
0.0
 27
1.0
 37
0.0
 76
     0
330
1F
  0
LAYOUT
  5
2A
102
{ACAD_REACTORS
330
1A
102
}
330
1A
100
AcDbPlotSettings
  1

  2

  4

  6

 40
0.0
 41
0.0
 42
0.0
 43
0.0
 44
0.0
 45
0.0
 46
0.0
 47
0.0
 48
0.0
 49
0.0
140
0.0
141
0.0
142
1.0
143
1.0
 70
   688
 72
     0
 73
     0
 74
     5
  7

 75
    16
147
1.0
 76
     0
 77
     2
 78
   300
148
0.0
149
0.0
100
AcDbLayout
  1
Layout2
 70
     1
 71
     2
 10
0.0
 20
0.0
 11
12.0
 21
9.0
 12
0.0
 22
0.0
 32
0.0
 14
0.0
 24
0.0
 34
0.0
 15
0.0
 25
0.0
 35
0.0
146
0.0
 13
0.0
 23
0.0
 33
0.0
 16
1.0
 26
0.0
 36
0.0
 17
0.0
 27
1.0
 37
0.0
 76
     0
330
27
  0
LAYOUT
  5
26
102
{ACAD_REACTORS
330
1A
102
}
330
1A
100
AcDbPlotSettings
  1

  2

  4

  6

 40
0.0
 41
0.0
 42
0.0
 43
0.0
 44
0.0
 45
0.0
 46
0.0
 47
0.0
 48
0.0
 49
0.0
140
0.0
141
0.0
142
1.0
143
1.0
 70
  1712
 72
     0
 73
     0
 74
     0
  7

 75
     0
147
1.0
 76
     0
 77
     2
 78
   300
148
0.0
149
0.0
100
AcDbLayout
  1
Model
 70
     1
 71
     0
 10
0.0
 20
0.0
 11
12.0
 21
9.0
 12
0.0
 22
0.0
 32
0.0
 14
0.0
 24
0.0
 34
0.0
 15
0.0
 25
0.0
 35
0.0
146
0.0
 13
0.0
 23
0.0
 33
0.0
 16
1.0
 26
0.0
 36
0.0
 17
0.0
 27
1.0
 37
0.0
 76
     0
330
23
  0
MLINESTYLE
  5
18
102
{ACAD_REACTORS
330
17
102
}
330
17
100
AcDbMlineStyle
  2
STANDARD
 70
     0
  3

 62
   256
 51
90.0
 52
90.0
 71
     2
 49
0.5
 62
   256
  6
BYLAYER
 49
-0.5
 62
   256
  6
BYLAYER
  0
ACDBPLACEHOLDER
  5
F
102
{ACAD_REACTORS
330
E
102
}
330
E
  0
TABLESTYLE
  5
1E
102
{ACAD_REACTORS
330
1D
102
}
330
1D
100
AcDbTableStyle
  3
Standard
 70
     0
 71
     0
 40
0.06
 41
0.06
280
     0
281
     0
  7
Standard
140
0.18
170
     2
 62
     0
 63
     7
283
     0
274
    -2
284
     1
 64
     0
275
    -2
285
     1
 65
     0
276
    -2
286
     1
 66
     0
277
    -2
287
     1
 67
     0
278
    -2
288
     1
 68
     0
279
    -2
289
     1
 69
     0
  7
Standard
140
0.25
170
     5
 62
     0
 63
     7
283
     0
274
    -2
284
     1
 64
     0
275
    -2
285
     1
 65
     0
276
    -2
286
     1
 66
     0
277
    -2
287
     1
 67
     0
278
    -2
288
     1
 68
     0
279
    -2
289
     1
 69
     0
  7
Standard
140
0.18
170
     5
 62
     0
 63
     7
283
     0
274
    -2
284
     1
 64
     0
275
    -2
285
     1
 65
     0
276
    -2
286
     1
 66
     0
277
    -2
287
     1
 67
     0
278
    -2
288
     1
 68
     0
279
    -2
289
     1
 69
     0
  0
DICTIONARYVAR
  5
61D
102
{ACAD_REACTORS
330
61C
102
}
330
61C
100
DictionaryVariables
280
     0
  1
STANDARD
  0
ENDSEC
  0
EOF
