  0
SECTION
  2
HEADER
  9
$ACADVER
  1
AC1018
  9
$ACADMAINTVER
 70
    76
  9
$DWGCODEPAGE
  3
ANSI_1252
  9
$AUTHOR
  1
Grandl
  9
$CUSTOMPROPERTYTAG
  1
Manager
  9
$CUSTOMPROPERTY
  1

  9
$CUSTOMPROPERTYTAG
  1
Firma
  9
$CUSTOMPROPERTY
  1

  9
$CUSTOMPROPERTYTAG
  1
Kategorie
  9
$CUSTOMPROPERTY
  1

  9
$CUSTOMPROPERTYTAG
  1
Bauteilnummer
  9
$CUSTOMPROPERTY
  1
3500-19-01
  9
$CUSTOMPROPERTYTAG
  1
Bezeichnung
  9
$CUSTOMPROPERTY
  1

  9
$CUSTOMPROPERTYTAG
  1
Projekt
  9
$CUSTOMPROPERTY
  1

  9
$CUSTOMPROPERTYTAG
  1
Konstrukteur
  9
$CUSTOMPROPERTY
  1
Grandl
  9
$CUSTOMPROPERTYTAG
  1
Ingenieur
  9
$CUSTOMPROPERTY
  1

  9
$CUSTOMPROPERTYTAG
  1
Bevollmächtigter
  9
$CUSTOMPROPERTY
  1

  9
$CUSTOMPROPERTYTAG
  1
Kostenstelle
  9
$CUSTOMPROPERTY
  1

  9
$CUSTOMPROPERTYTAG
  1
Händler
  9
$CUSTOMPROPERTY
  1

  9
$CUSTOMPROPERTYTAG
  1
Benutzerstatus
  9
$CUSTOMPROPERTY
  1

  9
$CUSTOMPROPERTYTAG
  1
Konstruktionsstatus
  9
$CUSTOMPROPERTY
  1
InBearbeitung
  9
$CUSTOMPROPERTYTAG
  1
Überprüft von
  9
$CUSTOMPROPERTY
  1

  9
$CUSTOMPROPERTYTAG
  1
Konstruktion genehmigt von
  9
$CUSTOMPROPERTY
  1

  9
$CUSTOMPROPERTYTAG
  1
Fertigung genehmigt von
  9
$CUSTOMPROPERTY
  1

  9
$INSBASE
 10
0.0
 20
0.0
 30
0.0
  9
$EXTMIN
 10
-22.20787096165509
 20
-25.00000000000011
 30
0.0
  9
$EXTMAX
 10
99.0
 20
25.0
 30
0.0
  9
$LIMMIN
 10
0.0
 20
0.0
  9
$LIMMAX
 10
840.0
 20
594.0
  9
$ORTHOMODE
 70
     1
  9
$REGENMODE
 70
     1
  9
$FILLMODE
 70
     1
  9
$QTEXTMODE
 70
     0
  9
$MIRRTEXT
 70
     0
  9
$LTSCALE
 40
2.0
  9
$ATTMODE
 70
     1
  9
$TEXTSIZE
 40
0.2
  9
$TRACEWID
 40
0.05
  9
$TEXTSTYLE
  7
Standard
  9
$CLAYER
  8
0
  9
$CELTYPE
  6
ByLayer
  9
$CECOLOR
 62
   256
  9
$CELTSCALE
 40
1.0
  9
$DISPSILH
 70
     0
  9
$DIMSCALE
 40
1.0
  9
$DIMASZ
 40
1.799999999999999
  9
$DIMEXO
 40
0.0625
  9
$DIMDLI
 40
0.38
  9
$DIMRND
 40
0.0
  9
$DIMDLE
 40
0.0
  9
$DIMEXE
 40
0.18
  9
$DIMTP
 40
0.0
  9
$DIMTM
 40
0.0
  9
$DIMTXT
 40
0.3000000119209289
  9
$DIMCEN
 40
0.09
  9
$DIMTSZ
 40
0.0
  9
$DIMTOL
 70
     0
  9
$DIMLIM
 70
     0
  9
$DIMTIH
 70
     1
  9
$DIMTOH
 70
     1
  9
$DIMSE1
 70
     0
  9
$DIMSE2
 70
     0
  9
$DIMTAD
 70
     0
  9
$DIMZIN
 70
     0
  9
$DIMBLK
  1

  9
$DIMASO
 70
     1
  9
$DIMSHO
 70
     1
  9
$DIMPOST
  1

  9
$DIMAPOST
  1

  9
$DIMALT
 70
     0
  9
$DIMALTD
 70
     2
  9
$DIMALTF
 40
25.4
  9
$DIMLFAC
 40
1.0
  9
$DIMTOFL
 70
     0
  9
$DIMTVP
 40
0.0
  9
$DIMTIX
 70
     0
  9
$DIMSOXD
 70
     0
  9
$DIMSAH
 70
     0
  9
$DIMBLK1
  1

  9
$DIMBLK2
  1

  9
$DIMSTYLE
  2
Standard
  9
$DIMCLRD
 70
     0
  9
$DIMCLRE
 70
     0
  9
$DIMCLRT
 70
     0
  9
$DIMTFAC
 40
1.0
  9
$DIMGAP
 40
0.09
  9
$DIMJUST
 70
     0
  9
$DIMSD1
 70
     0
  9
$DIMSD2
 70
     0
  9
$DIMTOLJ
 70
     1
  9
$DIMTZIN
 70
     0
  9
$DIMALTZ
 70
     0
  9
$DIMALTTZ
 70
     0
  9
$DIMUPT
 70
     0
  9
$DIMDEC
 70
     4
  9
$DIMTDEC
 70
     4
  9
$DIMALTU
 70
     2
  9
$DIMALTTD
 70
     2
  9
$DIMTXSTY
  7
Standard
  9
$DIMAUNIT
 70
     0
  9
$DIMADEC
 70
     0
  9
$DIMALTRND
 40
0.0
  9
$DIMAZIN
 70
     0
  9
$DIMDSEP
 70
    46
  9
$DIMATFIT
 70
     3
  9
$DIMFRAC
 70
     0
  9
$DIMLDRBLK
  1

  9
$DIMLUNIT
 70
     2
  9
$DIMLWD
 70
    -2
  9
$DIMLWE
 70
    -2
  9
$DIMTMOVE
 70
     0
  9
$LUNITS
 70
     2
  9
$LUPREC
 70
     4
  9
$SKETCHINC
 40
0.1
  9
$FILLETRAD
 40
0.0
  9
$AUNITS
 70
     0
  9
$AUPREC
 70
     0
  9
$MENU
  1
.
  9
$ELEVATION
 40
0.0
  9
$PELEVATION
 40
0.0
  9
$THICKNESS
 40
0.0
  9
$LIMCHECK
 70
     0
  9
$CHAMFERA
 40
0.0
  9
$CHAMFERB
 40
0.0
  9
$CHAMFERC
 40
0.0
  9
$CHAMFERD
 40
0.0
  9
$SKPOLY
 70
     0
  9
$TDCREATE
 40
2453706.351795776
  9
$TDUCREATE
 40
2453706.310129109
  9
$TDUPDATE
 40
2453711.674455070
  9
$TDUUPDATE
 40
2453711.632788403
  9
$TDINDWG
 40
0.1744798380
  9
$TDUSRTIMER
 40
0.1744798380
  9
$USRTIMER
 70
     1
  9
$ANGBASE
 50
0.0
  9
$ANGDIR
 70
     0
  9
$PDMODE
 70
     0
  9
$PDSIZE
 40
0.0
  9
$PLINEWID
 40
0.0
  9
$SPLFRAME
 70
     0
  9
$SPLINETYPE
 70
     6
  9
$SPLINESEGS
 70
     8
  9
$HANDSEED
  5
22A4
  9
$SURFTAB1
 70
     6
  9
$SURFTAB2
 70
     6
  9
$SURFTYPE
 70
     6
  9
$SURFU
 70
     6
  9
$SURFV
 70
     6
  9
$UCSBASE
  2

  9
$UCSNAME
  2

  9
$UCSORG
 10
0.0
 20
0.0
 30
0.0
  9
$UCSXDIR
 10
1.0
 20
0.0
 30
0.0
  9
$UCSYDIR
 10
0.0
 20
1.0
 30
0.0
  9
$UCSORTHOREF
  2

  9
$UCSORTHOVIEW
 70
     0
  9
$UCSORGTOP
 10
0.0
 20
0.0
 30
0.0
  9
$UCSORGBOTTOM
 10
0.0
 20
0.0
 30
0.0
  9
$UCSORGLEFT
 10
0.0
 20
0.0
 30
0.0
  9
$UCSORGRIGHT
 10
0.0
 20
0.0
 30
0.0
  9
$UCSORGFRONT
 10
0.0
 20
0.0
 30
0.0
  9
$UCSORGBACK
 10
0.0
 20
0.0
 30
0.0
  9
$PUCSBASE
  2

  9
$PUCSNAME
  2

  9
$PUCSORG
 10
0.0
 20
0.0
 30
0.0
  9
$PUCSXDIR
 10
1.0
 20
0.0
 30
0.0
  9
$PUCSYDIR
 10
0.0
 20
1.0
 30
0.0
  9
$PUCSORTHOREF
  2

  9
$PUCSORTHOVIEW
 70
     0
  9
$PUCSORGTOP
 10
0.0
 20
0.0
 30
0.0
  9
$PUCSORGBOTTOM
 10
0.0
 20
0.0
 30
0.0
  9
$PUCSORGLEFT
 10
0.0
 20
0.0
 30
0.0
  9
$PUCSORGRIGHT
 10
0.0
 20
0.0
 30
0.0
  9
$PUCSORGFRONT
 10
0.0
 20
0.0
 30
0.0
  9
$PUCSORGBACK
 10
0.0
 20
0.0
 30
0.0
  9
$USERI1
 70
     0
  9
$USERI2
 70
     0
  9
$USERI3
 70
     0
  9
$USERI4
 70
     0
  9
$USERI5
 70
     0
  9
$USERR1
 40
0.0
  9
$USERR2
 40
0.0
  9
$USERR3
 40
0.0
  9
$USERR4
 40
0.0
  9
$USERR5
 40
0.0
  9
$WORLDVIEW
 70
     1
  9
$SHADEDGE
 70
     3
  9
$SHADEDIF
 70
    70
  9
$TILEMODE
 70
     1
  9
$MAXACTVP
 70
    64
  9
$PINSBASE
 10
0.0
 20
0.0
 30
0.0
  9
$PLIMCHECK
 70
     0
  9
$PEXTMIN
 10
0.0
 20
0.0
 30
0.0
  9
$PEXTMAX
 10
840.0
 20
594.0
 30
0.0
  9
$PLIMMIN
 10
0.0
 20
0.0
  9
$PLIMMAX
 10
840.0
 20
594.0
  9
$UNITMODE
 70
     0
  9
$VISRETAIN
 70
     1
  9
$PLINEGEN
 70
     0
  9
$PSLTSCALE
 70
     1
  9
$TREEDEPTH
 70
  3020
  9
$CMLSTYLE
  2
Standard
  9
$CMLJUST
 70
     0
  9
$CMLSCALE
 40
1.0
  9
$PROXYGRAPHICS
 70
     1
  9
$MEASUREMENT
 70
     1
  9
$CELWEIGHT
370
    -1
  9
$ENDCAPS
280
     0
  9
$JOINSTYLE
280
     0
  9
$LWDISPLAY
290
     0
  9
$INSUNITS
 70
     0
  9
$HYPERLINKBASE
  1

  9
$STYLESHEET
  1

  9
$XEDIT
290
     1
  9
$CEPSNTYPE
380
     0
  9
$PSTYLEMODE
290
     1
  9
$FINGERPRINTGUID
  2
{CD339A04-B85F-4A73-AC85-5D4F30B09856}
  9
$VERSIONGUID
  2
{FCE658EA-DDBC-489C-97CE-10E32A928100}
  9
$EXTNAMES
290
     1
  9
$PSVPSCALE
 40
0.0
  9
$OLESTARTUP
290
     0
  9
$SORTENTS
280
   127
  9
$INDEXCTL
280
     0
  9
$HIDETEXT
280
     1
  9
$XCLIPFRAME
290
     0
  9
$HALOGAP
280
     0
  9
$OBSCOLOR
 70
   257
  9
$OBSLTYPE
280
     0
  9
$INTERSECTIONDISPLAY
280
     0
  9
$INTERSECTIONCOLOR
 70
   257
  9
$DIMASSOC
280
     1
  9
$PROJECTNAME
  1

  0
ENDSEC
  0
SECTION
  2
CLASSES
  0
CLASS
  1
ACDBDICTIONARYWDFLT
  2
AcDbDictionaryWithDefault
  3
ObjectDBX Classes
 90
        0
 91
        1
280
     0
281
     0
  0
CLASS
  1
TABLESTYLE
  2
AcDbTableStyle
  3
ObjectDBX Classes
 90
     2047
 91
        1
280
     0
281
     0
  0
CLASS
  1
DICTIONARYVAR
  2
AcDbDictionaryVar
  3
ObjectDBX Classes
 90
        0
 91
        4
280
     0
281
     0
  0
CLASS
  1
SORTENTSTABLE
  2
AcDbSortentsTable
  3
ObjectDBX Classes
 90
        0
 91
        2
280
     0
281
     0
  0
ENDSEC
  0
SECTION
  2
TABLES
  0
TABLE
  2
VPORT
  5
8
330
0
100
AcDbSymbolTable
 70
     3
  0
VPORT
  5
22A3
330
8
100
AcDbSymbolTableRecord
100
AcDbViewportTableRecord
  2
*Active
 70
     0
 10
0.0
 20
0.0
 11
1.0
 21
1.0
 12
38.38317369214633
 22
0.0045328976173096
 13
0.0
 23
0.0
 14
1.0
 24
1.0
 15
0.0
 25
0.0
 16
0.0
 26
0.0
 36
1.0
 17
0.0
 27
0.0
 37
0.0
 40
68.74652339088658
 41
1.773333333333333
 42
50.0
 43
0.0
 44
0.0
 50
0.0
 51
0.0
 71
     0
 72
   100
 73
     1
 74
     1
 75
     0
 76
     0
 77
     0
 78
     0
281
     0
 65
     1
110
0.0
120
0.0
130
0.0
111
1.0
121
0.0
131
0.0
112
0.0
122
1.0
132
0.0
 79
     0
146
0.0
  0
ENDTAB
  0
TABLE
  2
LTYPE
  5
5
330
0
100
AcDbSymbolTable
 70
     2
  0
LTYPE
  5
14
330
5
100
AcDbSymbolTableRecord
100
AcDbLinetypeTableRecord
  2
ByBlock
 70
     0
  3

 72
    65
 73
     0
 40
0.0
  0
LTYPE
  5
15
330
5
100
AcDbSymbolTableRecord
100
AcDbLinetypeTableRecord
  2
ByLayer
 70
     0
  3

 72
    65
 73
     0
 40
0.0
  0
LTYPE
  5
16
330
5
100
AcDbSymbolTableRecord
100
AcDbLinetypeTableRecord
  2
Continuous
 70
     0
  3
Solid line
 72
    65
 73
     0
 40
0.0
  0
LTYPE
  5
7E7
330
5
100
AcDbSymbolTableRecord
100
AcDbLinetypeTableRecord
  2
MITTE2
 70
     0
  3
Mitte (.5x) ___ _ ___ _ ___ _ ___ _ ___ _ ___
 72
    65
 73
     4
 40
28.575
 49
19.05
 74
     0
 49
-3.174999999999999
 74
     0
 49
3.174999999999999
 74
     0
 49
-3.174999999999999
 74
     0
  0
ENDTAB
  0
TABLE
  2
LAYER
  5
2
102
{ACAD_XDICTIONARY
360
9C6
102
}
330
0
100
AcDbSymbolTable
 70
     3
  0
LAYER
  5
10
330
2
100
AcDbSymbolTableRecord
100
AcDbLayerTableRecord
  2
0
 70
     0
 62
     7
  6
Continuous
370
    -3
390
F
  0
LAYER
  5
7E9
330
2
100
AcDbSymbolTableRecord
100
AcDbLayerTableRecord
  2
LW 3601-00-01
 70
     0
 62
     7
  6
Continuous
370
    -3
390
F
  0
LAYER
  5
7EA
330
2
100
AcDbSymbolTableRecord
100
AcDbLayerTableRecord
  2
insertpoint_ECKELT
 70
     0
 62
   141
  6
Continuous
370
    -3
390
F
  0
ENDTAB
  0
TABLE
  2
STYLE
  5
3
330
0
100
AcDbSymbolTable
 70
     1
  0
STYLE
  5
11
330
3
100
AcDbSymbolTableRecord
100
AcDbTextStyleTableRecord
  2
Standard
 70
     0
 40
0.0
 41
1.0
 50
0.0
 71
     0
 42
0.2
  3
ARIAL.TTF
  4

1001
ACAD
1000
Arial
1071
      256
  0
ENDTAB
  0
TABLE
  2
VIEW
  5
6
330
0
100
AcDbSymbolTable
 70
     0
  0
ENDTAB
  0
TABLE
  2
UCS
  5
7
330
0
100
AcDbSymbolTable
 70
     0
  0
ENDTAB
  0
TABLE
  2
APPID
  5
9
330
0
100
AcDbSymbolTable
 70
     2
  0
APPID
  5
12
330
9
100
AcDbSymbolTableRecord
100
AcDbRegAppTableRecord
  2
ACAD
 70
     0
  0
APPID
  5
A3E
330
9
100
AcDbSymbolTableRecord
100
AcDbRegAppTableRecord
  2
ACAD_PSEXT
 70
     0
  0
ENDTAB
  0
TABLE
  2
DIMSTYLE
  5
A
330
0
100
AcDbSymbolTable
 70
     1
100
AcDbDimStyleTable
 71
     1
340
2B
  0
DIMSTYLE
105
2B
330
A
100
AcDbSymbolTableRecord
100
AcDbDimStyleTableRecord
  2
Standard
 70
     0
340
11
  0
ENDTAB
  0
TABLE
  2
BLOCK_RECORD
  5
1
330
0
100
AcDbSymbolTable
 70
     3
  0
BLOCK_RECORD
  5
23
102
{ACAD_XDICTIONARY
360
9A6
102
}
330
1
100
AcDbSymbolTableRecord
100
AcDbBlockTableRecord
  2
*Model_Space
340
26
  0
BLOCK_RECORD
  5
1F
330
1
100
AcDbSymbolTableRecord
100
AcDbBlockTableRecord
  2
*Paper_Space
340
22
  0
BLOCK_RECORD
  5
27
330
1
100
AcDbSymbolTableRecord
100
AcDbBlockTableRecord
  2
*Paper_Space0
340
2A
  0
BLOCK_RECORD
  5
626
102
{ACAD_XDICTIONARY
360
627
102
}
330
1
100
AcDbSymbolTableRecord
100
AcDbBlockTableRecord
  2
insertpoint-ECKELT
340
0
102
{BLKREFS
331
2110
102
}
  0
BLOCK_RECORD
  5
210D
330
1
100
AcDbSymbolTableRecord
100
AcDbBlockTableRecord
  2
LW 3601-00-01
340
0
310
2800000020000000200000000100080000000000000400000000000000000000000000000000000000000000000080000080000000808000800000008000800080800000C0C0C000C0DCC000F0CAA6000020400000206000002080000020A0000020C0000020E00000400000004020000040400000406000004080000040A0
310
000040C0000040E00000600000006020000060400000606000006080000060A0000060C0000060E00000800000008020000080400000806000008080000080A0000080C0000080E00000A0000000A0200000A0400000A0600000A0800000A0A00000A0C00000A0E00000C0000000C0200000C0400000C0600000C0800000C0
310
A00000C0C00000C0E00000E0000000E0200000E0400000E0600000E0800000E0A00000E0C00000E0E00040000000400020004000400040006000400080004000A0004000C0004000E00040200000402020004020400040206000402080004020A0004020C0004020E000404000004040200040404000404060004040800040
310
40A0004040C0004040E00040600000406020004060400040606000406080004060A0004060C0004060E00040800000408020004080400040806000408080004080A0004080C0004080E00040A0000040A0200040A0400040A0600040A0800040A0A00040A0C00040A0E00040C0000040C0200040C0400040C0600040C08000
310
40C0A00040C0C00040C0E00040E0000040E0200040E0400040E0600040E0800040E0A00040E0C00040E0E00080000000800020008000400080006000800080008000A0008000C0008000E00080200000802020008020400080206000802080008020A0008020C0008020E00080400000804020008040400080406000804080
310
008040A0008040C0008040E00080600000806020008060400080606000806080008060A0008060C0008060E00080800000808020008080400080806000808080008080A0008080C0008080E00080A0000080A0200080A0400080A0600080A0800080A0A00080A0C00080A0E00080C0000080C0200080C0400080C0600080C0
310
800080C0A00080C0C00080C0E00080E0000080E0200080E0400080E0600080E0800080E0A00080E0C00080E0E000C0000000C0002000C0004000C0006000C0008000C000A000C000C000C000E000C0200000C0202000C0204000C0206000C0208000C020A000C020C000C020E000C0400000C0402000C0404000C0406000C0
310
408000C040A000C040C000C040E000C0600000C0602000C0604000C0606000C0608000C060A000C060C000C060E000C0800000C0802000C0804000C0806000C0808000C080A000C080C000C080E000C0A00000C0A02000C0A04000C0A06000C0A08000C0A0A000C0A0C000C0A0E000C0C00000C0C02000C0C04000C0C06000
310
C0C08000C0C0A000F0FBFF00A4A0A000808080000000FF0000FF000000FFFF00FF000000FF00FF00FFFF0000FFFFFF0000000000000000000000000000000000000000000000000000000000000000000000000000000000000000000000000000000000000000000000000000000000000000000000000000000000000000
310
00000000000000000000000000000000000000000000000000000000000000000000000000000000000000000000000000000000000000000000000000000000000000000000000000000000000000000000000000000000000000000000000000000000000000000000000000000000000000000000000000000000000000
310
00000000000000000000000000000000000000000000000000000000000000000000000000000000000000000000000000000000000000000000000000000000000000000000000000000000000000000000000000000000000000000000000000000000000000000000000000000000000000000000000000000000000000
310
00000000000000FFFF00FFFF000000000000000000000000000000000000000000000000000000FFFF00FFFF000000000000000000000000000000000000000000000000000000FFFF00FFFF000000000000000000000000000000000000000000000000FFFFFFFFFF00FFFFFFFFFF00000000000000FFFAFAFAFAFFFFFFFF
310
FFFFFFFAFAFAFFFFFFFAFAFAFFFFFFFAFFFA0000000000FF000000FA00000000000000FA00FF0000FFFF00FFFFFF00FFFFFF000000FAFAFAFAFAFAFAFAF9F9F9F9FAFAFAFAFAFAFAFAFAFAFAFAFAFAFAFAFAFA00000000FFFAFAFAFAFFF9F9F9F9FFFFFAFAFAFFFFFFFAFAFAFFFFFFFAFFFA00000000000000000000000000
310
000000000000FFFFFFFFFF00FFFFFFFFFF000000000000000000000000000000000000000000000000FFFF00FFFF000000000000000000000000000000000000000000000000000000FFFF00FFFF000000000000000000000000000000000000000000000000000000FFFF00FFFF0000000000000000000000000000000000
310
00000000000000000000000000000000000000000000000000000000000000000000000000000000000000000000000000000000000000000000000000000000000000000000000000000000000000000000000000000000000000000000000000000000000000000000000000000000000000000000000000000000000000
310
00000000000000000000000000000000000000000000000000000000000000000000000000000000000000000000000000000000000000000000000000000000000000000000000000000000000000000000000000000000000000000000000000000000000000000000000000000000000000000000000000000000000000
310
0000000000000000000000000000000000000000000000000000000000000000000000000000000000000000000000000000000000000000
102
{BLKREFS
331
2293
102
}
  0
ENDTAB
  0
ENDSEC
  0
SECTION
  2
BLOCKS
  0
BLOCK
  5
24
330
23
100
AcDbEntity
  8
0
100
AcDbBlockBegin
  2
*Model_Space
 70
     0
 10
0.0
 20
0.0
 30
0.0
  3
*Model_Space
  1

  0
ENDBLK
  5
25
330
23
100
AcDbEntity
  8
0
100
AcDbBlockEnd
  0
BLOCK
  5
20
330
1F
100
AcDbEntity
 67
     1
  8
0
100
AcDbBlockBegin
  2
*Paper_Space
 70
     0
 10
0.0
 20
0.0
 30
0.0
  3
*Paper_Space
  1

  0
ENDBLK
  5
21
330
1F
100
AcDbEntity
 67
     1
  8
0
100
AcDbBlockEnd
  0
BLOCK
  5
28
330
27
100
AcDbEntity
 67
     1
  8
0
100
AcDbBlockBegin
  2
*Paper_Space0
 70
     0
 10
0.0
 20
0.0
 30
0.0
  3
*Paper_Space0
  1

  0
ENDBLK
  5
29
330
27
100
AcDbEntity
 67
     1
  8
0
100
AcDbBlockEnd
  0
BLOCK
  5
629
330
626
100
AcDbEntity
  8
0
100
AcDbBlockBegin
  2
insertpoint-ECKELT
 70
     2
 10
0.0
 20
0.0
 30
0.0
  3
insertpoint-ECKELT
  1

  0
ATTDEF
  5
62A
330
626
100
AcDbEntity
  8
insertpoint_ECKELT
100
AcDbText
 10
-2.457298772169167
 20
-0.0000000000000284
 30
0.0
 40
0.6
  1
LW
 72
     2
 11
-1.199999999999999
 21
-0.0000000000000284
 31
0.0
100
AcDbAttributeDefinition
  3
Nr. links
  2
LINKS
 70
     0
  0
ATTDEF
  5
62B
330
626
100
AcDbEntity
  8
insertpoint_ECKELT
100
AcDbText
 10
1.199999999999999
 20
-0.0000000000000284
 30
0.0
 40
0.6
  1
LW
100
AcDbAttributeDefinition
  3
Nr. rechts
  2
RECHTS
 70
     0
  0
LINE
  5
62C
102
{ACAD_REACTORS
330
62F
102
}
330
626
100
AcDbEntity
  8
insertpoint_ECKELT
100
AcDbLine
 10
0.0
 20
1.799999999999997
 30
0.0
 11
0.0
 21
-1.799999999999997
 31
0.0
  0
LINE
  5
62D
102
{ACAD_REACTORS
330
62F
102
}
330
626
100
AcDbEntity
  8
insertpoint_ECKELT
100
AcDbLine
 10
-1.8
 20
-0.0000000000000284
 30
0.0
 11
1.8
 21
-0.0000000000000284
 31
0.0
  0
CIRCLE
  5
62E
102
{ACAD_REACTORS
330
62F
102
}
330
626
100
AcDbEntity
  8
insertpoint_ECKELT
100
AcDbCircle
 10
0.0
 20
0.0
 30
0.0
 40
1.199999999999999
  0
HATCH
  5
62F
330
626
100
AcDbEntity
  8
insertpoint_ECKELT
100
AcDbHatch
 10
0.0
 20
0.0
 30
0.0
210
0.0
220
0.0
230
1.0
  2
SOLID
 70
     1
 71
     1
 91
        2
 92
        7
 72
     1
 73
     1
 93
        3
 10
0.0
 20
-0.0000000000000284
 42
0.0
 10
0.0
 20
1.200000000000002
 42
0.4142135623731013
 10
-1.199999999999999
 20
-0.0000000000000284
 42
0.0
 97
        3
330
62E
330
62D
330
62C
 92
        7
 72
     1
 73
     1
 93
        3
 10
1.199999999999999
 20
-0.0000000000000284
 42
0.0
 10
0.0
 20
-0.0000000000000284
 42
0.0
 10
0.0
 20
-1.200000000000002
 42
0.4142135623730888
 97
        3
330
62D
330
62C
330
62E
 75
     0
 76
     1
 47
0.0223086566480813
 98
        2
 10
-0.3163651093721391
 20
0.271413292077348
 10
0.7415965996738798
 20
-0.4513871917946233
450
        0
451
        0
460
0.0
461
0.0
452
        0
462
0.0
453
        0
470

  0
ENDBLK
  5
630
330
626
100
AcDbEntity
  8
0
100
AcDbBlockEnd
  0
BLOCK
  5
210E
330
210D
100
AcDbEntity
  8
0
100
AcDbBlockBegin
  2
LW 3601-00-01
 70
     0
 10
0.0
 20
0.0
 30
0.0
  3
LW 3601-00-01
  1

  0
INSERT
  5
2110
330
210D
100
AcDbEntity
  8
LW 3601-00-01
100
AcDbBlockReference
 66
     1
  2
insertpoint-ECKELT
 10
0.0
 20
0.0
 30
0.0
  0
ATTRIB
  5
2111
330
2110
100
AcDbEntity
  8
insertpoint_ECKELT
100
AcDbText
 10
-6.931514324693087
 20
0.0
 30
0.0
 40
0.6
  1
LW 3601/00-01
 72
     2
 11
-1.200000000000045
 21
0.0
 31
0.0
100
AcDbAttribute
  2
LINKS
 70
     0
  0
ATTRIB
  5
2112
330
2110
100
AcDbEntity
  8
insertpoint_ECKELT
100
AcDbText
 10
1.200000000000045
 20
0.0
 30
0.0
 40
0.6
  1

100
AcDbAttribute
  2
RECHTS
 70
     0
  0
SEQEND
  5
2113
330
2110
100
AcDbEntity
  8
LW 3601-00-01
  0
LINE
  5
2114
330
210D
100
AcDbEntity
  8
LW 3601-00-01
100
AcDbLine
 10
57.0
 20
-25.00000000000011
 30
0.0
 11
57.0
 21
25.0
 31
0.0
  0
LINE
  5
2115
330
210D
100
AcDbEntity
  8
LW 3601-00-01
100
AcDbLine
 10
62.0
 20
-25.00000000000011
 30
0.0
 11
62.0
 21
25.0
 31
0.0
  0
LINE
  5
2116
330
210D
100
AcDbEntity
  8
LW 3601-00-01
100
AcDbLine
 10
62.0
 20
-25.00000000000011
 30
0.0
 11
57.0
 21
-25.00000000000011
 31
0.0
  0
LINE
  5
2117
330
210D
100
AcDbEntity
  8
LW 3601-00-01
100
AcDbLine
 10
62.0
 20
25.0
 30
0.0
 11
57.0
 21
25.0
 31
0.0
  0
LINE
  5
2118
330
210D
100
AcDbEntity
  8
LW 3601-00-01
100
AcDbLine
 10
77.0
 20
25.0
 30
0.0
 11
77.0
 21
-25.0
 31
0.0
  0
LINE
  5
2119
330
210D
100
AcDbEntity
  8
LW 3601-00-01
100
AcDbLine
 10
72.0
 20
25.0
 30
0.0
 11
72.0
 21
-25.0
 31
0.0
  0
LINE
  5
211A
330
210D
100
AcDbEntity
  8
LW 3601-00-01
100
AcDbLine
 10
72.0
 20
25.0
 30
0.0
 11
77.0
 21
25.0
 31
0.0
  0
LINE
  5
211B
330
210D
100
AcDbEntity
  8
LW 3601-00-01
100
AcDbLine
 10
72.0
 20
-25.0
 30
0.0
 11
77.0
 21
-25.0
 31
0.0
  0
LINE
  5
211C
330
210D
100
AcDbEntity
  8
LW 3601-00-01
100
AcDbLine
 10
46.0
 20
10.09999999999991
 30
0.0
 11
45.99999999999988
 21
-10.10000000000002
 31
0.0
  0
POLYLINE
  5
211D
330
210D
100
AcDbEntity
  8
LW 3601-00-01
100
AcDb2dPolyline
 66
     1
 10
0.0
 20
0.0
 30
0.0
 70
   128
  0
VERTEX
  5
211E
330
211D
100
AcDbEntity
  8
LW 3601-00-01
100
AcDbVertex
100
AcDb2dVertex
 10
55.49790439009666
 20
6.350852847099304
 30
0.0
  0
VERTEX
  5
211F
330
211D
100
AcDbEntity
  8
LW 3601-00-01
100
AcDbVertex
100
AcDb2dVertex
 10
55.66490319371223
 20
6.650994420051574
 30
0.0
  0
VERTEX
  5
2120
330
211D
100
AcDbEntity
  8
LW 3601-00-01
100
AcDbVertex
100
AcDb2dVertex
 10
55.81385989487171
 20
6.94118857383728
 30
0.0
  0
VERTEX
  5
2121
330
211D
100
AcDbEntity
  8
LW 3601-00-01
100
AcDbVertex
100
AcDb2dVertex
 10
55.9458292722702
 20
7.222665548324584
 30
0.0
  0
VERTEX
  5
2122
330
211D
100
AcDbEntity
  8
LW 3601-00-01
100
AcDbVertex
100
AcDb2dVertex
 10
56.06171791255474
 20
7.496550679206848
 30
0.0
  0
VERTEX
  5
2123
330
211D
100
AcDbEntity
  8
LW 3601-00-01
100
AcDbVertex
100
AcDb2dVertex
 10
56.16230030357837
 20
7.763881683349609
 30
0.0
  0
VERTEX
  5
2124
330
211D
100
AcDbEntity
  8
LW 3601-00-01
100
AcDbVertex
100
AcDb2dVertex
 10
56.24823246896267
 20
8.025623559951782
 30
0.0
  0
VERTEX
  5
2125
330
211D
100
AcDbEntity
  8
LW 3601-00-01
100
AcDbVertex
100
AcDb2dVertex
 10
56.32006321847438
 20
8.282678127288818
 30
0.0
  0
VERTEX
  5
2126
330
211D
100
AcDbEntity
  8
LW 3601-00-01
100
AcDbVertex
100
AcDb2dVertex
 10
56.37824308872223
 20
8.535898327827453
 30
0.0
  0
VERTEX
  5
2127
330
211D
100
AcDbEntity
  8
LW 3601-00-01
100
AcDbVertex
100
AcDb2dVertex
 10
56.42313149571418
 20
8.786097764968872
 30
0.0
  0
VERTEX
  5
2128
330
211D
100
AcDbEntity
  8
LW 3601-00-01
100
AcDbVertex
100
AcDb2dVertex
 10
56.45500243455171
 20
9.034057855606079
 30
0.0
  0
VERTEX
  5
2129
330
211D
100
AcDbEntity
  8
LW 3601-00-01
100
AcDbVertex
100
AcDb2dVertex
 10
56.47404868900776
 20
9.280536770820617
 30
0.0
  0
VERTEX
  5
212A
330
211D
100
AcDbEntity
  8
LW 3601-00-01
100
AcDbVertex
100
AcDb2dVertex
 10
56.48038477450609
 20
9.52627956867218
 30
0.0
  0
VERTEX
  5
212B
330
211D
100
AcDbEntity
  8
LW 3601-00-01
100
AcDbVertex
100
AcDb2dVertex
 10
56.47404868900776
 20
9.772021770477294
 30
0.0
  0
VERTEX
  5
212C
330
211D
100
AcDbEntity
  8
LW 3601-00-01
100
AcDbVertex
100
AcDb2dVertex
 10
56.45500243455171
 20
10.01850128173828
 30
0.0
  0
VERTEX
  5
212D
330
211D
100
AcDbEntity
  8
LW 3601-00-01
100
AcDbVertex
100
AcDb2dVertex
 10
56.42313149571418
 20
10.26646137237549
 30
0.0
  0
VERTEX
  5
212E
330
211D
100
AcDbEntity
  8
LW 3601-00-01
100
AcDbVertex
100
AcDb2dVertex
 10
56.37824308872223
 20
10.51666021347046
 30
0.0
  0
VERTEX
  5
212F
330
211D
100
AcDbEntity
  8
LW 3601-00-01
100
AcDbVertex
100
AcDb2dVertex
 10
56.32006321847438
 20
10.76988101005554
 30
0.0
  0
VERTEX
  5
2130
330
211D
100
AcDbEntity
  8
LW 3601-00-01
100
AcDbVertex
100
AcDb2dVertex
 10
56.24823246896267
 20
11.02693557739258
 30
0.0
  0
VERTEX
  5
2131
330
211D
100
AcDbEntity
  8
LW 3601-00-01
100
AcDbVertex
100
AcDb2dVertex
 10
56.16230030357837
 20
11.28867745399475
 30
0.0
  0
VERTEX
  5
2132
330
211D
100
AcDbEntity
  8
LW 3601-00-01
100
AcDbVertex
100
AcDb2dVertex
 10
56.06171791255474
 20
11.55600786209106
 30
0.0
  0
VERTEX
  5
2133
330
211D
100
AcDbEntity
  8
LW 3601-00-01
100
AcDbVertex
100
AcDb2dVertex
 10
55.9458292722702
 20
11.82989358901977
 30
0.0
  0
VERTEX
  5
2134
330
211D
100
AcDbEntity
  8
LW 3601-00-01
100
AcDbVertex
100
AcDb2dVertex
 10
55.81385989487171
 20
12.11137056350708
 30
0.0
  0
VERTEX
  5
2135
330
211D
100
AcDbEntity
  8
LW 3601-00-01
100
AcDbVertex
100
AcDb2dVertex
 10
55.66490319371223
 20
12.40156412124634
 30
0.0
  0
VERTEX
  5
2136
330
211D
100
AcDbEntity
  8
LW 3601-00-01
100
AcDbVertex
100
AcDb2dVertex
 10
55.49790439009666
 20
12.70170569419861
 30
0.0
  0
SEQEND
  5
2137
330
211D
100
AcDbEntity
  8
LW 3601-00-01
  0
POLYLINE
  5
2138
330
210D
100
AcDbEntity
  8
LW 3601-00-01
100
AcDb2dPolyline
 66
     1
 10
0.0
 20
0.0
 30
0.0
 70
   128
  0
VERTEX
  5
2139
330
2138
100
AcDbEntity
  8
LW 3601-00-01
100
AcDbVertex
100
AcDb2dVertex
 10
55.49790439009666
 20
-6.350852847099304
 30
0.0
  0
VERTEX
  5
213A
330
2138
100
AcDbEntity
  8
LW 3601-00-01
100
AcDbVertex
100
AcDb2dVertex
 10
55.66490319371223
 20
-5.750569701194763
 30
0.0
  0
VERTEX
  5
213B
330
2138
100
AcDbEntity
  8
LW 3601-00-01
100
AcDbVertex
100
AcDb2dVertex
 10
55.81385989487171
 20
-5.170181393623352
 30
0.0
  0
VERTEX
  5
213C
330
2138
100
AcDbEntity
  8
LW 3601-00-01
100
AcDbVertex
100
AcDb2dVertex
 10
55.9458292722702
 20
-4.607227742671966
 30
0.0
  0
VERTEX
  5
213D
330
2138
100
AcDbEntity
  8
LW 3601-00-01
100
AcDbVertex
100
AcDb2dVertex
 10
56.06171791255474
 20
-4.05945748090744
 30
0.0
  0
VERTEX
  5
213E
330
2138
100
AcDbEntity
  8
LW 3601-00-01
100
AcDbVertex
100
AcDb2dVertex
 10
56.16230030357837
 20
-3.524794876575469
 30
0.0
  0
VERTEX
  5
213F
330
2138
100
AcDbEntity
  8
LW 3601-00-01
100
AcDbVertex
100
AcDb2dVertex
 10
56.24823246896267
 20
-3.001312315464019
 30
0.0
  0
VERTEX
  5
2140
330
2138
100
AcDbEntity
  8
LW 3601-00-01
100
AcDbVertex
100
AcDb2dVertex
 10
56.32006321847438
 20
-2.487203180789947
 30
0.0
  0
VERTEX
  5
2141
330
2138
100
AcDbEntity
  8
LW 3601-00-01
100
AcDbVertex
100
AcDb2dVertex
 10
56.37824308872223
 20
-1.980762183666229
 30
0.0
  0
VERTEX
  5
2142
330
2138
100
AcDbEntity
  8
LW 3601-00-01
100
AcDbVertex
100
AcDb2dVertex
 10
56.42313149571418
 20
-1.480363458395004
 30
0.0
  0
VERTEX
  5
2143
330
2138
100
AcDbEntity
  8
LW 3601-00-01
100
AcDbVertex
100
AcDb2dVertex
 10
56.45500243455171
 20
-0.984443724155426
 30
0.0
  0
VERTEX
  5
2144
330
2138
100
AcDbEntity
  8
LW 3601-00-01
100
AcDbVertex
100
AcDb2dVertex
 10
56.47404868900776
 20
-0.4914852231740952
 30
0.0
  0
VERTEX
  5
2145
330
2138
100
AcDbEntity
  8
LW 3601-00-01
100
AcDbVertex
100
AcDb2dVertex
 10
56.48038477450609
 20
0.0
 30
0.0
  0
VERTEX
  5
2146
330
2138
100
AcDbEntity
  8
LW 3601-00-01
100
AcDbVertex
100
AcDb2dVertex
 10
56.47404868900776
 20
0.4914852231740952
 30
0.0
  0
VERTEX
  5
2147
330
2138
100
AcDbEntity
  8
LW 3601-00-01
100
AcDbVertex
100
AcDb2dVertex
 10
56.45500243455171
 20
0.984443724155426
 30
0.0
  0
VERTEX
  5
2148
330
2138
100
AcDbEntity
  8
LW 3601-00-01
100
AcDbVertex
100
AcDb2dVertex
 10
56.42313149571418
 20
1.480363458395004
 30
0.0
  0
VERTEX
  5
2149
330
2138
100
AcDbEntity
  8
LW 3601-00-01
100
AcDbVertex
100
AcDb2dVertex
 10
56.37824308872223
 20
1.980762183666229
 30
0.0
  0
VERTEX
  5
214A
330
2138
100
AcDbEntity
  8
LW 3601-00-01
100
AcDbVertex
100
AcDb2dVertex
 10
56.32006321847438
 20
2.487203180789947
 30
0.0
  0
VERTEX
  5
214B
330
2138
100
AcDbEntity
  8
LW 3601-00-01
100
AcDbVertex
100
AcDb2dVertex
 10
56.24823246896267
 20
3.001312315464019
 30
0.0
  0
VERTEX
  5
214C
330
2138
100
AcDbEntity
  8
LW 3601-00-01
100
AcDbVertex
100
AcDb2dVertex
 10
56.16230030357837
 20
3.524794876575469
 30
0.0
  0
VERTEX
  5
214D
330
2138
100
AcDbEntity
  8
LW 3601-00-01
100
AcDbVertex
100
AcDb2dVertex
 10
56.06171791255474
 20
4.05945748090744
 30
0.0
  0
VERTEX
  5
214E
330
2138
100
AcDbEntity
  8
LW 3601-00-01
100
AcDbVertex
100
AcDb2dVertex
 10
55.9458292722702
 20
4.607227742671966
 30
0.0
  0
VERTEX
  5
214F
330
2138
100
AcDbEntity
  8
LW 3601-00-01
100
AcDbVertex
100
AcDb2dVertex
 10
55.81385989487171
 20
5.170181393623352
 30
0.0
  0
VERTEX
  5
2150
330
2138
100
AcDbEntity
  8
LW 3601-00-01
100
AcDbVertex
100
AcDb2dVertex
 10
55.66490319371223
 20
5.750569701194763
 30
0.0
  0
VERTEX
  5
2151
330
2138
100
AcDbEntity
  8
LW 3601-00-01
100
AcDbVertex
100
AcDb2dVertex
 10
55.49790439009666
 20
6.350852847099304
 30
0.0
  0
SEQEND
  5
2152
330
2138
100
AcDbEntity
  8
LW 3601-00-01
  0
POLYLINE
  5
2153
330
210D
100
AcDbEntity
  8
LW 3601-00-01
100
AcDb2dPolyline
 66
     1
 10
0.0
 20
0.0
 30
0.0
 70
   128
  0
VERTEX
  5
2154
330
2153
100
AcDbEntity
  8
LW 3601-00-01
100
AcDbVertex
100
AcDb2dVertex
 10
55.49790439009666
 20
-12.70170569419861
 30
0.0
  0
VERTEX
  5
2155
330
2153
100
AcDbEntity
  8
LW 3601-00-01
100
AcDbVertex
100
AcDb2dVertex
 10
55.66490319371223
 20
-12.40156412124634
 30
0.0
  0
VERTEX
  5
2156
330
2153
100
AcDbEntity
  8
LW 3601-00-01
100
AcDbVertex
100
AcDb2dVertex
 10
55.81385989487171
 20
-12.11137056350708
 30
0.0
  0
VERTEX
  5
2157
330
2153
100
AcDbEntity
  8
LW 3601-00-01
100
AcDbVertex
100
AcDb2dVertex
 10
55.9458292722702
 20
-11.82989358901977
 30
0.0
  0
VERTEX
  5
2158
330
2153
100
AcDbEntity
  8
LW 3601-00-01
100
AcDbVertex
100
AcDb2dVertex
 10
56.06171791255474
 20
-11.55600786209106
 30
0.0
  0
VERTEX
  5
2159
330
2153
100
AcDbEntity
  8
LW 3601-00-01
100
AcDbVertex
100
AcDb2dVertex
 10
56.16230030357837
 20
-11.28867745399475
 30
0.0
  0
VERTEX
  5
215A
330
2153
100
AcDbEntity
  8
LW 3601-00-01
100
AcDbVertex
100
AcDb2dVertex
 10
56.24823246896267
 20
-11.02693557739258
 30
0.0
  0
VERTEX
  5
215B
330
2153
100
AcDbEntity
  8
LW 3601-00-01
100
AcDbVertex
100
AcDb2dVertex
 10
56.32006321847438
 20
-10.76988101005554
 30
0.0
  0
VERTEX
  5
215C
330
2153
100
AcDbEntity
  8
LW 3601-00-01
100
AcDbVertex
100
AcDb2dVertex
 10
56.37824308872223
 20
-10.51666021347046
 30
0.0
  0
VERTEX
  5
215D
330
2153
100
AcDbEntity
  8
LW 3601-00-01
100
AcDbVertex
100
AcDb2dVertex
 10
56.42313149571418
 20
-10.26646137237549
 30
0.0
  0
VERTEX
  5
215E
330
2153
100
AcDbEntity
  8
LW 3601-00-01
100
AcDbVertex
100
AcDb2dVertex
 10
56.45500243455171
 20
-10.01850128173828
 30
0.0
  0
VERTEX
  5
215F
330
2153
100
AcDbEntity
  8
LW 3601-00-01
100
AcDbVertex
100
AcDb2dVertex
 10
56.47404868900776
 20
-9.772021770477294
 30
0.0
  0
VERTEX
  5
2160
330
2153
100
AcDbEntity
  8
LW 3601-00-01
100
AcDbVertex
100
AcDb2dVertex
 10
56.48038477450609
 20
-9.52627956867218
 30
0.0
  0
VERTEX
  5
2161
330
2153
100
AcDbEntity
  8
LW 3601-00-01
100
AcDbVertex
100
AcDb2dVertex
 10
56.47404868900776
 20
-9.280536770820617
 30
0.0
  0
VERTEX
  5
2162
330
2153
100
AcDbEntity
  8
LW 3601-00-01
100
AcDbVertex
100
AcDb2dVertex
 10
56.45500243455171
 20
-9.034057855606079
 30
0.0
  0
VERTEX
  5
2163
330
2153
100
AcDbEntity
  8
LW 3601-00-01
100
AcDbVertex
100
AcDb2dVertex
 10
56.42313149571418
 20
-8.786097764968872
 30
0.0
  0
VERTEX
  5
2164
330
2153
100
AcDbEntity
  8
LW 3601-00-01
100
AcDbVertex
100
AcDb2dVertex
 10
56.37824308872223
 20
-8.535898327827453
 30
0.0
  0
VERTEX
  5
2165
330
2153
100
AcDbEntity
  8
LW 3601-00-01
100
AcDbVertex
100
AcDb2dVertex
 10
56.32006321847438
 20
-8.282678127288818
 30
0.0
  0
VERTEX
  5
2166
330
2153
100
AcDbEntity
  8
LW 3601-00-01
100
AcDbVertex
100
AcDb2dVertex
 10
56.24823246896267
 20
-8.025623559951782
 30
0.0
  0
VERTEX
  5
2167
330
2153
100
AcDbEntity
  8
LW 3601-00-01
100
AcDbVertex
100
AcDb2dVertex
 10
56.16230030357837
 20
-7.763881683349609
 30
0.0
  0
VERTEX
  5
2168
330
2153
100
AcDbEntity
  8
LW 3601-00-01
100
AcDbVertex
100
AcDb2dVertex
 10
56.06171791255474
 20
-7.496550679206848
 30
0.0
  0
VERTEX
  5
2169
330
2153
100
AcDbEntity
  8
LW 3601-00-01
100
AcDbVertex
100
AcDb2dVertex
 10
55.9458292722702
 20
-7.222665548324584
 30
0.0
  0
VERTEX
  5
216A
330
2153
100
AcDbEntity
  8
LW 3601-00-01
100
AcDbVertex
100
AcDb2dVertex
 10
55.81385989487171
 20
-6.94118857383728
 30
0.0
  0
VERTEX
  5
216B
330
2153
100
AcDbEntity
  8
LW 3601-00-01
100
AcDbVertex
100
AcDb2dVertex
 10
55.66490319371223
 20
-6.650994420051574
 30
0.0
  0
VERTEX
  5
216C
330
2153
100
AcDbEntity
  8
LW 3601-00-01
100
AcDbVertex
100
AcDb2dVertex
 10
55.49790439009666
 20
-6.350852847099304
 30
0.0
  0
SEQEND
  5
216D
330
2153
100
AcDbEntity
  8
LW 3601-00-01
  0
POLYLINE
  5
216E
330
210D
100
AcDbEntity
  8
LW 3601-00-01
100
AcDb2dPolyline
 66
     1
 10
0.0
 20
0.0
 30
0.0
 70
   128
  0
VERTEX
  5
216F
330
216E
100
AcDbEntity
  8
LW 3601-00-01
100
AcDbVertex
100
AcDb2dVertex
 10
47.50209581851959
 20
-6.350852847099304
 30
0.0
  0
VERTEX
  5
2170
330
216E
100
AcDbEntity
  8
LW 3601-00-01
100
AcDbVertex
100
AcDb2dVertex
 10
47.3350967168808
 20
-6.650994420051574
 30
0.0
  0
VERTEX
  5
2171
330
216E
100
AcDbEntity
  8
LW 3601-00-01
100
AcDbVertex
100
AcDb2dVertex
 10
47.18613994121551
 20
-6.94118857383728
 30
0.0
  0
VERTEX
  5
2172
330
216E
100
AcDbEntity
  8
LW 3601-00-01
100
AcDbVertex
100
AcDb2dVertex
 10
47.05417048931122
 20
-7.222665548324584
 30
0.0
  0
VERTEX
  5
2173
330
216E
100
AcDbEntity
  8
LW 3601-00-01
100
AcDbVertex
100
AcDb2dVertex
 10
46.93828177452087
 20
-7.496550679206848
 30
0.0
  0
VERTEX
  5
2174
330
216E
100
AcDbEntity
  8
LW 3601-00-01
100
AcDbVertex
100
AcDb2dVertex
 10
46.83770012855529
 20
-7.763881683349609
 30
0.0
  0
VERTEX
  5
2175
330
216E
100
AcDbEntity
  8
LW 3601-00-01
100
AcDbVertex
100
AcDb2dVertex
 10
46.75176811218261
 20
-8.025623559951782
 30
0.0
  0
VERTEX
  5
2176
330
216E
100
AcDbEntity
  8
LW 3601-00-01
100
AcDbVertex
100
AcDb2dVertex
 10
46.67993736267078
 20
-8.282678127288818
 30
0.0
  0
VERTEX
  5
2177
330
216E
100
AcDbEntity
  8
LW 3601-00-01
100
AcDbVertex
100
AcDb2dVertex
 10
46.62175726890552
 20
-8.535898327827453
 30
0.0
  0
VERTEX
  5
2178
330
216E
100
AcDbEntity
  8
LW 3601-00-01
100
AcDbVertex
100
AcDb2dVertex
 10
46.57686901092517
 20
-8.786097764968872
 30
0.0
  0
VERTEX
  5
2179
330
216E
100
AcDbEntity
  8
LW 3601-00-01
100
AcDbVertex
100
AcDb2dVertex
 10
46.54499721527088
 20
-9.034057855606079
 30
0.0
  0
VERTEX
  5
217A
330
216E
100
AcDbEntity
  8
LW 3601-00-01
100
AcDbVertex
100
AcDb2dVertex
 10
46.52595114707935
 20
-9.280536770820617
 30
0.0
  0
VERTEX
  5
217B
330
216E
100
AcDbEntity
  8
LW 3601-00-01
100
AcDbVertex
100
AcDb2dVertex
 10
46.51961517333973
 20
-9.52627956867218
 30
0.0
  0
VERTEX
  5
217C
330
216E
100
AcDbEntity
  8
LW 3601-00-01
100
AcDbVertex
100
AcDb2dVertex
 10
46.52595114707935
 20
-9.772021770477294
 30
0.0
  0
VERTEX
  5
217D
330
216E
100
AcDbEntity
  8
LW 3601-00-01
100
AcDbVertex
100
AcDb2dVertex
 10
46.54499721527088
 20
-10.01850128173828
 30
0.0
  0
VERTEX
  5
217E
330
216E
100
AcDbEntity
  8
LW 3601-00-01
100
AcDbVertex
100
AcDb2dVertex
 10
46.57686901092517
 20
-10.26646137237549
 30
0.0
  0
VERTEX
  5
217F
330
216E
100
AcDbEntity
  8
LW 3601-00-01
100
AcDbVertex
100
AcDb2dVertex
 10
46.62175726890552
 20
-10.51666021347046
 30
0.0
  0
VERTEX
  5
2180
330
216E
100
AcDbEntity
  8
LW 3601-00-01
100
AcDbVertex
100
AcDb2dVertex
 10
46.67993736267078
 20
-10.76988101005554
 30
0.0
  0
VERTEX
  5
2181
330
216E
100
AcDbEntity
  8
LW 3601-00-01
100
AcDbVertex
100
AcDb2dVertex
 10
46.7517681121825
 20
-11.02693557739258
 30
0.0
  0
VERTEX
  5
2182
330
216E
100
AcDbEntity
  8
LW 3601-00-01
100
AcDbVertex
100
AcDb2dVertex
 10
46.83770012855518
 20
-11.28867745399475
 30
0.0
  0
VERTEX
  5
2183
330
216E
100
AcDbEntity
  8
LW 3601-00-01
100
AcDbVertex
100
AcDb2dVertex
 10
46.93828177452076
 20
-11.55600786209106
 30
0.0
  0
VERTEX
  5
2184
330
216E
100
AcDbEntity
  8
LW 3601-00-01
100
AcDbVertex
100
AcDb2dVertex
 10
47.0541704893111
 20
-11.82989358901977
 30
0.0
  0
VERTEX
  5
2185
330
216E
100
AcDbEntity
  8
LW 3601-00-01
100
AcDbVertex
100
AcDb2dVertex
 10
47.1861399412154
 20
-12.11137056350708
 30
0.0
  0
VERTEX
  5
2186
330
216E
100
AcDbEntity
  8
LW 3601-00-01
100
AcDbVertex
100
AcDb2dVertex
 10
47.33509671688068
 20
-12.40156412124634
 30
0.0
  0
VERTEX
  5
2187
330
216E
100
AcDbEntity
  8
LW 3601-00-01
100
AcDbVertex
100
AcDb2dVertex
 10
47.50209581851947
 20
-12.70170569419861
 30
0.0
  0
SEQEND
  5
2188
330
216E
100
AcDbEntity
  8
LW 3601-00-01
  0
POLYLINE
  5
2189
330
210D
100
AcDbEntity
  8
LW 3601-00-01
100
AcDb2dPolyline
 66
     1
 10
0.0
 20
0.0
 30
0.0
 70
   128
  0
VERTEX
  5
218A
330
2189
100
AcDbEntity
  8
LW 3601-00-01
100
AcDbVertex
100
AcDb2dVertex
 10
47.50209581851959
 20
6.350852847099304
 30
0.0
  0
VERTEX
  5
218B
330
2189
100
AcDbEntity
  8
LW 3601-00-01
100
AcDbVertex
100
AcDb2dVertex
 10
47.3350967168808
 20
5.750569701194763
 30
0.0
  0
VERTEX
  5
218C
330
2189
100
AcDbEntity
  8
LW 3601-00-01
100
AcDbVertex
100
AcDb2dVertex
 10
47.18613994121551
 20
5.170181393623352
 30
0.0
  0
VERTEX
  5
218D
330
2189
100
AcDbEntity
  8
LW 3601-00-01
100
AcDbVertex
100
AcDb2dVertex
 10
47.05417048931122
 20
4.607227742671966
 30
0.0
  0
VERTEX
  5
218E
330
2189
100
AcDbEntity
  8
LW 3601-00-01
100
AcDbVertex
100
AcDb2dVertex
 10
46.93828177452087
 20
4.05945748090744
 30
0.0
  0
VERTEX
  5
218F
330
2189
100
AcDbEntity
  8
LW 3601-00-01
100
AcDbVertex
100
AcDb2dVertex
 10
46.83770012855529
 20
3.524794876575469
 30
0.0
  0
VERTEX
  5
2190
330
2189
100
AcDbEntity
  8
LW 3601-00-01
100
AcDbVertex
100
AcDb2dVertex
 10
46.75176811218261
 20
3.001312315464019
 30
0.0
  0
VERTEX
  5
2191
330
2189
100
AcDbEntity
  8
LW 3601-00-01
100
AcDbVertex
100
AcDb2dVertex
 10
46.6799373626709
 20
2.487203180789947
 30
0.0
  0
VERTEX
  5
2192
330
2189
100
AcDbEntity
  8
LW 3601-00-01
100
AcDbVertex
100
AcDb2dVertex
 10
46.62175726890564
 20
1.980762183666229
 30
0.0
  0
VERTEX
  5
2193
330
2189
100
AcDbEntity
  8
LW 3601-00-01
100
AcDbVertex
100
AcDb2dVertex
 10
46.57686901092529
 20
1.480363458395004
 30
0.0
  0
VERTEX
  5
2194
330
2189
100
AcDbEntity
  8
LW 3601-00-01
100
AcDbVertex
100
AcDb2dVertex
 10
46.54499721527099
 20
0.984443724155426
 30
0.0
  0
VERTEX
  5
2195
330
2189
100
AcDbEntity
  8
LW 3601-00-01
100
AcDbVertex
100
AcDb2dVertex
 10
46.52595114707946
 20
0.4914852231740952
 30
0.0
  0
VERTEX
  5
2196
330
2189
100
AcDbEntity
  8
LW 3601-00-01
100
AcDbVertex
100
AcDb2dVertex
 10
46.51961517333984
 20
0.0
 30
0.0
  0
VERTEX
  5
2197
330
2189
100
AcDbEntity
  8
LW 3601-00-01
100
AcDbVertex
100
AcDb2dVertex
 10
46.52595114707946
 20
-0.4914852231740952
 30
0.0
  0
VERTEX
  5
2198
330
2189
100
AcDbEntity
  8
LW 3601-00-01
100
AcDbVertex
100
AcDb2dVertex
 10
46.54499721527099
 20
-0.984443724155426
 30
0.0
  0
VERTEX
  5
2199
330
2189
100
AcDbEntity
  8
LW 3601-00-01
100
AcDbVertex
100
AcDb2dVertex
 10
46.57686901092529
 20
-1.480363458395004
 30
0.0
  0
VERTEX
  5
219A
330
2189
100
AcDbEntity
  8
LW 3601-00-01
100
AcDbVertex
100
AcDb2dVertex
 10
46.62175726890564
 20
-1.980762183666229
 30
0.0
  0
VERTEX
  5
219B
330
2189
100
AcDbEntity
  8
LW 3601-00-01
100
AcDbVertex
100
AcDb2dVertex
 10
46.6799373626709
 20
-2.487203180789947
 30
0.0
  0
VERTEX
  5
219C
330
2189
100
AcDbEntity
  8
LW 3601-00-01
100
AcDbVertex
100
AcDb2dVertex
 10
46.75176811218261
 20
-3.001312315464019
 30
0.0
  0
VERTEX
  5
219D
330
2189
100
AcDbEntity
  8
LW 3601-00-01
100
AcDbVertex
100
AcDb2dVertex
 10
46.83770012855529
 20
-3.524794876575469
 30
0.0
  0
VERTEX
  5
219E
330
2189
100
AcDbEntity
  8
LW 3601-00-01
100
AcDbVertex
100
AcDb2dVertex
 10
46.93828177452087
 20
-4.05945748090744
 30
0.0
  0
VERTEX
  5
219F
330
2189
100
AcDbEntity
  8
LW 3601-00-01
100
AcDbVertex
100
AcDb2dVertex
 10
47.05417048931122
 20
-4.607227742671966
 30
0.0
  0
VERTEX
  5
21A0
330
2189
100
AcDbEntity
  8
LW 3601-00-01
100
AcDbVertex
100
AcDb2dVertex
 10
47.18613994121551
 20
-5.170181393623352
 30
0.0
  0
VERTEX
  5
21A1
330
2189
100
AcDbEntity
  8
LW 3601-00-01
100
AcDbVertex
100
AcDb2dVertex
 10
47.3350967168808
 20
-5.750569701194763
 30
0.0
  0
VERTEX
  5
21A2
330
2189
100
AcDbEntity
  8
LW 3601-00-01
100
AcDbVertex
100
AcDb2dVertex
 10
47.50209581851959
 20
-6.350852847099304
 30
0.0
  0
SEQEND
  5
21A3
330
2189
100
AcDbEntity
  8
LW 3601-00-01
  0
POLYLINE
  5
21A4
330
210D
100
AcDbEntity
  8
LW 3601-00-01
100
AcDb2dPolyline
 66
     1
 10
0.0
 20
0.0
 30
0.0
 70
   128
  0
VERTEX
  5
21A5
330
21A4
100
AcDbEntity
  8
LW 3601-00-01
100
AcDbVertex
100
AcDb2dVertex
 10
47.50209581851959
 20
12.70170569419861
 30
0.0
  0
VERTEX
  5
21A6
330
21A4
100
AcDbEntity
  8
LW 3601-00-01
100
AcDbVertex
100
AcDb2dVertex
 10
47.3350967168808
 20
12.40156412124634
 30
0.0
  0
VERTEX
  5
21A7
330
21A4
100
AcDbEntity
  8
LW 3601-00-01
100
AcDbVertex
100
AcDb2dVertex
 10
47.18613994121551
 20
12.11137056350708
 30
0.0
  0
VERTEX
  5
21A8
330
21A4
100
AcDbEntity
  8
LW 3601-00-01
100
AcDbVertex
100
AcDb2dVertex
 10
47.05417048931122
 20
11.82989358901977
 30
0.0
  0
VERTEX
  5
21A9
330
21A4
100
AcDbEntity
  8
LW 3601-00-01
100
AcDbVertex
100
AcDb2dVertex
 10
46.93828177452087
 20
11.55600786209106
 30
0.0
  0
VERTEX
  5
21AA
330
21A4
100
AcDbEntity
  8
LW 3601-00-01
100
AcDbVertex
100
AcDb2dVertex
 10
46.83770012855529
 20
11.28867745399475
 30
0.0
  0
VERTEX
  5
21AB
330
21A4
100
AcDbEntity
  8
LW 3601-00-01
100
AcDbVertex
100
AcDb2dVertex
 10
46.75176811218261
 20
11.02693557739258
 30
0.0
  0
VERTEX
  5
21AC
330
21A4
100
AcDbEntity
  8
LW 3601-00-01
100
AcDbVertex
100
AcDb2dVertex
 10
46.6799373626709
 20
10.76988101005554
 30
0.0
  0
VERTEX
  5
21AD
330
21A4
100
AcDbEntity
  8
LW 3601-00-01
100
AcDbVertex
100
AcDb2dVertex
 10
46.62175726890564
 20
10.51666021347046
 30
0.0
  0
VERTEX
  5
21AE
330
21A4
100
AcDbEntity
  8
LW 3601-00-01
100
AcDbVertex
100
AcDb2dVertex
 10
46.57686901092529
 20
10.26646137237549
 30
0.0
  0
VERTEX
  5
21AF
330
21A4
100
AcDbEntity
  8
LW 3601-00-01
100
AcDbVertex
100
AcDb2dVertex
 10
46.54499721527099
 20
10.01850128173828
 30
0.0
  0
VERTEX
  5
21B0
330
21A4
100
AcDbEntity
  8
LW 3601-00-01
100
AcDbVertex
100
AcDb2dVertex
 10
46.52595114707946
 20
9.772021770477294
 30
0.0
  0
VERTEX
  5
21B1
330
21A4
100
AcDbEntity
  8
LW 3601-00-01
100
AcDbVertex
100
AcDb2dVertex
 10
46.51961517333984
 20
9.52627956867218
 30
0.0
  0
VERTEX
  5
21B2
330
21A4
100
AcDbEntity
  8
LW 3601-00-01
100
AcDbVertex
100
AcDb2dVertex
 10
46.52595114707946
 20
9.280536770820617
 30
0.0
  0
VERTEX
  5
21B3
330
21A4
100
AcDbEntity
  8
LW 3601-00-01
100
AcDbVertex
100
AcDb2dVertex
 10
46.54499721527099
 20
9.034057855606079
 30
0.0
  0
VERTEX
  5
21B4
330
21A4
100
AcDbEntity
  8
LW 3601-00-01
100
AcDbVertex
100
AcDb2dVertex
 10
46.57686901092529
 20
8.786097764968872
 30
0.0
  0
VERTEX
  5
21B5
330
21A4
100
AcDbEntity
  8
LW 3601-00-01
100
AcDbVertex
100
AcDb2dVertex
 10
46.62175726890564
 20
8.535898327827453
 30
0.0
  0
VERTEX
  5
21B6
330
21A4
100
AcDbEntity
  8
LW 3601-00-01
100
AcDbVertex
100
AcDb2dVertex
 10
46.6799373626709
 20
8.282678127288818
 30
0.0
  0
VERTEX
  5
21B7
330
21A4
100
AcDbEntity
  8
LW 3601-00-01
100
AcDbVertex
100
AcDb2dVertex
 10
46.75176811218261
 20
8.025623559951782
 30
0.0
  0
VERTEX
  5
21B8
330
21A4
100
AcDbEntity
  8
LW 3601-00-01
100
AcDbVertex
100
AcDb2dVertex
 10
46.83770012855529
 20
7.763881683349609
 30
0.0
  0
VERTEX
  5
21B9
330
21A4
100
AcDbEntity
  8
LW 3601-00-01
100
AcDbVertex
100
AcDb2dVertex
 10
46.93828177452087
 20
7.496550679206848
 30
0.0
  0
VERTEX
  5
21BA
330
21A4
100
AcDbEntity
  8
LW 3601-00-01
100
AcDbVertex
100
AcDb2dVertex
 10
47.05417048931122
 20
7.222665548324584
 30
0.0
  0
VERTEX
  5
21BB
330
21A4
100
AcDbEntity
  8
LW 3601-00-01
100
AcDbVertex
100
AcDb2dVertex
 10
47.18613994121551
 20
6.94118857383728
 30
0.0
  0
VERTEX
  5
21BC
330
21A4
100
AcDbEntity
  8
LW 3601-00-01
100
AcDbVertex
100
AcDb2dVertex
 10
47.3350967168808
 20
6.650994420051574
 30
0.0
  0
VERTEX
  5
21BD
330
21A4
100
AcDbEntity
  8
LW 3601-00-01
100
AcDbVertex
100
AcDb2dVertex
 10
47.50209581851959
 20
6.350852847099304
 30
0.0
  0
SEQEND
  5
21BE
330
21A4
100
AcDbEntity
  8
LW 3601-00-01
  0
LINE
  5
21BF
330
210D
100
AcDbEntity
  8
LW 3601-00-01
100
AcDbLine
 10
57.0
 20
-10.10000000000002
 30
0.0
 11
55.49790438548189
 21
-12.70170592217175
 31
0.0
  0
LINE
  5
21C0
330
210D
100
AcDbEntity
  8
LW 3601-00-01
100
AcDbLine
 10
57.0
 20
10.10000000000002
 30
0.0
 11
55.49790438548189
 21
12.70170592217175
 31
0.0
  0
LINE
  5
21C1
330
210D
100
AcDbEntity
  8
LW 3601-00-01
100
AcDbLine
 10
46.0
 20
10.09999999999991
 30
0.0
 11
47.50209561451811
 21
12.70170592217175
 31
0.0
  0
LINE
  5
21C2
330
210D
100
AcDbEntity
  8
LW 3601-00-01
100
AcDbLine
 10
45.99999999999988
 20
-10.10000000000002
 30
0.0
 11
47.50209561451799
 21
-12.70170592217175
 31
0.0
  0
LINE
  5
21C3
330
210D
100
AcDbEntity
  8
LW 3601-00-01
100
AcDbLine
 10
55.49790438548189
 20
12.70170592217175
 30
0.0
 11
47.50209561451811
 21
12.70170592217175
 31
0.0
  0
LINE
  5
21C4
330
210D
100
AcDbEntity
  8
LW 3601-00-01
100
AcDbLine
 10
55.49790438548189
 20
6.350852961085934
 30
0.0
 11
47.50209561451811
 21
6.350852961085934
 31
0.0
  0
LINE
  5
21C5
330
210D
100
AcDbEntity
  8
LW 3601-00-01
100
AcDbLine
 10
55.49790438548189
 20
-6.35085296108582
 30
0.0
 11
47.50209561451811
 21
-6.35085296108582
 31
0.0
  0
LINE
  5
21C6
330
210D
100
AcDbEntity
  8
LW 3601-00-01
100
AcDbLine
 10
55.49790438548189
 20
-12.70170592217175
 30
0.0
 11
47.50209561451799
 21
-12.70170592217175
 31
0.0
  0
LINE
  5
21C7
330
210D
100
AcDbEntity
  8
LW 3601-00-01
100
AcDbLine
 10
88.0
 20
-10.10000000000002
 30
0.0
 11
88.0
 21
10.09999999999991
 31
0.0
  0
POLYLINE
  5
21C8
330
210D
100
AcDbEntity
  8
LW 3601-00-01
100
AcDb2dPolyline
 66
     1
 10
0.0
 20
0.0
 30
0.0
 70
   128
  0
VERTEX
  5
21C9
330
21C8
100
AcDbEntity
  8
LW 3601-00-01
100
AcDbVertex
100
AcDb2dVertex
 10
86.49790439009667
 20
6.350852847099304
 30
0.0
  0
VERTEX
  5
21CA
330
21C8
100
AcDbEntity
  8
LW 3601-00-01
100
AcDbVertex
100
AcDb2dVertex
 10
86.66490319371224
 20
6.650994420051574
 30
0.0
  0
VERTEX
  5
21CB
330
21C8
100
AcDbEntity
  8
LW 3601-00-01
100
AcDbVertex
100
AcDb2dVertex
 10
86.81385989487171
 20
6.94118857383728
 30
0.0
  0
VERTEX
  5
21CC
330
21C8
100
AcDbEntity
  8
LW 3601-00-01
100
AcDbVertex
100
AcDb2dVertex
 10
86.9458292722702
 20
7.222665548324584
 30
0.0
  0
VERTEX
  5
21CD
330
21C8
100
AcDbEntity
  8
LW 3601-00-01
100
AcDbVertex
100
AcDb2dVertex
 10
87.06171791255474
 20
7.496550679206848
 30
0.0
  0
VERTEX
  5
21CE
330
21C8
100
AcDbEntity
  8
LW 3601-00-01
100
AcDbVertex
100
AcDb2dVertex
 10
87.16230030357838
 20
7.763881683349609
 30
0.0
  0
VERTEX
  5
21CF
330
21C8
100
AcDbEntity
  8
LW 3601-00-01
100
AcDbVertex
100
AcDb2dVertex
 10
87.24823246896267
 20
8.025623559951782
 30
0.0
  0
VERTEX
  5
21D0
330
21C8
100
AcDbEntity
  8
LW 3601-00-01
100
AcDbVertex
100
AcDb2dVertex
 10
87.32006321847439
 20
8.282678127288818
 30
0.0
  0
VERTEX
  5
21D1
330
21C8
100
AcDbEntity
  8
LW 3601-00-01
100
AcDbVertex
100
AcDb2dVertex
 10
87.37824308872223
 20
8.535898327827453
 30
0.0
  0
VERTEX
  5
21D2
330
21C8
100
AcDbEntity
  8
LW 3601-00-01
100
AcDbVertex
100
AcDb2dVertex
 10
87.42313149571419
 20
8.786097764968872
 30
0.0
  0
VERTEX
  5
21D3
330
21C8
100
AcDbEntity
  8
LW 3601-00-01
100
AcDbVertex
100
AcDb2dVertex
 10
87.45500243455172
 20
9.034057855606079
 30
0.0
  0
VERTEX
  5
21D4
330
21C8
100
AcDbEntity
  8
LW 3601-00-01
100
AcDbVertex
100
AcDb2dVertex
 10
87.47404868900776
 20
9.280536770820617
 30
0.0
  0
VERTEX
  5
21D5
330
21C8
100
AcDbEntity
  8
LW 3601-00-01
100
AcDbVertex
100
AcDb2dVertex
 10
87.48038477450609
 20
9.52627956867218
 30
0.0
  0
VERTEX
  5
21D6
330
21C8
100
AcDbEntity
  8
LW 3601-00-01
100
AcDbVertex
100
AcDb2dVertex
 10
87.47404868900776
 20
9.772021770477294
 30
0.0
  0
VERTEX
  5
21D7
330
21C8
100
AcDbEntity
  8
LW 3601-00-01
100
AcDbVertex
100
AcDb2dVertex
 10
87.45500243455172
 20
10.01850128173828
 30
0.0
  0
VERTEX
  5
21D8
330
21C8
100
AcDbEntity
  8
LW 3601-00-01
100
AcDbVertex
100
AcDb2dVertex
 10
87.42313149571419
 20
10.26646137237549
 30
0.0
  0
VERTEX
  5
21D9
330
21C8
100
AcDbEntity
  8
LW 3601-00-01
100
AcDbVertex
100
AcDb2dVertex
 10
87.37824308872223
 20
10.51666021347046
 30
0.0
  0
VERTEX
  5
21DA
330
21C8
100
AcDbEntity
  8
LW 3601-00-01
100
AcDbVertex
100
AcDb2dVertex
 10
87.32006321847439
 20
10.76988101005554
 30
0.0
  0
VERTEX
  5
21DB
330
21C8
100
AcDbEntity
  8
LW 3601-00-01
100
AcDbVertex
100
AcDb2dVertex
 10
87.24823246896267
 20
11.02693557739258
 30
0.0
  0
VERTEX
  5
21DC
330
21C8
100
AcDbEntity
  8
LW 3601-00-01
100
AcDbVertex
100
AcDb2dVertex
 10
87.16230030357838
 20
11.28867745399475
 30
0.0
  0
VERTEX
  5
21DD
330
21C8
100
AcDbEntity
  8
LW 3601-00-01
100
AcDbVertex
100
AcDb2dVertex
 10
87.06171791255474
 20
11.55600786209106
 30
0.0
  0
VERTEX
  5
21DE
330
21C8
100
AcDbEntity
  8
LW 3601-00-01
100
AcDbVertex
100
AcDb2dVertex
 10
86.9458292722702
 20
11.82989358901977
 30
0.0
  0
VERTEX
  5
21DF
330
21C8
100
AcDbEntity
  8
LW 3601-00-01
100
AcDbVertex
100
AcDb2dVertex
 10
86.81385989487171
 20
12.11137056350708
 30
0.0
  0
VERTEX
  5
21E0
330
21C8
100
AcDbEntity
  8
LW 3601-00-01
100
AcDbVertex
100
AcDb2dVertex
 10
86.66490319371224
 20
12.40156412124634
 30
0.0
  0
VERTEX
  5
21E1
330
21C8
100
AcDbEntity
  8
LW 3601-00-01
100
AcDbVertex
100
AcDb2dVertex
 10
86.49790439009667
 20
12.70170569419861
 30
0.0
  0
SEQEND
  5
21E2
330
21C8
100
AcDbEntity
  8
LW 3601-00-01
  0
POLYLINE
  5
21E3
330
210D
100
AcDbEntity
  8
LW 3601-00-01
100
AcDb2dPolyline
 66
     1
 10
0.0
 20
0.0
 30
0.0
 70
   128
  0
VERTEX
  5
21E4
330
21E3
100
AcDbEntity
  8
LW 3601-00-01
100
AcDbVertex
100
AcDb2dVertex
 10
86.49790439009667
 20
-6.350852847099304
 30
0.0
  0
VERTEX
  5
21E5
330
21E3
100
AcDbEntity
  8
LW 3601-00-01
100
AcDbVertex
100
AcDb2dVertex
 10
86.66490319371224
 20
-5.750569701194763
 30
0.0
  0
VERTEX
  5
21E6
330
21E3
100
AcDbEntity
  8
LW 3601-00-01
100
AcDbVertex
100
AcDb2dVertex
 10
86.81385989487171
 20
-5.170181393623352
 30
0.0
  0
VERTEX
  5
21E7
330
21E3
100
AcDbEntity
  8
LW 3601-00-01
100
AcDbVertex
100
AcDb2dVertex
 10
86.9458292722702
 20
-4.607227742671966
 30
0.0
  0
VERTEX
  5
21E8
330
21E3
100
AcDbEntity
  8
LW 3601-00-01
100
AcDbVertex
100
AcDb2dVertex
 10
87.06171791255474
 20
-4.05945748090744
 30
0.0
  0
VERTEX
  5
21E9
330
21E3
100
AcDbEntity
  8
LW 3601-00-01
100
AcDbVertex
100
AcDb2dVertex
 10
87.16230030357838
 20
-3.524794876575469
 30
0.0
  0
VERTEX
  5
21EA
330
21E3
100
AcDbEntity
  8
LW 3601-00-01
100
AcDbVertex
100
AcDb2dVertex
 10
87.24823246896267
 20
-3.001312315464019
 30
0.0
  0
VERTEX
  5
21EB
330
21E3
100
AcDbEntity
  8
LW 3601-00-01
100
AcDbVertex
100
AcDb2dVertex
 10
87.32006321847439
 20
-2.487203180789947
 30
0.0
  0
VERTEX
  5
21EC
330
21E3
100
AcDbEntity
  8
LW 3601-00-01
100
AcDbVertex
100
AcDb2dVertex
 10
87.37824308872223
 20
-1.980762183666229
 30
0.0
  0
VERTEX
  5
21ED
330
21E3
100
AcDbEntity
  8
LW 3601-00-01
100
AcDbVertex
100
AcDb2dVertex
 10
87.42313149571419
 20
-1.480363458395004
 30
0.0
  0
VERTEX
  5
21EE
330
21E3
100
AcDbEntity
  8
LW 3601-00-01
100
AcDbVertex
100
AcDb2dVertex
 10
87.45500243455172
 20
-0.984443724155426
 30
0.0
  0
VERTEX
  5
21EF
330
21E3
100
AcDbEntity
  8
LW 3601-00-01
100
AcDbVertex
100
AcDb2dVertex
 10
87.47404868900776
 20
-0.4914852231740952
 30
0.0
  0
VERTEX
  5
21F0
330
21E3
100
AcDbEntity
  8
LW 3601-00-01
100
AcDbVertex
100
AcDb2dVertex
 10
87.48038477450609
 20
0.0
 30
0.0
  0
VERTEX
  5
21F1
330
21E3
100
AcDbEntity
  8
LW 3601-00-01
100
AcDbVertex
100
AcDb2dVertex
 10
87.47404868900776
 20
0.4914852231740952
 30
0.0
  0
VERTEX
  5
21F2
330
21E3
100
AcDbEntity
  8
LW 3601-00-01
100
AcDbVertex
100
AcDb2dVertex
 10
87.45500243455172
 20
0.984443724155426
 30
0.0
  0
VERTEX
  5
21F3
330
21E3
100
AcDbEntity
  8
LW 3601-00-01
100
AcDbVertex
100
AcDb2dVertex
 10
87.42313149571419
 20
1.480363458395004
 30
0.0
  0
VERTEX
  5
21F4
330
21E3
100
AcDbEntity
  8
LW 3601-00-01
100
AcDbVertex
100
AcDb2dVertex
 10
87.37824308872223
 20
1.980762183666229
 30
0.0
  0
VERTEX
  5
21F5
330
21E3
100
AcDbEntity
  8
LW 3601-00-01
100
AcDbVertex
100
AcDb2dVertex
 10
87.32006321847439
 20
2.487203180789947
 30
0.0
  0
VERTEX
  5
21F6
330
21E3
100
AcDbEntity
  8
LW 3601-00-01
100
AcDbVertex
100
AcDb2dVertex
 10
87.24823246896267
 20
3.001312315464019
 30
0.0
  0
VERTEX
  5
21F7
330
21E3
100
AcDbEntity
  8
LW 3601-00-01
100
AcDbVertex
100
AcDb2dVertex
 10
87.16230030357838
 20
3.524794876575469
 30
0.0
  0
VERTEX
  5
21F8
330
21E3
100
AcDbEntity
  8
LW 3601-00-01
100
AcDbVertex
100
AcDb2dVertex
 10
87.06171791255474
 20
4.05945748090744
 30
0.0
  0
VERTEX
  5
21F9
330
21E3
100
AcDbEntity
  8
LW 3601-00-01
100
AcDbVertex
100
AcDb2dVertex
 10
86.9458292722702
 20
4.607227742671966
 30
0.0
  0
VERTEX
  5
21FA
330
21E3
100
AcDbEntity
  8
LW 3601-00-01
100
AcDbVertex
100
AcDb2dVertex
 10
86.81385989487171
 20
5.170181393623352
 30
0.0
  0
VERTEX
  5
21FB
330
21E3
100
AcDbEntity
  8
LW 3601-00-01
100
AcDbVertex
100
AcDb2dVertex
 10
86.66490319371224
 20
5.750569701194763
 30
0.0
  0
VERTEX
  5
21FC
330
21E3
100
AcDbEntity
  8
LW 3601-00-01
100
AcDbVertex
100
AcDb2dVertex
 10
86.49790439009667
 20
6.350852847099304
 30
0.0
  0
SEQEND
  5
21FD
330
21E3
100
AcDbEntity
  8
LW 3601-00-01
  0
POLYLINE
  5
21FE
330
210D
100
AcDbEntity
  8
LW 3601-00-01
100
AcDb2dPolyline
 66
     1
 10
0.0
 20
0.0
 30
0.0
 70
   128
  0
VERTEX
  5
21FF
330
21FE
100
AcDbEntity
  8
LW 3601-00-01
100
AcDbVertex
100
AcDb2dVertex
 10
86.49790439009667
 20
-12.70170569419861
 30
0.0
  0
VERTEX
  5
2200
330
21FE
100
AcDbEntity
  8
LW 3601-00-01
100
AcDbVertex
100
AcDb2dVertex
 10
86.66490319371224
 20
-12.40156412124634
 30
0.0
  0
VERTEX
  5
2201
330
21FE
100
AcDbEntity
  8
LW 3601-00-01
100
AcDbVertex
100
AcDb2dVertex
 10
86.81385989487171
 20
-12.11137056350708
 30
0.0
  0
VERTEX
  5
2202
330
21FE
100
AcDbEntity
  8
LW 3601-00-01
100
AcDbVertex
100
AcDb2dVertex
 10
86.9458292722702
 20
-11.82989358901977
 30
0.0
  0
VERTEX
  5
2203
330
21FE
100
AcDbEntity
  8
LW 3601-00-01
100
AcDbVertex
100
AcDb2dVertex
 10
87.06171791255474
 20
-11.55600786209106
 30
0.0
  0
VERTEX
  5
2204
330
21FE
100
AcDbEntity
  8
LW 3601-00-01
100
AcDbVertex
100
AcDb2dVertex
 10
87.16230030357838
 20
-11.28867745399475
 30
0.0
  0
VERTEX
  5
2205
330
21FE
100
AcDbEntity
  8
LW 3601-00-01
100
AcDbVertex
100
AcDb2dVertex
 10
87.24823246896267
 20
-11.02693557739258
 30
0.0
  0
VERTEX
  5
2206
330
21FE
100
AcDbEntity
  8
LW 3601-00-01
100
AcDbVertex
100
AcDb2dVertex
 10
87.32006321847439
 20
-10.76988101005554
 30
0.0
  0
VERTEX
  5
2207
330
21FE
100
AcDbEntity
  8
LW 3601-00-01
100
AcDbVertex
100
AcDb2dVertex
 10
87.37824308872223
 20
-10.51666021347046
 30
0.0
  0
VERTEX
  5
2208
330
21FE
100
AcDbEntity
  8
LW 3601-00-01
100
AcDbVertex
100
AcDb2dVertex
 10
87.42313149571419
 20
-10.26646137237549
 30
0.0
  0
VERTEX
  5
2209
330
21FE
100
AcDbEntity
  8
LW 3601-00-01
100
AcDbVertex
100
AcDb2dVertex
 10
87.45500243455172
 20
-10.01850128173828
 30
0.0
  0
VERTEX
  5
220A
330
21FE
100
AcDbEntity
  8
LW 3601-00-01
100
AcDbVertex
100
AcDb2dVertex
 10
87.47404868900776
 20
-9.772021770477294
 30
0.0
  0
VERTEX
  5
220B
330
21FE
100
AcDbEntity
  8
LW 3601-00-01
100
AcDbVertex
100
AcDb2dVertex
 10
87.48038477450609
 20
-9.52627956867218
 30
0.0
  0
VERTEX
  5
220C
330
21FE
100
AcDbEntity
  8
LW 3601-00-01
100
AcDbVertex
100
AcDb2dVertex
 10
87.47404868900776
 20
-9.280536770820617
 30
0.0
  0
VERTEX
  5
220D
330
21FE
100
AcDbEntity
  8
LW 3601-00-01
100
AcDbVertex
100
AcDb2dVertex
 10
87.45500243455172
 20
-9.034057855606079
 30
0.0
  0
VERTEX
  5
220E
330
21FE
100
AcDbEntity
  8
LW 3601-00-01
100
AcDbVertex
100
AcDb2dVertex
 10
87.42313149571419
 20
-8.786097764968872
 30
0.0
  0
VERTEX
  5
220F
330
21FE
100
AcDbEntity
  8
LW 3601-00-01
100
AcDbVertex
100
AcDb2dVertex
 10
87.37824308872223
 20
-8.535898327827453
 30
0.0
  0
VERTEX
  5
2210
330
21FE
100
AcDbEntity
  8
LW 3601-00-01
100
AcDbVertex
100
AcDb2dVertex
 10
87.32006321847439
 20
-8.282678127288818
 30
0.0
  0
VERTEX
  5
2211
330
21FE
100
AcDbEntity
  8
LW 3601-00-01
100
AcDbVertex
100
AcDb2dVertex
 10
87.24823246896267
 20
-8.025623559951782
 30
0.0
  0
VERTEX
  5
2212
330
21FE
100
AcDbEntity
  8
LW 3601-00-01
100
AcDbVertex
100
AcDb2dVertex
 10
87.16230030357838
 20
-7.763881683349609
 30
0.0
  0
VERTEX
  5
2213
330
21FE
100
AcDbEntity
  8
LW 3601-00-01
100
AcDbVertex
100
AcDb2dVertex
 10
87.06171791255474
 20
-7.496550679206848
 30
0.0
  0
VERTEX
  5
2214
330
21FE
100
AcDbEntity
  8
LW 3601-00-01
100
AcDbVertex
100
AcDb2dVertex
 10
86.9458292722702
 20
-7.222665548324584
 30
0.0
  0
VERTEX
  5
2215
330
21FE
100
AcDbEntity
  8
LW 3601-00-01
100
AcDbVertex
100
AcDb2dVertex
 10
86.81385989487171
 20
-6.94118857383728
 30
0.0
  0
VERTEX
  5
2216
330
21FE
100
AcDbEntity
  8
LW 3601-00-01
100
AcDbVertex
100
AcDb2dVertex
 10
86.66490319371224
 20
-6.650994420051574
 30
0.0
  0
VERTEX
  5
2217
330
21FE
100
AcDbEntity
  8
LW 3601-00-01
100
AcDbVertex
100
AcDb2dVertex
 10
86.49790439009667
 20
-6.350852847099304
 30
0.0
  0
SEQEND
  5
2218
330
21FE
100
AcDbEntity
  8
LW 3601-00-01
  0
POLYLINE
  5
2219
330
210D
100
AcDbEntity
  8
LW 3601-00-01
100
AcDb2dPolyline
 66
     1
 10
0.0
 20
0.0
 30
0.0
 70
   128
  0
VERTEX
  5
221A
330
2219
100
AcDbEntity
  8
LW 3601-00-01
100
AcDbVertex
100
AcDb2dVertex
 10
78.50209581851959
 20
-6.350852847099304
 30
0.0
  0
VERTEX
  5
221B
330
2219
100
AcDbEntity
  8
LW 3601-00-01
100
AcDbVertex
100
AcDb2dVertex
 10
78.3350967168808
 20
-6.650994420051574
 30
0.0
  0
VERTEX
  5
221C
330
2219
100
AcDbEntity
  8
LW 3601-00-01
100
AcDbVertex
100
AcDb2dVertex
 10
78.18613994121552
 20
-6.94118857383728
 30
0.0
  0
VERTEX
  5
221D
330
2219
100
AcDbEntity
  8
LW 3601-00-01
100
AcDbVertex
100
AcDb2dVertex
 10
78.05417048931122
 20
-7.222665548324584
 30
0.0
  0
VERTEX
  5
221E
330
2219
100
AcDbEntity
  8
LW 3601-00-01
100
AcDbVertex
100
AcDb2dVertex
 10
77.93828177452088
 20
-7.496550679206848
 30
0.0
  0
VERTEX
  5
221F
330
2219
100
AcDbEntity
  8
LW 3601-00-01
100
AcDbVertex
100
AcDb2dVertex
 10
77.8377001285553
 20
-7.763881683349609
 30
0.0
  0
VERTEX
  5
2220
330
2219
100
AcDbEntity
  8
LW 3601-00-01
100
AcDbVertex
100
AcDb2dVertex
 10
77.75176811218262
 20
-8.025623559951782
 30
0.0
  0
VERTEX
  5
2221
330
2219
100
AcDbEntity
  8
LW 3601-00-01
100
AcDbVertex
100
AcDb2dVertex
 10
77.6799373626709
 20
-8.282678127288818
 30
0.0
  0
VERTEX
  5
2222
330
2219
100
AcDbEntity
  8
LW 3601-00-01
100
AcDbVertex
100
AcDb2dVertex
 10
77.62175726890564
 20
-8.535898327827453
 30
0.0
  0
VERTEX
  5
2223
330
2219
100
AcDbEntity
  8
LW 3601-00-01
100
AcDbVertex
100
AcDb2dVertex
 10
77.5768690109253
 20
-8.786097764968872
 30
0.0
  0
VERTEX
  5
2224
330
2219
100
AcDbEntity
  8
LW 3601-00-01
100
AcDbVertex
100
AcDb2dVertex
 10
77.544997215271
 20
-9.034057855606079
 30
0.0
  0
VERTEX
  5
2225
330
2219
100
AcDbEntity
  8
LW 3601-00-01
100
AcDbVertex
100
AcDb2dVertex
 10
77.52595114707947
 20
-9.280536770820617
 30
0.0
  0
VERTEX
  5
2226
330
2219
100
AcDbEntity
  8
LW 3601-00-01
100
AcDbVertex
100
AcDb2dVertex
 10
77.51961517333985
 20
-9.52627956867218
 30
0.0
  0
VERTEX
  5
2227
330
2219
100
AcDbEntity
  8
LW 3601-00-01
100
AcDbVertex
100
AcDb2dVertex
 10
77.52595114707947
 20
-9.772021770477294
 30
0.0
  0
VERTEX
  5
2228
330
2219
100
AcDbEntity
  8
LW 3601-00-01
100
AcDbVertex
100
AcDb2dVertex
 10
77.544997215271
 20
-10.01850128173828
 30
0.0
  0
VERTEX
  5
2229
330
2219
100
AcDbEntity
  8
LW 3601-00-01
100
AcDbVertex
100
AcDb2dVertex
 10
77.5768690109253
 20
-10.26646137237549
 30
0.0
  0
VERTEX
  5
222A
330
2219
100
AcDbEntity
  8
LW 3601-00-01
100
AcDbVertex
100
AcDb2dVertex
 10
77.62175726890564
 20
-10.51666021347046
 30
0.0
  0
VERTEX
  5
222B
330
2219
100
AcDbEntity
  8
LW 3601-00-01
100
AcDbVertex
100
AcDb2dVertex
 10
77.6799373626709
 20
-10.76988101005554
 30
0.0
  0
VERTEX
  5
222C
330
2219
100
AcDbEntity
  8
LW 3601-00-01
100
AcDbVertex
100
AcDb2dVertex
 10
77.75176811218262
 20
-11.02693557739258
 30
0.0
  0
VERTEX
  5
222D
330
2219
100
AcDbEntity
  8
LW 3601-00-01
100
AcDbVertex
100
AcDb2dVertex
 10
77.8377001285553
 20
-11.28867745399475
 30
0.0
  0
VERTEX
  5
222E
330
2219
100
AcDbEntity
  8
LW 3601-00-01
100
AcDbVertex
100
AcDb2dVertex
 10
77.93828177452088
 20
-11.55600786209106
 30
0.0
  0
VERTEX
  5
222F
330
2219
100
AcDbEntity
  8
LW 3601-00-01
100
AcDbVertex
100
AcDb2dVertex
 10
78.05417048931122
 20
-11.82989358901977
 30
0.0
  0
VERTEX
  5
2230
330
2219
100
AcDbEntity
  8
LW 3601-00-01
100
AcDbVertex
100
AcDb2dVertex
 10
78.18613994121552
 20
-12.11137056350708
 30
0.0
  0
VERTEX
  5
2231
330
2219
100
AcDbEntity
  8
LW 3601-00-01
100
AcDbVertex
100
AcDb2dVertex
 10
78.3350967168808
 20
-12.40156412124634
 30
0.0
  0
VERTEX
  5
2232
330
2219
100
AcDbEntity
  8
LW 3601-00-01
100
AcDbVertex
100
AcDb2dVertex
 10
78.50209581851959
 20
-12.70170569419861
 30
0.0
  0
SEQEND
  5
2233
330
2219
100
AcDbEntity
  8
LW 3601-00-01
  0
POLYLINE
  5
2234
330
210D
100
AcDbEntity
  8
LW 3601-00-01
100
AcDb2dPolyline
 66
     1
 10
0.0
 20
0.0
 30
0.0
 70
   128
  0
VERTEX
  5
2235
330
2234
100
AcDbEntity
  8
LW 3601-00-01
100
AcDbVertex
100
AcDb2dVertex
 10
78.50209581851959
 20
6.350852847099304
 30
0.0
  0
VERTEX
  5
2236
330
2234
100
AcDbEntity
  8
LW 3601-00-01
100
AcDbVertex
100
AcDb2dVertex
 10
78.3350967168808
 20
5.750569701194763
 30
0.0
  0
VERTEX
  5
2237
330
2234
100
AcDbEntity
  8
LW 3601-00-01
100
AcDbVertex
100
AcDb2dVertex
 10
78.18613994121552
 20
5.170181393623352
 30
0.0
  0
VERTEX
  5
2238
330
2234
100
AcDbEntity
  8
LW 3601-00-01
100
AcDbVertex
100
AcDb2dVertex
 10
78.05417048931122
 20
4.607227742671966
 30
0.0
  0
VERTEX
  5
2239
330
2234
100
AcDbEntity
  8
LW 3601-00-01
100
AcDbVertex
100
AcDb2dVertex
 10
77.93828177452088
 20
4.05945748090744
 30
0.0
  0
VERTEX
  5
223A
330
2234
100
AcDbEntity
  8
LW 3601-00-01
100
AcDbVertex
100
AcDb2dVertex
 10
77.8377001285553
 20
3.524794876575469
 30
0.0
  0
VERTEX
  5
223B
330
2234
100
AcDbEntity
  8
LW 3601-00-01
100
AcDbVertex
100
AcDb2dVertex
 10
77.75176811218262
 20
3.001312315464019
 30
0.0
  0
VERTEX
  5
223C
330
2234
100
AcDbEntity
  8
LW 3601-00-01
100
AcDbVertex
100
AcDb2dVertex
 10
77.6799373626709
 20
2.487203180789947
 30
0.0
  0
VERTEX
  5
223D
330
2234
100
AcDbEntity
  8
LW 3601-00-01
100
AcDbVertex
100
AcDb2dVertex
 10
77.62175726890564
 20
1.980762183666229
 30
0.0
  0
VERTEX
  5
223E
330
2234
100
AcDbEntity
  8
LW 3601-00-01
100
AcDbVertex
100
AcDb2dVertex
 10
77.5768690109253
 20
1.480363458395004
 30
0.0
  0
VERTEX
  5
223F
330
2234
100
AcDbEntity
  8
LW 3601-00-01
100
AcDbVertex
100
AcDb2dVertex
 10
77.544997215271
 20
0.984443724155426
 30
0.0
  0
VERTEX
  5
2240
330
2234
100
AcDbEntity
  8
LW 3601-00-01
100
AcDbVertex
100
AcDb2dVertex
 10
77.52595114707947
 20
0.4914852231740952
 30
0.0
  0
VERTEX
  5
2241
330
2234
100
AcDbEntity
  8
LW 3601-00-01
100
AcDbVertex
100
AcDb2dVertex
 10
77.51961517333985
 20
0.0
 30
0.0
  0
VERTEX
  5
2242
330
2234
100
AcDbEntity
  8
LW 3601-00-01
100
AcDbVertex
100
AcDb2dVertex
 10
77.52595114707947
 20
-0.4914852231740952
 30
0.0
  0
VERTEX
  5
2243
330
2234
100
AcDbEntity
  8
LW 3601-00-01
100
AcDbVertex
100
AcDb2dVertex
 10
77.544997215271
 20
-0.984443724155426
 30
0.0
  0
VERTEX
  5
2244
330
2234
100
AcDbEntity
  8
LW 3601-00-01
100
AcDbVertex
100
AcDb2dVertex
 10
77.5768690109253
 20
-1.480363458395004
 30
0.0
  0
VERTEX
  5
2245
330
2234
100
AcDbEntity
  8
LW 3601-00-01
100
AcDbVertex
100
AcDb2dVertex
 10
77.62175726890564
 20
-1.980762183666229
 30
0.0
  0
VERTEX
  5
2246
330
2234
100
AcDbEntity
  8
LW 3601-00-01
100
AcDbVertex
100
AcDb2dVertex
 10
77.6799373626709
 20
-2.487203180789947
 30
0.0
  0
VERTEX
  5
2247
330
2234
100
AcDbEntity
  8
LW 3601-00-01
100
AcDbVertex
100
AcDb2dVertex
 10
77.75176811218262
 20
-3.001312315464019
 30
0.0
  0
VERTEX
  5
2248
330
2234
100
AcDbEntity
  8
LW 3601-00-01
100
AcDbVertex
100
AcDb2dVertex
 10
77.8377001285553
 20
-3.524794876575469
 30
0.0
  0
VERTEX
  5
2249
330
2234
100
AcDbEntity
  8
LW 3601-00-01
100
AcDbVertex
100
AcDb2dVertex
 10
77.93828177452088
 20
-4.05945748090744
 30
0.0
  0
VERTEX
  5
224A
330
2234
100
AcDbEntity
  8
LW 3601-00-01
100
AcDbVertex
100
AcDb2dVertex
 10
78.05417048931122
 20
-4.607227742671966
 30
0.0
  0
VERTEX
  5
224B
330
2234
100
AcDbEntity
  8
LW 3601-00-01
100
AcDbVertex
100
AcDb2dVertex
 10
78.18613994121552
 20
-5.170181393623352
 30
0.0
  0
VERTEX
  5
224C
330
2234
100
AcDbEntity
  8
LW 3601-00-01
100
AcDbVertex
100
AcDb2dVertex
 10
78.3350967168808
 20
-5.750569701194763
 30
0.0
  0
VERTEX
  5
224D
330
2234
100
AcDbEntity
  8
LW 3601-00-01
100
AcDbVertex
100
AcDb2dVertex
 10
78.50209581851959
 20
-6.350852847099304
 30
0.0
  0
SEQEND
  5
224E
330
2234
100
AcDbEntity
  8
LW 3601-00-01
  0
POLYLINE
  5
224F
330
210D
100
AcDbEntity
  8
LW 3601-00-01
100
AcDb2dPolyline
 66
     1
 10
0.0
 20
0.0
 30
0.0
 70
   128
  0
VERTEX
  5
2250
330
224F
100
AcDbEntity
  8
LW 3601-00-01
100
AcDbVertex
100
AcDb2dVertex
 10
78.50209581851959
 20
12.70170569419861
 30
0.0
  0
VERTEX
  5
2251
330
224F
100
AcDbEntity
  8
LW 3601-00-01
100
AcDbVertex
100
AcDb2dVertex
 10
78.3350967168808
 20
12.40156412124634
 30
0.0
  0
VERTEX
  5
2252
330
224F
100
AcDbEntity
  8
LW 3601-00-01
100
AcDbVertex
100
AcDb2dVertex
 10
78.18613994121552
 20
12.11137056350708
 30
0.0
  0
VERTEX
  5
2253
330
224F
100
AcDbEntity
  8
LW 3601-00-01
100
AcDbVertex
100
AcDb2dVertex
 10
78.05417048931122
 20
11.82989358901977
 30
0.0
  0
VERTEX
  5
2254
330
224F
100
AcDbEntity
  8
LW 3601-00-01
100
AcDbVertex
100
AcDb2dVertex
 10
77.93828177452088
 20
11.55600786209106
 30
0.0
  0
VERTEX
  5
2255
330
224F
100
AcDbEntity
  8
LW 3601-00-01
100
AcDbVertex
100
AcDb2dVertex
 10
77.8377001285553
 20
11.28867745399475
 30
0.0
  0
VERTEX
  5
2256
330
224F
100
AcDbEntity
  8
LW 3601-00-01
100
AcDbVertex
100
AcDb2dVertex
 10
77.75176811218262
 20
11.02693557739258
 30
0.0
  0
VERTEX
  5
2257
330
224F
100
AcDbEntity
  8
LW 3601-00-01
100
AcDbVertex
100
AcDb2dVertex
 10
77.6799373626709
 20
10.76988101005554
 30
0.0
  0
VERTEX
  5
2258
330
224F
100
AcDbEntity
  8
LW 3601-00-01
100
AcDbVertex
100
AcDb2dVertex
 10
77.62175726890564
 20
10.51666021347046
 30
0.0
  0
VERTEX
  5
2259
330
224F
100
AcDbEntity
  8
LW 3601-00-01
100
AcDbVertex
100
AcDb2dVertex
 10
77.5768690109253
 20
10.26646137237549
 30
0.0
  0
VERTEX
  5
225A
330
224F
100
AcDbEntity
  8
LW 3601-00-01
100
AcDbVertex
100
AcDb2dVertex
 10
77.544997215271
 20
10.01850128173828
 30
0.0
  0
VERTEX
  5
225B
330
224F
100
AcDbEntity
  8
LW 3601-00-01
100
AcDbVertex
100
AcDb2dVertex
 10
77.52595114707947
 20
9.772021770477294
 30
0.0
  0
VERTEX
  5
225C
330
224F
100
AcDbEntity
  8
LW 3601-00-01
100
AcDbVertex
100
AcDb2dVertex
 10
77.51961517333985
 20
9.52627956867218
 30
0.0
  0
VERTEX
  5
225D
330
224F
100
AcDbEntity
  8
LW 3601-00-01
100
AcDbVertex
100
AcDb2dVertex
 10
77.52595114707947
 20
9.280536770820617
 30
0.0
  0
VERTEX
  5
225E
330
224F
100
AcDbEntity
  8
LW 3601-00-01
100
AcDbVertex
100
AcDb2dVertex
 10
77.544997215271
 20
9.034057855606079
 30
0.0
  0
VERTEX
  5
225F
330
224F
100
AcDbEntity
  8
LW 3601-00-01
100
AcDbVertex
100
AcDb2dVertex
 10
77.5768690109253
 20
8.786097764968872
 30
0.0
  0
VERTEX
  5
2260
330
224F
100
AcDbEntity
  8
LW 3601-00-01
100
AcDbVertex
100
AcDb2dVertex
 10
77.62175726890564
 20
8.535898327827453
 30
0.0
  0
VERTEX
  5
2261
330
224F
100
AcDbEntity
  8
LW 3601-00-01
100
AcDbVertex
100
AcDb2dVertex
 10
77.6799373626709
 20
8.282678127288818
 30
0.0
  0
VERTEX
  5
2262
330
224F
100
AcDbEntity
  8
LW 3601-00-01
100
AcDbVertex
100
AcDb2dVertex
 10
77.75176811218262
 20
8.025623559951782
 30
0.0
  0
VERTEX
  5
2263
330
224F
100
AcDbEntity
  8
LW 3601-00-01
100
AcDbVertex
100
AcDb2dVertex
 10
77.8377001285553
 20
7.763881683349609
 30
0.0
  0
VERTEX
  5
2264
330
224F
100
AcDbEntity
  8
LW 3601-00-01
100
AcDbVertex
100
AcDb2dVertex
 10
77.93828177452088
 20
7.496550679206848
 30
0.0
  0
VERTEX
  5
2265
330
224F
100
AcDbEntity
  8
LW 3601-00-01
100
AcDbVertex
100
AcDb2dVertex
 10
78.05417048931122
 20
7.222665548324584
 30
0.0
  0
VERTEX
  5
2266
330
224F
100
AcDbEntity
  8
LW 3601-00-01
100
AcDbVertex
100
AcDb2dVertex
 10
78.18613994121552
 20
6.94118857383728
 30
0.0
  0
VERTEX
  5
2267
330
224F
100
AcDbEntity
  8
LW 3601-00-01
100
AcDbVertex
100
AcDb2dVertex
 10
78.3350967168808
 20
6.650994420051574
 30
0.0
  0
VERTEX
  5
2268
330
224F
100
AcDbEntity
  8
LW 3601-00-01
100
AcDbVertex
100
AcDb2dVertex
 10
78.50209581851959
 20
6.350852847099304
 30
0.0
  0
SEQEND
  5
2269
330
224F
100
AcDbEntity
  8
LW 3601-00-01
  0
LINE
  5
226A
330
210D
100
AcDbEntity
  8
LW 3601-00-01
100
AcDbLine
 10
88.0
 20
-10.10000000000002
 30
0.0
 11
86.49790438548189
 21
-12.70170592217175
 31
0.0
  0
LINE
  5
226B
330
210D
100
AcDbEntity
  8
LW 3601-00-01
100
AcDbLine
 10
88.0
 20
10.10000000000002
 30
0.0
 11
86.49790438548189
 21
12.70170592217175
 31
0.0
  0
LINE
  5
226C
330
210D
100
AcDbEntity
  8
LW 3601-00-01
100
AcDbLine
 10
76.99999999999988
 20
10.10000000000002
 30
0.0
 11
78.50209561451811
 21
12.70170592217187
 31
0.0
  0
LINE
  5
226D
330
210D
100
AcDbEntity
  8
LW 3601-00-01
100
AcDbLine
 10
77.0
 20
-10.09999999999991
 30
0.0
 11
78.50209561451811
 21
-12.70170592217175
 31
0.0
  0
LINE
  5
226E
330
210D
100
AcDbEntity
  8
LW 3601-00-01
100
AcDbLine
 10
86.49790438548189
 20
12.70170592217175
 30
0.0
 11
78.50209561451811
 21
12.70170592217175
 31
0.0
  0
LINE
  5
226F
330
210D
100
AcDbEntity
  8
LW 3601-00-01
100
AcDbLine
 10
86.49790438548189
 20
6.350852961085934
 30
0.0
 11
78.50209561451811
 21
6.350852961085934
 31
0.0
  0
LINE
  5
2270
330
210D
100
AcDbEntity
  8
LW 3601-00-01
100
AcDbLine
 10
86.49790438548189
 20
-6.35085296108582
 30
0.0
 11
78.50209561451811
 21
-6.35085296108582
 31
0.0
  0
LINE
  5
2271
330
210D
100
AcDbEntity
  8
LW 3601-00-01
100
AcDbLine
 10
86.49790438548189
 20
-12.70170592217175
 30
0.0
 11
78.50209561451811
 21
-12.70170592217175
 31
0.0
  0
LINE
  5
2272
330
210D
100
AcDbEntity
  8
LW 3601-00-01
100
AcDbLine
 10
-16.0
 20
-7.0
 30
0.0
 11
-16.0
 21
7.0
 31
0.0
  0
LINE
  5
2273
330
210D
100
AcDbEntity
  8
LW 3601-00-01
100
AcDbLine
 10
-17.0
 20
-6.0
 30
0.0
 11
-17.0
 21
6.0
 31
0.0
  0
LINE
  5
2274
330
210D
100
AcDbEntity
  8
LW 3601-00-01
100
AcDbLine
 10
94.0
 20
-7.0
 30
0.0
 11
94.0
 21
7.0
 31
0.0
  0
LINE
  5
2275
330
210D
100
AcDbEntity
  8
LW 3601-00-01
100
AcDbLine
 10
95.0
 20
-6.0
 30
0.0
 11
95.0
 21
6.0
 31
0.0
  0
LINE
  5
2276
330
210D
100
AcDbEntity
  8
LW 3601-00-01
100
AcDbLine
 10
-17.0
 20
6.0
 30
0.0
 11
-16.0
 21
7.0
 31
0.0
  0
LINE
  5
2277
330
210D
100
AcDbEntity
  8
LW 3601-00-01
100
AcDbLine
 10
-17.0
 20
-6.0
 30
0.0
 11
-16.0
 21
-7.0
 31
0.0
  0
LINE
  5
2278
330
210D
100
AcDbEntity
  8
LW 3601-00-01
100
AcDbLine
 10
-16.0
 20
7.0
 30
0.0
 11
46.0
 21
7.0
 31
0.0
  0
LINE
  5
2279
330
210D
100
AcDbEntity
  8
LW 3601-00-01
100
AcDbLine
 10
62.0
 20
7.0
 30
0.0
 11
72.0
 21
7.0
 31
0.0
  0
LINE
  5
227A
330
210D
100
AcDbEntity
  8
LW 3601-00-01
100
AcDbLine
 10
88.0
 20
7.0
 30
0.0
 11
94.0
 21
7.0
 31
0.0
  0
LINE
  5
227B
330
210D
100
AcDbEntity
  8
LW 3601-00-01
100
AcDbLine
 10
-16.0
 20
-7.0
 30
0.0
 11
46.0
 21
-7.0
 31
0.0
  0
LINE
  5
227C
330
210D
100
AcDbEntity
  8
LW 3601-00-01
100
AcDbLine
 10
62.0
 20
-7.0
 30
0.0
 11
72.0
 21
-7.0
 31
0.0
  0
LINE
  5
227D
330
210D
100
AcDbEntity
  8
LW 3601-00-01
100
AcDbLine
 10
88.0
 20
-7.0
 30
0.0
 11
94.0
 21
-7.0
 31
0.0
  0
LINE
  5
227E
330
210D
100
AcDbEntity
  8
LW 3601-00-01
100
AcDbLine
 10
95.0
 20
-6.0
 30
0.0
 11
94.0
 21
-7.0
 31
0.0
  0
LINE
  5
227F
330
210D
100
AcDbEntity
  8
LW 3601-00-01
100
AcDbLine
 10
95.0
 20
6.0
 30
0.0
 11
94.0
 21
7.0
 31
0.0
  0
LINE
  5
2280
330
210D
100
AcDbEntity
  8
LW 3601-00-01
 62
     3
100
AcDbLine
 10
95.0
 20
5.79449999999997
 30
0.0
 11
88.0
 21
5.79449999999997
 31
0.0
  0
LINE
  5
2281
330
210D
100
AcDbEntity
  8
LW 3601-00-01
 62
     3
100
AcDbLine
 10
72.0
 20
5.79449999999997
 30
0.0
 11
62.0
 21
5.79449999999997
 31
0.0
  0
LINE
  5
2282
330
210D
100
AcDbEntity
  8
LW 3601-00-01
 62
     3
100
AcDbLine
 10
46.0
 20
5.79449999999997
 30
0.0
 11
35.0
 21
5.79449999999997
 31
0.0
  0
LINE
  5
2283
330
210D
100
AcDbEntity
  8
LW 3601-00-01
 62
     3
100
AcDbLine
 10
35.0
 20
-5.79449999999997
 30
0.0
 11
46.0
 21
-5.79449999999997
 31
0.0
  0
LINE
  5
2284
330
210D
100
AcDbEntity
  8
LW 3601-00-01
 62
     3
100
AcDbLine
 10
62.0
 20
-5.79449999999997
 30
0.0
 11
72.0
 21
-5.79449999999997
 31
0.0
  0
LINE
  5
2285
330
210D
100
AcDbEntity
  8
LW 3601-00-01
 62
     3
100
AcDbLine
 10
88.0
 20
-5.79449999999997
 30
0.0
 11
95.0
 21
-5.79449999999997
 31
0.0
  0
LINE
  5
2286
330
210D
100
AcDbEntity
  8
LW 3601-00-01
 62
     3
100
AcDbLine
 10
35.0
 20
-7.0
 30
0.0
 11
35.0
 21
7.0
 31
0.0
  0
LINE
  5
2287
330
210D
100
AcDbEntity
  8
LW 3601-00-01
100
AcDbLine
 10
94.0
 20
-7.0
 30
0.0
 11
94.0
 21
7.0
 31
0.0
  0
LINE
  5
2288
330
210D
100
AcDbEntity
  8
LW 3601-00-01
 62
     3
100
AcDbLine
 10
0.0
 20
5.79449999999997
 30
0.0
 11
-17.0
 21
5.79449999999997
 31
0.0
  0
LINE
  5
2289
330
210D
100
AcDbEntity
  8
LW 3601-00-01
 62
     3
100
AcDbLine
 10
-17.0
 20
-5.79449999999997
 30
0.0
 11
0.0
 21
-5.79449999999997
 31
0.0
  0
LINE
  5
228A
330
210D
100
AcDbEntity
  8
LW 3601-00-01
 62
     3
100
AcDbLine
 10
0.0
 20
7.0
 30
0.0
 11
0.0
 21
-7.0
 31
0.0
  0
LINE
  5
228B
330
210D
100
AcDbEntity
  8
LW 3601-00-01
100
AcDbLine
 10
-16.0
 20
-7.0
 30
0.0
 11
-16.0
 21
7.0
 31
0.0
  0
LINE
  5
228C
330
210D
100
AcDbEntity
  8
LW 3601-00-01
  6
MITTE2
 62
     3
100
AcDbLine
 10
-22.20787096165509
 20
0.0
 30
0.0
 11
99.0
 21
0.0
 31
0.0
  0
HATCH
  5
228D
330
210D
100
AcDbEntity
  8
LW 3601-00-01
 62
     1
100
AcDbHatch
 10
0.0
 20
0.0
 30
0.0
210
0.0
220
0.0
230
1.0
  2
SOLID
 70
     1
 71
     0
 91
        5
 92
        7
 72
     0
 73
     1
 93
       76
 10
12.53660191472284
 20
4.412634345913033
 10
12.56846074409566
 20
4.464215307754727
 10
12.68661886832683
 20
4.615457706770712
 10
12.8210969435396
 20
4.755881837033257
 10
12.96711685000116
 20
4.884266398746603
 10
13.13078564608315
 20
5.001172681662353
 10
13.30617259944779
 20
5.103350563484013
 10
13.48792553204816
 20
5.194702243066899
 10
13.6690944675139
 20
5.264220555513077
 10
11.4119565293139
 20
5.26422055551302
 10
11.19905997691387
 20
5.255530900312976
 10
10.99702549351389
 20
5.229461934713015
 10
10.80150825151384
 20
5.188186072512962
 10
10.61685307851394
 20
5.133875727512986
 10
10.4408875607138
 20
5.064358485912975
 10
10.27361169811388
 20
4.981806761512871
 10
10.12304343556695
 20
4.886481243969058
 10
9.980335835114033
 20
4.779772278112943
 10
9.85489457954327
 20
4.660724001872836
 10
9.743629627465907
 20
4.532464691120935
 10
9.643611696113907
 20
4.395255035512946
 10
9.561059971713916
 20
4.249703310912877
 10
9.498059971513953
 20
4.095461931112765
 10
9.448094454114084
 20
3.934703309913004
 10
9.419853074713955
 20
3.769599861112908
 10
9.411163419513968
 20
3.595806757112939
 10
9.422025488514009
 20
3.422013653112855
 10
9.452439281713964
 20
3.254737790512876
 10
9.506749626714054
 20
3.093979169312945
 10
9.57626686831395
 20
2.937565375712893
 10
9.665335834114102
 20
2.789841237312828
 10
9.771784110314001
 20
2.64863434031298
 10
9.894482041738001
 20
2.517420546792891
 10
10.03068109044625
 20
2.396286753304991
 10
10.17802549091402
 20
2.285841235712894
 10
10.33878411211412
 20
2.188082614713039
 10
10.51441073336127
 20
2.103184683408983
 10
10.69505997531394
 20
2.02949640731299
 10
10.88623238971411
 20
1.97301364851296
 10
11.08609445931404
 20
1.929565372512968
 10
11.29464618411396
 20
1.90349640691295
 10
11.50537032271393
 20
1.894806751712962
 10
13.6245414084666
 20
1.894806751713076
 10
13.46399754441415
 20
1.957877555447964
 10
13.28043340061174
 20
2.04849782897071
 10
13.11196699444156
 20
2.153027521902288
 10
12.9491340996808
 20
2.268645760327729
 10
12.80522173131066
 20
2.398435356867594
 10
12.67778583782638
 20
2.537789040096129
 10
12.56408048308299
 20
2.688277284808691
 10
12.51210925163434
 20
2.772461926913024
 10
11.48364618471396
 20
2.772461926912967
 10
11.35153735670849
 20
2.780021926937024
 10
11.22078411491395
 20
2.80035572010496
 10
11.09261170071409
 20
2.833289513312934
 10
10.97747376931408
 20
2.878910203113036
 10
10.87252880346364
 20
2.935392961912953
 10
10.77437914797963
 20
3.002998479368955
 10
10.68419790631401
 20
3.080944686512907
 10
10.61250825091406
 20
3.165668824712952
 10
12.34002956517281
 20
3.165668824713009
 10
12.32944509789979
 20
3.198304265471335
 10
12.29333328993539
 20
3.383678213022449
 10
12.28128963715369
 20
3.573967926973182
 10
12.29331130958303
 20
3.768719020328205
 10
12.32961703125829
 20
3.955088391594699
 10
12.34621573393326
 20
4.004220551512958
 10
10.57557721631394
 20
4.004220551512958
 10
10.64509445791395
 20
4.099806758712873
 10
10.72764618231395
 20
4.182358483112977
 10
10.82273707916749
 20
4.252223310920896
 10
10.92533583811394
 20
4.310530897313014
 10
11.0440278384907
 20
4.354500552624926
 10
11.16647376991398
 20
4.386565380312958
 10
11.30333583931394
 20
4.406117104512929
 10
11.44671515011396
 20
4.412634345912977
 97
        0
 92
        7
 72
     0
 73
     1
 93
       72
 10
14.26506577975067
 20
4.39803572517701
 10
14.38792881462348
 20
4.416110207993028
 10
14.5119910219139
 20
4.421324001113077
 10
15.78068068111395
 20
4.421324001113134
 10
14.93343929911396
 20
3.606668826113207
 10
16.69961171851412
 20
1.8882895103132
 10
18.01826689511392
 20
1.8882895103132
 10
16.30423240691402
 20
3.630565377913171
 10
17.98568068811391
 20
5.264220555513247
 10
14.54674964271396
 20
5.264220555513077
 10
14.33876274550186
 20
5.253445383065127
 10
14.13204453794901
 20
5.227984693329005
 10
13.92761170971391
 20
5.188186072513076
 10
13.73426688151392
 20
5.131703313713046
 10
13.54743929471385
 20
5.060013658313039
 10
13.37627915623943
 20
4.973986071833053
 10
13.21071515571395
 20
4.877530899113025
 10
13.05864618971395
 20
4.768910209113073
 10
12.92294853411078
 20
4.649601243217034
 10
12.797956533714
 20
4.519082622112989
 10
12.68933584371382
 20
4.380048138912968
 10
12.59809446411395
 20
4.232324000513131
 10
12.52640480871389
 20
4.078082620713018
 10
12.47209446371391
 20
3.91732399951303
 10
12.43950825671402
 20
3.750048136912994
 10
12.42864618771398
 20
3.574082619112914
 10
12.43950825671402
 20
3.402461928913055
 10
12.47209446371403
 20
3.235186066313076
 10
12.52423239491406
 20
3.074427445113087
 10
12.59374963651396
 20
2.920186065313032
 10
12.6855906023228
 20
2.771419168289128
 10
12.79097005093319
 20
2.631950202328994
 10
12.90897556854929
 20
2.502908822609128
 10
13.04126687931398
 20
2.38359985671309
 10
13.1933879832452
 20
2.275587442576977
 10
13.35192205271403
 20
2.177220545712998
 10
13.52354274291406
 20
2.092496407513067
 10
13.70602550211413
 20
2.02080675211306
 10
13.90025667514442
 20
1.966757096769072
 10
14.097059986114
 20
1.923048131113034
 10
14.30561171091403
 20
1.896979165513073
 10
14.51633584951401
 20
1.888289510313086
 10
16.41937033831402
 20
1.8882895103132
 10
15.53302550791397
 20
2.761599857913154
 10
14.51633584951401
 20
2.761599857913097
 10
14.44966881481946
 20
2.765347150852392
 10
14.34872109036121
 20
2.775329513129065
 10
14.22858660722124
 20
2.796792961473101
 10
14.11146743443566
 20
2.831117099512994
 10
14.00997226169966
 20
2.872045375505081
 10
13.95383708910754
 20
2.900199858353118
 10
13.90015239928198
 20
2.932786065353184
 10
13.76759170920593
 20
3.032108824289025
 10
13.69399032966203
 20
3.102147445201069
 10
13.63892398465964
 20
3.170013652312945
 10
13.59021846726352
 20
3.242572273233008
 10
13.55085432920748
 20
3.319736411408996
 10
13.52143115670037
 20
3.401158480633
 10
13.50073239801395
 20
3.488315722289087
 10
13.49321584626591
 20
3.577645377744943
 10
13.49457143247718
 20
3.639950205529032
 10
13.5005759842204
 20
3.70208124020894
 10
13.51273281184524
 20
3.765255033513085
 10
13.5309463291444
 20
3.82695158543305
 10
13.57459446721384
 20
3.925666068504938
 10
13.61612232941479
 20
3.993532275616985
 10
13.67920053651153
 20
4.071565379313028
 10
13.80860247687633
 20
4.198088116366704
 10
13.86787033021403
 20
4.238146069497076
 10
13.94416550286996
 20
4.282463311017011
 10
14.0281857789987
 20
4.324608138737062
 10
14.14472274488594
 20
4.367448138873101
 97
        0
 92
        7
 72
     0
 73
     1
 93
       57
 10
18.82310275973805
 20
4.375964000969304
 10
18.95457724291395
 20
4.415936414889301
 10
19.08926689851387
 20
4.443048139113329
 10
19.23264620931388
 20
4.45173779431326
 10
20.47309448911392
 20
4.451737794313316
 10
20.47309448911392
 20
5.277255038313342
 10
19.23916345071393
 20
5.277255038313228
 10
19.02843931211396
 20
5.268565383113241
 10
18.82206000111398
 20
5.240324003713226
 10
18.62437034531399
 20
5.199048141513287
 10
18.43537034471399
 20
5.144737796513254
 10
18.25071517171398
 20
5.073048141113247
 10
18.08430827463371
 20
4.990409520161165
 10
17.92548744654346
 20
4.893954347441137
 10
17.7754084115844
 20
4.784464691921186
 10
17.64084910081249
 20
4.665242622577238
 10
17.52078413491392
 20
4.536461932513191
 10
17.41650827251396
 20
4.397427449313227
 10
17.33178413431392
 20
4.251875724713158
 10
17.26009447891385
 20
4.097634344913103
 10
17.21012896151399
 20
3.936875723713285
 10
17.17754275451398
 20
3.769599861113306
 10
17.16668068551405
 20
3.595806757113223
 10
17.17754275451398
 20
3.422013653113197
 10
17.21012896151399
 20
3.254737790513217
 10
17.26226689271391
 20
3.093979169313115
 10
17.33395654811409
 20
2.937565375713234
 10
17.42085310011407
 20
2.789841237313225
 10
17.5296997211492
 20
2.650285374801228
 10
17.64955613532277
 20
2.519940546801251
 10
17.78598372196279
 20
2.398632960209226
 10
17.93354275691399
 20
2.288013649513175
 10
18.09430137811398
 20
2.190255028513149
 10
18.26809448211395
 20
2.105530890313218
 10
18.45274965511407
 20
2.031668821113328
 10
18.64392206951402
 20
1.975186062313241
 10
18.84378413911406
 20
1.931737786313306
 10
19.05016345011404
 20
1.907841234513171
 10
19.26306000251407
 20
1.89915157931324
 10
20.47309448911403
 20
1.899151579313297
 10
20.47309448911403
 20
2.757255030313274
 10
19.23916345071393
 20
2.757255030313217
 10
19.10551655373797
 20
2.767595720001168
 10
18.9732600015941
 20
2.789580547657294
 10
18.852647587418
 20
2.823904685697243
 10
18.73664069049812
 20
2.871871582401297
 10
18.62697724187398
 20
2.932786065353297
 10
18.52991379329001
 20
3.000391582809186
 10
18.44249586197804
 20
3.080162617545227
 10
18.36802551691403
 20
3.165668824713236
 10
20.47309448911403
 20
3.165668824713293
 10
20.47309448911403
 20
3.993358482513315
 10
18.33109448231391
 20
3.993358482513201
 10
18.40061172391392
 20
4.091117103513226
 10
18.48750827591391
 20
4.180186069313151
 10
18.58865586244201
 20
4.256481241969254
 10
18.69606000071394
 20
4.323565380113223
 97
        0
 92
        7
 72
     0
 73
     1
 93
        6
 10
20.70337035191403
 20
5.264220555513361
 10
20.70337035191403
 20
1.894806751713304
 10
22.94095656591412
 20
1.894806751713417
 10
22.94095656591401
 20
2.761599857913438
 10
21.72657725171405
 20
2.761599857913438
 10
21.72657725171394
 20
5.264220555513361
 97
        0
 92
        7
 72
     0
 73
     1
 93
        8
 10
21.95902552831388
 20
5.264220555513361
 10
21.95902552831388
 20
4.438703311513336
 10
23.19295656671398
 20
4.438703311513449
 10
23.19295656671409
 20
1.888289510313427
 10
24.21833588031404
 20
1.888289510313427
 10
24.21833588031393
 20
4.438703311513393
 10
25.4609565739139
 20
4.438703311513449
 10
25.4609565739139
 20
5.264220555513475
 97
        0
 75
     0
 76
     1
 47
0.0142553043587597
 98
        5
 10
11.84626204078915
 20
4.821770885923911
 10
14.11375925413176
 20
4.679217900918217
 10
18.60597098633332
 20
4.736239073466038
 10
21.32982007016494
 20
4.978579298158479
 10
22.7416580523917
 20
4.878792165745096
450
        0
451
        0
460
0.0
461
0.0
452
        0
462
0.0
453
        0
470

  0
LWPOLYLINE
  5
228E
330
210D
100
AcDbEntity
  8
LW 3601-00-01
 62
     1
100
AcDbPolyline
 90
        8
 70
     1
 43
0.0
 10
24.21833588031393
 20
4.438703311513393
 10
24.21833588031404
 20
1.888289510313427
 10
23.19295656671409
 20
1.888289510313427
 10
23.19295656671398
 20
4.438703311513449
 10
21.95902552831388
 20
4.438703311513336
 10
21.95902552831388
 20
5.264220555513361
 10
25.4609565739139
 20
5.264220555513475
 10
25.4609565739139
 20
4.438703311513449
  0
LWPOLYLINE
  5
228F
330
210D
100
AcDbEntity
  8
LW 3601-00-01
 62
     1
100
AcDbPolyline
 90
       73
 70
     1
 43
0.0
 10
14.51633584951401
 20
2.761599857913097
 10
15.53302550791397
 20
2.761599857913154
 10
16.41937033831402
 20
1.8882895103132
 10
14.51633584951401
 20
1.888289510313029
 10
14.30561171091403
 20
1.896979165513073
 10
14.097059986114
 20
1.923048131113091
 10
13.90025667514442
 20
1.966757096769072
 10
13.70602550211413
 20
2.02080675211306
 10
13.52354274291406
 20
2.092496407513067
 10
13.35192205271403
 20
2.177220545713055
 10
13.19338798324531
 20
2.275587442577091
 10
13.04126687931398
 20
2.38359985671309
 10
12.90897556854918
 20
2.502908822609015
 10
12.79097005093319
 20
2.631950202328994
 10
12.6855906023228
 20
2.771419168289071
 10
12.59374963651396
 20
2.920186065313032
 10
12.52423239491406
 20
3.074427445113087
 10
12.47209446371403
 20
3.235186066313076
 10
12.43950825671402
 20
3.402461928913055
 10
12.42864618771398
 20
3.574082619113028
 10
12.43950825671402
 20
3.750048136912994
 10
12.47209446371391
 20
3.91732399951303
 10
12.526404808714
 20
4.078082620713018
 10
12.59809446411395
 20
4.232324000513074
 10
12.68933584371393
 20
4.380048138913025
 10
12.797956533714
 20
4.519082622112989
 10
12.92294853411078
 20
4.649601243217091
 10
13.05864618971384
 20
4.768910209113016
 10
13.21071515571395
 20
4.877530899113025
 10
13.37627915623954
 20
4.973986071832996
 10
13.54743929471385
 20
5.060013658312982
 10
13.73426688151392
 20
5.131703313713046
 10
13.92761170971391
 20
5.188186072513133
 10
14.13204453794913
 20
5.227984693329062
 10
14.33876274550186
 20
5.253445383065127
 10
14.54674964271385
 20
5.264220555513077
 10
17.98568068811391
 20
5.264220555513247
 10
16.30423240691402
 20
3.630565377913171
 10
18.01826689511392
 20
1.8882895103132
 10
16.69961171851412
 20
1.8882895103132
 10
14.93343929911396
 20
3.606668826113207
 10
15.78068068111395
 20
4.421324001113134
 10
14.5119910219139
 20
4.421324001113077
 10
14.38792881462348
 20
4.416110207993028
 10
14.26506577975067
 20
4.39803572517701
 10
14.14472274488594
 20
4.367448138873101
 10
14.0281857789987
 20
4.324608138737005
 10
13.94416550286985
 20
4.282463311017068
 10
13.86787033021392
 20
4.238146069497076
 10
13.82762853698273
 20
4.210947448721071
 10
13.79011529548438
 20
4.180012276209083
 10
13.67920053651153
 20
4.071565379313028
 10
13.61612232941479
 20
3.993532275616985
 10
13.57459446721395
 20
3.925666068505051
 10
13.5309463291444
 20
3.82695158543305
 10
13.51273281184524
 20
3.765255033513085
 10
13.5005759842204
 20
3.702081240209054
 10
13.49457143247718
 20
3.639950205529089
 10
13.49321584626602
 20
3.577645377745056
 10
13.50073239801395
 20
3.488315722289087
 10
13.52143115670048
 20
3.401158480633057
 10
13.55085432920759
 20
3.319736411409053
 10
13.59021846726352
 20
3.242572273233008
 10
13.63892398465953
 20
3.170013652313059
 10
13.69399032966203
 20
3.102147445201069
 10
13.76759170920593
 20
3.032108824289025
 10
13.90015239928209
 20
2.932786065353127
 10
13.95383708910765
 20
2.900199858353062
 10
14.00997226169966
 20
2.872045375505081
 10
14.11146743443566
 20
2.831117099512994
 10
14.22858660722124
 20
2.796792961473101
 10
14.34872109036121
 20
2.775329513129065
 10
14.44966881481957
 20
2.765347150852448
  0
LWPOLYLINE
  5
2290
330
210D
100
AcDbEntity
  8
LW 3601-00-01
 62
     1
100
AcDbPolyline
 90
       76
 70
     1
 43
0.0
 10
13.30617259944779
 20
5.103350563484013
 10
13.13078564608304
 20
5.001172681662296
 10
12.96711685000105
 20
4.88426639874666
 10
12.8210969435396
 20
4.755881837033257
 10
12.68661886832683
 20
4.615457706770712
 10
12.56846074409566
 20
4.464215307754841
 10
12.53660191472284
 20
4.412634345913033
 10
11.44671515011396
 20
4.412634345913033
 10
11.30333583931394
 20
4.406117104512929
 10
11.16647376991386
 20
4.386565380312958
 10
11.0440278384907
 20
4.354500552624926
 10
10.92533583811394
 20
4.310530897313014
 10
10.82273707916761
 20
4.252223310920953
 10
10.72764618231395
 20
4.182358483112921
 10
10.64509445791384
 20
4.099806758712929
 10
10.57557721631394
 20
4.004220551512958
 10
12.34621573393326
 20
4.004220551512958
 10
12.32961703125829
 20
3.955088391594699
 10
12.29331130958292
 20
3.768719020328092
 10
12.28128963715369
 20
3.573967926973182
 10
12.29333328993539
 20
3.383678213022449
 10
12.3294450978999
 20
3.198304265471392
 10
12.34002956517281
 20
3.165668824713009
 10
10.61250825091406
 20
3.165668824712952
 10
10.68419790631401
 20
3.080944686512907
 10
10.77437914797963
 20
3.002998479368955
 10
10.87252880346364
 20
2.935392961912953
 10
10.97747376931408
 20
2.878910203113036
 10
11.09261170071409
 20
2.83328951331299
 10
11.22078411491395
 20
2.80035572010496
 10
11.35153735670849
 20
2.780021926937024
 10
11.48364618471396
 20
2.772461926912967
 10
12.51210925163434
 20
2.772461926913024
 10
12.56408048308299
 20
2.688277284808748
 10
12.67778583782638
 20
2.537789040096129
 10
12.80522173131066
 20
2.398435356867594
 10
12.94913409968092
 20
2.268645760327842
 10
13.11196699444156
 20
2.153027521902288
 10
13.28043340061174
 20
2.04849782897071
 10
13.46399754441415
 20
1.957877555447964
 10
13.6245414084666
 20
1.894806751713076
 10
11.50537032271404
 20
1.894806751712906
 10
11.29464618411396
 20
1.90349640691295
 10
11.08609445931404
 20
1.929565372512968
 10
10.88623238971399
 20
1.97301364851296
 10
10.69505997531405
 20
2.029496407312876
 10
10.51441073336116
 20
2.103184683408926
 10
10.33878411211412
 20
2.188082614713039
 10
10.17802549091402
 20
2.285841235712894
 10
10.03068109044636
 20
2.396286753304934
 10
9.894482041738001
 20
2.517420546792891
 10
9.771784110314001
 20
2.648634340312923
 10
9.665335834113989
 20
2.789841237312884
 10
9.576266868314064
 20
2.937565375712949
 10
9.506749626714054
 20
3.093979169312945
 10
9.452439281713964
 20
3.254737790512876
 10
9.422025488514009
 20
3.422013653112969
 10
9.411163419513968
 20
3.595806757112882
 10
9.419853074713842
 20
3.769599861112851
 10
9.44809445411397
 20
3.934703309912947
 10
9.498059971513953
 20
4.095461931112879
 10
9.561059971713916
 20
4.249703310912877
 10
9.643611696113907
 20
4.395255035512946
 10
9.74362962746602
 20
4.532464691120935
 10
9.85489457954327
 20
4.660724001872893
 10
9.980335835113919
 20
4.779772278112886
 10
10.12304343556695
 20
4.886481243968944
 10
10.27361169811399
 20
4.981806761512984
 10
10.44088756071392
 20
5.064358485912919
 10
10.61685307851394
 20
5.133875727512986
 10
10.80150825151395
 20
5.188186072512905
 10
10.99702549351389
 20
5.229461934713015
 10
11.19905997691387
 20
5.255530900312976
 10
11.4119565293139
 20
5.264220555512963
 10
13.66909446751401
 20
5.264220555513134
 10
13.48792553204816
 20
5.194702243066899
  0
LWPOLYLINE
  5
2291
330
210D
100
AcDbEntity
  8
LW 3601-00-01
 62
     1
100
AcDbPolyline
 90
        6
 70
     1
 43
0.0
 10
22.94095656591412
 20
1.894806751713417
 10
20.70337035191403
 20
1.894806751713304
 10
20.70337035191403
 20
5.264220555513361
 10
21.72657725171394
 20
5.264220555513361
 10
21.72657725171405
 20
2.761599857913438
 10
22.94095656591401
 20
2.761599857913438
  0
LWPOLYLINE
  5
2292
330
210D
100
AcDbEntity
  8
LW 3601-00-01
 62
     1
100
AcDbPolyline
 90
       57
 70
     1
 43
0.0
 10
17.64955613532277
 20
2.519940546801251
 10
17.5296997211492
 20
2.650285374801171
 10
17.42085310011396
 20
2.789841237313169
 10
17.33395654811409
 20
2.937565375713234
 10
17.26226689271391
 20
3.093979169313115
 10
17.21012896151399
 20
3.254737790513217
 10
17.17754275451398
 20
3.422013653113197
 10
17.16668068551405
 20
3.595806757113223
 10
17.17754275451398
 20
3.769599861113249
 10
17.21012896151399
 20
3.936875723713171
 10
17.26009447891385
 20
4.097634344913103
 10
17.33178413431392
 20
4.251875724713215
 10
17.41650827251385
 20
4.397427449313113
 10
17.52078413491392
 20
4.536461932513248
 10
17.64084910081226
 20
4.665242622577181
 10
17.7754084115844
 20
4.784464691921186
 10
17.92548744654357
 20
4.893954347441194
 10
18.08430827463405
 20
4.990409520161279
 10
18.25071517171398
 20
5.073048141113247
 10
18.43537034471387
 20
5.144737796513197
 10
18.62437034531399
 20
5.199048141513287
 10
18.82206000111398
 20
5.240324003713226
 10
19.02843931211396
 20
5.268565383113241
 10
19.23916345071393
 20
5.277255038313228
 10
20.47309448911392
 20
5.277255038313342
 10
20.47309448911392
 20
4.451737794313316
 10
19.232646209314
 20
4.45173779431326
 10
19.08926689851398
 20
4.443048139113273
 10
18.95457724291395
 20
4.415936414889301
 10
18.82310275973793
 20
4.375964000969247
 10
18.69606000071394
 20
4.323565380113223
 10
18.58865586244201
 20
4.256481241969254
 10
18.48750827591391
 20
4.180186069313265
 10
18.40061172391392
 20
4.091117103513226
 10
18.33109448231391
 20
3.993358482513201
 10
20.47309448911403
 20
3.993358482513315
 10
20.47309448911403
 20
3.165668824713293
 10
18.36802551691403
 20
3.165668824713236
 10
18.44249586197804
 20
3.080162617545227
 10
18.52991379329001
 20
3.000391582809186
 10
18.62697724187398
 20
2.932786065353297
 10
18.73664069049812
 20
2.871871582401297
 10
18.852647587418
 20
2.823904685697243
 10
18.9732600015941
 20
2.789580547657294
 10
19.10551655373797
 20
2.767595720001168
 10
19.23916345071393
 20
2.757255030313217
 10
20.47309448911403
 20
2.757255030313274
 10
20.47309448911403
 20
1.899151579313297
 10
19.26306000251407
 20
1.89915157931324
 10
19.05016345011404
 20
1.907841234513171
 10
18.84378413911406
 20
1.931737786313249
 10
18.64392206951402
 20
1.975186062313241
 10
18.45274965511407
 20
2.031668821113328
 10
18.26809448211395
 20
2.105530890313218
 10
18.09430137811398
 20
2.190255028513263
 10
17.93354275691399
 20
2.288013649513175
 10
17.78598372196279
 20
2.398632960209226
  0
ENDBLK
  5
210F
330
210D
100
AcDbEntity
  8
0
100
AcDbBlockEnd
  0
ENDSEC
  0
SECTION
  2
ENTITIES
  0
INSERT
  5
2293
330
23
100
AcDbEntity
  8
0
100
AcDbBlockReference
  2
LW 3601-00-01
 10
0.0
 20
0.0
 30
0.0
  0
ENDSEC
  0
SECTION
  2
OBJECTS
  0
DICTIONARY
  5
C
330
0
100
AcDbDictionary
281
     1
  3
ACAD_COLOR
350
1C
  3
ACAD_GROUP
350
D
  3
ACAD_LAYOUT
350
1A
  3
ACAD_MATERIAL
350
1B
  3
ACAD_MLINESTYLE
350
17
  3
ACAD_PLOTSETTINGS
350
19
  3
ACAD_PLOTSTYLENAME
350
E
  3
ACAD_TABLESTYLE
350
1D
  3
AcDbVariableDictionary
350
61C
  0
DICTIONARY
  5
9C6
330
2
100
AcDbDictionary
280
     1
281
     1
  3
ACAD_LAYERFILTERS
360
2101
  3
ACLYDICTIONARY
360
2100
  0
DICTIONARY
  5
9A6
330
23
100
AcDbDictionary
280
     1
281
     1
  3
ACAD_SORTENTS
360
9A7
  0
DICTIONARY
  5
627
330
626
100
AcDbDictionary
280
     1
281
     1
  3
ACAD_SORTENTS
360
628
  0
DICTIONARY
  5
1C
102
{ACAD_REACTORS
330
C
102
}
330
C
100
AcDbDictionary
281
     1
  0
DICTIONARY
  5
D
102
{ACAD_REACTORS
330
C
102
}
330
C
100
AcDbDictionary
281
     1
  0
DICTIONARY
  5
1A
102
{ACAD_REACTORS
330
C
102
}
330
C
100
AcDbDictionary
281
     1
  3
Layout1
350
22
  3
Layout2
350
2A
  3
Model
350
26
  0
DICTIONARY
  5
1B
102
{ACAD_REACTORS
330
C
102
}
330
C
100
AcDbDictionary
281
     1
  0
DICTIONARY
  5
17
102
{ACAD_REACTORS
330
C
102
}
330
C
100
AcDbDictionary
281
     1
  3
Standard
350
18
  0
DICTIONARY
  5
19
102
{ACAD_REACTORS
330
C
102
}
330
C
100
AcDbDictionary
281
     1
  0
ACDBDICTIONARYWDFLT
  5
E
102
{ACAD_REACTORS
330
C
102
}
330
C
100
AcDbDictionary
281
     1
  3
Normal
350
F
100
AcDbDictionaryWithDefault
340
F
  0
DICTIONARY
  5
1D
102
{ACAD_REACTORS
330
C
102
}
330
C
100
AcDbDictionary
281
     1
  3
Standard
350
1E
  0
DICTIONARY
  5
61C
102
{ACAD_REACTORS
330
C
102
}
330
C
100
AcDbDictionary
281
     1
  3
CTABLESTYLE
350
61D
  3
DIMASSOC
350
196F
  3
HIDETEXT
350
196E
  3
PROJECTNAME
350
1970
  0
DICTIONARY
  5
2101
102
{ACAD_REACTORS
330
9C6
102
}
330
9C6
100
AcDbDictionary
281
     1
  0
DICTIONARY
  5
2100
102
{ACAD_REACTORS
330
9C6
102
}
330
9C6
100
AcDbDictionary
281
     1
1001
ACAD
1000
<All
  0
SORTENTSTABLE
  5
9A7
102
{ACAD_REACTORS
330
9A6
102
}
330
9A6
100
AcDbSortentsTable
330
23
  0
SORTENTSTABLE
  5
628
102
{ACAD_REACTORS
330
627
102
}
330
627
100
AcDbSortentsTable
330
626
  0
LAYOUT
  5
22
102
{ACAD_REACTORS
330
1A
102
}
330
1A
100
AcDbPlotSettings
  1

  2

  4

  6

 40
0.0
 41
0.0
 42
0.0
 43
0.0
 44
0.0
 45
0.0
 46
0.0
 47
0.0
 48
0.0
 49
0.0
140
0.0
141
0.0
142
1.0
143
1.0
 70
   688
 72
     0
 73
     0
 74
     5
  7

 75
    16
147
1.0
 76
     0
 77
     2
 78
   300
148
0.0
149
0.0
100
AcDbLayout
  1
Layout1
 70
     1
 71
     1
 10
0.0
 20
0.0
 11
840.0
 21
594.0
 12
0.0
 22
0.0
 32
0.0
 14
0.0
 24
0.0
 34
0.0
 15
840.0
 25
594.0
 35
0.0
146
0.0
 13
0.0
 23
0.0
 33
0.0
 16
1.0
 26
0.0
 36
0.0
 17
0.0
 27
1.0
 37
0.0
 76
     0
330
1F
  0
LAYOUT
  5
2A
102
{ACAD_REACTORS
330
1A
102
}
330
1A
100
AcDbPlotSettings
  1

  2

  4

  6

 40
0.0
 41
0.0
 42
0.0
 43
0.0
 44
0.0
 45
0.0
 46
0.0
 47
0.0
 48
0.0
 49
0.0
140
0.0
141
0.0
142
1.0
143
1.0
 70
   688
 72
     0
 73
     0
 74
     5
  7

 75
    16
147
1.0
 76
     0
 77
     2
 78
   300
148
0.0
149
0.0
100
AcDbLayout
  1
Layout2
 70
     1
 71
     2
 10
0.0
 20
0.0
 11
12.0
 21
9.0
 12
0.0
 22
0.0
 32
0.0
 14
0.0
 24
0.0
 34
0.0
 15
0.0
 25
0.0
 35
0.0
146
0.0
 13
0.0
 23
0.0
 33
0.0
 16
1.0
 26
0.0
 36
0.0
 17
0.0
 27
1.0
 37
0.0
 76
     0
330
27
  0
LAYOUT
  5
26
102
{ACAD_REACTORS
330
1A
102
}
330
1A
100
AcDbPlotSettings
  1

  2

  4

  6

 40
0.0
 41
0.0
 42
0.0
 43
0.0
 44
0.0
 45
0.0
 46
0.0
 47
0.0
 48
0.0
 49
0.0
140
0.0
141
0.0
142
1.0
143
1.0
 70
  1712
 72
     0
 73
     0
 74
     0
  7

 75
     0
147
1.0
 76
     0
 77
     2
 78
   300
148
0.0
149
0.0
100
AcDbLayout
  1
Model
 70
     1
 71
     0
 10
0.0
 20
0.0
 11
12.0
 21
9.0
 12
0.0
 22
0.0
 32
0.0
 14
0.0
 24
0.0
 34
0.0
 15
0.0
 25
0.0
 35
0.0
146
0.0
 13
0.0
 23
0.0
 33
0.0
 16
1.0
 26
0.0
 36
0.0
 17
0.0
 27
1.0
 37
0.0
 76
     0
330
23
  0
MLINESTYLE
  5
18
102
{ACAD_REACTORS
330
17
102
}
330
17
100
AcDbMlineStyle
  2
STANDARD
 70
     0
  3

 62
   256
 51
90.0
 52
90.0
 71
     2
 49
0.5
 62
   256
  6
BYLAYER
 49
-0.5
 62
   256
  6
BYLAYER
  0
ACDBPLACEHOLDER
  5
F
102
{ACAD_REACTORS
330
E
102
}
330
E
  0
TABLESTYLE
  5
1E
102
{ACAD_REACTORS
330
1D
102
}
330
1D
100
AcDbTableStyle
  3
Standard
 70
     0
 71
     0
 40
0.06
 41
0.06
280
     0
281
     0
  7
Standard
140
0.18
170
     2
 62
     0
 63
     7
283
     0
274
    -2
284
     1
 64
     0
275
    -2
285
     1
 65
     0
276
    -2
286
     1
 66
     0
277
    -2
287
     1
 67
     0
278
    -2
288
     1
 68
     0
279
    -2
289
     1
 69
     0
  7
Standard
140
0.25
170
     5
 62
     0
 63
     7
283
     0
274
    -2
284
     1
 64
     0
275
    -2
285
     1
 65
     0
276
    -2
286
     1
 66
     0
277
    -2
287
     1
 67
     0
278
    -2
288
     1
 68
     0
279
    -2
289
     1
 69
     0
  7
Standard
140
0.18
170
     5
 62
     0
 63
     7
283
     0
274
    -2
284
     1
 64
     0
275
    -2
285
     1
 65
     0
276
    -2
286
     1
 66
     0
277
    -2
287
     1
 67
     0
278
    -2
288
     1
 68
     0
279
    -2
289
     1
 69
     0
  0
DICTIONARYVAR
  5
61D
102
{ACAD_REACTORS
330
61C
102
}
330
61C
100
DictionaryVariables
280
     0
  1
STANDARD
  0
DICTIONARYVAR
  5
196F
102
{ACAD_REACTORS
330
61C
102
}
330
61C
100
DictionaryVariables
280
     0
  1
1
  0
DICTIONARYVAR
  5
196E
102
{ACAD_REACTORS
330
61C
102
}
330
61C
100
DictionaryVariables
280
     0
  1
1
  0
DICTIONARYVAR
  5
1970
102
{ACAD_REACTORS
330
61C
102
}
330
61C
100
DictionaryVariables
280
     0
  1

  0
ENDSEC
  0
EOF
