  0
SECTION
  2
HEADER
  9
$ACADVER
  1
AC1018
  9
$ACADMAINTVER
 70
    76
  9
$DWGCODEPAGE
  3
ANSI_1252
  9
$AUTHOR
  1
Grandl
  9
$INSBASE
 10
0.0
 20
0.0
 30
0.0
  9
$EXTMIN
 10
-140.0000000000006
 20
-170.3322509068522
 30
0.0
  9
$EXTMAX
 10
311.4220305564269
 20
249.9662303711007
 30
0.0
  9
$LIMMIN
 10
0.0
 20
0.0
  9
$LIMMAX
 10
18025.7704
 20
13929.0044
  9
$ORTHOMODE
 70
     1
  9
$REGENMODE
 70
     1
  9
$FILLMODE
 70
     1
  9
$QTEXTMODE
 70
     0
  9
$MIRRTEXT
 70
     1
  9
$LTSCALE
 40
0.4
  9
$ATTMODE
 70
     1
  9
$TEXTSIZE
 40
0.2
  9
$TRACEWID
 40
0.05
  9
$TEXTSTYLE
  7
Standard
  9
$CLAYER
  8
0
  9
$CELTYPE
  6
ByLayer
  9
$CECOLOR
 62
   256
  9
$CELTSCALE
 40
1.0
  9
$DISPSILH
 70
     0
  9
$DIMSCALE
 40
1.0
  9
$DIMASZ
 40
1.799999999999999
  9
$DIMEXO
 40
0.0625
  9
$DIMDLI
 40
0.38
  9
$DIMRND
 40
0.0
  9
$DIMDLE
 40
0.0
  9
$DIMEXE
 40
0.18
  9
$DIMTP
 40
0.0
  9
$DIMTM
 40
0.0
  9
$DIMTXT
 40
0.3499999940395355
  9
$DIMCEN
 40
0.09
  9
$DIMTSZ
 40
0.0
  9
$DIMTOL
 70
     0
  9
$DIMLIM
 70
     0
  9
$DIMTIH
 70
     1
  9
$DIMTOH
 70
     1
  9
$DIMSE1
 70
     0
  9
$DIMSE2
 70
     0
  9
$DIMTAD
 70
     0
  9
$DIMZIN
 70
     0
  9
$DIMBLK
  1

  9
$DIMASO
 70
     1
  9
$DIMSHO
 70
     1
  9
$DIMPOST
  1

  9
$DIMAPOST
  1

  9
$DIMALT
 70
     0
  9
$DIMALTD
 70
     2
  9
$DIMALTF
 40
25.4
  9
$DIMLFAC
 40
1.0
  9
$DIMTOFL
 70
     0
  9
$DIMTVP
 40
0.0
  9
$DIMTIX
 70
     0
  9
$DIMSOXD
 70
     0
  9
$DIMSAH
 70
     0
  9
$DIMBLK1
  1

  9
$DIMBLK2
  1

  9
$DIMSTYLE
  2
2dTranslator-Bemaßungsstil
  9
$DIMCLRD
 70
     0
  9
$DIMCLRE
 70
     0
  9
$DIMCLRT
 70
     0
  9
$DIMTFAC
 40
1.0
  9
$DIMGAP
 40
0.09
  9
$DIMJUST
 70
     0
  9
$DIMSD1
 70
     0
  9
$DIMSD2
 70
     0
  9
$DIMTOLJ
 70
     1
  9
$DIMTZIN
 70
     0
  9
$DIMALTZ
 70
     0
  9
$DIMALTTZ
 70
     0
  9
$DIMUPT
 70
     0
  9
$DIMDEC
 70
     4
  9
$DIMTDEC
 70
     4
  9
$DIMALTU
 70
     2
  9
$DIMALTTD
 70
     2
  9
$DIMTXSTY
  7
Standard
  9
$DIMAUNIT
 70
     0
  9
$DIMADEC
 70
     0
  9
$DIMALTRND
 40
0.0
  9
$DIMAZIN
 70
     0
  9
$DIMDSEP
 70
    46
  9
$DIMATFIT
 70
     3
  9
$DIMFRAC
 70
     0
  9
$DIMLDRBLK
  1

  9
$DIMLUNIT
 70
     2
  9
$DIMLWD
 70
    -2
  9
$DIMLWE
 70
    -2
  9
$DIMTMOVE
 70
     0
  9
$LUNITS
 70
     2
  9
$LUPREC
 70
     4
  9
$SKETCHINC
 40
0.1
  9
$FILLETRAD
 40
0.0
  9
$AUNITS
 70
     0
  9
$AUPREC
 70
     0
  9
$MENU
  1
.
  9
$ELEVATION
 40
0.0
  9
$PELEVATION
 40
0.0
  9
$THICKNESS
 40
0.0
  9
$LIMCHECK
 70
     0
  9
$CHAMFERA
 40
1.0
  9
$CHAMFERB
 40
1.0
  9
$CHAMFERC
 40
0.0
  9
$CHAMFERD
 40
0.0
  9
$SKPOLY
 70
     0
  9
$TDCREATE
 40
2452780.580131598
  9
$TDUCREATE
 40
2452780.538464931
  9
$TDUPDATE
 40
2453704.425804062
  9
$TDUUPDATE
 40
2453704.384137396
  9
$TDINDWG
 40
0.0662317593
  9
$TDUSRTIMER
 40
0.0662317593
  9
$USRTIMER
 70
     1
  9
$ANGBASE
 50
0.0
  9
$ANGDIR
 70
     0
  9
$PDMODE
 70
     0
  9
$PDSIZE
 40
0.0
  9
$PLINEWID
 40
0.0
  9
$SPLFRAME
 70
     0
  9
$SPLINETYPE
 70
     6
  9
$SPLINESEGS
 70
     8
  9
$HANDSEED
  5
10C4
  9
$SURFTAB1
 70
     6
  9
$SURFTAB2
 70
     6
  9
$SURFTYPE
 70
     6
  9
$SURFU
 70
     6
  9
$SURFV
 70
     6
  9
$UCSBASE
  2

  9
$UCSNAME
  2

  9
$UCSORG
 10
0.0
 20
0.0
 30
0.0
  9
$UCSXDIR
 10
1.0
 20
0.0
 30
0.0
  9
$UCSYDIR
 10
0.0
 20
1.0
 30
0.0
  9
$UCSORTHOREF
  2

  9
$UCSORTHOVIEW
 70
     0
  9
$UCSORGTOP
 10
0.0
 20
0.0
 30
0.0
  9
$UCSORGBOTTOM
 10
0.0
 20
0.0
 30
0.0
  9
$UCSORGLEFT
 10
0.0
 20
0.0
 30
0.0
  9
$UCSORGRIGHT
 10
0.0
 20
0.0
 30
0.0
  9
$UCSORGFRONT
 10
0.0
 20
0.0
 30
0.0
  9
$UCSORGBACK
 10
0.0
 20
0.0
 30
0.0
  9
$PUCSBASE
  2

  9
$PUCSNAME
  2

  9
$PUCSORG
 10
0.0
 20
0.0
 30
0.0
  9
$PUCSXDIR
 10
1.0
 20
0.0
 30
0.0
  9
$PUCSYDIR
 10
0.0
 20
1.0
 30
0.0
  9
$PUCSORTHOREF
  2

  9
$PUCSORTHOVIEW
 70
     0
  9
$PUCSORGTOP
 10
0.0
 20
0.0
 30
0.0
  9
$PUCSORGBOTTOM
 10
0.0
 20
0.0
 30
0.0
  9
$PUCSORGLEFT
 10
0.0
 20
0.0
 30
0.0
  9
$PUCSORGRIGHT
 10
0.0
 20
0.0
 30
0.0
  9
$PUCSORGFRONT
 10
0.0
 20
0.0
 30
0.0
  9
$PUCSORGBACK
 10
0.0
 20
0.0
 30
0.0
  9
$USERI1
 70
     0
  9
$USERI2
 70
     0
  9
$USERI3
 70
     0
  9
$USERI4
 70
     0
  9
$USERI5
 70
     0
  9
$USERR1
 40
0.0
  9
$USERR2
 40
0.0
  9
$USERR3
 40
0.0
  9
$USERR4
 40
0.0
  9
$USERR5
 40
0.0
  9
$WORLDVIEW
 70
     1
  9
$SHADEDGE
 70
     3
  9
$SHADEDIF
 70
    70
  9
$TILEMODE
 70
     1
  9
$MAXACTVP
 70
    48
  9
$PINSBASE
 10
0.0
 20
0.0
 30
0.0
  9
$PLIMCHECK
 70
     0
  9
$PEXTMIN
 10
1.000000000000000E+20
 20
1.000000000000000E+20
 30
1.000000000000000E+20
  9
$PEXTMAX
 10
-1.000000000000000E+20
 20
-1.000000000000000E+20
 30
-1.000000000000000E+20
  9
$PLIMMIN
 10
-4.23333740234375
 20
-6.011333465576171
  9
$PLIMMAX
 10
292.6926574707031
 20
203.9619941711426
  9
$UNITMODE
 70
     0
  9
$VISRETAIN
 70
     1
  9
$PLINEGEN
 70
     0
  9
$PSLTSCALE
 70
     1
  9
$TREEDEPTH
 70
  3020
  9
$CMLSTYLE
  2
Standard
  9
$CMLJUST
 70
     0
  9
$CMLSCALE
 40
1.0
  9
$PROXYGRAPHICS
 70
     1
  9
$MEASUREMENT
 70
     1
  9
$CELWEIGHT
370
    -1
  9
$ENDCAPS
280
     0
  9
$JOINSTYLE
280
     0
  9
$LWDISPLAY
290
     0
  9
$INSUNITS
 70
     0
  9
$HYPERLINKBASE
  1

  9
$STYLESHEET
  1

  9
$XEDIT
290
     1
  9
$CEPSNTYPE
380
     0
  9
$PSTYLEMODE
290
     1
  9
$FINGERPRINTGUID
  2
{F36C13FC-8D9A-44FA-8B69-496B089EBC04}
  9
$VERSIONGUID
  2
{4358B00F-D2A3-413F-A018-D48F0FE61087}
  9
$EXTNAMES
290
     1
  9
$PSVPSCALE
 40
0.0
  9
$OLESTARTUP
290
     0
  9
$SORTENTS
280
   127
  9
$INDEXCTL
280
     0
  9
$HIDETEXT
280
     1
  9
$XCLIPFRAME
290
     0
  9
$HALOGAP
280
     0
  9
$OBSCOLOR
 70
   257
  9
$OBSLTYPE
280
     0
  9
$INTERSECTIONDISPLAY
280
     0
  9
$INTERSECTIONCOLOR
 70
   257
  9
$DIMASSOC
280
     2
  9
$PROJECTNAME
  1

  0
ENDSEC
  0
SECTION
  2
CLASSES
  0
CLASS
  1
ACDBDICTIONARYWDFLT
  2
AcDbDictionaryWithDefault
  3
ObjectDBX Classes
 90
        0
 91
        1
280
     0
281
     0
  0
CLASS
  1
DICTIONARYVAR
  2
AcDbDictionaryVar
  3
ObjectDBX Classes
 90
        0
 91
        4
280
     0
281
     0
  0
CLASS
  1
TABLESTYLE
  2
AcDbTableStyle
  3
ObjectDBX Classes
 90
     2047
 91
        1
280
     0
281
     0
  0
CLASS
  1
SORTENTSTABLE
  2
AcDbSortentsTable
  3
ObjectDBX Classes
 90
        0
 91
        1
280
     0
281
     0
  0
CLASS
  1
ACAD_EVALUATION_GRAPH
  2
AcDbEvalGraph
  3
ObjectDBX Classes
 90
     1153
 91
        0
280
     0
281
     0
  0
CLASS
  1
ACAECUSTOBJ
  2
AcAeEditorObj
  3
AcAeEditorObj
 90
     1024
 91
        0
280
     0
281
     0
  0
ENDSEC
  0
SECTION
  2
TABLES
  0
TABLE
  2
VPORT
  5
8
330
0
100
AcDbSymbolTable
 70
     3
  0
VPORT
  5
10C3
330
8
100
AcDbSymbolTableRecord
100
AcDbViewportTableRecord
  2
*Active
 70
     0
 10
0.0
 20
0.0
 11
1.0
 21
1.0
 12
86.06967462208553
 22
40.01219990836216
 13
0.0
 23
0.0
 14
1.0
 24
1.0
 15
0.0
 25
0.0
 16
0.0
 26
0.0
 36
1.0
 17
0.0
 27
0.0
 37
0.0
 40
425.5726368950357
 41
1.773333333333333
 42
50.0
 43
0.0
 44
0.0
 50
0.0
 51
0.0
 71
     0
 72
   100
 73
     1
 74
     1
 75
     0
 76
     0
 77
     0
 78
     0
281
     0
 65
     1
110
0.0
120
0.0
130
0.0
111
1.0
121
0.0
131
0.0
112
0.0
122
1.0
132
0.0
 79
     0
146
0.0
  0
ENDTAB
  0
TABLE
  2
LTYPE
  5
5
330
0
100
AcDbSymbolTable
 70
     2
  0
LTYPE
  5
14
330
5
100
AcDbSymbolTableRecord
100
AcDbLinetypeTableRecord
  2
ByBlock
 70
     0
  3

 72
    65
 73
     0
 40
0.0
  0
LTYPE
  5
15
330
5
100
AcDbSymbolTableRecord
100
AcDbLinetypeTableRecord
  2
ByLayer
 70
     0
  3

 72
    65
 73
     0
 40
0.0
  0
LTYPE
  5
16
330
5
100
AcDbSymbolTableRecord
100
AcDbLinetypeTableRecord
  2
Continuous
 70
     0
  3
Solid line
 72
    65
 73
     0
 40
0.0
  0
LTYPE
  5
62F
330
5
100
AcDbSymbolTableRecord
100
AcDbLinetypeTableRecord
  2
MITTE2
 70
     0
  3
Mitte (.5x) ___ _ ___ _ ___ _ ___ _ ___ _ ___
 72
    65
 73
     4
 40
28.575
 49
19.05
 74
     0
 49
-3.174999999999999
 74
     0
 49
3.174999999999999
 74
     0
 49
-3.174999999999999
 74
     0
  0
ENDTAB
  0
TABLE
  2
LAYER
  5
2
102
{ACAD_XDICTIONARY
360
843
102
}
330
0
100
AcDbSymbolTable
 70
     3
  0
LAYER
  5
10
330
2
100
AcDbSymbolTableRecord
100
AcDbLayerTableRecord
  2
0
 70
     0
 62
     7
  6
Continuous
370
    -3
390
F
  0
LAYER
  5
630
330
2
100
AcDbSymbolTableRecord
100
AcDbLayerTableRecord
  2
LW 3801-04-01
 70
     0
 62
     7
  6
Continuous
370
    -3
390
F
  0
LAYER
  5
728
330
2
100
AcDbSymbolTableRecord
100
AcDbLayerTableRecord
  2
insertpoint_ECKELT
 70
     0
 62
   141
  6
Continuous
370
    -3
390
F
  0
ENDTAB
  0
TABLE
  2
STYLE
  5
3
330
0
100
AcDbSymbolTable
 70
     1
  0
STYLE
  5
11
330
3
100
AcDbSymbolTableRecord
100
AcDbTextStyleTableRecord
  2
Standard
 70
     0
 40
0.0
 41
1.0
 50
0.0
 71
     0
 42
0.2
  3
ARIAL.TTF
  4

1001
ACAD
1000
Arial
1071
      256
  0
ENDTAB
  0
TABLE
  2
VIEW
  5
6
330
0
100
AcDbSymbolTable
 70
     0
  0
ENDTAB
  0
TABLE
  2
UCS
  5
7
330
0
100
AcDbSymbolTable
 70
     0
  0
ENDTAB
  0
TABLE
  2
APPID
  5
9
330
0
100
AcDbSymbolTable
 70
     3
  0
APPID
  5
12
330
9
100
AcDbSymbolTableRecord
100
AcDbRegAppTableRecord
  2
ACAD
 70
     0
  0
APPID
  5
85A
330
9
100
AcDbSymbolTableRecord
100
AcDbRegAppTableRecord
  2
ACAD_EXEMPT_FROM_CAD_STANDARDS
 70
     0
  0
APPID
  5
A25
330
9
100
AcDbSymbolTableRecord
100
AcDbRegAppTableRecord
  2
ACAUTHENVIRON
 70
     0
  0
ENDTAB
  0
TABLE
  2
DIMSTYLE
  5
A
330
0
100
AcDbSymbolTable
 70
     2
100
AcDbDimStyleTable
 71
     1
340
57
  0
DIMSTYLE
105
27
330
A
100
AcDbSymbolTableRecord
100
AcDbDimStyleTableRecord
  2
Standard
 70
     0
340
11
  0
DIMSTYLE
105
57
330
A
100
AcDbSymbolTableRecord
100
AcDbDimStyleTableRecord
  2
2dTranslator-Bemaßungsstil
 70
     0
 41
1.799999999999999
140
1.799999999999999
340
11
  0
ENDTAB
  0
TABLE
  2
BLOCK_RECORD
  5
1
330
0
100
AcDbSymbolTable
 70
     5
  0
BLOCK_RECORD
  5
1F
102
{ACAD_XDICTIONARY
360
526
102
}
330
1
100
AcDbSymbolTableRecord
100
AcDbBlockTableRecord
  2
*Model_Space
340
22
  0
BLOCK_RECORD
  5
1B
102
{ACAD_XDICTIONARY
360
528
102
}
330
1
100
AcDbSymbolTableRecord
100
AcDbBlockTableRecord
  2
*Paper_Space
340
1E
  0
BLOCK_RECORD
  5
23
102
{ACAD_XDICTIONARY
360
52A
102
}
330
1
100
AcDbSymbolTableRecord
100
AcDbBlockTableRecord
  2
*Paper_Space0
340
26
  0
BLOCK_RECORD
  5
729
330
1
100
AcDbSymbolTableRecord
100
AcDbBlockTableRecord
  2
insertpoint-ECKELT
340
0
102
{BLKREFS
331
F58
331
1010
331
1081
102
}
  0
BLOCK_RECORD
  5
F55
330
1
100
AcDbSymbolTableRecord
100
AcDbBlockTableRecord
  2
LW 3801-04-01_a
340
0
310
2800000020000000200000000100080000000000000400000000000000000000000000000000000000000000000080000080000000808000800000008000800080800000C0C0C000C0DCC000F0CAA6000020400000206000002080000020A0000020C0000020E00000400000004020000040400000406000004080000040A0
310
000040C0000040E00000600000006020000060400000606000006080000060A0000060C0000060E00000800000008020000080400000806000008080000080A0000080C0000080E00000A0000000A0200000A0400000A0600000A0800000A0A00000A0C00000A0E00000C0000000C0200000C0400000C0600000C0800000C0
310
A00000C0C00000C0E00000E0000000E0200000E0400000E0600000E0800000E0A00000E0C00000E0E00040000000400020004000400040006000400080004000A0004000C0004000E00040200000402020004020400040206000402080004020A0004020C0004020E000404000004040200040404000404060004040800040
310
40A0004040C0004040E00040600000406020004060400040606000406080004060A0004060C0004060E00040800000408020004080400040806000408080004080A0004080C0004080E00040A0000040A0200040A0400040A0600040A0800040A0A00040A0C00040A0E00040C0000040C0200040C0400040C0600040C08000
310
40C0A00040C0C00040C0E00040E0000040E0200040E0400040E0600040E0800040E0A00040E0C00040E0E00080000000800020008000400080006000800080008000A0008000C0008000E00080200000802020008020400080206000802080008020A0008020C0008020E00080400000804020008040400080406000804080
310
008040A0008040C0008040E00080600000806020008060400080606000806080008060A0008060C0008060E00080800000808020008080400080806000808080008080A0008080C0008080E00080A0000080A0200080A0400080A0600080A0800080A0A00080A0C00080A0E00080C0000080C0200080C0400080C0600080C0
310
800080C0A00080C0C00080C0E00080E0000080E0200080E0400080E0600080E0800080E0A00080E0C00080E0E000C0000000C0002000C0004000C0006000C0008000C000A000C000C000C000E000C0200000C0202000C0204000C0206000C0208000C020A000C020C000C020E000C0400000C0402000C0404000C0406000C0
310
408000C040A000C040C000C040E000C0600000C0602000C0604000C0606000C0608000C060A000C060C000C060E000C0800000C0802000C0804000C0806000C0808000C080A000C080C000C080E000C0A00000C0A02000C0A04000C0A06000C0A08000C0A0A000C0A0C000C0A0E000C0C00000C0C02000C0C04000C0C06000
310
C0C08000C0C0A000F0FBFF00A4A0A000808080000000FF0000FF000000FFFF00FF000000FF00FF00FFFF0000FFFFFF00000000000000000000000000000000000000000000000000000000000000000000000000FA00000000000000000000000000000000000000000000FA000000000000FFFFFFFFFF0000000000000000
310
00000000000000000000FFFFFFFFFF00000000FFFFFFFFFFFF00000000000000000000000000000000FFFFFFFFFFFF000000FAFFFFFAFAFFFF00000000000000000000000000000000FFFFFAFAFFFFFA000000FFFFFAFFFFFF00000000000000000000000000000000FFFFFFFAFFFF00000000FFFFFFFFFFFF000000000000
310
00000000000000000000FFFFFFFFFFFF0000000000FFFFFFFF00FF0000000000000000000000000000FF00FFFFFFFF00000000000000000000FF00FF000000000000000000000000FF00FF000000000000000000000000000000FF00FFFF0000000000000000FFFF00FF0000000000000000000000000000000000FF00FFFF
310
000000000000FFFF00FF000000000000000000000000000000000000FFFF00FFFF00000000FFFF00FFFF00000000000000000000000000000000000000FFFF00FFFFFA00FFFF00FFFF000000000000000000000000000000000000000000FFFF00FFFFFFFF00FFFF0000000000000000000000000000000000000000000000
310
FFFF00FF0000FFFF00000000000000000000000000000000000000000000000000FF00FFFFFAFFFA000000000000000000000000000000000000000000000000FAFFFAFFFF00FF00000000000000000000000000000000000000000000000000FFFF00FFFA00FFFF0000000000000000000000000000000000000000000000
310
FFFF00FFFFFFFF00FFFF000000000000000000000000000000000000000000FFFF00FFFF00FAFFFF00FFFF00000000000000000000000000000000000000FFF9F9FFFF00000000FFFF00FFFF000000000000000000000000000000000000F9F9F9FF000000000000FFFF00FF0000000000000000000000000000000000FF00
310
F9FF0000000000000000FFFF00FF000000000000000000000000000000FF00FF000000000000000000000000FF00FF00000000000000000000FFFFFFFF00FF0000000000000000000000000000FF00FFFFFFFF0000000000FFFFFFFFFFFF00000000000000000000000000000000FFFFFFFFFFFF00000000FFFFFAFFFFFF00
310
000000000000000000000000000000FFFFFFFAFFFF000000FAFFFFFAFAFFFF00000000000000000000000000000000FFFFFAFAFFFFFA000000FFFFFFFFFFFF00000000000000000000000000000000FFFFFFFFFFFF00000000FFFFFFFFFF000000000000000000000000000000000000FFFFFFFFFF000000000000FA000000
310
00000000000000000000000000000000000000FA000000000000000000000000000000000000000000000000000000000000000000000000
102
{BLKREFS
331
FE7
102
}
  0
BLOCK_RECORD
  5
FE8
330
1
100
AcDbSymbolTableRecord
100
AcDbBlockTableRecord
  2
LW 3801-04-01_b
340
0
310
2800000020000000200000000100080000000000000400000000000000000000000000000000000000000000000080000080000000808000800000008000800080800000C0C0C000C0DCC000F0CAA6000020400000206000002080000020A0000020C0000020E00000400000004020000040400000406000004080000040A0
310
000040C0000040E00000600000006020000060400000606000006080000060A0000060C0000060E00000800000008020000080400000806000008080000080A0000080C0000080E00000A0000000A0200000A0400000A0600000A0800000A0A00000A0C00000A0E00000C0000000C0200000C0400000C0600000C0800000C0
310
A00000C0C00000C0E00000E0000000E0200000E0400000E0600000E0800000E0A00000E0C00000E0E00040000000400020004000400040006000400080004000A0004000C0004000E00040200000402020004020400040206000402080004020A0004020C0004020E000404000004040200040404000404060004040800040
310
40A0004040C0004040E00040600000406020004060400040606000406080004060A0004060C0004060E00040800000408020004080400040806000408080004080A0004080C0004080E00040A0000040A0200040A0400040A0600040A0800040A0A00040A0C00040A0E00040C0000040C0200040C0400040C0600040C08000
310
40C0A00040C0C00040C0E00040E0000040E0200040E0400040E0600040E0800040E0A00040E0C00040E0E00080000000800020008000400080006000800080008000A0008000C0008000E00080200000802020008020400080206000802080008020A0008020C0008020E00080400000804020008040400080406000804080
310
008040A0008040C0008040E00080600000806020008060400080606000806080008060A0008060C0008060E00080800000808020008080400080806000808080008080A0008080C0008080E00080A0000080A0200080A0400080A0600080A0800080A0A00080A0C00080A0E00080C0000080C0200080C0400080C0600080C0
310
800080C0A00080C0C00080C0E00080E0000080E0200080E0400080E0600080E0800080E0A00080E0C00080E0E000C0000000C0002000C0004000C0006000C0008000C000A000C000C000C000E000C0200000C0202000C0204000C0206000C0208000C020A000C020C000C020E000C0400000C0402000C0404000C0406000C0
310
408000C040A000C040C000C040E000C0600000C0602000C0604000C0606000C0608000C060A000C060C000C060E000C0800000C0802000C0804000C0806000C0808000C080A000C080C000C080E000C0A00000C0A02000C0A04000C0A06000C0A08000C0A0A000C0A0C000C0A0E000C0C00000C0C02000C0C04000C0C06000
310
C0C08000C0C0A000F0FBFF00A4A0A000808080000000FF0000FF000000FFFF00FF000000FF00FF00FFFF0000FFFFFF0000000000000000000000000000000000000000000000000000000000000000000000000000000000000000000000000000000000000000000000000000000000000000000000000000000000000000
310
00000000000000000000000000000000000000000000000000000000000000000000000000000000000000000000000000000000000000000000000000000000000000000000000000000000000000000000000000000000000000000000000000000000000000000000000000000000000000000000000000000000000000
310
00000000000000000000000000000000000000000000000000000000000000000000000000000000000000000000000000000000000000000000000000000000000000000000000000000000000000000000000000000000000000000000000000000000000000000000000000000000000000000000000000000000000000
310
000000000000000000000000000000000000000000000000000000000000000000000909000000000000000000000000000000000000FFFAFFFF0000000000FFFFFF0909FFFFFF0000000000FFFFFAFF0000000000FFFFFAFFFF00000000FFFF00FFFA00FF00FFFF00000000FFFFFAFFFF00000000FF00FA00FF0000FFF9F9
310
F9FFFFFAFFFFFF0000FFFF0000FF00FA00FF000000FFFFFFFAFFFFFFFF00F9FFFF0000FA000000FFFF0000FFFFFFFFFAFFFFFF0000FF0000FA0000FF00FFFF00000000FA0000000000FFFF00FF0000FA0000FF0000FFFFFFFAFAFFFFFF000000000000FA00000000000000FFFFFFFAFAFFFFFF0000000000FAFA0000000000
310
000000000000000000000000000000FAFA0000000000000000FAFA0000000000000000000000000000000000000000FAFA0000000000000000FA00000000000000000000000000000000000000000000FA00000000000000000000000000000000000000000000000000000000000000000000000000000000000000000000
310
00000000000000000000000000000000000000000000000000000000000000000000000000000000000000000000000000000000000000000000000000000000000000000000000000000000000000000000000000000000000000000000000000000000000000000000000000000000000000000000000000000000000000
310
00000000000000000000000000000000000000000000000000000000000000000000000000000000000000000000000000000000000000000000000000000000000000000000000000000000000000000000000000000000000000000000000000000000000000000000000000000000000000000000000000000000000000
310
0000000000000000000000000000000000000000000000000000000000000000000000000000000000000000000000000000000000000000
102
{BLKREFS
331
104A
102
}
  0
BLOCK_RECORD
  5
104B
330
1
100
AcDbSymbolTableRecord
100
AcDbBlockTableRecord
  2
LW 3801-04-01_c
340
0
310
2800000020000000200000000100080000000000000400000000000000000000000000000000000000000000000080000080000000808000800000008000800080800000C0C0C000C0DCC000F0CAA6000020400000206000002080000020A0000020C0000020E00000400000004020000040400000406000004080000040A0
310
000040C0000040E00000600000006020000060400000606000006080000060A0000060C0000060E00000800000008020000080400000806000008080000080A0000080C0000080E00000A0000000A0200000A0400000A0600000A0800000A0A00000A0C00000A0E00000C0000000C0200000C0400000C0600000C0800000C0
310
A00000C0C00000C0E00000E0000000E0200000E0400000E0600000E0800000E0A00000E0C00000E0E00040000000400020004000400040006000400080004000A0004000C0004000E00040200000402020004020400040206000402080004020A0004020C0004020E000404000004040200040404000404060004040800040
310
40A0004040C0004040E00040600000406020004060400040606000406080004060A0004060C0004060E00040800000408020004080400040806000408080004080A0004080C0004080E00040A0000040A0200040A0400040A0600040A0800040A0A00040A0C00040A0E00040C0000040C0200040C0400040C0600040C08000
310
40C0A00040C0C00040C0E00040E0000040E0200040E0400040E0600040E0800040E0A00040E0C00040E0E00080000000800020008000400080006000800080008000A0008000C0008000E00080200000802020008020400080206000802080008020A0008020C0008020E00080400000804020008040400080406000804080
310
008040A0008040C0008040E00080600000806020008060400080606000806080008060A0008060C0008060E00080800000808020008080400080806000808080008080A0008080C0008080E00080A0000080A0200080A0400080A0600080A0800080A0A00080A0C00080A0E00080C0000080C0200080C0400080C0600080C0
310
800080C0A00080C0C00080C0E00080E0000080E0200080E0400080E0600080E0800080E0A00080E0C00080E0E000C0000000C0002000C0004000C0006000C0008000C000A000C000C000C000E000C0200000C0202000C0204000C0206000C0208000C020A000C020C000C020E000C0400000C0402000C0404000C0406000C0
310
408000C040A000C040C000C040E000C0600000C0602000C0604000C0606000C0608000C060A000C060C000C060E000C0800000C0802000C0804000C0806000C0808000C080A000C080C000C080E000C0A00000C0A02000C0A04000C0A06000C0A08000C0A0A000C0A0C000C0A0E000C0C00000C0C02000C0C04000C0C06000
310
C0C08000C0C0A000F0FBFF00A4A0A000808080000000FF0000FF000000FFFF00FF000000FF00FF00FFFF0000FFFFFF0000000000000000000000000000000000000000000000000000000000000000000000000000000000000000000000FFFFFF0000000000000000000000000000000000000000000000000000000000FF
310
00FFFFFF000000000000000000000000000000000000000000000000000000FF00FF00FFFF0000000000000000000000000000000000000000000000FAFAFAFAFAFAFAFAFA000000000000000000000000000000000000000000000000FAFAFA00FF00FFFF0000000000000000000000000000000000000000000000000000
310
FF00FFFFFFFF0000000000000000000000000000000000000000000000000000FFFFFF0000000000000000000000000000000000000000000000000000000000FF00FFFF0000000000000000000000000000000000000000000000000000000000FF00FF000000000000000000000000000000000000000000000000000000
310
0000FF00FFFF0000000000000000000000000000000000000000000000000000000000FF00FF0000000000000000000000000000000000000000000000000000000000FF00FFFF0000000000000000000000000000000000000000000000000000000000FF00FF000000000000000000000000000000000000000000000000
310
0000000000FFFFFF0000000000000000000000000000000000000000000000000000FAFAFAFAFA090900000000000000000000000000000000000000000000000000000000FF00090900000000000000000000000000000000000000000000000000000000FFFFFF0000000000000000000000000000000000000000000000
310
000000000000FF00FF00000000000000000000000000000000000000000000000000000000FF00FFFF00000000000000000000000000000000000000000000000000000000F9F9FF00000000000000000000000000000000000000000000000000000000FFF9F9FF0000000000000000000000000000000000000000000000
310
0000000000FFF9FF00000000000000000000000000000000000000000000000000000000FF00FFFF00000000000000000000000000000000000000000000000000000000FFFFFF0000000000000000000000000000000000000000000000000000000000FF00FFFFFFFF000000000000000000000000000000000000000000
310
000000FAFAFA00FF00FFFF0000000000000000000000000000000000000000000000FAFAFAFAFAFAFAFAFA0000000000000000000000000000000000000000000000000000FF00FF00FFFF0000000000000000000000000000000000000000000000000000FF00FFFFFF000000000000000000000000000000000000000000
310
000000000000FFFFFF0000000000000000000000000000000000000000000000000000000000000000000000000000000000000000000000
102
{BLKREFS
331
10AD
102
}
  0
ENDTAB
  0
ENDSEC
  0
SECTION
  2
BLOCKS
  0
BLOCK
  5
20
330
1F
100
AcDbEntity
  8
0
100
AcDbBlockBegin
  2
*Model_Space
 70
     0
 10
0.0
 20
0.0
 30
0.0
  3
*Model_Space
  1

  0
ENDBLK
  5
21
330
1F
100
AcDbEntity
  8
0
100
AcDbBlockEnd
  0
BLOCK
  5
1C
330
1B
100
AcDbEntity
 67
     1
  8
0
100
AcDbBlockBegin
  2
*Paper_Space
 70
     0
 10
0.0
 20
0.0
 30
0.0
  3
*Paper_Space
  1

  0
ENDBLK
  5
1D
330
1B
100
AcDbEntity
 67
     1
  8
0
100
AcDbBlockEnd
  0
BLOCK
  5
24
330
23
100
AcDbEntity
 67
     1
  8
0
100
AcDbBlockBegin
  2
*Paper_Space0
 70
     0
 10
0.0
 20
0.0
 30
0.0
  3
*Paper_Space0
  1

  0
ENDBLK
  5
25
330
23
100
AcDbEntity
 67
     1
  8
0
100
AcDbBlockEnd
  0
BLOCK
  5
730
330
729
100
AcDbEntity
  8
0
100
AcDbBlockBegin
  2
insertpoint-ECKELT
 70
     2
 10
0.0
 20
0.0
 30
0.0
  3
insertpoint-ECKELT
  1

  0
ATTDEF
  5
72A
330
729
100
AcDbEntity
  8
insertpoint_ECKELT
100
AcDbText
 10
-2.457298772169167
 20
-0.0000000000000255
 30
0.0
 40
0.6
  1
LW
 72
     2
 11
-1.199999999999999
 21
-0.0000000000000255
 31
0.0
100
AcDbAttributeDefinition
  3
Nr. links
  2
LINKS
 70
     0
  0
ATTDEF
  5
72B
330
729
100
AcDbEntity
  8
insertpoint_ECKELT
100
AcDbText
 10
1.199999999999999
 20
-0.0000000000000255
 30
0.0
 40
0.6
  1
LW
100
AcDbAttributeDefinition
  3
Nr. rechts
  2
RECHTS
 70
     0
  0
LINE
  5
72C
102
{ACAD_REACTORS
330
72F
102
}
330
729
100
AcDbEntity
  8
insertpoint_ECKELT
100
AcDbLine
 10
0.0
 20
1.799999999999999
 30
0.0
 11
0.0
 21
-1.799999999999999
 31
0.0
  0
LINE
  5
72D
102
{ACAD_REACTORS
330
72F
102
}
330
729
100
AcDbEntity
  8
insertpoint_ECKELT
100
AcDbLine
 10
-1.8
 20
-0.0000000000000255
 30
0.0
 11
1.8
 21
-0.0000000000000255
 31
0.0
  0
CIRCLE
  5
72E
102
{ACAD_REACTORS
330
72F
102
}
330
729
100
AcDbEntity
  8
insertpoint_ECKELT
100
AcDbCircle
 10
0.0
 20
0.0
 30
0.0
 40
1.199999999999999
  0
HATCH
  5
72F
330
729
100
AcDbEntity
  8
insertpoint_ECKELT
100
AcDbHatch
 10
0.0
 20
0.0
 30
0.0
210
0.0
220
0.0
230
1.0
  2
SOLID
 70
     1
 71
     1
 91
        2
 92
        7
 72
     1
 73
     1
 93
        3
 10
0.0
 20
-0.0000000000000255
 42
0.0
 10
0.0
 20
1.199999999999999
 42
0.4142135623731013
 10
-1.199999999999999
 20
-0.0000000000000255
 42
0.0
 97
        3
330
72E
330
72D
330
72C
 92
        7
 72
     1
 73
     1
 93
        3
 10
1.199999999999999
 20
-0.0000000000000255
 42
0.0
 10
0.0
 20
-0.0000000000000255
 42
0.0
 10
0.0
 20
-1.199999999999999
 42
0.4142135623730888
 97
        3
330
72D
330
72C
330
72E
 75
     0
 76
     1
 47
0.0223086566480813
 98
        2
 10
-0.3163651093721391
 20
0.2714132920773493
 10
0.7415965996738798
 20
-0.4513871917946231
450
        0
451
        0
460
0.0
461
0.0
452
        0
462
0.0
453
        0
470

  0
ENDBLK
  5
731
330
729
100
AcDbEntity
  8
0
100
AcDbBlockEnd
  0
BLOCK
  5
F56
330
F55
100
AcDbEntity
  8
0
100
AcDbBlockBegin
  2
LW 3801-04-01_a
 70
     0
 10
0.0
 20
0.0
 30
0.0
  3
LW 3801-04-01_a
  1

  0
INSERT
  5
F58
330
F55
100
AcDbEntity
  8
LW 3801-04-01
100
AcDbBlockReference
 66
     1
  2
insertpoint-ECKELT
 10
0.0
 20
0.0
 30
0.0
  0
ATTRIB
  5
F59
330
F58
100
AcDbEntity
  8
insertpoint_ECKELT
100
AcDbText
 10
-6.93151432469303
 20
0.0
 30
0.0
 40
0.6
  1
LW 3801/04-01
 72
     2
 11
-1.199999999999988
 21
0.0
 31
0.0
100
AcDbAttribute
  2
LINKS
 70
     0
  0
ATTRIB
  5
F5A
330
F58
100
AcDbEntity
  8
insertpoint_ECKELT
100
AcDbText
 10
1.199999999999988
 20
0.0
 30
0.0
 40
0.6
  1

100
AcDbAttribute
  2
RECHTS
 70
     0
  0
SEQEND
  5
F5B
330
F58
100
AcDbEntity
  8
LW 3801-04-01
  0
LINE
  5
F5C
330
F55
100
AcDbEntity
  8
LW 3801-04-01
  6
MITTE2
 62
     3
100
AcDbLine
 10
-79.99999999999932
 20
109.999999999999
 30
0.0
 11
-139.9999999999993
 21
110.0000000000012
 31
0.0
  0
LINE
  5
F5D
330
F55
100
AcDbEntity
  8
LW 3801-04-01
  6
MITTE2
 62
     3
100
AcDbLine
 10
-109.9999999999996
 20
140.0000000000001
 30
0.0
 11
-110.0000000000018
 21
80.00000000000012
 31
0.0
  0
LINE
  5
F5E
330
F55
100
AcDbEntity
  8
LW 3801-04-01
  6
MITTE2
 62
     3
100
AcDbLine
 10
0.0
 20
30.00000000000006
 30
0.0
 11
-0.0000000000020464
 21
-29.99999999999995
 31
0.0
  0
LINE
  5
F5F
330
F55
100
AcDbEntity
  8
LW 3801-04-01
  6
MITTE2
 62
     3
100
AcDbLine
 10
30.00000000000023
 20
-0.0000000000010232
 30
0.0
 11
-29.99999999999977
 21
0.0000000000011937
 31
0.0
  0
CIRCLE
  5
F60
330
F55
100
AcDbEntity
  8
LW 3801-04-01
100
AcDbCircle
 10
-110.0000000000006
 20
109.9999999999999
 30
0.0
 40
22.5
  0
CIRCLE
  5
F61
330
F55
100
AcDbEntity
  8
LW 3801-04-01
100
AcDbCircle
 10
-110.0000000000007
 20
109.9999999999999
 30
0.0
 40
17.5
  0
CIRCLE
  5
F62
330
F55
100
AcDbEntity
  8
LW 3801-04-01
100
AcDbCircle
 10
-110.0000000000008
 20
109.9999999999999
 30
0.0
 40
14.5
  0
LWPOLYLINE
  5
F63
330
F55
100
AcDbEntity
  8
LW 3801-04-01
100
AcDbPolyline
 90
       25
 70
     0
 43
0.0
 10
-86.35343551635742
 20
95.96111730314317
 10
-86.28812789916992
 20
96.07171491361681
 10
-86.22333526611328
 20
96.18261769987169
 10
-86.15906715393066
 20
96.29381612516466
 10
-86.09532356262207
 20
96.40531018949571
 10
-86.0321044921875
 20
96.51709035612169
 10
-85.96941947937011
 20
96.62915662504259
 10
-85.90725898742675
 20
96.74149945951524
 10
-85.84563255310058
 20
96.85410932279649
 10
-85.7845401763916
 20
96.9669957516295
 10
-85.72399139404296
 20
97.0801492092711
 10
-85.66397666931152
 20
97.19355062223497
 10
-85.60450553894042
 20
97.30721906400743
 10
-85.54556846618652
 20
97.42112592435899
 10
-85.48718452453613
 20
97.53528074003282
 10
-85.42934417724609
 20
97.64967397428575
 10
-85.37205696105957
 20
97.76430562711778
 10
-85.31532287597656
 20
97.87916616178575
 10
-85.25914192199707
 20
97.99424604154649
 10
-85.20351409912109
 20
98.10954526640001
 10
-85.14843940734863
 20
98.2250638363463
 10
-85.09392738342285
 20
98.3407922146422
 10
-85.03998756408691
 20
98.45672086454454
 10
-84.98660087585449
 20
98.57284978605333
 10
-84.93377685546875
 20
98.68917897916857
  0
LWPOLYLINE
  5
F64
330
F55
100
AcDbEntity
  8
LW 3801-04-01
100
AcDbPolyline
 90
       25
 70
     0
 43
0.0
 10
-98.68929862976074
 20
84.93405774808952
 10
-98.572998046875
 20
84.98691037870475
 10
-98.45687866210937
 20
85.04032567716667
 10
-98.34096908569335
 20
85.09430364347526
 10
-98.22525024414062
 20
85.14883474088737
 10
-98.10975074768066
 20
85.20392850614616
 10
-97.99446105957031
 20
85.25957540250846
 10
-97.87938117980957
 20
85.31577542997428
 10
-97.76453018188476
 20
85.37251905180045
 10
-97.64990806579589
 20
85.42981580473014
 10
-97.53552436828613
 20
85.48766568876335
 10
-97.4213695526123
 20
85.54604963041374
 10
-97.30746269226074
 20
85.60497716642448
 10
-97.19380378723144
 20
85.66444829679557
 10
-97.08039283752441
 20
85.72446302152702
 10
-96.96723937988281
 20
85.78500226713249
 10
-96.8543529510498
 20
85.84608510709831
 10
-96.74172401428222
 20
85.90769246793815
 10
-96.62938117980957
 20
85.96983388639518
 10
-96.5173053741455
 20
86.03249982572624
 10
-96.4055061340332
 20
86.09569982267448
 10
-96.29400253295898
 20
86.15941480375358
 10
-96.18279457092285
 20
86.2236543057067
 10
-96.07187271118164
 20
86.28840879179069
 10
-95.96125602722167
 20
86.3536877987487
  0
LWPOLYLINE
  5
F65
330
F55
100
AcDbEntity
  8
LW 3801-04-01
100
AcDbPolyline
 90
       25
 70
     0
 43
0.0
 10
-95.96112251281738
 20
86.35343984342643
 10
-95.84515571594238
 20
86.41783193327018
 10
-95.72583198547363
 20
86.4753861782653
 10
-95.60349464416503
 20
86.52599767423698
 10
-95.47845840454101
 20
86.56959966398307
 10
-95.35107612609863
 20
86.60607770658561
 10
-95.22187232971191
 20
86.63532689786979
 10
-95.09151458740234
 20
86.65724233366081
 10
-94.96031761169433
 20
86.67185262418815
 10
-94.82861518859863
 20
86.67915776945177
 10
-94.69672203063964
 20
86.6791768429381
 10
-94.56515312194824
 20
86.67193845487657
 10
-94.43467140197753
 20
86.657547509442
 10
-94.30561065673828
 20
86.63611844755235
 10
-94.17827606201171
 20
86.60777524686876
 10
-94.05299186706542
 20
86.57263234830919
 10
-93.93006324768066
 20
86.53080419279161
 10
-93.80979537963867
 20
86.48239568449083
 10
-93.69267463684082
 20
86.42762616849962
 10
-93.57935905456542
 20
86.36681035734239
 10
-93.47015380859375
 20
86.30015805936876
 10
-93.36537361145019
 20
86.22785047269884
 10
-93.26529502868652
 20
86.15007833219591
 10
-93.17023277282714
 20
86.06704190946642
 10
-93.08047294616699
 20
85.97891286588732
  0
ELLIPSE
  5
F66
330
F55
100
AcDbEntity
  8
LW 3801-04-01
100
AcDbEllipse
 10
-92.65135424039101
 20
90.97160552419643
 30
0.0
 11
5.915639115834323
 21
-8.203974248203861
 31
0.0
210
0.0
220
0.0
230
1.0
 40
0.3486469497666817
 41
5.097407463749238
 42
5.12066815187816
  0
ELLIPSE
  5
F67
330
F55
100
AcDbEntity
  8
LW 3801-04-01
100
AcDbEllipse
 10
-90.97160552419595
 20
92.65135424039153
 30
0.0
 11
-8.203974248204179
 21
5.915639115833926
 31
0.0
210
0.0
220
0.0
230
1.0
 40
0.3486469497666719
 41
4.304109808891013
 42
4.327370497019961
  0
LWPOLYLINE
  5
F68
330
F55
100
AcDbEntity
  8
LW 3801-04-01
100
AcDbPolyline
 90
       25
 70
     0
 43
0.0
 10
-85.97890853881835
 20
93.08047727323595
 10
-86.06705665588378
 20
93.17025617338243
 10
-86.1501407623291
 20
93.26537564970079
 10
-86.22795104980468
 20
93.36552098966661
 10
-86.30030632019042
 20
93.47040609098497
 10
-86.36700630187988
 20
93.57972577787462
 10
-86.42786979675292
 20
93.69317487455431
 10
-86.48260116577148
 20
93.81026700712267
 10
-86.53094291687011
 20
93.93043950773302
 10
-86.57276153564453
 20
94.05339673734728
 10
-86.60791397094726
 20
94.17881444669786
 10
-86.63626670837402
 20
94.30639699674669
 10
-86.65770530700683
 20
94.43583921171251
 10
-86.67204856872558
 20
94.56654981351915
 10
-86.67920112609863
 20
94.69786123014513
 10
-86.67913436889648
 20
94.82944921232286
 10
-86.67180061340332
 20
94.96097043729845
 10
-86.65716171264648
 20
95.0921292660338
 10
-86.63518905639648
 20
95.22258237577501
 10
-86.60591125488281
 20
95.35173848844591
 10
-86.5694522857666
 20
95.47891095853868
 10
-86.52588844299316
 20
95.60377553678575
 10
-86.47531509399414
 20
95.72597936369005
 10
-86.41780853271484
 20
95.84520772672716
 10
-86.35343551635742
 20
95.96111730314317
  0
LINE
  5
F69
330
F55
100
AcDbEntity
  8
LW 3801-04-01
100
AcDbLine
 10
-25.63328164346382
 20
16.79312522772898
 30
0.0
 11
-16.79312521135091
 21
25.63328165984194
 31
0.0
  0
LWPOLYLINE
  5
F6A
330
F55
100
AcDbEntity
  8
LW 3801-04-01
100
AcDbPolyline
 90
       25
 70
     0
 43
0.0
 10
-100.2035713195802
 20
84.30408910490104
 10
-100.096607208252
 20
84.3418355343444
 10
-99.98803138732922
 20
84.37416509367057
 10
-99.87806320190442
 20
84.40100148893424
 10
-99.76694107055676
 20
84.4222970364196
 10
-99.65490341186535
 20
84.43799451566764
 10
-99.54217910766613
 20
84.44801763273307
 10
-99.42901611328137
 20
84.4523091671569
 10
-99.31563377380383
 20
84.45082143522331
 10
-99.20257568359387
 20
84.44349721647331
 10
-99.09023284912121
 20
84.43034604765006
 10
-98.97885322570813
 20
84.41137746549674
 10
-98.86870384216321
 20
84.38659147001335
 10
-98.76003265380871
 20
84.3559785244567
 10
-98.65308761596692
 20
84.31955770231315
 10
-98.54814529418957
 20
84.27732900358268
 10
-98.44553947448742
 20
84.22934011198112
 10
-98.34586143493664
 20
84.17579129911491
 10
-98.24940681457531
 20
84.11677793241569
 10
-98.15640449523938
 20
84.05236676908561
 10
-98.06715011596692
 20
83.98268178678581
 10
-97.98214912414563
 20
83.90801862455436
 10
-97.90171623229992
 20
83.82862523771354
 10
-97.82607078552258
 20
83.74463514066764
 10
-97.75543212890637
 20
83.65622953153678
  0
ARC
  5
F6B
330
F55
100
AcDbEntity
  8
LW 3801-04-01
100
AcDbCircle
 10
-109.9999999999999
 20
109.9999999999999
 30
0.0
 40
27.49999999999998
100
AcDbArc
 50
335.7133112122658
 51
294.2866887877327
  0
LWPOLYLINE
  5
F6C
330
F55
100
AcDbEntity
  8
LW 3801-04-01
100
AcDbPolyline
 90
       25
 70
     0
 43
0.0
 10
-83.65622520446782
 20
97.75542691923204
 10
-83.7445735931397
 20
97.82600835538927
 10
-83.82841110229497
 20
97.90151075101915
 10
-83.90759468078618
 20
97.98168615079942
 10
-83.98199081420903
 20
98.06631520963732
 10
-84.05146598815923
 20
98.15516904569689
 10
-84.11586761474614
 20
98.2480187771422
 10
-84.17505264282231
 20
98.34457830167833
 10
-84.22866821289067
 20
98.4441800472838
 10
-84.27660942077642
 20
98.54647115446153
 10
-84.31884765625005
 20
98.65117505765978
 10
-84.35535430908208
 20
98.75804380155626
 10
-84.38610076904302
 20
98.86681035734239
 10
-84.4110488891602
 20
98.97722676969591
 10
-84.43017005920415
 20
99.08899739957872
 10
-84.44340705871587
 20
99.20156911588732
 10
-84.45077896118169
 20
99.31461766935411
 10
-84.45232391357427
 20
99.42790464140001
 10
-84.44808006286626
 20
99.54117253995958
 10
-84.43807601928716
 20
99.65416387296739
 10
-84.42237854003911
 20
99.76648763395372
 10
-84.40105438232427
 20
99.87781957365099
 10
-84.3741893768311
 20
99.98793081022325
 10
-84.3418407440186
 20
100.0965924618345
 10
-84.30408477783208
 20
100.2035661099058
  0
LINE
  5
F6D
330
F55
100
AcDbEntity
  8
LW 3801-04-01
100
AcDbLine
 10
-83.4834957055042
 20
97.62563132923578
 30
0.0
 11
-10.60660171779943
 21
31.81980515339342
 31
0.0
  0
LINE
  5
F6E
330
F55
100
AcDbEntity
  8
LW 3801-04-01
100
AcDbLine
 10
-17.43611317461659
 20
26.027885666462
 30
0.0
 11
-85.82143159158084
 21
92.92785506575024
 31
0.0
  0
LINE
  5
F6F
330
F55
100
AcDbEntity
  8
LW 3801-04-01
100
AcDbLine
 10
-8.563687794882639
 20
29.77689123047901
 30
0.0
 11
-10.60660171779716
 21
31.81980515339353
 31
0.0
  0
LINE
  5
F70
330
F55
100
AcDbEntity
  8
LW 3801-04-01
100
AcDbLine
 10
-83.48349570550425
 20
97.62563132923578
 30
0.0
 11
-83.65622511709785
 21
97.75542788125642
 31
0.0
  0
LWPOLYLINE
  5
F71
330
F55
100
AcDbEntity
  8
LW 3801-04-01
100
AcDbPolyline
 90
       25
 70
     0
 43
0.0
 10
-25.63328266143793
 20
16.79312542654105
 10
-25.64370393753046
 20
16.82328180051871
 10
-25.65469026565546
 20
16.85319975591727
 10
-25.66623449325556
 20
16.88287333227225
 10
-25.67833185195917
 20
16.91229895330497
 10
-25.6909823417663
 20
16.94146946645804
 10
-25.70418119430537
 20
16.970378911267
 10
-25.71792602539057
 20
16.99902132726737
 10
-25.73220968246455
 20
17.02739194608756
 10
-25.7470297813415
 20
17.0554848072631
 10
-25.76238393783564
 20
17.08329275823661
 10
-25.77825307846064
 20
17.11078480459281
 10
-25.79462051391596
 20
17.13793948865958
 10
-25.81148147583002
 20
17.16475442625113
 10
-25.82882881164545
 20
17.19122365690299
 10
-25.84666013717646
 20
17.21734479642936
 10
-25.86496829986567
 20
17.24311426855155
 10
-25.88374376296992
 20
17.26852730489798
 10
-25.9029865264892
 20
17.29357913709708
 10
-25.92268943786616
 20
17.31826738096305
 10
-25.9428453445434
 20
17.3425884602172
 10
-25.96344709396357
 20
17.36653760648795
 10
-25.98449230194086
 20
17.39011005140372
 10
-26.00597381591791
 20
17.41330341077872
 10
-26.02788448333735
 20
17.43611291624137
  0
LWPOLYLINE
  5
F72
330
F55
100
AcDbEntity
  8
LW 3801-04-01
100
AcDbPolyline
 90
       25
 70
     0
 43
0.0
 10
-29.24165964126598
 20
6.702631866703711
 10
-29.22607183456432
 20
6.777118003140174
 10
-29.21333789825451
 20
6.852092301617346
 10
-29.20346498489391
 20
6.927471911678992
 10
-29.1964626312257
 20
7.003175771008216
 10
-29.19234275817883
 20
7.07912102914878
 10
-29.19111251831066
 20
7.155226623783789
 10
-29.19278383255016
 20
7.231409108410559
 10
-29.19735908508312
 20
7.307505762348853
 10
-29.20482635498058
 20
7.383353268871985
 10
-29.21518087387097
 20
7.458866989384375
 10
-29.22841072082531
 20
7.533965265522681
 10
-29.24450874328625
 20
7.608565246830664
 10
-29.26346540451061
 20
7.682584082852088
 10
-29.28527116775524
 20
7.755937731037818
 10
-29.30987358093273
 20
7.828422343502722
 10
-29.3372154235841
 20
7.899869835148535
 10
-29.36726093292248
 20
7.970202123890601
 10
-29.3999767303468
 20
8.039341723690711
 10
-29.43532943725598
 20
8.107211148510657
 10
-29.47328567504894
 20
8.173733508358679
 10
-29.51381206512463
 20
8.238830721150122
 10
-29.55687522888195
 20
8.30242470480033
 10
-29.60243701934826
 20
8.36443916536399
 10
-29.65047121047985
 20
8.424796020756446
  0
ARC
  5
F73
330
F55
100
AcDbEntity
  8
LW 3801-04-01
100
AcDbCircle
 10
-31.19110479285223
 20
7.149474232509533
 30
0.0
 40
2.000000000000025
100
AcDbArc
 50
39.6176125145652
 51
44.99999999999701
  0
LWPOLYLINE
  5
F74
330
F55
100
AcDbEntity
  8
LW 3801-04-01
100
AcDbPolyline
 90
       25
 70
     0
 43
0.0
 10
-25.88672399520869
 20
15.16171172834464
 10
-25.8519577980041
 20
15.22322372175284
 10
-25.81912517547602
 20
15.28572753645011
 10
-25.78824996948237
 20
15.34917191244193
 10
-25.75935840606684
 20
15.41350201345511
 10
-25.73247432708735
 20
15.47866657949515
 10
-25.7076215744018
 20
15.54461315847464
 10
-25.68482160568232
 20
15.6112869141204
 10
-25.66410303115839
 20
15.67863539434501
 10
-25.64548730850214
 20
15.74660733915397
 10
-25.62899827957148
 20
15.81514910436698
 10
-25.6146621704101
 20
15.88420823789664
 10
-25.60250043869013
 20
15.95373109556266
 10
-25.59253931045527
 20
16.02365688062735
 10
-25.58481454849238
 20
16.09381631589957
 10
-25.57934522628779
 20
16.16411641813346
 10
-25.57613849639887
 20
16.23449639059134
 10
-25.57520627975458
 20
16.30489424444266
 10
-25.57656049728388
 20
16.37525156713553
 10
-25.58021068572993
 20
16.44550636983939
 10
-25.58616638183588
 20
16.51559785581656
 10
-25.5944418907165
 20
16.58546642042228
 10
-25.60504436492915
 20
16.65505007482596
 10
-25.61798810958857
 20
16.72429040647574
 10
-25.63328266143793
 20
16.79312542654105
  0
LINE
  5
F75
330
F55
100
AcDbEntity
  8
LW 3801-04-01
100
AcDbLine
 10
-31.81980515339194
 20
10.6066017178008
 30
0.0
 11
-97.62563132923538
 21
83.48349570550466
 31
0.0
  0
LINE
  5
F76
330
F55
100
AcDbEntity
  8
LW 3801-04-01
100
AcDbLine
 10
-92.92785506574984
 20
85.8214315915813
 30
0.0
 11
-26.02788566646086
 21
17.43611317461858
 31
0.0
  0
LINE
  5
F77
330
F55
100
AcDbEntity
  8
LW 3801-04-01
100
AcDbLine
 10
-97.75542788125591
 20
83.65622511709807
 30
0.0
 11
-97.62563132923538
 21
83.48349570550466
 31
0.0
  0
LINE
  5
F78
330
F55
100
AcDbEntity
  8
LW 3801-04-01
100
AcDbLine
 10
-29.77689123047913
 20
8.563687794882639
 30
0.0
 11
-31.81980515339217
 21
10.60660171779568
 31
0.0
  0
LWPOLYLINE
  5
F79
330
F55
100
AcDbEntity
  8
LW 3801-04-01
100
AcDbPolyline
 90
       25
 70
     0
 43
0.0
 10
-17.43611335754389
 20
26.02788642622056
 10
-17.41324782371515
 20
26.00592092252794
 10
-17.39000916481012
 20
25.98440126157823
 10
-17.36639857292169
 20
25.96332505918565
 10
-17.34242439270014
 20
25.94270423627916
 10
-17.31808781623835
 20
25.92254117704454
 10
-17.2933936119079
 20
25.90284064985338
 10
-17.26834893226618
 20
25.88360742307725
 10
-17.24295496940607
 20
25.86484864927354
 10
-17.21721887588495
 20
25.84656909681382
 10
-17.19114303588861
 20
25.82877114988389
 10
-17.16473221778864
 20
25.81146196104112
 10
-17.1379923820495
 20
25.79464629865709
 10
-17.11092710494989
 20
25.77833131528917
 10
-17.08354115486139
 20
25.76251939512315
 10
-17.05583810806269
 20
25.74721530653062
 10
-17.02782392501825
 20
25.73242620206895
 10
-16.99950098991388
 20
25.71815685010972
 10
-16.97087526321405
 20
25.70441201902452
 10
-16.94195151329035
 20
25.69119647718492
 10
-16.91273331642145
 20
25.67851499296251
 10
-16.88322544097895
 20
25.66637471891465
 10
-16.85343265533441
 20
25.65477803922715
 10
-16.82337760925287
 20
25.64373925901475
 10
-16.79312467575067
 20
25.63328222013536
  0
ARC
  5
F7A
330
F55
100
AcDbEntity
  8
LW 3801-04-01
100
AcDbCircle
 10
-7.149474232509646
 20
31.19110479285212
 30
0.0
 40
1.999999999999997
100
AcDbArc
 50
225.0000000000016
 51
230.3823874854332
  0
LWPOLYLINE
  5
F7B
330
F55
100
AcDbEntity
  8
LW 3801-04-01
100
AcDbPolyline
 90
       25
 70
     0
 43
0.0
 10
-16.79312467575067
 20
25.63328222013536
 10
-16.7243862152099
 20
25.61800912595811
 10
-16.65522933006281
 20
25.60507730222764
 10
-16.58571839332575
 20
25.59447721220079
 10
-16.5159118175506
 20
25.58620170332017
 10
-16.44587278366083
 20
25.58023647047105
 10
-16.37565970420832
 20
25.57657674528184
 10
-16.30533337593073
 20
25.57521060682359
 10
-16.23495697975153
 20
25.57612613416734
 10
-16.16459012031549
 20
25.57931617475572
 10
-16.0942924022674
 20
25.58477119184556
 10
-16.02413296699518
 20
25.59247926450792
 10
-15.95425963401789
 20
25.60241655088487
 10
-15.88475823402399
 20
25.61455682493272
 10
-15.81568241119379
 20
25.62888101316514
 10
-15.74708700180048
 20
25.64536765791002
 10
-15.67902684211725
 20
25.66399291730943
 10
-15.61155915260309
 20
25.68473771787706
 10
-15.54475069046015
 20
25.7075734493834
 10
-15.47870397567743
 20
25.73246196485582
 10
-15.41347146034235
 20
25.7593746540648
 10
-15.3491044044494
 20
25.78828290678087
 10
-15.28565406799311
 20
25.8191628811461
 10
-15.22317290306085
 20
25.85198596693101
 10
-15.16171097755426
 20
25.88672355390611
  0
LWPOLYLINE
  5
F7C
330
F55
100
AcDbEntity
  8
LW 3801-04-01
100
AcDbPolyline
 90
       25
 70
     0
 43
0.0
 10
-6.702632308006343
 20
29.24166158414903
 10
-6.777117848396358
 20
29.22607377744737
 10
-6.85209214687353
 20
29.21333745695176
 10
-6.927472352981624
 20
29.20346454359117
 10
-7.0031756162644
 20
29.19646218992296
 10
-7.079121470451411
 20
29.19234231687608
 10
-7.155226469039973
 20
29.19111207700792
 10
-7.231408953666743
 20
29.19278339124742
 10
-7.307506203651485
 20
29.19735864378038
 10
-7.383353114128169
 20
29.20482591367784
 10
-7.458866834640559
 20
29.21518043256822
 10
-7.533965706825313
 20
29.22841027952257
 10
-7.608565688133296
 20
29.2445083019835
 10
-7.682583928108272
 20
29.26346496320787
 10
-7.755937576294002
 20
29.2852707264525
 10
-7.828422188758906
 20
29.30987313962999
 10
-7.899869680404719
 20
29.33721498228135
 10
-7.970201969146785
 20
29.36726049161973
 10
-8.039341568946895
 20
29.39997628904405
 10
-8.107211589813289
 20
29.43532899595323
 10
-8.173733353614863
 20
29.4732852337462
 10
-8.238830566406306
 20
29.51381162382188
 10
-8.302425146102962
 20
29.55687478757921
 10
-8.364439010620174
 20
29.60243896223131
 10
-8.42479586601263
 20
29.65047076917711
  0
ARC
  5
F7D
330
F55
100
AcDbEntity
  8
LW 3801-04-01
100
AcDbCircle
 10
0.0000000000000568
 20
0.0
 30
0.0
 40
29.99999999999998
100
AcDbArc
 50
149.6427303705213
 51
210.3573088944716
  0
ARC
  5
F7E
330
F55
100
AcDbEntity
  8
LW 3801-04-01
100
AcDbCircle
 10
0.0000000000000568
 20
0.0
 30
0.0
 40
29.99999999999998
100
AcDbArc
 50
239.6425976893242
 51
300.3574023106827
  0
ARC
  5
F7F
330
F55
100
AcDbEntity
  8
LW 3801-04-01
100
AcDbCircle
 10
0.0000000000000568
 20
0.0
 30
0.0
 40
29.99999999999998
100
AcDbArc
 50
329.642691105517
 51
30.35730889455933
  0
ARC
  5
F80
330
F55
100
AcDbEntity
  8
LW 3801-04-01
100
AcDbCircle
 10
0.0000000000000568
 20
0.0
 30
0.0
 40
29.99999999999998
100
AcDbArc
 50
59.64259768945114
 51
120.3572696294735
  0
CIRCLE
  5
F81
330
F55
100
AcDbEntity
  8
LW 3801-04-01
100
AcDbCircle
 10
0.0
 20
0.0
 30
0.0
 40
8.499999999999994
  0
CIRCLE
  5
F82
330
F55
100
AcDbEntity
  8
LW 3801-04-01
100
AcDbCircle
 10
0.0
 20
-21.0
 30
0.0
 40
2.999999999999998
  0
CIRCLE
  5
F83
330
F55
100
AcDbEntity
  8
LW 3801-04-01
100
AcDbCircle
 10
0.0000000000000568
 20
20.99999999999994
 30
0.0
 40
2.999999999999998
  0
HATCH
  5
F84
330
F55
100
AcDbEntity
  8
LW 3801-04-01
 62
     1
100
AcDbHatch
 10
0.0
 20
0.0
 30
0.0
210
0.0
220
0.0
230
1.0
  2
SOLID
 70
     1
 71
     0
 91
        5
 92
        7
 72
     0
 73
     1
 93
       76
 10
-56.47940728484083
 20
57.62006293144534
 10
-56.42040627760752
 20
57.63400788676896
 10
-56.22991106390468
 20
57.65739974728266
 10
-56.03552580050277
 20
57.66160194255175
 10
-55.84149268786721
 20
57.64912957428052
 10
-55.64309653823193
 20
57.61606113606541
 10
-55.44682917373209
 20
57.5642921822762
 10
-55.2537158070397
 20
57.50036655771023
 10
-55.07645408846859
 20
57.42141554712538
 10
-56.67247274119258
 20
59.0174719785272
 10
-56.82915614224409
 20
59.16186991468356
 10
-56.99044816522787
 20
59.28629823449845
 10
-57.15788488413238
 20
59.39536534174042
 10
-57.32685793154959
 20
59.48753505333906
 10
-57.50043956453862
 20
59.56280740565521
 10
-57.67709363638943
 20
59.62271850903761
 10
-57.85096633342039
 20
59.66178308645232
 10
-58.02733017752327
 20
59.68724005238306
 10
-58.20021032988263
 20
59.69176261748202
 10
-58.369579702597
 20
59.67974779573196
 10
-58.53732524925598
 20
59.65345126059787
 10
-58.69861927207358
 20
59.60890544217708
 10
-58.85223288858817
 20
59.54438986197221
 10
-59.00123828313692
 20
59.46604907046188
 10
-59.13795486761433
 20
59.36927459115597
 10
-59.26699104578858
 20
59.25253035006623
 10
-59.38220223082087
 20
59.1219607885888
 10
-59.47897998258201
 20
58.98217423777137
 10
-59.55425208037373
 20
58.83009840419425
 10
-59.61569911230231
 20
58.67034176434734
 10
-59.65717656424997
 20
58.50290424550919
 10
-59.68175669327561
 20
58.32778588404088
 10
-59.68778044202519
 20
58.14824325278951
 10
-59.67712985144402
 20
57.96628132898655
 10
-59.65104055851597
 20
57.78399602102155
 10
-59.60649499461939
 20
57.60119619879216
 10
-59.542342302972
 20
57.4169767617482
 10
-59.46671160717536
 20
57.23713208291281
 10
-59.37147371090652
 20
57.06201230338027
 10
-59.26087449298302
 20
56.88996459910367
 10
-59.13184165998528
 20
56.72406119078101
 10
-58.98898354296064
 20
56.56891051854151
 10
-57.49052103256943
 20
55.07041253868234
 10
-57.55944302313128
 20
55.22853280236055
 10
-57.62516196950054
 20
55.42241124095383
 10
-57.67036976836912
 20
55.61544916892057
 10
-57.70375324175535
 20
55.81234424853772
 10
-57.71373725895191
 20
56.00588088212558
 10
-57.70530787632235
 20
56.19452950121933
 10
-57.67929623443492
 20
56.3813422791022
 10
-57.65651677386731
 20
56.47761875099831
 10
-58.38374137572377
 20
57.20486056667863
 10
-58.47180952772392
 20
57.30362238440517
 10
-58.54988660421309
 20
57.41045797543762
 10
-58.61722913069108
 20
57.52437806420366
 10
-58.66638389828967
 20
57.63805215715033
 10
-58.70065050258165
 20
57.75219920148041
 10
-58.72224708254781
 20
57.86940606388995
 10
-58.73089715141513
 20
57.98829022542995
 10
-58.72167907125655
 20
58.09889137046602
 10
-57.50015149251495
 20
56.87733487746533
 10
-57.48455873793783
 20
56.90789578297614
 10
-57.37901261331843
 20
57.06450861349449
 10
-57.25297192148502
 20
57.20757841747121
 10
-57.10675996743447
 20
57.33678589969909
 10
-56.94930364338538
 20
57.44289506042335
 10
-56.90282463245244
 20
57.46589913857116
 10
-58.15484031723847
 20
58.71794445928728
 10
-58.03809433083929
 20
58.73637661993692
 10
-57.92134856260363
 20
58.73637523823368
 10
-57.80470746221777
 20
58.71853633328299
 10
-57.69092986496108
 20
58.68721639824627
 10
-57.57591133052244
 20
58.63437836007983
 10
-57.4666564813697
 20
58.57046797568583
 10
-57.35605620898839
 20
58.4875157261153
 10
-57.25006448581801
 20
58.39073837432096
 97
        0
 92
        7
 72
     0
 73
     1
 93
       72
 10
-55.26753613583609
 20
56.38751728497027
 10
-55.16787913830699
 20
56.31341940975977
 10
-55.07646819638675
 20
56.2293798082988
 10
-54.17937975250727
 20
55.33227012982078
 10
-55.35451780480567
 20
55.35532596569689
 10
-55.32075213837084
 20
52.8913754045474
 10
-54.38833315646188
 20
51.95893435174579
 10
-54.36833456071115
 20
54.40291460570207
 10
-52.0242028247896
 20
54.36909203490654
 10
-54.45586550742859
 20
56.80081227639735
 10
-54.6105519999326
 20
56.94026385505472
 10
-54.77472575575034
 20
57.06843421807352
 10
-54.94742209176489
 20
57.18485022644952
 10
-55.12407572728842
 20
57.28162841453803
 10
-55.30687405873258
 20
57.36304539005363
 10
-55.48873253062327
 20
57.42324534719458
 10
-55.67400748646115
 20
57.47211486073542
 10
-55.85834254638486
 20
57.5028396129606
 10
-56.03865932052951
 20
57.51443030066366
 10
-56.21933265989603
 20
57.51052452797981
 10
-56.39445156677378
 20
57.48902080112301
 10
-56.5634261776973
 20
57.44908345919203
 10
-56.72318423560824
 20
57.39071246582611
 10
-56.87526185085548
 20
57.31544396773512
 10
-57.01658680274071
 20
57.22020567149957
 10
-57.14869523797391
 20
57.10346146677031
 10
-57.2623702762964
 20
56.97442801564219
 10
-57.35761191770839
 20
56.833105318115
 10
-57.43442012584926
 20
56.68256563124763
 10
-57.49433101106808
 20
56.52434510174979
 10
-57.53458573663095
 20
56.35421012674263
 10
-57.55869271458063
 20
56.18107643773448
 10
-57.56649831497449
 20
56.00638799372541
 10
-57.55732051645316
 20
55.82847962331706
 10
-57.5261331397746
 20
55.64453707955769
 10
-57.48359067395425
 20
55.46288016066134
 10
-57.42214767805386
 20
55.28161626697803
 10
-57.34380725014961
 20
55.10188830184077
 10
-57.24468602619435
 20
54.92632607133206
 10
-57.13643398924754
 20
54.75625692838085
 10
-57.00740115624973
 20
54.5903535200581
 10
-56.86454303922513
 20
54.43520284781866
 10
-55.51891037340589
 20
53.08953833010164
 10
-55.52811241853374
 20
54.33380254801017
 10
-56.24701206191663
 20
55.05271920816034
 10
-56.29150244870184
 20
55.10251018327664
 10
-56.355823744807
 20
55.18095036110202
 10
-56.42559351762067
 20
55.28107604439887
 10
-56.48413718074819
 20
55.38816332932933
 10
-56.52696325224736
 20
55.48887242258482
 10
-56.54674788231034
 20
55.54847444368857
 10
-56.56166604061168
 20
55.60947735641588
 10
-56.58516686654576
 20
55.77344399380433
 10
-56.58768491525213
 20
55.87501284198499
 10
-56.57863301716956
 20
55.96193917608906
 10
-56.56176531109188
 20
56.04768567098139
 10
-56.53503569948842
 20
56.13008328896194
 10
-56.49826599937636
 20
56.20846227588296
 10
-56.45127185278855
 20
56.28472742893951
 10
-56.39342044189272
 20
56.35320735411042
 10
-56.3484052214
 20
56.39630444337601
 10
-56.30022561649705
 20
56.43599128985477
 10
-56.24695839666461
 20
56.47206510181934
 10
-56.19045308094158
 20
56.5028115817197
 10
-56.08978704531756
 20
56.54174817629144
 10
-56.01243353667221
 20
56.56037128309453
 10
-55.91265264676223
 20
56.57094481097104
 10
-55.73168659599458
 20
56.56890676502536
 10
-55.66145280546128
 20
56.55532248309467
 10
-55.57616721712233
 20
56.53270966177103
 10
-55.48695536709155
 20
56.50309819239857
 10
-55.37425945040826
 20
56.45098523438662
 97
        0
 92
        7
 72
     0
 73
     1
 93
       57
 10
-52.06016267408649
 20
53.14885340169905
 10
-51.93893217629956
 20
53.08415023325029
 10
-51.82452222371754
 20
53.00807979440444
 10
-51.7169943538375
 20
52.91283855295919
 10
-50.83987534449637
 20
52.03569878170751
 10
-50.25613959480181
 20
52.6194207143688
 10
-51.1286502730955
 20
53.49195204549118
 10
-51.28379756379795
 20
53.63481383493788
 10
-51.44969795418962
 20
53.76077833782312
 10
-51.61867078344323
 20
53.87138159177482
 10
-51.79071605155878
 20
53.96662359679294
 10
-51.97197827265384
 20
54.04650442559876
 10
-52.14807934623362
 20
54.10573962588355
 10
-52.3285862155479
 20
54.14984094003745
 10
-52.51212865707564
 20
54.17854413773682
 10
-52.69157906352892
 20
54.18939132897794
 10
-52.86753958725588
 20
54.18323046383571
 10
-53.03958627343537
 20
54.15865444355944
 10
-53.20241640660206
 20
54.11564477184836
 10
-53.36217446451296
 20
54.05727377848251
 10
-53.51117985906183
 20
53.97893298697216
 10
-53.65250481094713
 20
53.8836946907366
 10
-53.78307709947049
 20
53.76848659635649
 10
-53.89828828450279
 20
53.63791703487916
 10
-53.99352992591482
 20
53.49659433735195
 10
-54.07033813405568
 20
53.34605465048458
 10
-54.13024905563513
 20
53.18476186392789
 10
-54.17326261793188
 20
53.01886049179955
 10
-54.19497940963277
 20
52.84321366822894
 10
-54.20239793203506
 20
52.66629476101361
 10
-54.19170863438195
 20
52.48404834574876
 10
-54.16559046548816
 20
52.30148837766094
 10
-54.12104490159166
 20
52.11868855543156
 10
-54.05806579534217
 20
51.93588851503855
 10
-53.97972540379845
 20
51.75308829284247
 10
-53.88448750752965
 20
51.57796851330999
 10
-53.77388828960615
 20
51.4059208090334
 10
-53.64485542024776
 20
51.2430896577695
 10
-53.50046119287397
 20
51.08640283882024
 10
-52.64484772842045
 20
50.23076912150478
 10
-52.03806977808003
 20
50.83753270940269
 10
-52.91058045637381
 20
51.71006404052516
 10
-52.99776990671266
 20
51.81187967136904
 10
-53.07574250006399
 20
51.92094571978993
 10
-53.13675622863287
 20
52.03050312862965
 10
-53.1848664019246
 20
52.14645067943715
 10
-53.219335698607
 20
52.26706789953297
 10
-53.24016422339859
 20
52.38350668858763
 10
-53.24556999666573
 20
52.50172720420613
 10
-53.2377651249385
 20
52.61484761675635
 10
-51.74927419665217
 20
51.12632145503514
 10
-51.16400230024784
 20
51.71157949804558
 10
-52.67860710446903
 20
53.22622015383206
 10
-52.56032497136004
 20
53.24618842483082
 10
-52.43589854229714
 20
53.24772308075541
 10
-52.31042777199707
 20
53.23014828541139
 10
-52.18704626594093
 20
53.20163627966315
 97
        0
 92
        7
 72
     0
 73
     1
 93
        6
 10
-50.1025287780546
 20
52.44737250104356
 10
-52.48509232483437
 20
50.06486534957597
 10
-50.90289866525238
 20
48.48263423856167
 10
-50.28997612807305
 20
49.09554226785605
 10
-51.14866181322483
 20
49.954248278591
 10
-49.3790208036244
 20
51.72384740076421
 97
        0
 92
        7
 72
     0
 73
     1
 93
        8
 10
-49.21465699626977
 20
51.55947970282389
 10
-49.79839274596438
 20
50.97575777016257
 10
-48.92588206767064
 20
50.10322643904015
 10
-50.72931830488496
 20
48.29983288918654
 10
-50.00427422010564
 20
47.57477164219747
 10
-48.20083798289132
 20
49.37816519205106
 10
-47.32218286320112
 20
48.49948927408971
 10
-46.73844711350652
 20
49.08321120675103
 97
        0
 75
     0
 76
     1
 47
0.0142553043587597
 98
        5
 10
-56.67823886793371
 20
58.39751251275564
 10
-55.17569656355651
 20
56.69333189157516
 10
-51.95894024447217
 20
53.55714049998582
 10
-49.86154843731352
 20
51.80242393505068
 10
-48.93380103457006
 20
50.73353258577498
450
        0
451
        0
460
0.0
461
0.0
452
        0
462
0.0
453
        0
470

  0
LWPOLYLINE
  5
F85
330
F55
100
AcDbEntity
  8
LW 3801-04-01
 62
     1
100
AcDbPolyline
 90
        8
 70
     1
 43
0.0
 10
-48.20083798289132
 20
49.37816519205106
 10
-50.00427422010564
 20
47.57477164219747
 10
-50.72931830488496
 20
48.29983288918654
 10
-48.92588206767064
 20
50.10322643904015
 10
-49.79839274596438
 20
50.97575777016257
 10
-49.21465699626977
 20
51.55947970282389
 10
-46.73844711350652
 20
49.08321120675103
 10
-47.32218286320112
 20
48.49948927408971
  0
LWPOLYLINE
  5
F86
330
F55
100
AcDbEntity
  8
LW 3801-04-01
 62
     1
100
AcDbPolyline
 90
       73
 70
     1
 43
0.0
 10
-56.24701206191659
 20
55.05271920816031
 10
-55.52811241853374
 20
54.33380254801017
 10
-55.51891037340589
 20
53.08953833010164
 10
-56.86454303922509
 20
54.4352028478186
 10
-57.00740115624977
 20
54.59035352005816
 10
-57.1364339892475
 20
54.75625692838082
 10
-57.24468602619435
 20
54.92632607133206
 10
-57.34380725014957
 20
55.10188830184074
 10
-57.42214767805386
 20
55.28161626697803
 10
-57.48359067395429
 20
55.46288016066137
 10
-57.52613313977456
 20
55.64453707955775
 10
-57.55732051645316
 20
55.82847962331706
 10
-57.56649831497453
 20
56.00638799372536
 10
-57.5586927145806
 20
56.18107643773453
 10
-57.53458573663095
 20
56.35421012674254
 10
-57.49433101106808
 20
56.52434510174979
 10
-57.43442012584926
 20
56.68256563124763
 10
-57.35761191770839
 20
56.833105318115
 10
-57.2623702762964
 20
56.97442801564219
 10
-57.14869523797382
 20
57.10346146677039
 10
-57.01658680274078
 20
57.22020567149957
 10
-56.87526185085548
 20
57.31544396773512
 10
-56.72318423560827
 20
57.39071246582608
 10
-56.56342617769742
 20
57.44908345919199
 10
-56.39445156677369
 20
57.48902080112301
 10
-56.21933265989603
 20
57.51052452797981
 10
-56.03865932052955
 20
57.51443030066369
 10
-55.8583425463849
 20
57.50283961296066
 10
-55.67400748646115
 20
57.4721148607355
 10
-55.48873253062318
 20
57.4232453471945
 10
-55.30687405873262
 20
57.36304539005359
 10
-55.12407572728842
 20
57.28162841453803
 10
-54.94742209176494
 20
57.18485022644959
 10
-54.77472575575029
 20
57.06843421807349
 10
-54.61055199993256
 20
56.9402638550547
 10
-54.45586550742867
 20
56.80081227639743
 10
-52.0242028247896
 20
54.36909203490654
 10
-54.36833456071115
 20
54.40291460570207
 10
-54.38833315646188
 20
51.95893435174579
 10
-55.32075213837084
 20
52.8913754045474
 10
-55.35451780480567
 20
55.35532596569689
 10
-54.17937975250727
 20
55.33227012982078
 10
-55.07646819638675
 20
56.2293798082988
 10
-55.16787913830699
 20
56.31341940975977
 10
-55.26753613583609
 20
56.38751728497027
 10
-55.37425945040823
 20
56.45098523438659
 10
-55.48695536709151
 20
56.50309819239851
 10
-55.57616721712228
 20
56.53270966177109
 10
-55.66145280546131
 20
56.55532248309473
 10
-55.70914027037392
 20
56.56454596317477
 10
-55.75754055302878
 20
56.56919793318696
 10
-55.91265264676223
 20
56.57094481097104
 10
-56.01243353667221
 20
56.56037128309453
 10
-56.08978704531752
 20
56.54174817629146
 10
-56.19045308094158
 20
56.5028115817197
 10
-56.24695839666461
 20
56.47206510181934
 10
-56.30022561649696
 20
56.43599128985485
 10
-56.34840522139995
 20
56.39630444337604
 10
-56.39342044189269
 20
56.35320735411045
 10
-56.45127185278851
 20
56.28472742893947
 10
-56.49826599937632
 20
56.20846227588299
 10
-56.53503569948838
 20
56.13008328896189
 10
-56.56176531109188
 20
56.04768567098139
 10
-56.5786330171696
 20
55.96193917608918
 10
-56.58768491525213
 20
55.87501284198499
 10
-56.58516686654576
 20
55.77344399380433
 10
-56.56166604061168
 20
55.6094773564158
 10
-56.54674788231034
 20
55.54847444368849
 10
-56.52696325224736
 20
55.48887242258482
 10
-56.48413718074819
 20
55.38816332932933
 10
-56.42559351762064
 20
55.2810760443989
 10
-56.355823744807
 20
55.18095036110202
 10
-56.29150244870176
 20
55.10251018327656
  0
LWPOLYLINE
  5
F87
330
F55
100
AcDbEntity
  8
LW 3801-04-01
 62
     1
100
AcDbPolyline
 90
       76
 70
     1
 43
0.0
 10
-55.44682917373209
 20
57.5642921822762
 10
-55.64309653823197
 20
57.61606113606544
 10
-55.84149268786726
 20
57.64912957428058
 10
-56.03552580050277
 20
57.66160194255175
 10
-56.22991106390476
 20
57.65739974728266
 10
-56.4204062776074
 20
57.63400788676898
 10
-56.47940728484083
 20
57.62006293144534
 10
-57.25006448581805
 20
58.39073837432099
 10
-57.35605620898835
 20
58.48751572611533
 10
-57.46665648136974
 20
58.57046797568589
 10
-57.57591133052244
 20
58.63437836007983
 10
-57.69092986496108
 20
58.68721639824627
 10
-57.80470746221774
 20
58.71853633328297
 10
-57.92134856260359
 20
58.73637523823362
 10
-58.0380943308392
 20
58.73637661993701
 10
-58.15484031723847
 20
58.71794445928728
 10
-56.90282463245244
 20
57.46589913857116
 10
-56.94930364338538
 20
57.44289506042335
 10
-57.1067599674345
 20
57.33678589969906
 10
-57.25297192148499
 20
57.20757841747118
 10
-57.37901261331847
 20
57.06450861349447
 10
-57.48455873793775
 20
56.90789578297614
 10
-57.50015149251495
 20
56.87733487746533
 10
-58.72167907125655
 20
58.09889137046602
 10
-58.73089715141513
 20
57.98829022542995
 10
-58.72224708254781
 20
57.86940606388995
 10
-58.70065050258165
 20
57.75219920148041
 10
-58.66638389828967
 20
57.63805215715033
 10
-58.61722913069112
 20
57.52437806420371
 10
-58.54988660421309
 20
57.41045797543762
 10
-58.47180952772392
 20
57.30362238440517
 10
-58.38374137572377
 20
57.20486056667863
 10
-57.65651677386731
 20
56.47761875099831
 10
-57.67929623443489
 20
56.38134227910223
 10
-57.70530787632235
 20
56.19452950121933
 10
-57.71373725895191
 20
56.00588088212558
 10
-57.70375324175531
 20
55.81234424853775
 10
-57.67036976836912
 20
55.61544916892057
 10
-57.62516196950054
 20
55.42241124095383
 10
-57.55944302313128
 20
55.22853280236055
 10
-57.49052103256943
 20
55.07041253868234
 10
-58.9889835429606
 20
56.56891051854145
 10
-59.13184165998528
 20
56.72406119078101
 10
-59.26087449298302
 20
56.88996459910367
 10
-59.37147371090656
 20
57.06201230338033
 10
-59.46671160717536
 20
57.23713208291272
 10
-59.54234230297204
 20
57.41697676174823
 10
-59.60649499461939
 20
57.60119619879216
 10
-59.65104055851597
 20
57.78399602102155
 10
-59.67712985144402
 20
57.96628132898646
 10
-59.68778044202519
 20
58.14824325278951
 10
-59.68175669327558
 20
58.32778588404082
 10
-59.65717656424997
 20
58.50290424550928
 10
-59.61569911230228
 20
58.67034176434728
 10
-59.55425208037373
 20
58.83009840419425
 10
-59.47897998258201
 20
58.98217423777137
 10
-59.38220223082083
 20
59.12196078858887
 10
-59.26699104578862
 20
59.25253035006616
 10
-59.13795486761436
 20
59.369274591156
 10
-59.00123828313704
 20
59.46604907046185
 10
-58.85223288858808
 20
59.54438986197226
 10
-58.69861927207361
 20
59.60890544217702
 10
-58.53732524925607
 20
59.65345126059787
 10
-58.36957970259703
 20
59.67974779573194
 10
-58.20021032988263
 20
59.69176261748211
 10
-58.02733017752331
 20
59.68724005238309
 10
-57.85096633342051
 20
59.66178308645226
 10
-57.67709363638939
 20
59.62271850903767
 10
-57.50043956453859
 20
59.56280740565515
 10
-57.32685793154963
 20
59.48753505333908
 10
-57.15788488413234
 20
59.39536534174036
 10
-56.99044816522783
 20
59.28629823449842
 10
-56.82915614224405
 20
59.16186991468354
 10
-56.6724727411925
 20
59.01747197852711
 10
-55.07645408846856
 20
57.42141554712532
 10
-55.2537158070397
 20
57.50036655771023
  0
LWPOLYLINE
  5
F88
330
F55
100
AcDbEntity
  8
LW 3801-04-01
 62
     1
100
AcDbPolyline
 90
        6
 70
     1
 43
0.0
 10
-50.90289866525238
 20
48.48263423856167
 10
-52.48509232483437
 20
50.06486534957597
 10
-50.1025287780546
 20
52.44737250104356
 10
-49.3790208036244
 20
51.72384740076421
 10
-51.14866181322483
 20
49.954248278591
 10
-50.28997612807305
 20
49.09554226785605
  0
LWPOLYLINE
  5
F89
330
F55
100
AcDbEntity
  8
LW 3801-04-01
 62
     1
100
AcDbPolyline
 90
       57
 70
     1
 43
0.0
 10
-54.20239793203506
 20
52.66629476101361
 10
-54.19497940963274
 20
52.84321366822891
 10
-54.17326261793192
 20
53.01886049179961
 10
-54.13024905563513
 20
53.18476186392789
 10
-54.07033813405568
 20
53.34605465048458
 10
-53.99352992591482
 20
53.49659433735195
 10
-53.89828828450279
 20
53.63791703487916
 10
-53.78307709947054
 20
53.76848659635647
 10
-53.65250481094718
 20
53.88369469073658
 10
-53.51117985906192
 20
53.97893298697207
 10
-53.36217446451296
 20
54.05727377848251
 10
-53.20241640660203
 20
54.11564477184843
 10
-53.03958627343541
 20
54.1586544435595
 10
-52.86753958725593
 20
54.18323046383576
 10
-52.69157906352904
 20
54.18939132897799
 10
-52.51212865707564
 20
54.17854413773682
 10
-52.32858621554782
 20
54.14984094003745
 10
-52.14807934623349
 20
54.10573962588344
 10
-51.97197827265392
 20
54.04650442559881
 10
-51.79071605155883
 20
53.966623596793
 10
-51.61867078344331
 20
53.87138159177482
 10
-51.4496979541897
 20
53.76077833782312
 10
-51.28379756379799
 20
53.63481383493791
 10
-51.12865027309553
 20
53.49195204549125
 10
-50.25613959480181
 20
52.6194207143688
 10
-50.83987534449637
 20
52.03569878170751
 10
-51.71699435383743
 20
52.9128385529591
 10
-51.82452222371749
 20
53.00807979440438
 10
-51.93893217629961
 20
53.08415023325031
 10
-52.06016267408653
 20
53.14885340169912
 10
-52.18704626594093
 20
53.20163627966315
 10
-52.31042777199707
 20
53.23014828541139
 10
-52.43589854229705
 20
53.24772308075541
 10
-52.56032497136004
 20
53.24618842483082
 10
-52.67860710446903
 20
53.22622015383206
 10
-51.16400230024784
 20
51.71157949804558
 10
-51.74927419665217
 20
51.12632145503514
 10
-53.2377651249385
 20
52.61484761675635
 10
-53.24556999666573
 20
52.50172720420613
 10
-53.24016422339859
 20
52.38350668858763
 10
-53.219335698607
 20
52.26706789953297
 10
-53.1848664019246
 20
52.14645067943715
 10
-53.13675622863287
 20
52.03050312862965
 10
-53.07574250006399
 20
51.92094571978993
 10
-52.99776990671266
 20
51.81187967136904
 10
-52.91058045637377
 20
51.71006404052514
 10
-52.03806977808003
 20
50.83753270940269
 10
-52.64484772842045
 20
50.23076912150478
 10
-53.50046119287397
 20
51.08640283882024
 10
-53.64485542024776
 20
51.2430896577695
 10
-53.77388828960611
 20
51.40592080903335
 10
-53.88448750752969
 20
51.57796851331003
 10
-53.97972540379845
 20
51.75308829284247
 10
-54.05806579534217
 20
51.93588851503855
 10
-54.12104490159162
 20
52.11868855543162
 10
-54.16559046548816
 20
52.30148837766094
 10
-54.19170863438195
 20
52.48404834574876
  0
LINE
  5
F8A
330
F55
100
AcDbEntity
  8
LW 3801-04-01
  6
MITTE2
 62
     3
100
AcDbLine
 10
79.99999999999727
 20
109.999999999999
 30
0.0
 11
139.9999999999972
 21
110.0000000000012
 31
0.0
  0
LINE
  5
F8B
330
F55
100
AcDbEntity
  8
LW 3801-04-01
  6
MITTE2
 62
     3
100
AcDbLine
 10
109.9999999999975
 20
140.0000000000001
 30
0.0
 11
109.9999999999998
 21
80.00000000000012
 31
0.0
  0
CIRCLE
  5
F8C
330
F55
100
AcDbEntity
  8
LW 3801-04-01
100
AcDbCircle
 10
109.9999999999985
 20
109.9999999999999
 30
0.0
 40
22.5
  0
CIRCLE
  5
F8D
330
F55
100
AcDbEntity
  8
LW 3801-04-01
100
AcDbCircle
 10
109.9999999999987
 20
109.9999999999999
 30
0.0
 40
17.5
  0
CIRCLE
  5
F8E
330
F55
100
AcDbEntity
  8
LW 3801-04-01
100
AcDbCircle
 10
109.9999999999987
 20
109.9999999999999
 30
0.0
 40
14.5
  0
LWPOLYLINE
  5
F8F
330
F55
100
AcDbEntity
  8
LW 3801-04-01
100
AcDbPolyline
 90
       25
 70
     0
 43
0.0
 10
86.35343551635537
 20
95.96111730314317
 10
86.28812789916787
 20
96.07171491361681
 10
86.22333526611123
 20
96.18261769987169
 10
86.15906715392862
 20
96.29381612516466
 10
86.09532356262002
 20
96.40531018949571
 10
86.03210449218545
 20
96.51709035612169
 10
85.96941947936807
 20
96.62915662504259
 10
85.90725898742471
 20
96.74149945951524
 10
85.84563255309854
 20
96.85410932279649
 10
85.78454017638955
 20
96.9669957516295
 10
85.72399139404092
 20
97.0801492092711
 10
85.66397666930948
 20
97.19355062223497
 10
85.60450553893838
 20
97.30721906400743
 10
85.54556846618448
 20
97.42112592435899
 10
85.48718452453409
 20
97.53528074003282
 10
85.42934417724405
 20
97.64967397428575
 10
85.37205696105752
 20
97.76430562711778
 10
85.31532287597451
 20
97.87916616178575
 10
85.25914192199502
 20
97.99424604154649
 10
85.20351409911905
 20
98.10954526640001
 10
85.14843940734659
 20
98.2250638363463
 10
85.0939273834208
 20
98.3407922146422
 10
85.03998756408487
 20
98.45672086454454
 10
84.98660087585244
 20
98.57284978605333
 10
84.9337768554667
 20
98.68917897916857
  0
LWPOLYLINE
  5
F90
330
F55
100
AcDbEntity
  8
LW 3801-04-01
100
AcDbPolyline
 90
       25
 70
     0
 43
0.0
 10
98.68929862975869
 20
84.93405774808952
 10
98.57299804687295
 20
84.98691037870475
 10
98.45687866210733
 20
85.04032567716667
 10
98.34096908569131
 20
85.09430364347526
 10
98.22525024413858
 20
85.14883474088737
 10
98.10975074767862
 20
85.20392850614616
 10
97.99446105956826
 20
85.25957540250846
 10
97.87938117980752
 20
85.31577542997428
 10
97.76453018188272
 20
85.37251905180045
 10
97.64990806579385
 20
85.42981580473014
 10
97.53552436828409
 20
85.48766568876335
 10
97.42136955261026
 20
85.54604963041374
 10
97.30746269225869
 20
85.60497716642448
 10
97.1938037872294
 20
85.66444829679557
 10
97.08039283752237
 20
85.72446302152702
 10
96.96723937988076
 20
85.78500226713249
 10
96.85435295104776
 20
85.84608510709831
 10
96.74172401428018
 20
85.90769246793815
 10
96.62938117980752
 20
85.96983388639518
 10
96.51730537414346
 20
86.03249982572624
 10
96.40550613403116
 20
86.09569982267448
 10
96.29400253295694
 20
86.15941480375358
 10
96.1827945709208
 20
86.2236543057067
 10
96.07187271117959
 20
86.28840879179069
 10
95.96125602721963
 20
86.3536877987487
  0
LWPOLYLINE
  5
F91
330
F55
100
AcDbEntity
  8
LW 3801-04-01
100
AcDbPolyline
 90
       25
 70
     0
 43
0.0
 10
95.96112251281534
 20
86.35343984342643
 10
95.84515571594034
 20
86.41783193327018
 10
95.72583198547159
 20
86.4753861782653
 10
95.60349464416299
 20
86.52599767423698
 10
95.47845840453897
 20
86.56959966398307
 10
95.35107612609659
 20
86.60607770658561
 10
95.22187232970987
 20
86.63532689786979
 10
95.0915145874003
 20
86.65724233366081
 10
94.96031761169229
 20
86.67185262418815
 10
94.82861518859659
 20
86.67915776945177
 10
94.6967220306376
 20
86.6791768429381
 10
94.56515312194619
 20
86.67193845487657
 10
94.43467140197549
 20
86.657547509442
 10
94.30561065673623
 20
86.63611844755235
 10
94.17827606200967
 20
86.60777524686876
 10
94.05299186706338
 20
86.57263234830919
 10
93.93006324767862
 20
86.53080419279161
 10
93.80979537963662
 20
86.48239568449083
 10
93.69267463683877
 20
86.42762616849962
 10
93.57935905456338
 20
86.36681035734239
 10
93.4701538085917
 20
86.30015805936876
 10
93.36537361144815
 20
86.22785047269884
 10
93.26529502868448
 20
86.15007833219591
 10
93.1702327728251
 20
86.06704190946642
 10
93.08047294616494
 20
85.97891286588732
  0
ELLIPSE
  5
F92
330
F55
100
AcDbEntity
  8
LW 3801-04-01
100
AcDbEllipse
 10
92.65135424038897
 20
90.97160552419643
 30
0.0
 11
-5.915639115834323
 21
-8.203974248203861
 31
0.0
210
0.0
220
0.0
230
-1.0
 40
0.3486469497666817
 41
5.097407463749238
 42
5.12066815187816
  0
ELLIPSE
  5
F93
330
F55
100
AcDbEntity
  8
LW 3801-04-01
100
AcDbEllipse
 10
90.9716055241939
 20
92.65135424039153
 30
0.0
 11
8.203974248204179
 21
5.915639115833926
 31
0.0
210
0.0
220
0.0
230
-1.0
 40
0.3486469497666719
 41
4.304109808891013
 42
4.327370497019961
  0
LWPOLYLINE
  5
F94
330
F55
100
AcDbEntity
  8
LW 3801-04-01
100
AcDbPolyline
 90
       25
 70
     0
 43
0.0
 10
85.97890853881631
 20
93.08047727323595
 10
86.06705665588174
 20
93.17025617338243
 10
86.15014076232705
 20
93.26537564970079
 10
86.22795104980264
 20
93.36552098966661
 10
86.30030632018838
 20
93.47040609098497
 10
86.36700630187784
 20
93.57972577787462
 10
86.42786979675088
 20
93.69317487455431
 10
86.48260116576944
 20
93.81026700712267
 10
86.53094291686807
 20
93.93043950773302
 10
86.57276153564248
 20
94.05339673734728
 10
86.60791397094522
 20
94.17881444669786
 10
86.63626670837198
 20
94.30639699674669
 10
86.65770530700479
 20
94.43583921171251
 10
86.67204856872354
 20
94.56654981351915
 10
86.67920112609659
 20
94.69786123014513
 10
86.67913436889444
 20
94.82944921232286
 10
86.67180061340127
 20
94.96097043729845
 10
86.65716171264444
 20
95.0921292660338
 10
86.63518905639444
 20
95.22258237577501
 10
86.60591125488076
 20
95.35173848844591
 10
86.56945228576455
 20
95.47891095853868
 10
86.52588844299112
 20
95.60377553678575
 10
86.47531509399209
 20
95.72597936369005
 10
86.4178085327128
 20
95.84520772672716
 10
86.35343551635537
 20
95.96111730314317
  0
LINE
  5
F95
330
F55
100
AcDbEntity
  8
LW 3801-04-01
100
AcDbLine
 10
25.63328164346177
 20
16.79312522772898
 30
0.0
 11
16.79312521134886
 21
25.63328165984194
 31
0.0
  0
LWPOLYLINE
  5
F96
330
F55
100
AcDbEntity
  8
LW 3801-04-01
100
AcDbPolyline
 90
       25
 70
     0
 43
0.0
 10
100.2035713195781
 20
84.30408910490104
 10
100.09660720825
 20
84.3418355343444
 10
99.98803138732718
 20
84.37416509367057
 10
99.87806320190237
 20
84.40100148893424
 10
99.76694107055472
 20
84.4222970364196
 10
99.65490341186331
 20
84.43799451566764
 10
99.54217910766409
 20
84.44801763273307
 10
99.42901611327933
 20
84.4523091671569
 10
99.31563377380179
 20
84.45082143522331
 10
99.20257568359183
 20
84.44349721647331
 10
99.09023284911917
 20
84.43034604765006
 10
98.97885322570608
 20
84.41137746549674
 10
98.86870384216116
 20
84.38659147001335
 10
98.76003265380667
 20
84.3559785244567
 10
98.65308761596487
 20
84.31955770231315
 10
98.54814529418753
 20
84.27732900358268
 10
98.44553947448538
 20
84.22934011198112
 10
98.3458614349346
 20
84.17579129911491
 10
98.24940681457327
 20
84.11677793241569
 10
98.15640449523733
 20
84.05236676908561
 10
98.06715011596487
 20
83.98268178678581
 10
97.98214912414358
 20
83.90801862455436
 10
97.90171623229788
 20
83.82862523771354
 10
97.82607078552054
 20
83.74463514066764
 10
97.75543212890433
 20
83.65622953153678
  0
ARC
  5
F97
330
F55
100
AcDbEntity
  8
LW 3801-04-01
100
AcDbCircle
 10
109.9999999999979
 20
109.9999999999999
 30
0.0
 40
27.49999999999998
100
AcDbArc
 50
245.7133112122673
 51
204.2866887877342
  0
LWPOLYLINE
  5
F98
330
F55
100
AcDbEntity
  8
LW 3801-04-01
100
AcDbPolyline
 90
       25
 70
     0
 43
0.0
 10
83.65622520446578
 20
97.75542691923204
 10
83.74457359313765
 20
97.82600835538927
 10
83.82841110229293
 20
97.90151075101915
 10
83.90759468078414
 20
97.98168615079942
 10
83.98199081420699
 20
98.06631520963732
 10
84.05146598815719
 20
98.15516904569689
 10
84.1158676147441
 20
98.2480187771422
 10
84.17505264282027
 20
98.34457830167833
 10
84.22866821288863
 20
98.4441800472838
 10
84.27660942077437
 20
98.54647115446153
 10
84.31884765624801
 20
98.65117505765978
 10
84.35535430908004
 20
98.75804380155626
 10
84.38610076904097
 20
98.86681035734239
 10
84.41104888915816
 20
98.97722676969591
 10
84.43017005920211
 20
99.08899739957872
 10
84.44340705871383
 20
99.20156911588732
 10
84.45077896117965
 20
99.31461766935411
 10
84.45232391357222
 20
99.42790464140001
 10
84.44808006286422
 20
99.54117253995958
 10
84.43807601928511
 20
99.65416387296739
 10
84.42237854003707
 20
99.76648763395372
 10
84.40105438232222
 20
99.87781957365099
 10
84.37418937682906
 20
99.98793081022325
 10
84.34184074401656
 20
100.0965924618345
 10
84.30408477783004
 20
100.2035661099058
  0
LINE
  5
F99
330
F55
100
AcDbEntity
  8
LW 3801-04-01
100
AcDbLine
 10
83.48349570550215
 20
97.62563132923578
 30
0.0
 11
10.60660171779739
 21
31.81980515339342
 31
0.0
  0
LINE
  5
F9A
330
F55
100
AcDbEntity
  8
LW 3801-04-01
100
AcDbLine
 10
17.43611317461455
 20
26.027885666462
 30
0.0
 11
85.8214315915788
 21
92.92785506575024
 31
0.0
  0
LINE
  5
F9B
330
F55
100
AcDbEntity
  8
LW 3801-04-01
100
AcDbLine
 10
8.563687794880593
 20
29.77689123047901
 30
0.0
 11
10.60660171779511
 21
31.81980515339353
 31
0.0
  0
LINE
  5
F9C
330
F55
100
AcDbEntity
  8
LW 3801-04-01
100
AcDbLine
 10
83.48349570550221
 20
97.62563132923578
 30
0.0
 11
83.65622511709579
 21
97.75542788125642
 31
0.0
  0
LWPOLYLINE
  5
F9D
330
F55
100
AcDbEntity
  8
LW 3801-04-01
100
AcDbPolyline
 90
       25
 70
     0
 43
0.0
 10
25.63328266143589
 20
16.79312542654105
 10
25.64370393752842
 20
16.82328180051871
 10
25.65469026565342
 20
16.85319975591727
 10
25.66623449325351
 20
16.88287333227225
 10
25.67833185195713
 20
16.91229895330497
 10
25.69098234176426
 20
16.94146946645804
 10
25.70418119430332
 20
16.970378911267
 10
25.71792602538852
 20
16.99902132726737
 10
25.7322096824625
 20
17.02739194608756
 10
25.74702978133945
 20
17.0554848072631
 10
25.76238393783359
 20
17.08329275823661
 10
25.77825307845859
 20
17.11078480459281
 10
25.79462051391391
 20
17.13793948865958
 10
25.81148147582798
 20
17.16475442625113
 10
25.82882881164341
 20
17.19122365690299
 10
25.84666013717441
 20
17.21734479642936
 10
25.86496829986362
 20
17.24311426855155
 10
25.88374376296787
 20
17.26852730489798
 10
25.90298652648716
 20
17.29357913709708
 10
25.92268943786411
 20
17.31826738096305
 10
25.94284534454136
 20
17.3425884602172
 10
25.96344709396152
 20
17.36653760648795
 10
25.98449230193882
 20
17.39011005140372
 10
26.00597381591587
 20
17.41330341077872
 10
26.0278844833353
 20
17.43611291624137
  0
LWPOLYLINE
  5
F9E
330
F55
100
AcDbEntity
  8
LW 3801-04-01
100
AcDbPolyline
 90
       25
 70
     0
 43
0.0
 10
29.24165964126394
 20
6.702631866703711
 10
29.22607183456228
 20
6.777118003140174
 10
29.21333789825246
 20
6.852092301617346
 10
29.20346498489187
 20
6.927471911678992
 10
29.19646263122365
 20
7.003175771008216
 10
29.19234275817678
 20
7.07912102914878
 10
29.19111251830861
 20
7.155226623783789
 10
29.19278383254812
 20
7.231409108410559
 10
29.19735908508108
 20
7.307505762348853
 10
29.20482635497854
 20
7.383353268871985
 10
29.21518087386892
 20
7.458866989384375
 10
29.22841072082326
 20
7.533965265522681
 10
29.2445087432842
 20
7.608565246830664
 10
29.26346540450857
 20
7.682584082852088
 10
29.28527116775319
 20
7.755937731037818
 10
29.30987358093068
 20
7.828422343502722
 10
29.33721542358205
 20
7.899869835148535
 10
29.36726093292043
 20
7.970202123890601
 10
29.39997673034475
 20
8.039341723690711
 10
29.43532943725393
 20
8.107211148510657
 10
29.4732856750469
 20
8.173733508358679
 10
29.51381206512258
 20
8.238830721150122
 10
29.5568752288799
 20
8.30242470480033
 10
29.60243701934621
 20
8.36443916536399
 10
29.6504712104778
 20
8.424796020756446
  0
ARC
  5
F9F
330
F55
100
AcDbEntity
  8
LW 3801-04-01
100
AcDbCircle
 10
31.19110479285018
 20
7.149474232509533
 30
0.0
 40
2.000000000000025
100
AcDbArc
 50
135.000000000003
 51
140.3823874854348
  0
LWPOLYLINE
  5
FA0
330
F55
100
AcDbEntity
  8
LW 3801-04-01
100
AcDbPolyline
 90
       25
 70
     0
 43
0.0
 10
25.88672399520664
 20
15.16171172834464
 10
25.85195779800205
 20
15.22322372175284
 10
25.81912517547397
 20
15.28572753645011
 10
25.78824996948032
 20
15.34917191244193
 10
25.75935840606479
 20
15.41350201345511
 10
25.7324743270853
 20
15.47866657949515
 10
25.70762157439975
 20
15.54461315847464
 10
25.68482160568027
 20
15.6112869141204
 10
25.66410303115635
 20
15.67863539434501
 10
25.6454873085001
 20
15.74660733915397
 10
25.62899827956943
 20
15.81514910436698
 10
25.61466217040806
 20
15.88420823789664
 10
25.60250043868808
 20
15.95373109556266
 10
25.59253931045322
 20
16.02365688062735
 10
25.58481454849033
 20
16.09381631589957
 10
25.57934522628574
 20
16.16411641813346
 10
25.57613849639682
 20
16.23449639059134
 10
25.57520627975254
 20
16.30489424444266
 10
25.57656049728183
 20
16.37525156713553
 10
25.58021068572788
 20
16.44550636983939
 10
25.58616638183384
 20
16.51559785581656
 10
25.59444189071445
 20
16.58546642042228
 10
25.6050443649271
 20
16.65505007482596
 10
25.61798810958652
 20
16.72429040647574
 10
25.63328266143589
 20
16.79312542654105
  0
LINE
  5
FA1
330
F55
100
AcDbEntity
  8
LW 3801-04-01
100
AcDbLine
 10
31.81980515338989
 20
10.6066017178008
 30
0.0
 11
97.62563132923332
 21
83.48349570550466
 31
0.0
  0
LINE
  5
FA2
330
F55
100
AcDbEntity
  8
LW 3801-04-01
100
AcDbLine
 10
92.92785506574778
 20
85.8214315915813
 30
0.0
 11
26.02788566645882
 21
17.43611317461858
 31
0.0
  0
LINE
  5
FA3
330
F55
100
AcDbEntity
  8
LW 3801-04-01
100
AcDbLine
 10
97.75542788125386
 20
83.65622511709807
 30
0.0
 11
97.62563132923332
 21
83.48349570550466
 31
0.0
  0
LINE
  5
FA4
330
F55
100
AcDbEntity
  8
LW 3801-04-01
100
AcDbLine
 10
29.77689123047708
 20
8.563687794882639
 30
0.0
 11
31.81980515339012
 21
10.60660171779568
 31
0.0
  0
LWPOLYLINE
  5
FA5
330
F55
100
AcDbEntity
  8
LW 3801-04-01
100
AcDbPolyline
 90
       25
 70
     0
 43
0.0
 10
17.43611335754184
 20
26.02788642622056
 10
17.4132478237131
 20
26.00592092252794
 10
17.39000916480808
 20
25.98440126157823
 10
17.36639857291965
 20
25.96332505918565
 10
17.34242439269809
 20
25.94270423627916
 10
17.3180878162363
 20
25.92254117704454
 10
17.29339361190585
 20
25.90284064985338
 10
17.26834893226413
 20
25.88360742307725
 10
17.24295496940402
 20
25.86484864927354
 10
17.2172188758829
 20
25.84656909681382
 10
17.19114303588657
 20
25.82877114988389
 10
17.16473221778659
 20
25.81146196104112
 10
17.13799238204746
 20
25.79464629865709
 10
17.11092710494785
 20
25.77833131528917
 10
17.08354115485934
 20
25.76251939512315
 10
17.05583810806064
 20
25.74721530653062
 10
17.02782392501621
 20
25.73242620206895
 10
16.99950098991183
 20
25.71815685010972
 10
16.97087526321201
 20
25.70441201902452
 10
16.9419515132883
 20
25.69119647718492
 10
16.9127333164194
 20
25.67851499296251
 10
16.8832254409769
 20
25.66637471891465
 10
16.85343265533237
 20
25.65477803922715
 10
16.82337760925082
 20
25.64373925901475
 10
16.79312467574863
 20
25.63328222013536
  0
ARC
  5
FA6
330
F55
100
AcDbEntity
  8
LW 3801-04-01
100
AcDbCircle
 10
7.1494742325076
 20
31.19110479285212
 30
0.0
 40
1.999999999999997
100
AcDbArc
 50
309.6176125145668
 51
314.9999999999983
  0
LWPOLYLINE
  5
FA7
330
F55
100
AcDbEntity
  8
LW 3801-04-01
100
AcDbPolyline
 90
       25
 70
     0
 43
0.0
 10
16.79312467574863
 20
25.63328222013536
 10
16.72438621520786
 20
25.61800912595811
 10
16.65522933006076
 20
25.60507730222764
 10
16.5857183933237
 20
25.59447721220079
 10
16.51591181754855
 20
25.58620170332017
 10
16.44587278365878
 20
25.58023647047105
 10
16.37565970420627
 20
25.57657674528184
 10
16.30533337592868
 20
25.57521060682359
 10
16.23495697974948
 20
25.57612613416734
 10
16.16459012031345
 20
25.57931617475572
 10
16.09429240226535
 20
25.58477119184556
 10
16.02413296699313
 20
25.59247926450792
 10
15.95425963401584
 20
25.60241655088487
 10
15.88475823402194
 20
25.61455682493272
 10
15.81568241119174
 20
25.62888101316514
 10
15.74708700179843
 20
25.64536765791002
 10
15.6790268421152
 20
25.66399291730943
 10
15.61155915260104
 20
25.68473771787706
 10
15.5447506904581
 20
25.7075734493834
 10
15.47870397567538
 20
25.73246196485582
 10
15.4134714603403
 20
25.7593746540648
 10
15.34910440444736
 20
25.78828290678087
 10
15.28565406799106
 20
25.8191628811461
 10
15.22317290305881
 20
25.85198596693101
 10
15.16171097755222
 20
25.88672355390611
  0
LWPOLYLINE
  5
FA8
330
F55
100
AcDbEntity
  8
LW 3801-04-01
100
AcDbPolyline
 90
       25
 70
     0
 43
0.0
 10
6.702632308004297
 20
29.24166158414903
 10
6.777117848394311
 20
29.22607377744737
 10
6.852092146871484
 20
29.21333745695176
 10
6.927472352979577
 20
29.20346454359117
 10
7.003175616262353
 20
29.19646218992296
 10
7.079121470449365
 20
29.19234231687608
 10
7.155226469037927
 20
29.19111207700792
 10
7.231408953664697
 20
29.19278339124742
 10
7.307506203649438
 20
29.19735864378038
 10
7.383353114126123
 20
29.20482591367784
 10
7.458866834638513
 20
29.21518043256822
 10
7.533965706823266
 20
29.22841027952257
 10
7.60856568813125
 20
29.2445083019835
 10
7.682583928106225
 20
29.26346496320787
 10
7.755937576291955
 20
29.2852707264525
 10
7.82842218875686
 20
29.30987313962999
 10
7.899869680402673
 20
29.33721498228135
 10
7.970201969144738
 20
29.36726049161973
 10
8.039341568944848
 20
29.39997628904405
 10
8.107211589811242
 20
29.43532899595323
 10
8.173733353612817
 20
29.4732852337462
 10
8.23883056640426
 20
29.51381162382188
 10
8.302425146100915
 20
29.55687478757921
 10
8.364439010618127
 20
29.60243896223131
 10
8.424795866010583
 20
29.65047076917711
  0
LINE
  5
FA9
330
F55
100
AcDbEntity
  8
LW 3801-04-01
  6
MITTE2
 62
     3
100
AcDbLine
 10
-79.99999999999932
 20
-109.9999999999966
 30
0.0
 11
-139.9999999999993
 21
-109.9999999999988
 31
0.0
  0
LINE
  5
FAA
330
F55
100
AcDbEntity
  8
LW 3801-04-01
  6
MITTE2
 62
     3
100
AcDbLine
 10
-109.9999999999996
 20
-139.9999999999977
 30
0.0
 11
-110.0000000000018
 21
-79.99999999999772
 31
0.0
  0
CIRCLE
  5
FAB
330
F55
100
AcDbEntity
  8
LW 3801-04-01
100
AcDbCircle
 10
-110.0000000000006
 20
-109.9999999999975
 30
0.0
 40
22.5
  0
CIRCLE
  5
FAC
330
F55
100
AcDbEntity
  8
LW 3801-04-01
100
AcDbCircle
 10
-110.0000000000007
 20
-109.9999999999975
 30
0.0
 40
17.5
  0
CIRCLE
  5
FAD
330
F55
100
AcDbEntity
  8
LW 3801-04-01
100
AcDbCircle
 10
-110.0000000000008
 20
-109.9999999999975
 30
0.0
 40
14.5
  0
LWPOLYLINE
  5
FAE
330
F55
100
AcDbEntity
  8
LW 3801-04-01
100
AcDbPolyline
 90
       25
 70
     0
 43
0.0
 10
-86.35343551635742
 20
-95.96111730314078
 10
-86.28812789916992
 20
-96.07171491361441
 10
-86.22333526611328
 20
-96.18261769986929
 10
-86.15906715393066
 20
-96.29381612516226
 10
-86.09532356262207
 20
-96.40531018949332
 10
-86.0321044921875
 20
-96.51709035611929
 10
-85.96941947937011
 20
-96.62915662504019
 10
-85.90725898742675
 20
-96.74149945951285
 10
-85.84563255310058
 20
-96.8541093227941
 10
-85.7845401763916
 20
-96.9669957516271
 10
-85.72399139404296
 20
-97.08014920926871
 10
-85.66397666931152
 20
-97.19355062223257
 10
-85.60450553894042
 20
-97.30721906400503
 10
-85.54556846618652
 20
-97.4211259243566
 10
-85.48718452453613
 20
-97.53528074003043
 10
-85.42934417724609
 20
-97.64967397428335
 10
-85.37205696105957
 20
-97.76430562711539
 10
-85.31532287597656
 20
-97.87916616178335
 10
-85.25914192199707
 20
-97.9942460415441
 10
-85.20351409912109
 20
-98.10954526639761
 10
-85.14843940734863
 20
-98.2250638363439
 10
-85.09392738342285
 20
-98.3407922146398
 10
-85.03998756408691
 20
-98.45672086454214
 10
-84.98660087585449
 20
-98.57284978605093
 10
-84.93377685546875
 20
-98.68917897916617
  0
LWPOLYLINE
  5
FAF
330
F55
100
AcDbEntity
  8
LW 3801-04-01
100
AcDbPolyline
 90
       25
 70
     0
 43
0.0
 10
-98.68929862976074
 20
-84.93405774808712
 10
-98.572998046875
 20
-84.98691037870235
 10
-98.45687866210937
 20
-85.04032567716427
 10
-98.34096908569335
 20
-85.09430364347286
 10
-98.22525024414062
 20
-85.14883474088497
 10
-98.10975074768066
 20
-85.20392850614376
 10
-97.99446105957031
 20
-85.25957540250606
 10
-97.87938117980957
 20
-85.31577542997188
 10
-97.76453018188476
 20
-85.37251905179806
 10
-97.64990806579589
 20
-85.42981580472774
 10
-97.53552436828613
 20
-85.48766568876095
 10
-97.4213695526123
 20
-85.54604963041134
 10
-97.30746269226074
 20
-85.60497716642208
 10
-97.19380378723144
 20
-85.66444829679317
 10
-97.08039283752441
 20
-85.72446302152462
 10
-96.96723937988281
 20
-85.78500226713009
 10
-96.8543529510498
 20
-85.84608510709591
 10
-96.74172401428222
 20
-85.90769246793575
 10
-96.62938117980957
 20
-85.96983388639278
 10
-96.5173053741455
 20
-86.03249982572384
 10
-96.4055061340332
 20
-86.09569982267208
 10
-96.29400253295898
 20
-86.15941480375118
 10
-96.18279457092285
 20
-86.22365430570431
 10
-96.07187271118164
 20
-86.28840879178829
 10
-95.96125602722167
 20
-86.3536877987463
  0
LWPOLYLINE
  5
FB0
330
F55
100
AcDbEntity
  8
LW 3801-04-01
100
AcDbPolyline
 90
       25
 70
     0
 43
0.0
 10
-95.96112251281738
 20
-86.35343984342403
 10
-95.84515571594238
 20
-86.41783193326778
 10
-95.72583198547363
 20
-86.4753861782629
 10
-95.60349464416503
 20
-86.52599767423458
 10
-95.47845840454101
 20
-86.56959966398067
 10
-95.35107612609863
 20
-86.60607770658321
 10
-95.22187232971191
 20
-86.63532689786739
 10
-95.09151458740234
 20
-86.65724233365841
 10
-94.96031761169433
 20
-86.67185262418575
 10
-94.82861518859863
 20
-86.67915776944937
 10
-94.69672203063964
 20
-86.6791768429357
 10
-94.56515312194824
 20
-86.67193845487418
 10
-94.43467140197753
 20
-86.6575475094396
 10
-94.30561065673828
 20
-86.63611844754996
 10
-94.17827606201171
 20
-86.60777524686636
 10
-94.05299186706542
 20
-86.57263234830679
 10
-93.93006324768066
 20
-86.53080419278921
 10
-93.80979537963867
 20
-86.48239568448843
 10
-93.69267463684082
 20
-86.42762616849722
 10
-93.57935905456542
 20
-86.36681035734
 10
-93.47015380859375
 20
-86.30015805936636
 10
-93.36537361145019
 20
-86.22785047269644
 10
-93.26529502868652
 20
-86.15007833219351
 10
-93.17023277282714
 20
-86.06704190946402
 10
-93.08047294616699
 20
-85.97891286588492
  0
ELLIPSE
  5
FB1
330
F55
100
AcDbEntity
  8
LW 3801-04-01
100
AcDbEllipse
 10
-92.65135424039101
 20
-90.97160552419405
 30
0.0
 11
5.915639115834323
 21
8.203974248203861
 31
0.0
210
0.0
220
0.0
230
-1.0
 40
0.3486469497666817
 41
5.097407463749238
 42
5.12066815187816
  0
ELLIPSE
  5
FB2
330
F55
100
AcDbEntity
  8
LW 3801-04-01
100
AcDbEllipse
 10
-90.97160552419595
 20
-92.65135424038914
 30
0.0
 11
-8.203974248204179
 21
-5.915639115833926
 31
0.0
210
0.0
220
0.0
230
-1.0
 40
0.3486469497666719
 41
4.304109808891013
 42
4.327370497019961
  0
LWPOLYLINE
  5
FB3
330
F55
100
AcDbEntity
  8
LW 3801-04-01
100
AcDbPolyline
 90
       25
 70
     0
 43
0.0
 10
-85.97890853881835
 20
-93.08047727323355
 10
-86.06705665588378
 20
-93.17025617338003
 10
-86.1501407623291
 20
-93.26537564969839
 10
-86.22795104980468
 20
-93.36552098966421
 10
-86.30030632019042
 20
-93.47040609098257
 10
-86.36700630187988
 20
-93.57972577787222
 10
-86.42786979675292
 20
-93.69317487455191
 10
-86.48260116577148
 20
-93.81026700712027
 10
-86.53094291687011
 20
-93.93043950773062
 10
-86.57276153564453
 20
-94.05339673734488
 10
-86.60791397094726
 20
-94.17881444669546
 10
-86.63626670837402
 20
-94.30639699674429
 10
-86.65770530700683
 20
-94.43583921171011
 10
-86.67204856872558
 20
-94.56654981351675
 10
-86.67920112609863
 20
-94.69786123014273
 10
-86.67913436889648
 20
-94.82944921232046
 10
-86.67180061340332
 20
-94.96097043729605
 10
-86.65716171264648
 20
-95.0921292660314
 10
-86.63518905639648
 20
-95.22258237577261
 10
-86.60591125488281
 20
-95.35173848844351
 10
-86.5694522857666
 20
-95.47891095853628
 10
-86.52588844299316
 20
-95.60377553678335
 10
-86.47531509399414
 20
-95.72597936368765
 10
-86.41780853271484
 20
-95.84520772672476
 10
-86.35343551635742
 20
-95.96111730314078
  0
LINE
  5
FB4
330
F55
100
AcDbEntity
  8
LW 3801-04-01
100
AcDbLine
 10
-25.63328164346382
 20
-16.79312522772659
 30
0.0
 11
-16.79312521135091
 21
-25.63328165983956
 31
0.0
  0
LWPOLYLINE
  5
FB5
330
F55
100
AcDbEntity
  8
LW 3801-04-01
100
AcDbPolyline
 90
       25
 70
     0
 43
0.0
 10
-100.2035713195802
 20
-84.30408910489864
 10
-100.096607208252
 20
-84.341835534342
 10
-99.98803138732922
 20
-84.37416509366817
 10
-99.87806320190442
 20
-84.40100148893185
 10
-99.76694107055676
 20
-84.4222970364172
 10
-99.65490341186535
 20
-84.43799451566524
 10
-99.54217910766613
 20
-84.44801763273067
 10
-99.42901611328137
 20
-84.4523091671545
 10
-99.31563377380383
 20
-84.45082143522091
 10
-99.20257568359387
 20
-84.44349721647091
 10
-99.09023284912121
 20
-84.43034604764767
 10
-98.97885322570813
 20
-84.41137746549435
 10
-98.86870384216321
 20
-84.38659147001095
 10
-98.76003265380871
 20
-84.35597852445431
 10
-98.65308761596692
 20
-84.31955770231075
 10
-98.54814529418957
 20
-84.27732900358028
 10
-98.44553947448742
 20
-84.22934011197872
 10
-98.34586143493664
 20
-84.17579129911251
 10
-98.24940681457531
 20
-84.11677793241329
 10
-98.15640449523938
 20
-84.05236676908321
 10
-98.06715011596692
 20
-83.98268178678341
 10
-97.98214912414563
 20
-83.90801862455196
 10
-97.90171623229992
 20
-83.82862523771114
 10
-97.82607078552258
 20
-83.74463514066524
 10
-97.75543212890637
 20
-83.65622953153438
  0
ARC
  5
FB6
330
F55
100
AcDbEntity
  8
LW 3801-04-01
100
AcDbCircle
 10
-109.9999999999999
 20
-109.9999999999975
 30
0.0
 40
27.49999999999998
100
AcDbArc
 50
65.71331121226714
 51
24.28668878773507
  0
LWPOLYLINE
  5
FB7
330
F55
100
AcDbEntity
  8
LW 3801-04-01
100
AcDbPolyline
 90
       25
 70
     0
 43
0.0
 10
-83.65622520446782
 20
-97.75542691922964
 10
-83.7445735931397
 20
-97.82600835538687
 10
-83.82841110229497
 20
-97.90151075101675
 10
-83.90759468078618
 20
-97.98168615079703
 10
-83.98199081420903
 20
-98.06631520963492
 10
-84.05146598815923
 20
-98.15516904569449
 10
-84.11586761474614
 20
-98.2480187771398
 10
-84.17505264282231
 20
-98.34457830167593
 10
-84.22866821289067
 20
-98.4441800472814
 10
-84.27660942077642
 20
-98.54647115445914
 10
-84.31884765625005
 20
-98.65117505765738
 10
-84.35535430908208
 20
-98.75804380155386
 10
-84.38610076904302
 20
-98.86681035734
 10
-84.4110488891602
 20
-98.97722676969351
 10
-84.43017005920415
 20
-99.08899739957632
 10
-84.44340705871587
 20
-99.20156911588492
 10
-84.45077896118169
 20
-99.31461766935171
 10
-84.45232391357427
 20
-99.42790464139761
 10
-84.44808006286626
 20
-99.54117253995718
 10
-84.43807601928716
 20
-99.654163872965
 10
-84.42237854003911
 20
-99.76648763395132
 10
-84.40105438232427
 20
-99.87781957364859
 10
-84.3741893768311
 20
-99.98793081022085
 10
-84.3418407440186
 20
-100.0965924618322
 10
-84.30408477783208
 20
-100.2035661099035
  0
LINE
  5
FB8
330
F55
100
AcDbEntity
  8
LW 3801-04-01
100
AcDbLine
 10
-83.4834957055042
 20
-97.62563132923339
 30
0.0
 11
-10.60660171779943
 21
-31.81980515339103
 31
0.0
  0
LINE
  5
FB9
330
F55
100
AcDbEntity
  8
LW 3801-04-01
100
AcDbLine
 10
-17.43611317461659
 20
-26.02788566645961
 30
0.0
 11
-85.82143159158084
 21
-92.92785506574785
 31
0.0
  0
LINE
  5
FBA
330
F55
100
AcDbEntity
  8
LW 3801-04-01
100
AcDbLine
 10
-8.563687794882639
 20
-29.77689123047662
 30
0.0
 11
-10.60660171779716
 21
-31.81980515339115
 31
0.0
  0
LINE
  5
FBB
330
F55
100
AcDbEntity
  8
LW 3801-04-01
100
AcDbLine
 10
-83.48349570550425
 20
-97.62563132923339
 30
0.0
 11
-83.65622511709785
 21
-97.75542788125404
 31
0.0
  0
LWPOLYLINE
  5
FBC
330
F55
100
AcDbEntity
  8
LW 3801-04-01
100
AcDbPolyline
 90
       25
 70
     0
 43
0.0
 10
-25.63328266143793
 20
-16.79312542653866
 10
-25.64370393753046
 20
-16.82328180051633
 10
-25.65469026565546
 20
-16.85319975591488
 10
-25.66623449325556
 20
-16.88287333226987
 10
-25.67833185195917
 20
-16.91229895330258
 10
-25.6909823417663
 20
-16.94146946645566
 10
-25.70418119430537
 20
-16.97037891126462
 10
-25.71792602539057
 20
-16.99902132726498
 10
-25.73220968246455
 20
-17.02739194608517
 10
-25.7470297813415
 20
-17.05548480726071
 10
-25.76238393783564
 20
-17.08329275823422
 10
-25.77825307846064
 20
-17.11078480459042
 10
-25.79462051391596
 20
-17.13793948865719
 10
-25.81148147583002
 20
-17.16475442624875
 10
-25.82882881164545
 20
-17.1912236569006
 10
-25.84666013717646
 20
-17.21734479642697
 10
-25.86496829986567
 20
-17.24311426854916
 10
-25.88374376296992
 20
-17.2685273048956
 10
-25.9029865264892
 20
-17.29357913709469
 10
-25.92268943786616
 20
-17.31826738096066
 10
-25.9428453445434
 20
-17.34258846021481
 10
-25.96344709396357
 20
-17.36653760648556
 10
-25.98449230194086
 20
-17.39011005140134
 10
-26.00597381591791
 20
-17.41330341077634
 10
-26.02788448333735
 20
-17.43611291623898
  0
LWPOLYLINE
  5
FBD
330
F55
100
AcDbEntity
  8
LW 3801-04-01
100
AcDbPolyline
 90
       25
 70
     0
 43
0.0
 10
-29.24165964126598
 20
-6.702631866701324
 10
-29.22607183456432
 20
-6.777118003137786
 10
-29.21333789825451
 20
-6.852092301614959
 10
-29.20346498489391
 20
-6.927471911676605
 10
-29.1964626312257
 20
-7.003175771005828
 10
-29.19234275817883
 20
-7.079121029146392
 10
-29.19111251831066
 20
-7.155226623781402
 10
-29.19278383255016
 20
-7.231409108408172
 10
-29.19735908508312
 20
-7.307505762346465
 10
-29.20482635498058
 20
-7.383353268869598
 10
-29.21518087387097
 20
-7.458866989381988
 10
-29.22841072082531
 20
-7.533965265520293
 10
-29.24450874328625
 20
-7.608565246828277
 10
-29.26346540451061
 20
-7.6825840828497
 10
-29.28527116775524
 20
-7.75593773103543
 10
-29.30987358093273
 20
-7.828422343500335
 10
-29.3372154235841
 20
-7.899869835146148
 10
-29.36726093292248
 20
-7.970202123888213
 10
-29.3999767303468
 20
-8.039341723688323
 10
-29.43532943725598
 20
-8.10721114850827
 10
-29.47328567504894
 20
-8.173733508356292
 10
-29.51381206512463
 20
-8.238830721147735
 10
-29.55687522888195
 20
-8.302424704797942
 10
-29.60243701934826
 20
-8.364439165361602
 10
-29.65047121047985
 20
-8.424796020754058
  0
ARC
  5
FBE
330
F55
100
AcDbEntity
  8
LW 3801-04-01
100
AcDbCircle
 10
-31.19110479285223
 20
-7.149474232507145
 30
0.0
 40
2.000000000000025
100
AcDbArc
 50
315.0000000000019
 51
320.3823874854338
  0
LWPOLYLINE
  5
FBF
330
F55
100
AcDbEntity
  8
LW 3801-04-01
100
AcDbPolyline
 90
       25
 70
     0
 43
0.0
 10
-25.88672399520869
 20
-15.16171172834225
 10
-25.8519577980041
 20
-15.22322372175046
 10
-25.81912517547602
 20
-15.28572753644772
 10
-25.78824996948237
 20
-15.34917191243954
 10
-25.75935840606684
 20
-15.41350201345273
 10
-25.73247432708735
 20
-15.47866657949277
 10
-25.7076215744018
 20
-15.54461315847226
 10
-25.68482160568232
 20
-15.61128691411801
 10
-25.66410303115839
 20
-15.67863539434262
 10
-25.64548730850214
 20
-15.74660733915158
 10
-25.62899827957148
 20
-15.81514910436459
 10
-25.6146621704101
 20
-15.88420823789425
 10
-25.60250043869013
 20
-15.95373109556027
 10
-25.59253931045527
 20
-16.02365688062497
 10
-25.58481454849238
 20
-16.09381631589718
 10
-25.57934522628779
 20
-16.16411641813107
 10
-25.57613849639887
 20
-16.23449639058896
 10
-25.57520627975458
 20
-16.30489424444028
 10
-25.57656049728388
 20
-16.37525156713315
 10
-25.58021068572993
 20
-16.445506369837
 10
-25.58616638183588
 20
-16.51559785581418
 10
-25.5944418907165
 20
-16.58546642041989
 10
-25.60504436492915
 20
-16.65505007482358
 10
-25.61798810958857
 20
-16.72429040647336
 10
-25.63328266143793
 20
-16.79312542653866
  0
LINE
  5
FC0
330
F55
100
AcDbEntity
  8
LW 3801-04-01
100
AcDbLine
 10
-31.81980515339194
 20
-10.60660171779841
 30
0.0
 11
-97.62563132923538
 21
-83.48349570550226
 31
0.0
  0
LINE
  5
FC1
330
F55
100
AcDbEntity
  8
LW 3801-04-01
100
AcDbLine
 10
-92.92785506574984
 20
-85.82143159157892
 30
0.0
 11
-26.02788566646086
 21
-17.43611317461619
 31
0.0
  0
LINE
  5
FC2
330
F55
100
AcDbEntity
  8
LW 3801-04-01
100
AcDbLine
 10
-97.75542788125591
 20
-83.65622511709569
 30
0.0
 11
-97.62563132923538
 21
-83.48349570550226
 31
0.0
  0
LINE
  5
FC3
330
F55
100
AcDbEntity
  8
LW 3801-04-01
100
AcDbLine
 10
-29.77689123047913
 20
-8.563687794880252
 30
0.0
 11
-31.81980515339217
 21
-10.60660171779329
 31
0.0
  0
LWPOLYLINE
  5
FC4
330
F55
100
AcDbEntity
  8
LW 3801-04-01
100
AcDbPolyline
 90
       25
 70
     0
 43
0.0
 10
-17.43611335754389
 20
-26.02788642621817
 10
-17.41324782371515
 20
-26.00592092252555
 10
-17.39000916481012
 20
-25.98440126157584
 10
-17.36639857292169
 20
-25.96332505918326
 10
-17.34242439270014
 20
-25.94270423627677
 10
-17.31808781623835
 20
-25.92254117704215
 10
-17.2933936119079
 20
-25.90284064985099
 10
-17.26834893226618
 20
-25.88360742307486
 10
-17.24295496940607
 20
-25.86484864927115
 10
-17.21721887588495
 20
-25.84656909681144
 10
-17.19114303588861
 20
-25.8287711498815
 10
-17.16473221778864
 20
-25.81146196103873
 10
-17.1379923820495
 20
-25.7946462986547
 10
-17.11092710494989
 20
-25.77833131528678
 10
-17.08354115486139
 20
-25.76251939512076
 10
-17.05583810806269
 20
-25.74721530652823
 10
-17.02782392501825
 20
-25.73242620206656
 10
-16.99950098991388
 20
-25.71815685010733
 10
-16.97087526321405
 20
-25.70441201902213
 10
-16.94195151329035
 20
-25.69119647718253
 10
-16.91273331642145
 20
-25.67851499296012
 10
-16.88322544097895
 20
-25.66637471891227
 10
-16.85343265533441
 20
-25.65477803922477
 10
-16.82337760925287
 20
-25.64373925901236
 10
-16.79312467575067
 20
-25.63328222013297
  0
ARC
  5
FC5
330
F55
100
AcDbEntity
  8
LW 3801-04-01
100
AcDbCircle
 10
-7.149474232509646
 20
-31.19110479284973
 30
0.0
 40
1.999999999999997
100
AcDbArc
 50
129.6176125145666
 51
134.9999999999973
  0
LWPOLYLINE
  5
FC6
330
F55
100
AcDbEntity
  8
LW 3801-04-01
100
AcDbPolyline
 90
       25
 70
     0
 43
0.0
 10
-16.79312467575067
 20
-25.63328222013297
 10
-16.7243862152099
 20
-25.61800912595572
 10
-16.65522933006281
 20
-25.60507730222525
 10
-16.58571839332575
 20
-25.5944772121984
 10
-16.5159118175506
 20
-25.58620170331778
 10
-16.44587278366083
 20
-25.58023647046866
 10
-16.37565970420832
 20
-25.57657674527945
 10
-16.30533337593073
 20
-25.5752106068212
 10
-16.23495697975153
 20
-25.57612613416495
 10
-16.16459012031549
 20
-25.57931617475333
 10
-16.0942924022674
 20
-25.58477119184317
 10
-16.02413296699518
 20
-25.59247926450553
 10
-15.95425963401789
 20
-25.60241655088248
 10
-15.88475823402399
 20
-25.61455682493033
 10
-15.81568241119379
 20
-25.62888101316275
 10
-15.74708700180048
 20
-25.64536765790763
 10
-15.67902684211725
 20
-25.66399291730704
 10
-15.61155915260309
 20
-25.68473771787467
 10
-15.54475069046015
 20
-25.70757344938102
 10
-15.47870397567743
 20
-25.73246196485343
 10
-15.41347146034235
 20
-25.75937465406241
 10
-15.3491044044494
 20
-25.78828290677848
 10
-15.28565406799311
 20
-25.81916288114371
 10
-15.22317290306085
 20
-25.85198596692862
 10
-15.16171097755426
 20
-25.88672355390372
  0
LWPOLYLINE
  5
FC7
330
F55
100
AcDbEntity
  8
LW 3801-04-01
100
AcDbPolyline
 90
       25
 70
     0
 43
0.0
 10
-6.702632308006343
 20
-29.24166158414664
 10
-6.777117848396358
 20
-29.22607377744498
 10
-6.85209214687353
 20
-29.21333745694937
 10
-6.927472352981624
 20
-29.20346454358878
 10
-7.0031756162644
 20
-29.19646218992057
 10
-7.079121470451411
 20
-29.19234231687369
 10
-7.155226469039973
 20
-29.19111207700553
 10
-7.231408953666743
 20
-29.19278339124503
 10
-7.307506203651485
 20
-29.19735864377799
 10
-7.383353114128169
 20
-29.20482591367545
 10
-7.458866834640559
 20
-29.21518043256583
 10
-7.533965706825313
 20
-29.22841027952017
 10
-7.608565688133296
 20
-29.24450830198111
 10
-7.682583928108272
 20
-29.26346496320548
 10
-7.755937576294002
 20
-29.28527072645011
 10
-7.828422188758906
 20
-29.3098731396276
 10
-7.899869680404719
 20
-29.33721498227896
 10
-7.970201969146785
 20
-29.36726049161734
 10
-8.039341568946895
 20
-29.39997628904166
 10
-8.107211589813289
 20
-29.43532899595084
 10
-8.173733353614863
 20
-29.47328523374381
 10
-8.238830566406306
 20
-29.51381162381949
 10
-8.302425146102962
 20
-29.55687478757682
 10
-8.364439010620174
 20
-29.60243896222891
 10
-8.42479586601263
 20
-29.65047076917472
  0
LINE
  5
FC8
330
F55
100
AcDbEntity
  8
LW 3801-04-01
  6
MITTE2
 62
     3
100
AcDbLine
 10
79.9999999999952
 20
-109.9999999999966
 30
0.0
 11
139.9999999999951
 21
-109.9999999999989
 31
0.0
  0
LINE
  5
FC9
330
F55
100
AcDbEntity
  8
LW 3801-04-01
  6
MITTE2
 62
     3
100
AcDbLine
 10
109.9999999999954
 20
-139.9999999999977
 30
0.0
 11
109.9999999999977
 21
-79.99999999999777
 31
0.0
  0
CIRCLE
  5
FCA
330
F55
100
AcDbEntity
  8
LW 3801-04-01
100
AcDbCircle
 10
109.9999999999965
 20
-109.9999999999976
 30
0.0
 40
22.5
  0
CIRCLE
  5
FCB
330
F55
100
AcDbEntity
  8
LW 3801-04-01
100
AcDbCircle
 10
109.9999999999966
 20
-109.9999999999976
 30
0.0
 40
17.5
  0
CIRCLE
  5
FCC
330
F55
100
AcDbEntity
  8
LW 3801-04-01
100
AcDbCircle
 10
109.9999999999966
 20
-109.9999999999976
 30
0.0
 40
14.5
  0
LWPOLYLINE
  5
FCD
330
F55
100
AcDbEntity
  8
LW 3801-04-01
100
AcDbPolyline
 90
       25
 70
     0
 43
0.0
 10
86.3534355163533
 20
-95.96111730314081
 10
86.2881278991658
 20
-96.07171491361444
 10
86.22333526610916
 20
-96.18261769986933
 10
86.15906715392654
 20
-96.2938161251623
 10
86.09532356261794
 20
-96.40531018949335
 10
86.03210449218337
 20
-96.51709035611933
 10
85.96941947936599
 20
-96.62915662504023
 10
85.90725898742263
 20
-96.74149945951288
 10
85.84563255309646
 20
-96.85410932279413
 10
85.78454017638748
 20
-96.96699575162714
 10
85.72399139403884
 20
-97.08014920926874
 10
85.6639766693074
 20
-97.19355062223261
 10
85.6045055389363
 20
-97.30721906400507
 10
85.5455684661824
 20
-97.42112592435663
 10
85.48718452453201
 20
-97.53528074003046
 10
85.42934417724197
 20
-97.64967397428339
 10
85.37205696105544
 20
-97.76430562711542
 10
85.31532287597244
 20
-97.87916616178339
 10
85.25914192199294
 20
-97.99424604154413
 10
85.20351409911697
 20
-98.10954526639765
 10
85.14843940734451
 20
-98.22506383634394
 10
85.09392738341873
 20
-98.34079221463984
 10
85.03998756408279
 20
-98.45672086454218
 10
84.98660087585037
 20
-98.57284978605097
 10
84.93377685546462
 20
-98.6891789791662
  0
LWPOLYLINE
  5
FCE
330
F55
100
AcDbEntity
  8
LW 3801-04-01
100
AcDbPolyline
 90
       25
 70
     0
 43
0.0
 10
98.68929862975663
 20
-84.93405774808715
 10
98.57299804687089
 20
-84.98691037870239
 10
98.45687866210527
 20
-85.0403256771643
 10
98.34096908568925
 20
-85.0943036434729
 10
98.22525024413652
 20
-85.14883474088501
 10
98.10975074767656
 20
-85.2039285061438
 10
97.9944610595662
 20
-85.2595754025061
 10
97.87938117980546
 20
-85.31577542997192
 10
97.76453018188066
 20
-85.37251905179809
 10
97.64990806579179
 20
-85.42981580472778
 10
97.53552436828202
 20
-85.48766568876098
 10
97.4213695526082
 20
-85.54604963041137
 10
97.30746269225663
 20
-85.60497716642212
 10
97.19380378722734
 20
-85.66444829679321
 10
97.08039283752031
 20
-85.72446302152465
 10
96.9672393798787
 20
-85.78500226713012
 10
96.8543529510457
 20
-85.84608510709594
 10
96.74172401427812
 20
-85.90769246793579
 10
96.62938117980546
 20
-85.96983388639282
 10
96.5173053741414
 20
-86.03249982572387
 10
96.40550613402909
 20
-86.09569982267212
 10
96.29400253295488
 20
-86.15941480375122
 10
96.18279457091874
 20
-86.22365430570434
 10
96.07187271117753
 20
-86.28840879178833
 10
95.96125602721757
 20
-86.35368779874633
  0
LWPOLYLINE
  5
FCF
330
F55
100
AcDbEntity
  8
LW 3801-04-01
100
AcDbPolyline
 90
       25
 70
     0
 43
0.0
 10
95.96112251281327
 20
-86.35343984342407
 10
95.84515571593827
 20
-86.41783193326782
 10
95.72583198546952
 20
-86.47538617826294
 10
95.60349464416093
 20
-86.52599767423462
 10
95.47845840453691
 20
-86.56959966398071
 10
95.35107612609452
 20
-86.60607770658325
 10
95.22187232970781
 20
-86.63532689786743
 10
95.09151458739824
 20
-86.65724233365844
 10
94.96031761169023
 20
-86.67185262418579
 10
94.82861518859452
 20
-86.67915776944941
 10
94.69672203063554
 20
-86.67917684293573
 10
94.56515312194413
 20
-86.67193845487421
 10
94.43467140197343
 20
-86.65754750943964
 10
94.30561065673417
 20
-86.63611844754999
 10
94.17827606200761
 20
-86.6077752468664
 10
94.05299186706132
 20
-86.57263234830683
 10
93.93006324767656
 20
-86.53080419278925
 10
93.80979537963456
 20
-86.48239568448847
 10
93.69267463683671
 20
-86.42762616849726
 10
93.57935905456132
 20
-86.36681035734003
 10
93.47015380858964
 20
-86.3001580593664
 10
93.36537361144609
 20
-86.22785047269648
 10
93.26529502868242
 20
-86.15007833219355
 10
93.17023277282304
 20
-86.06704190946405
 10
93.08047294616288
 20
-85.97891286588495
  0
ELLIPSE
  5
FD0
330
F55
100
AcDbEntity
  8
LW 3801-04-01
100
AcDbEllipse
 10
92.65135424038689
 20
-90.97160552419408
 30
0.0
 11
-5.915639115834319
 21
8.203974248203863
 31
0.0
210
0.0
220
0.0
230
1.0
 40
0.3486469497666817
 41
5.097407463749238
 42
5.12066815187816
  0
ELLIPSE
  5
FD1
330
F55
100
AcDbEntity
  8
LW 3801-04-01
100
AcDbEllipse
 10
90.97160552419182
 20
-92.65135424038916
 30
0.0
 11
8.203974248204177
 21
-5.915639115833929
 31
0.0
210
0.0
220
0.0
230
1.0
 40
0.3486469497666719
 41
4.304109808891013
 42
4.327370497019961
  0
LWPOLYLINE
  5
FD2
330
F55
100
AcDbEntity
  8
LW 3801-04-01
100
AcDbPolyline
 90
       25
 70
     0
 43
0.0
 10
85.97890853881423
 20
-93.08047727323359
 10
86.06705665587966
 20
-93.17025617338007
 10
86.15014076232498
 20
-93.26537564969843
 10
86.22795104980056
 20
-93.36552098966425
 10
86.3003063201863
 20
-93.47040609098261
 10
86.36700630187576
 20
-93.57972577787226
 10
86.4278697967488
 20
-93.69317487455194
 10
86.48260116576736
 20
-93.8102670071203
 10
86.53094291686599
 20
-93.93043950773066
 10
86.57276153564041
 20
-94.05339673734491
 10
86.60791397094314
 20
-94.1788144466955
 10
86.6362667083699
 20
-94.30639699674433
 10
86.65770530700271
 20
-94.43583921171015
 10
86.67204856872146
 20
-94.56654981351679
 10
86.67920112609451
 20
-94.69786123014277
 10
86.67913436889236
 20
-94.8294492123205
 10
86.67180061339919
 20
-94.96097043729609
 10
86.65716171264236
 20
-95.09212926603144
 10
86.63518905639236
 20
-95.22258237577265
 10
86.60591125487869
 20
-95.35173848844355
 10
86.56945228576248
 20
-95.47891095853632
 10
86.52588844298904
 20
-95.60377553678339
 10
86.47531509399001
 20
-95.72597936368769
 10
86.41780853271072
 20
-95.8452077267248
 10
86.3534355163533
 20
-95.96111730314081
  0
LWPOLYLINE
  5
FD3
330
F55
100
AcDbEntity
  8
LW 3801-04-01
100
AcDbPolyline
 90
       25
 70
     0
 43
0.0
 10
100.2035713195761
 20
-84.30408910489868
 10
100.0966072082479
 20
-84.34183553434204
 10
99.98803138732512
 20
-84.37416509366821
 10
99.87806320190031
 20
-84.40100148893188
 10
99.76694107055266
 20
-84.42229703641723
 10
99.65490341186125
 20
-84.43799451566528
 10
99.54217910766203
 20
-84.44801763273071
 10
99.42901611327727
 20
-84.45230916715454
 10
99.31563377379973
 20
-84.45082143522094
 10
99.20257568358977
 20
-84.44349721647094
 10
99.09023284911711
 20
-84.4303460476477
 10
98.97885322570402
 20
-84.41137746549438
 10
98.8687038421591
 20
-84.38659147001098
 10
98.76003265380461
 20
-84.35597852445434
 10
98.65308761596281
 20
-84.31955770231079
 10
98.54814529418547
 20
-84.27732900358032
 10
98.44553947448332
 20
-84.22934011197876
 10
98.34586143493254
 20
-84.17579129911255
 10
98.24940681457121
 20
-84.11677793241333
 10
98.15640449523527
 20
-84.05236676908325
 10
98.06715011596281
 20
-83.98268178678344
 10
97.98214912414152
 20
-83.908018624552
 10
97.90171623229582
 20
-83.82862523771118
 10
97.82607078551848
 20
-83.74463514066528
 10
97.75543212890227
 20
-83.65622953153442
  0
ARC
  5
FD4
330
F55
100
AcDbEntity
  8
LW 3801-04-01
100
AcDbCircle
 10
109.9999999999958
 20
-109.9999999999976
 30
0.0
 40
27.49999999999998
100
AcDbArc
 50
155.7133112122649
 51
114.2866887877328
  0
LWPOLYLINE
  5
FD5
330
F55
100
AcDbEntity
  8
LW 3801-04-01
100
AcDbPolyline
 90
       25
 70
     0
 43
0.0
 10
83.6562252044637
 20
-97.75542691922968
 10
83.74457359313558
 20
-97.82600835538691
 10
83.82841110229085
 20
-97.90151075101679
 10
83.90759468078206
 20
-97.98168615079706
 10
83.98199081420491
 20
-98.06631520963495
 10
84.05146598815511
 20
-98.15516904569452
 10
84.11586761474202
 20
-98.24801877713984
 10
84.17505264281819
 20
-98.34457830167597
 10
84.22866821288655
 20
-98.44418004728144
 10
84.27660942077229
 20
-98.54647115445917
 10
84.31884765624593
 20
-98.65117505765741
 10
84.35535430907796
 20
-98.7580438015539
 10
84.3861007690389
 20
-98.86681035734003
 10
84.41104888915608
 20
-98.97722676969355
 10
84.43017005920003
 20
-99.08899739957636
 10
84.44340705871175
 20
-99.20156911588495
 10
84.45077896117757
 20
-99.31461766935175
 10
84.45232391357015
 20
-99.42790464139765
 10
84.44808006286214
 20
-99.54117253995722
 10
84.43807601928304
 20
-99.65416387296503
 10
84.42237854003499
 20
-99.76648763395136
 10
84.40105438232015
 20
-99.87781957364862
 10
84.37418937682698
 20
-99.98793081022089
 10
84.34184074401448
 20
-100.0965924618322
 10
84.30408477782796
 20
-100.2035661099035
  0
LINE
  5
FD6
330
F55
100
AcDbEntity
  8
LW 3801-04-01
100
AcDbLine
 10
83.48349570550007
 20
-97.62563132923341
 30
0.0
 11
10.60660171779534
 21
-31.81980515339103
 31
0.0
  0
LINE
  5
FD7
330
F55
100
AcDbEntity
  8
LW 3801-04-01
100
AcDbLine
 10
17.4361131746125
 20
-26.02788566645961
 30
0.0
 11
85.82143159157672
 21
-92.92785506574787
 31
0.0
  0
LINE
  5
FD8
330
F55
100
AcDbEntity
  8
LW 3801-04-01
100
AcDbLine
 10
83.48349570550013
 20
-97.62563132923341
 30
0.0
 11
83.65622511709373
 21
-97.75542788125406
 31
0.0
  0
LINE
  5
FD9
330
F55
100
AcDbEntity
  8
LW 3801-04-01
100
AcDbLine
 10
31.81980515338786
 20
-10.60660171779842
 30
0.0
 11
97.62563132923126
 21
-83.48349570550229
 31
0.0
  0
LINE
  5
FDA
330
F55
100
AcDbEntity
  8
LW 3801-04-01
100
AcDbLine
 10
92.92785506574572
 20
-85.82143159157894
 30
0.0
 11
26.02788566645678
 21
-17.43611317461621
 31
0.0
  0
LINE
  5
FDB
330
F55
100
AcDbEntity
  8
LW 3801-04-01
100
AcDbLine
 10
97.7554278812518
 20
-83.65622511709572
 30
0.0
 11
97.62563132923126
 21
-83.48349570550229
 31
0.0
  0
LINE
  5
FDC
330
F55
100
AcDbEntity
  8
LW 3801-04-01
100
AcDbLine
 10
25.63328164346382
 20
-16.7931252277266
 30
0.0
 11
16.7931252113509
 21
-25.63328165983956
 31
0.0
  0
LINE
  5
FDD
330
F55
100
AcDbEntity
  8
LW 3801-04-01
100
AcDbLine
 10
8.563687794882628
 20
-29.77689123047662
 30
0.0
 11
10.60660171779715
 21
-31.81980515339115
 31
0.0
  0
LWPOLYLINE
  5
FDE
330
F55
100
AcDbEntity
  8
LW 3801-04-01
100
AcDbPolyline
 90
       25
 70
     0
 43
0.0
 10
25.63328266143793
 20
-16.79312542653868
 10
25.64370393753046
 20
-16.82328180051634
 10
25.65469026565546
 20
-16.8531997559149
 10
25.66623449325556
 20
-16.88287333226988
 10
25.67833185195917
 20
-16.91229895330259
 10
25.6909823417663
 20
-16.94146946645567
 10
25.70418119430536
 20
-16.97037891126463
 10
25.71792602539057
 20
-16.99902132726499
 10
25.73220968246454
 20
-17.02739194608519
 10
25.74702978134149
 20
-17.05548480726072
 10
25.76238393783564
 20
-17.08329275823423
 10
25.77825307846064
 20
-17.11078480459043
 10
25.79462051391596
 20
-17.13793948865721
 10
25.81148147583002
 20
-17.16475442624876
 10
25.82882881164545
 20
-17.19122365690062
 10
25.84666013717646
 20
-17.21734479642698
 10
25.86496829986566
 20
-17.24311426854917
 10
25.88374376296991
 20
-17.26852730489561
 10
25.9029865264892
 20
-17.29357913709471
 10
25.92268943786615
 20
-17.31826738096067
 10
25.9428453445434
 20
-17.34258846021482
 10
25.96344709396356
 20
-17.36653760648558
 10
25.98449230194086
 20
-17.39011005140135
 10
26.00597381591791
 20
-17.41330341077635
 10
26.02788448333734
 20
-17.43611291623899
  0
LWPOLYLINE
  5
FDF
330
F55
100
AcDbEntity
  8
LW 3801-04-01
100
AcDbPolyline
 90
       25
 70
     0
 43
0.0
 10
29.24165964126598
 20
-6.702631866701338
 10
29.22607183456432
 20
-6.7771180031378
 10
29.21333789825451
 20
-6.852092301614973
 10
29.20346498489391
 20
-6.927471911676619
 10
29.1964626312257
 20
-7.003175771005842
 10
29.19234275817883
 20
-7.079121029146406
 10
29.19111251831066
 20
-7.155226623781416
 10
29.19278383255016
 20
-7.231409108408186
 10
29.19735908508312
 20
-7.30750576234648
 10
29.20482635498058
 20
-7.383353268869612
 10
29.21518087387097
 20
-7.458866989382002
 10
29.22841072082531
 20
-7.533965265520308
 10
29.24450874328625
 20
-7.608565246828291
 10
29.26346540451061
 20
-7.682584082849714
 10
29.28527116775524
 20
-7.755937731035444
 10
29.30987358093273
 20
-7.828422343500349
 10
29.3372154235841
 20
-7.899869835146162
 10
29.36726093292248
 20
-7.970202123888228
 10
29.3999767303468
 20
-8.039341723688337
 10
29.43532943725598
 20
-8.107211148508284
 10
29.47328567504894
 20
-8.173733508356306
 10
29.51381206512463
 20
-8.238830721147749
 10
29.55687522888195
 20
-8.302424704797957
 10
29.60243701934826
 20
-8.364439165361616
 10
29.65047121047985
 20
-8.424796020754072
  0
ARC
  5
FE0
330
F55
100
AcDbEntity
  8
LW 3801-04-01
100
AcDbCircle
 10
31.19110479285223
 20
-7.149474232507159
 30
0.0
 40
2.000000000000025
100
AcDbArc
 50
219.6176125145662
 51
224.9999999999981
  0
LWPOLYLINE
  5
FE1
330
F55
100
AcDbEntity
  8
LW 3801-04-01
100
AcDbPolyline
 90
       25
 70
     0
 43
0.0
 10
25.88672399520868
 20
-15.16171172834227
 10
25.85195779800409
 20
-15.22322372175047
 10
25.81912517547602
 20
-15.28572753644773
 10
25.78824996948236
 20
-15.34917191243956
 10
25.75935840606684
 20
-15.41350201345274
 10
25.73247432708734
 20
-15.47866657949278
 10
25.7076215744018
 20
-15.54461315847227
 10
25.68482160568231
 20
-15.61128691411802
 10
25.66410303115839
 20
-15.67863539434263
 10
25.64548730850214
 20
-15.74660733915159
 10
25.62899827957147
 20
-15.8151491043646
 10
25.6146621704101
 20
-15.88420823789427
 10
25.60250043869013
 20
-15.95373109556028
 10
25.59253931045526
 20
-16.02365688062498
 10
25.58481454849237
 20
-16.0938163158972
 10
25.57934522628778
 20
-16.16411641813108
 10
25.57613849639887
 20
-16.23449639058897
 10
25.57520627975458
 20
-16.30489424444029
 10
25.57656049728388
 20
-16.37525156713316
 10
25.58021068572992
 20
-16.44550636983702
 10
25.58616638183588
 20
-16.51559785581419
 10
25.59444189071649
 20
-16.5854664204199
 10
25.60504436492914
 20
-16.65505007482359
 10
25.61798810958856
 20
-16.72429040647337
 10
25.63328266143793
 20
-16.79312542653868
  0
LINE
  5
FE2
330
F55
100
AcDbEntity
  8
LW 3801-04-01
100
AcDbLine
 10
29.77689123047912
 20
-8.563687794880266
 30
0.0
 11
31.81980515339216
 21
-10.60660171779331
 31
0.0
  0
LWPOLYLINE
  5
FE3
330
F55
100
AcDbEntity
  8
LW 3801-04-01
100
AcDbPolyline
 90
       25
 70
     0
 43
0.0
 10
17.43611335754388
 20
-26.02788642621817
 10
17.41324782371514
 20
-26.00592092252555
 10
17.39000916481012
 20
-25.98440126157584
 10
17.36639857292169
 20
-25.96332505918326
 10
17.34242439270013
 20
-25.94270423627677
 10
17.31808781623834
 20
-25.92254117704215
 10
17.29339361190789
 20
-25.90284064985099
 10
17.26834893226617
 20
-25.88360742307486
 10
17.24295496940606
 20
-25.86484864927115
 10
17.21721887588494
 20
-25.84656909681144
 10
17.19114303588861
 20
-25.8287711498815
 10
17.16473221778863
 20
-25.81146196103873
 10
17.1379923820495
 20
-25.7946462986547
 10
17.11092710494989
 20
-25.77833131528678
 10
17.08354115486138
 20
-25.76251939512076
 10
17.05583810806268
 20
-25.74721530652823
 10
17.02782392501825
 20
-25.73242620206656
 10
16.99950098991388
 20
-25.71815685010733
 10
16.97087526321405
 20
-25.70441201902213
 10
16.94195151329034
 20
-25.69119647718253
 10
16.91273331642144
 20
-25.67851499296012
 10
16.88322544097894
 20
-25.66637471891227
 10
16.85343265533441
 20
-25.65477803922477
 10
16.82337760925286
 20
-25.64373925901236
 10
16.79312467575067
 20
-25.63328222013297
  0
ARC
  5
FE4
330
F55
100
AcDbEntity
  8
LW 3801-04-01
100
AcDbCircle
 10
7.149474232509636
 20
-31.19110479284973
 30
0.0
 40
1.999999999999997
100
AcDbArc
 50
45.00000000000268
 51
50.38238748543331
  0
LWPOLYLINE
  5
FE5
330
F55
100
AcDbEntity
  8
LW 3801-04-01
100
AcDbPolyline
 90
       25
 70
     0
 43
0.0
 10
16.79312467575067
 20
-25.63328222013297
 10
16.7243862152099
 20
-25.61800912595572
 10
16.6552293300628
 20
-25.60507730222525
 10
16.58571839332574
 20
-25.5944772121984
 10
16.51591181755059
 20
-25.58620170331778
 10
16.44587278366082
 20
-25.58023647046866
 10
16.37565970420831
 20
-25.57657674527945
 10
16.30533337593072
 20
-25.5752106068212
 10
16.23495697975152
 20
-25.57612613416495
 10
16.16459012031549
 20
-25.57931617475333
 10
16.09429240226739
 20
-25.58477119184317
 10
16.02413296699517
 20
-25.59247926450553
 10
15.95425963401788
 20
-25.60241655088248
 10
15.88475823402398
 20
-25.61455682493033
 10
15.81568241119378
 20
-25.62888101316275
 10
15.74708700180047
 20
-25.64536765790763
 10
15.67902684211724
 20
-25.66399291730704
 10
15.61155915260308
 20
-25.68473771787467
 10
15.54475069046014
 20
-25.70757344938102
 10
15.47870397567742
 20
-25.73246196485343
 10
15.41347146034234
 20
-25.75937465406241
 10
15.34910440444939
 20
-25.78828290677848
 10
15.2856540679931
 20
-25.81916288114371
 10
15.22317290306084
 20
-25.85198596692862
 10
15.16171097755425
 20
-25.88672355390372
  0
LWPOLYLINE
  5
FE6
330
F55
100
AcDbEntity
  8
LW 3801-04-01
100
AcDbPolyline
 90
       25
 70
     0
 43
0.0
 10
6.702632308006332
 20
-29.24166158414664
 10
6.777117848396347
 20
-29.22607377744498
 10
6.85209214687352
 20
-29.21333745694937
 10
6.927472352981613
 20
-29.20346454358878
 10
7.003175616264389
 20
-29.19646218992057
 10
7.079121470451401
 20
-29.19234231687369
 10
7.155226469039963
 20
-29.19111207700553
 10
7.231408953666733
 20
-29.19278339124503
 10
7.307506203651474
 20
-29.19735864377799
 10
7.383353114128158
 20
-29.20482591367545
 10
7.458866834640549
 20
-29.21518043256583
 10
7.533965706825302
 20
-29.22841027952017
 10
7.608565688133285
 20
-29.24450830198111
 10
7.682583928108261
 20
-29.26346496320548
 10
7.755937576293991
 20
-29.28527072645011
 10
7.828422188758896
 20
-29.3098731396276
 10
7.899869680404709
 20
-29.33721498227896
 10
7.970201969146774
 20
-29.36726049161734
 10
8.039341568946884
 20
-29.39997628904166
 10
8.107211589813278
 20
-29.43532899595084
 10
8.173733353614853
 20
-29.47328523374381
 10
8.238830566406296
 20
-29.51381162381949
 10
8.302425146102951
 20
-29.55687478757682
 10
8.364439010620163
 20
-29.60243896222891
 10
8.424795866012619
 20
-29.65047076917472
  0
ENDBLK
  5
F57
330
F55
100
AcDbEntity
  8
0
100
AcDbBlockEnd
  0
BLOCK
  5
FE9
330
FE8
100
AcDbEntity
  8
0
100
AcDbBlockBegin
  2
LW 3801-04-01_b
 70
     0
 10
0.0
 20
0.0
 30
0.0
  3
LW 3801-04-01_b
  1

  0
LINE
  5
FEB
330
FE8
100
AcDbEntity
  8
LW 3801-04-01
100
AcDbLine
 10
30.00000000000119
 20
0.0000000000002274
 30
0.0
 11
-29.99999999999875
 21
-0.0000000000002274
 31
0.0
  0
LINE
  5
FEC
330
FE8
100
AcDbEntity
  8
LW 3801-04-01
100
AcDbLine
 10
-29.99999999999881
 20
2.354441988466419
 30
0.0
 11
-29.99999999999875
 21
-0.0000000000002274
 31
0.0
  0
LINE
  5
FED
330
FE8
100
AcDbEntity
  8
LW 3801-04-01
100
AcDbLine
 10
30.00000000000128
 20
2.35444198846568
 30
0.0
 11
30.00000000000131
 21
0.000000000000199
 31
0.0
  0
LINE
  5
FEE
330
FE8
100
AcDbEntity
  8
LW 3801-04-01
100
AcDbLine
 10
-10.6066017177971
 20
25.00000000000933
 30
0.0
 11
10.60660171778425
 21
25.00000000000316
 31
0.0
  0
LWPOLYLINE
  5
FEF
330
FE8
100
AcDbEntity
  8
LW 3801-04-01
100
AcDbPolyline
 90
       25
 70
     0
 43
0.0
 10
-17.43611335754264
 20
0.2693438530044432
 10
-17.4132478237139
 20
0.2577066421584959
 10
-17.39000916480887
 20
0.2460885047988484
 10
-17.36639857292044
 20
0.2344870567397663
 10
-17.34242439269889
 20
0.2229118347243855
 10
-17.31808781623709
 20
0.2113604545668863
 10
-17.29339361190665
 20
0.1998353004531168
 10
-17.26834893226493
 20
0.1883411407546305
 10
-17.24295496940482
 20
0.1768803596572184
 10
-17.2172188758837
 20
0.1654553413466715
 10
-17.19114303588736
 20
0.1540660858229899
 10
-17.16473221778739
 20
0.1427173614577555
 10
-17.13799238204825
 20
0.131411552436731
 10
-17.11092710494864
 20
0.1201486587599732
 10
-17.08354115486014
 20
0.1089358329848267
 10
-17.05583810806144
 20
0.0977730751112631
 10
-17.027823925017
 20
0.0866603851393393
 10
-16.99950098991263
 20
0.0756049156263998
 10
-16.9708752632128
 20
0.0646066665724447
 10
-16.9419515132891
 20
0.053665637977474
 10
-16.9127333164202
 20
0.0427913665846518
 10
-16.8832254409777
 20
0.0319790840223959
 10
-16.85343265533316
 20
0.0212359428480795
 10
-16.82337760925162
 20
0.0105667114332846
 10
-16.79312467574942
 20
0.0000000000075033
  0
LWPOLYLINE
  5
FF0
330
FE8
100
AcDbEntity
  8
LW 3801-04-01
100
AcDbPolyline
 90
       25
 70
     0
 43
0.0
 10
-25.88672399520743
 20
0.0000000000043201
 10
-25.8724021911608
 20
0.0000000000043201
 10
-25.8583927154528
 20
0.0000000000043201
 10
-25.84470272064078
 20
0.0000000000043769
 10
-25.83133220672477
 20
0.0000000000043769
 10
-25.81827878951896
 20
0.0000000000043769
 10
-25.80554962158073
 20
0.0000000000043769
 10
-25.79314231872428
 20
0.0000000000043769
 10
-25.7810616493212
 20
0.0000000000043769
 10
-25.7693076133715
 20
0.0000000000043769
 10
-25.75788021087516
 20
0.0000000000044054
 10
-25.74678421020377
 20
0.0000000000044054
 10
-25.73601961135734
 20
0.0000000000044338
 10
-25.72558641433585
 20
0.0000000000044338
 10
-25.7154893875109
 20
0.0000000000044338
 10
-25.70572853088248
 20
0.0000000000044338
 10
-25.69630622863639
 20
0.0000000000044338
 10
-25.68722248077262
 20
0.0000000000044622
 10
-25.67847967147697
 20
0.0000000000044622
 10
-25.67008018493522
 20
0.0000000000044906
 10
-25.66202402114738
 20
0.0000000000044906
 10
-25.65431594848502
 20
0.0000000000044906
 10
-25.64695358276237
 20
0.0000000000044906
 10
-25.63994169235099
 20
0.0000000000044906
 10
-25.63328027725089
 20
0.0000000000045191
  0
LWPOLYLINE
  5
FF1
330
FE8
100
AcDbEntity
  8
LW 3801-04-01
100
AcDbPolyline
 90
       25
 70
     0
 43
0.0
 10
-25.63328266143668
 20
0.0000000000048317
 10
-25.64370393752921
 20
0.0105333328295387
 10
-25.65469026565421
 20
0.0211524963427223
 10
-25.66623449325431
 20
0.0318503379870094
 10
-25.67833185195792
 20
0.0426292419481911
 10
-25.69098234176505
 20
0.0534868240404762
 10
-25.70418119430411
 20
0.0644183158922829
 10
-25.71792602538932
 20
0.0754189491320858
 10
-25.73220968246329
 20
0.0864934921313534
 10
-25.74702978134025
 20
0.0976324081469784
 10
-25.76238393783439
 20
0.1088356971789608
 10
-25.77825307845939
 20
0.1200914382983456
 10
-25.79462051391471
 20
0.1313900947620254
 10
-25.81148147582877
 20
0.1427268981983047
 10
-25.8288288116442
 20
0.1541018486072403
 10
-25.84666013717521
 20
0.1655101776172501
 10
-25.86496829986442
 20
0.176951885228334
 10
-25.88374376296866
 20
0.1884245872547012
 10
-25.90298652648795
 20
0.1999211311389786
 10
-25.9226894378649
 20
0.2114462852527481
 10
-25.94284534454215
 20
0.2229905128528742
 10
-25.96344709396232
 20
0.234556198125091
 10
-25.98449230193961
 20
0.2461385726978733
 10
-26.00597381591666
 20
0.2577352523853733
 10
-26.0278844833361
 20
0.2693438530018284
  0
LINE
  5
FF2
330
FE8
100
AcDbEntity
  8
LW 3801-04-01
100
AcDbLine
 10
-17.43611317461534
 20
0.2693436563177443
 30
0.0
 11
-85.82143159157965
 21
35.38742005144697
 31
0.0
  0
LINE
  5
FF3
330
FE8
100
AcDbEntity
  8
LW 3801-04-01
100
AcDbLine
 10
-82.49999999999886
 20
49.66261744580241
 30
0.0
 11
-10.60660171779824
 21
25.00000000000933
 31
0.0
  0
LINE
  5
FF4
330
FE8
100
AcDbEntity
  8
LW 3801-04-01
100
AcDbLine
 10
-82.49999999999886
 20
50.00000000003199
 30
0.0
 11
-137.4999999999988
 21
50.00000000003165
 31
0.0
  0
LINE
  5
FF5
330
FE8
100
AcDbEntity
  8
LW 3801-04-01
100
AcDbLine
 10
-82.49999999999875
 20
36.00000000003202
 30
0.0
 11
-137.4999999999987
 21
36.00000000003165
 31
0.0
  0
LINE
  5
FF6
330
FE8
100
AcDbEntity
  8
LW 3801-04-01
100
AcDbLine
 10
-137.4999999999989
 20
50.00000000003168
 30
0.0
 11
-137.4999999999988
 21
36.00000000003165
 31
0.0
  0
LINE
  5
FF7
330
FE8
100
AcDbEntity
  8
LW 3801-04-01
100
AcDbLine
 10
-82.49999999999891
 20
50.00000000003204
 30
0.0
 11
-82.4999999999988
 21
36.00000000003205
 31
0.0
  0
LINE
  5
FF8
330
FE8
100
AcDbEntity
  8
LW 3801-04-01
100
AcDbLine
 10
-87.49999999999928
 20
32.53815374277144
 30
0.0
 11
-26.02788566645961
 21
0.2693436563153568
 31
0.0
  0
LWPOLYLINE
  5
FF9
330
FE8
100
AcDbEntity
  8
LW 3801-04-01
100
AcDbPolyline
 90
       25
 70
     0
 43
0.0
 10
-85.97890853881716
 20
35.46503424647169
 10
-86.06705665588259
 20
35.50698161127885
 10
-86.15014076232791
 20
35.54713249209247
 10
-86.22795104980349
 20
35.58542728426782
 10
-86.30030632018923
 20
35.62180519106714
 10
-86.36700630187869
 20
35.65620422365994
 10
-86.42786979675173
 20
35.68856596949432
 10
-86.48260116577029
 20
35.71879863741735
 10
-86.53094291686892
 20
35.74688076975686
 10
-86.57276153564334
 20
35.77286481860027
 10
-86.60791397094607
 20
35.7968020439421
 10
-86.63626670837283
 20
35.81874728205553
 10
-86.65770530700564
 20
35.83875060084221
 10
-86.67204856872439
 20
35.85684657099604
 10
-86.67920112609744
 20
35.8730947971619
 10
-86.67913436889529
 20
35.88760495188605
 10
-86.67180061340213
 20
35.90048551562204
 10
-86.65716171264529
 20
35.91184616091626
 10
-86.63518905639529
 20
35.92179656031509
 10
-86.60591125488162
 20
35.93043565752889
 10
-86.56945228576541
 20
35.93784928324608
 10
-86.52588844299197
 20
35.94413042071254
 10
-86.47531509399295
 20
35.94937205317414
 10
-86.41780853271365
 20
35.95366716387669
 10
-86.35343551635623
 20
35.95710992815894
  0
ELLIPSE
  5
FFA
330
FE8
100
AcDbEntity
  8
LW 3801-04-01
100
AcDbEllipse
 10
-90.97160552419472
 20
26.00000000002683
 30
0.0
 11
5.402805235575535
 21
9.248900854284565
 31
0.0
210
0.0
220
0.0
230
1.0
 40
0.7037724952034642
 41
0.0382151688669673
 42
0.0614758569958965
  0
LWPOLYLINE
  5
FFB
330
FE8
100
AcDbEntity
  8
LW 3801-04-01
100
AcDbPolyline
 90
       25
 70
     0
 43
0.0
 10
-86.35343551635623
 20
35.95710992815894
 10
-86.28812789916873
 20
35.96003532412455
 10
-86.22333526611209
 20
35.96290826800275
 10
-86.15906715392947
 20
35.96572518351489
 10
-86.09532356262088
 20
35.96847653391775
 10
-86.0321044921863
 20
35.97115874293268
 10
-85.96941947936892
 20
35.97376227381652
 10
-85.90725898742556
 20
35.97628235819765
 10
-85.84563255309939
 20
35.97871303561162
 10
-85.78454017639041
 20
35.98104596140816
 10
-85.72399139404177
 20
35.98327636721568
 10
-85.66397666931033
 20
35.98539590838395
 10
-85.60450553893923
 20
35.98739981654133
 10
-85.54556846618533
 20
35.98928093913047
 10
-85.48718452453494
 20
35.99103212359402
 10
-85.4293441772449
 20
35.99264860156033
 10
-85.37205696105838
 20
35.99412202837924
 10
-85.31532287597537
 20
35.99544644358615
 10
-85.25914192199588
 20
35.99661588671667
 10
-85.2035140991199
 20
35.99762201312051
 10
-85.14843940734744
 20
35.998461246519
 10
-85.09392738342166
 20
35.99912405016893
 10
-85.03998756408572
 20
35.99960684779164
 10
-84.9866008758533
 20
35.99990010264399
 10
-84.93377685546755
 20
36.00000023844724
  0
LINE
  5
FFC
330
FE8
100
AcDbEntity
  8
LW 3801-04-01
100
AcDbLine
 10
-124.4999999999995
 20
8.000000000031946
 30
0.0
 11
-95.49999999999954
 21
8.000000000031718
 31
0.0
  0
LINE
  5
FFD
330
FE8
100
AcDbEntity
  8
LW 3801-04-01
100
AcDbLine
 10
-127.4999999999995
 20
11.000000000032
 30
0.0
 11
-92.49999999999948
 21
11.00000000003172
 31
0.0
  0
LINE
  5
FFE
330
FE8
100
AcDbEntity
  8
LW 3801-04-01
100
AcDbLine
 10
-95.49999999999954
 20
8.000000000031718
 30
0.0
 11
-92.49999999999948
 21
11.00000000003172
 31
0.0
  0
LINE
  5
FFF
330
FE8
100
AcDbEntity
  8
LW 3801-04-01
100
AcDbLine
 10
-124.4999999999995
 20
8.000000000031946
 30
0.0
 11
-127.4999999999995
 21
11.000000000032
 31
0.0
  0
LINE
  5
1000
330
FE8
100
AcDbEntity
  8
LW 3801-04-01
100
AcDbLine
 10
-127.4999999999995
 20
13.00000000003194
 30
0.0
 11
-127.4999999999995
 21
11.00000000003194
 31
0.0
  0
LINE
  5
1001
330
FE8
100
AcDbEntity
  8
LW 3801-04-01
100
AcDbLine
 10
-127.4999999999993
 20
31.00000000003195
 30
0.0
 11
-127.4999999999994
 21
17.00000000003194
 31
0.0
  0
LINE
  5
1002
330
FE8
100
AcDbEntity
  8
LW 3801-04-01
100
AcDbLine
 10
-92.49999999999937
 20
31.00000000003172
 30
0.0
 11
-92.49999999999948
 21
11.00000000003172
 31
0.0
  0
LWPOLYLINE
  5
1003
330
FE8
100
AcDbEntity
  8
LW 3801-04-01
100
AcDbPolyline
 90
       25
 70
     0
 43
0.0
 10
-127.4999999999994
 20
17.00000023845058
 10
-127.4980533123011
 20
16.98318338397371
 10
-127.4923813343042
 20
16.93250751498573
 10
-127.4832415580744
 20
16.84763169291858
 10
-127.4711489677424
 20
16.72932362559686
 10
-127.4572539329523
 20
16.58275818828002
 10
-127.4427628517145
 20
16.41421055797002
 10
-127.4282586574549
 20
16.22194862368968
 10
-127.4143302440638
 20
16.00386357310685
 10
-127.4021911621088
 20
15.76566910746965
 10
-127.393004894256
 20
15.51353311541953
 10
-127.3872995376581
 20
15.25547957423606
 10
-127.385338544845
 20
14.99999976161399
 10
-127.3872995376581
 20
14.74452114108482
 10
-127.3930048942561
 20
14.48646640780845
 10
-127.4021911621088
 20
14.23433041575822
 10
-127.4143302440638
 20
13.99613595012101
 10
-127.4282586574549
 20
13.77805209163097
 10
-127.4427628517146
 20
13.58578896525762
 10
-127.4572539329523
 20
13.4172413349475
 10
-127.4711489677424
 20
13.27067708972345
 10
-127.4832415580744
 20
13.15236783030872
 10
-127.4923813343043
 20
13.06749200824134
 10
-127.4980533123011
 20
13.01681613925325
 10
-127.4999999999995
 20
13.00000047686916
  0
LWPOLYLINE
  5
1004
330
FE8
100
AcDbEntity
  8
LW 3801-04-01
100
AcDbPolyline
 90
       25
 70
     0
 43
0.0
 10
-101.2499999999994
 20
17.00000023845484
 10
-101.0297214984888
 20
16.98318338397786
 10
-100.809074044227
 20
16.93250751498976
 10
-100.5952864885325
 20
16.8476316929225
 10
-100.3950482606882
 20
16.72932362560067
 10
-100.2131289243692
 20
16.58275818828372
 10
-100.0538706779474
 20
16.41421055797366
 10
-99.91515755653328
 20
16.22194862369321
 10
-99.79519367217964
 20
16.00386357311032
 10
-99.69880700111335
 20
15.76566910747311
 10
-99.62989687919563
 20
15.51353311542289
 10
-99.58886265754649
 20
15.25547957423941
 10
-99.57527995109508
 20
14.99999976161734
 10
-99.58886265754649
 20
14.74452114108817
 10
-99.62989687919566
 20
14.4864664078118
 10
-99.69880700111339
 20
14.23433041576169
 10
-99.79519367217967
 20
13.99613595012448
 10
-99.91515755653331
 20
13.77805209163449
 10
-100.0538706779475
 20
13.58578896526126
 10
-100.2131289243693
 20
13.4172413349512
 10
-100.3950482606883
 20
13.27067708972726
 10
-100.5952864885325
 20
13.15236783031264
 10
-100.8090740442271
 20
13.06749200824538
 10
-101.0297214984889
 20
13.0168161392574
 10
-101.2499999999995
 20
13.00000047687342
  0
LWPOLYLINE
  5
1005
330
FE8
100
AcDbEntity
  8
LW 3801-04-01
100
AcDbPolyline
 90
       25
 70
     0
 43
0.0
 10
-101.2499999999995
 20
13.00000047687342
 10
-101.4722257852549
 20
13.01681613925746
 10
-101.6985440254206
 20
13.06749200824555
 10
-101.9214719533915
 20
13.15236783031287
 10
-102.1338021755213
 20
13.2706770897276
 10
-102.3296165466303
 20
13.4172413349516
 10
-102.5033658742899
 20
13.58578896526171
 10
-102.6565837860102
 20
13.778052091635
 10
-102.790476083755
 20
13.99613595012499
 10
-102.8990024328226
 20
14.23433041576226
 10
-102.9770988225932
 20
14.48646640781243
 10
-103.0238378047938
 20
14.74452114108879
 10
-103.0393815040583
 20
14.99999976161797
 10
-103.0238378047938
 20
15.25547957424004
 10
-102.9770988225931
 20
15.51353311542351
 10
-102.8990024328226
 20
15.76566910747368
 10
-102.7904760837549
 20
16.00386357311083
 10
-102.6565837860102
 20
16.22194862369372
 10
-102.5033658742899
 20
16.41421055797411
 10
-102.3296165466303
 20
16.58275818828412
 10
-102.1338021755213
 20
16.72932362560101
 10
-101.9214719533915
 20
16.84763169292273
 10
-101.6985440254206
 20
16.93250751498993
 10
-101.4722257852549
 20
16.98318338397792
 10
-101.2499999999994
 20
17.00000023845484
  0
ELLIPSE
  5
1006
330
FE8
100
AcDbEntity
  8
LW 3801-04-01
100
AcDbEllipse
 10
-103.7499999999994
 20
15.00000000003496
 30
0.0
 11
0.0000000000008313
 21
-1.999999999999999
 31
0.0
210
0.0
220
0.0
230
1.0
 40
0.866025403784438
 41
0.7941688477848424
 42
2.347423805805178
  0
LINE
  5
1007
330
FE8
100
AcDbEntity
  8
LW 3801-04-01
100
AcDbLine
 10
-132.4999999999993
 20
31.00000000003201
 30
0.0
 11
-87.49999999999937
 21
31.00000000003166
 31
0.0
  0
LINE
  5
1008
330
FE8
100
AcDbEntity
  8
LW 3801-04-01
100
AcDbLine
 10
-87.49999999999937
 20
31.00000000003166
 30
0.0
 11
-87.49999999999932
 21
36.00000000003165
 31
0.0
  0
LINE
  5
1009
330
FE8
100
AcDbEntity
  8
LW 3801-04-01
100
AcDbLine
 10
-132.4999999999993
 20
31.00000000003201
 30
0.0
 11
-132.4999999999993
 21
36.00000000003205
 31
0.0
  0
LINE
  5
100A
330
FE8
100
AcDbEntity
  8
LW 3801-04-01
100
AcDbLine
 10
-132.499999999999
 20
55.00000000003185
 30
0.0
 11
-87.499999999999
 21
55.00000000003185
 31
0.0
  0
LINE
  5
100B
330
FE8
100
AcDbEntity
  8
LW 3801-04-01
100
AcDbLine
 10
-87.499999999999
 20
50.00000000003185
 30
0.0
 11
-87.499999999999
 21
55.00000000003185
 31
0.0
  0
LINE
  5
100C
330
FE8
100
AcDbEntity
  8
LW 3801-04-01
100
AcDbLine
 10
-132.499999999999
 20
50.00000000003185
 30
0.0
 11
-132.499999999999
 21
55.00000000003185
 31
0.0
  0
LINE
  5
100D
330
FE8
100
AcDbEntity
  8
LW 3801-04-01
100
AcDbLine
 10
-10.6066017177971
 20
25.00000000000933
 30
0.0
 11
-16.79312521134966
 21
0.0000000000075033
 31
0.0
  0
LINE
  5
100E
330
FE8
100
AcDbEntity
  8
LW 3801-04-01
  6
MITTE2
 62
     3
100
AcDbLine
 10
0.0000000000019895
 20
52.50000000000612
 30
0.0
 11
-0.0000000000002842
 21
-7.49999999999386
 31
0.0
  0
LINE
  5
100F
330
FE8
100
AcDbEntity
  8
LW 3801-04-01
  6
MITTE2
 62
     3
100
AcDbLine
 10
-109.9999999999988
 20
85.50000000000714
 30
0.0
 11
-110.0000000000019
 21
2.735882419465895
 31
0.0
  0
INSERT
  5
1010
330
FE8
100
AcDbEntity
  8
LW 3801-04-01
100
AcDbBlockReference
 66
     1
  2
insertpoint-ECKELT
 10
0.0
 20
0.0
 30
0.0
  0
ATTRIB
  5
1011
330
1010
100
AcDbEntity
  8
insertpoint_ECKELT
100
AcDbText
 10
-6.93151432469303
 20
-0.0000000000000284
 30
0.0
 40
0.6
  1
LW 3801/04-01
 72
     2
 11
-1.199999999999988
 21
-0.0000000000000284
 31
0.0
100
AcDbAttribute
  2
LINKS
 70
     0
  0
ATTRIB
  5
1012
330
1010
100
AcDbEntity
  8
insertpoint_ECKELT
100
AcDbText
 10
1.199999999999988
 20
-0.0000000000000284
 30
0.0
 40
0.6
  1

100
AcDbAttribute
  2
RECHTS
 70
     0
  0
SEQEND
  5
1013
330
1010
100
AcDbEntity
  8
LW 3801-04-01
  0
LINE
  5
1014
330
FE8
100
AcDbEntity
  8
LW 3801-04-01
100
AcDbLine
 10
-103.0
 20
55.00000000003185
 30
0.0
 11
-103.0
 21
68.00000000003184
 31
0.0
  0
LINE
  5
1015
330
FE8
100
AcDbEntity
  8
LW 3801-04-01
100
AcDbLine
 10
-104.0
 20
69.00000000003185
 30
0.0
 11
-103.0
 21
68.00000000003184
 31
0.0
  0
LINE
  5
1016
330
FE8
100
AcDbEntity
  8
LW 3801-04-01
100
AcDbLine
 10
-104.0
 20
69.00000000003185
 30
0.0
 11
-116.0
 21
69.00000000003185
 31
0.0
  0
LINE
  5
1017
330
FE8
100
AcDbEntity
  8
LW 3801-04-01
100
AcDbLine
 10
-117.0
 20
68.00000000003184
 30
0.0
 11
-116.0
 21
69.00000000003185
 31
0.0
  0
LINE
  5
1018
330
FE8
100
AcDbEntity
  8
LW 3801-04-01
100
AcDbLine
 10
-117.0
 20
68.00000000003184
 30
0.0
 11
-117.0
 21
55.00000000003185
 31
0.0
  0
LINE
  5
1019
330
FE8
100
AcDbEntity
  8
LW 3801-04-01
100
AcDbLine
 10
-117.0
 20
68.00000000003184
 30
0.0
 11
-103.0
 21
68.00000000003184
 31
0.0
  0
LINE
  5
101A
330
FE8
100
AcDbEntity
  8
LW 3801-04-01
 62
     3
100
AcDbLine
 10
-116.0
 20
69.00000000003185
 30
0.0
 11
-116.0
 21
55.00000000003185
 31
0.0
  0
LINE
  5
101B
330
FE8
100
AcDbEntity
  8
LW 3801-04-01
 62
     3
100
AcDbLine
 10
-104.0
 20
69.00000000003185
 30
0.0
 11
-104.0
 21
55.00000000003185
 31
0.0
  0
HATCH
  5
101C
330
FE8
100
AcDbEntity
  8
LW 3801-04-01
 62
     1
100
AcDbHatch
 10
0.0
 20
0.0
 30
0.0
210
0.0
220
0.0
230
1.0
  2
SOLID
 70
     1
 71
     0
 91
        5
 92
        7
 72
     0
 73
     1
 93
       76
 10
-41.95564259575689
 20
23.63484213530563
 10
-42.00517194967875
 20
23.59987895848195
 10
-42.17316193262663
 20
23.50706208926547
 10
-42.35192465994794
 20
23.43059525728219
 10
-42.53658569107246
 20
23.3697289089987
 10
-42.73298330053167
 20
23.32634074477389
 10
-42.93438736147314
 20
23.30109580111335
 10
-43.13740381614763
 20
23.28830607856665
 10
-43.33132399195299
 20
23.29537321085431
 10
-41.25485083439578
 20
22.41053938577392
 10
-41.05558836592524
 20
22.33507468680603
 10
-40.85950558483403
 20
22.27985633469652
 10
-40.66345705080451
 20
22.24118255773442
 10
-40.47229144539618
 20
22.21875806669217
 10
-40.28315861751857
 20
22.21372977141812
 10
-40.09691018779297
 20
22.22409914144322
 10
-39.92102452694966
 20
22.25276951449831
 10
-39.74790785670284
 20
22.29499369126705
 10
-39.58583830149916
 20
22.35533820179575
 10
-39.4331994852932
 20
22.42971381703748
 10
-39.28739878407476
 20
22.51673238809102
 10
-39.15439604464492
 20
22.61827234593824
 10
-39.03597359695488
 20
22.73547101125044
 10
-38.92698747021802
 20
22.86377499169526
 10
-38.83628340693178
 20
23.00459223928758
 10
-38.76015963538541
 20
23.16106819434455
 10
-38.70202263806237
 20
23.32520873498947
 10
-38.6644272768252
 20
23.49101826981428
 10
-38.65137061261251
 20
23.66020004006092
 10
-38.65400690292627
 20
23.83134609371507
 10
-38.67803644994691
 20
24.00216261108011
 10
-38.72060910258408
 20
24.17379650200411
 10
-38.78204821798737
 20
24.34260727501377
 10
-38.85985932023174
 20
24.50743751848055
 10
-38.95211365665028
 20
24.66680414647198
 10
-39.06168198343629
 20
24.81975794353261
 10
-39.18996984682938
 20
24.96670893174448
 10
-39.32727267507098
 20
25.10531644961037
 10
-39.48100122022309
 20
25.23222085644738
 10
-39.64783361097726
 20
25.35054056295218
 10
-39.82947308857542
 20
25.45627850818647
 10
-40.01992406160979
 20
25.54687983028751
 10
-41.9694734450851
 20
26.37762846379883
 10
-41.84650451212869
 20
26.25667020613844
 10
-41.71315770644576
 20
26.10134326617822
 10
-41.59915290506606
 20
25.93913879036262
 10
-41.4946775856839
 20
25.76894173894056
 10
-41.41316376161257
 20
25.59312477267969
 10
-41.35055688359776
 20
25.4149682830344
 10
-41.30494645542941
 20
25.23195104795451
 10
-41.29013679421364
 20
25.13413112769695
 10
-40.34399348774734
 20
24.73095731449936
 10
-40.22542249261157
 20
24.67221367527023
 10
-40.11310610973926
 20
24.60225008814928
 10
-40.00810338066554
 20
24.52170674960428
 10
-39.92006529883314
 20
24.4346017168439
 10
-39.84566242506684
 20
24.34149983569046
 10
-39.7818712521872
 20
24.24082934783644
 10
-39.72946440322417
 20
24.13376959938612
 10
-39.6967261019525
 20
24.02772343059655
 10
-41.28597396202211
 20
24.70493914990809
 10
-41.28903030146116
 20
24.67076662102627
 10
-41.32847846174677
 20
24.48607388766834
 10
-41.39199538347406
 20
24.30629395146281
 10
-41.47940033628684
 20
24.13184372017963
 10
-41.58585983799182
 20
23.97462405706659
 10
-41.62039054000651
 20
23.93593146491889
 10
-39.99147664362964
 20
23.24181311890891
 10
-40.09290092596389
 20
23.18112963812945
 10
-40.20120666738859
 20
23.13754706389054
 10
-40.31607446225593
 20
23.11055146181585
 10
-40.43331855672206
 20
23.09713124270331
 10
-40.55974706880664
 20
23.10321013024725
 10
-40.68496216053986
 20
23.12171256519554
 10
-40.81853416569076
 20
23.15737789008685
 10
-40.95299203852429
 20
23.20758925965623
 97
        0
 92
        7
 72
     0
 73
     1
 93
       72
 10
-43.54003467281496
 20
24.32585747420219
 10
-43.66014904559984
 20
24.3573939565317
 10
-43.77632501312821
 20
24.40123183382195
 10
-44.94346680717381
 20
24.89857827640802
 10
-43.8446821913389
 20
25.3158951602411
 10
-44.79585555173875
 20
27.58910032618727
 10
-46.00896354657723
 20
28.10603404305325
 10
-45.11512274426908
 20
25.83128393684612
 10
-47.30240403436502
 20
24.98754338451619
 10
-44.1387303015326
 20
23.63942794168443
 10
-43.94316695612636
 20
23.56780649457014
 10
-43.74301379711727
 20
23.51019245987064
 10
-43.53934239606421
 20
23.46666463116142
 10
-43.33933104815782
 20
23.44283218810497
 10
-43.13935394731321
 20
23.43554432019585
 10
-42.94816955211505
 20
23.44758864130156
 10
-42.75804559242572
 20
23.47141968337911
 10
-42.57556742853448
 20
23.51173276338125
 10
-42.40396021680491
 20
23.56829642629097
 10
-42.23780740082406
 20
23.63936929284173
 10
-42.08337715762573
 20
23.72469421183078
 10
-41.94152867569818
 20
23.82482621766369
 10
-41.81511210613117
 20
23.93861840049232
 10
-41.70212891845559
 20
24.06521913969565
 10
-41.60657617361008
 20
24.20633167651539
 10
-41.52760225097352
 20
24.3639545414209
 10
-41.47031687427135
 20
24.5260965515964
 10
-41.43472004350349
 20
24.69275770704209
 10
-41.41966484882149
 20
24.86108785666784
 10
-41.42315275975618
 20
25.03023537985274
 10
-41.4493236537575
 20
25.20309785975513
 10
-41.49159432590055
 20
25.37271392895852
 10
-41.54956823611111
 20
25.53768667095767
 10
-41.62449974306892
 20
25.69930625365754
 10
-41.72210226337862
 20
25.85830707094459
 10
-41.82938564119026
 20
26.01094839702085
 10
-41.95405634404768
 20
26.15616911437027
 10
-42.09382942297657
 20
26.2936567520085
 10
-42.25132571412472
 20
26.41952188655407
 10
-42.41524197950368
 20
26.536882334881
 10
-42.59688145710195
 20
26.6426202801153
 10
-42.78733243013626
 20
26.73322160221633
 10
-44.53804512120468
 20
27.47924126609547
 10
-44.06499617933653
 20
26.32837080414092
 10
-43.12968391972462
 20
25.92981235357536
 10
-43.06982201487373
 20
25.90023046609412
 10
-42.98086754516261
 20
25.85147400038613
 10
-42.87876282194687
 20
25.78463389901597
 10
-42.78447365309805
 20
25.70714454668956
 10
-42.70714684207153
 20
25.62970451724186
 10
-42.66654181799235
 20
25.58179768551705
 10
-42.62992844234907
 20
25.53077447969534
 10
-42.54691420790112
 20
25.38743577635575
 10
-42.50666024441944
 20
25.29415024739197
 10
-42.4826061222807
 20
25.21012927603479
 10
-42.46624319789684
 20
25.12428502404168
 10
-42.46027939024705
 20
25.0378658561236
 10
-42.46513003444153
 20
24.95142658444692
 10
-42.48025505543964
 20
24.86313130074467
 10
-42.50835877994602
 20
24.77800512050075
 10
-42.53403034236533
 20
24.72121867790986
 10
-42.56391063033912
 20
24.66641458588532
 10
-42.59985953449991
 20
24.61306298883358
 10
-42.64080123958676
 20
24.56344471079209
 10
-42.71965335478717
 20
24.48974224778357
 10
-42.7844618914334
 20
24.44358773571247
 10
-42.87308143484026
 20
24.39652817760421
 10
-43.04172476259083
 20
24.33086012474038
 10
-43.11195207824231
 20
24.3172424089027
 10
-43.19951352898818
 20
24.30638130353475
 10
-43.29333013346196
 20
24.30054709156377
 10
-43.41733326059819
 20
24.30682040729579
 97
        0
 92
        7
 72
     0
 73
     1
 93
       57
 10
-47.72458692019403
 20
26.1329852397173
 10
-47.86120780361733
 20
26.14775235905782
 10
-47.99574491805955
 20
26.1756111772952
 10
-48.13105441151389
 20
26.22382401639536
 10
-49.27221530945924
 20
26.71009939091019
 10
-49.59583114538853
 20
25.95065781259288
 10
-48.46066583885109
 20
25.4669372999407
 10
-48.26340190084975
 20
25.39232422159364
 10
-48.06247043819919
 20
25.3374011587116
 10
-47.86442337370043
 20
25.29787576112864
 10
-47.66926070735346
 20
25.27374802884466
 10
-47.47128213697812
 20
25.26731178155649
 10
-47.28579905461508
 20
25.27810174104855
 10
-47.10187853350229
 20
25.30457621353327
 10
-46.92089037527263
 20
25.34646879021182
 10
-46.75036445833384
 20
25.4033987611081
 10
-46.58942560595396
 20
25.47480427885157
 10
-46.43899242369418
 20
25.5618324390824
 10
-46.30399115379509
 20
25.66252077630875
 10
-46.1775745842281
 20
25.77631295913733
 10
-46.06858845749115
 20
25.90461693958224
 10
-45.97303571264555
 20
26.04572947640202
 10
-45.89491341062995
 20
26.20135381083819
 10
-45.83677641330688
 20
26.36549435148305
 10
-45.80117958253899
 20
26.5321555069288
 10
-45.786124387857
 20
26.70048565655455
 10
-45.79075920864007
 20
26.87248333082957
 10
-45.81279022519143
 20
27.04244822757369
 10
-45.8582164871385
 20
27.21350342450657
 10
-45.91738217293634
 20
27.38040086555637
 10
-45.99533539093646
 20
27.5454805819501
 10
-46.08771905251569
 20
27.70509123249636
 10
-46.19728737930163
 20
27.85804502955702
 10
-46.3239566126283
 20
28.00411736752733
 10
-46.46487660140564
 20
28.14445515625564
 10
-46.6186051465577
 20
28.2713595630926
 10
-46.78543753731188
 20
28.38967926959742
 10
-46.9659301050617
 20
28.49256706374161
 10
-47.15837960856537
 20
28.58402000646353
 10
-48.27156107994102
 20
29.05837269228621
 10
-48.60795122518331
 20
28.26895315693003
 10
-47.47278591864576
 20
27.78523264427781
 10
-47.35389003833248
 20
27.72332793864845
 10
-47.24083790404736
 20
27.65125614690123
 10
-47.14333509820397
 20
27.57239738861645
 10
-47.05541735445442
 20
27.48279329470103
 10
-46.97841097857545
 20
27.38376469140173
 10
-46.91561907093047
 20
27.28352001385815
 10
-46.8664697140458
 20
27.17586476124342
 10
-46.831479877197
 20
27.06800904709016
 10
-48.76805590190623
 20
27.89322942870987
 10
-49.0925233584564
 20
27.13178931992326
 10
-47.12197231576982
 20
26.2920913877488
 10
-47.224248218725
 20
26.22940937650003
 10
-47.3391058829507
 20
26.18153445209521
 10
-47.46206637780422
 20
26.15099751812247
 10
-47.58717176897658
 20
26.13138702072749
 97
        0
 92
        7
 72
     0
 73
     1
 93
        6
 10
-49.80256565140449
 20
26.05292078122025
 10
-48.48170206844045
 20
29.15264153903658
 10
-50.54018845177433
 20
30.02981077852914
 10
-50.8799850795001
 20
29.23239712129592
 10
-49.76280654718589
 20
28.75634119423148
 10
-50.74387350242417
 20
26.45403409364841
 97
        0
 92
        7
 72
     0
 73
     1
 93
        8
 10
-50.95771626263457
 20
26.54515750008113
 10
-50.63410042670526
 20
27.3045990783985
 10
-51.76926573324275
 20
27.78831959105071
 10
-50.76946312434542
 20
30.1345943619574
 10
-51.71276950583434
 20
30.53655929500644
 10
-52.71257211473168
 20
28.19028452409972
 10
-53.85573154314624
 20
28.67741151923542
 10
-54.17934737907554
 20
27.91796994091806
 97
        0
 75
     0
 76
     1
 47
0.0142553043587597
 98
        5
 10
-41.48094658803701
 20
22.98782934550192
 10
-43.51106682029733
 20
24.00786699609017
 10
-47.66606824199814
 20
25.71642804174008
 10
-50.26689747642221
 20
26.56127708704884
 10
-51.52661164573618
 20
27.20653995711288
450
        0
451
        0
460
0.0
461
0.0
452
        0
462
0.0
453
        0
470

  0
LWPOLYLINE
  5
101D
330
FE8
100
AcDbEntity
  8
LW 3801-04-01
 62
     1
100
AcDbPolyline
 90
        8
 70
     1
 43
0.0
 10
-52.71257211473168
 20
28.19028452409972
 10
-51.71276950583434
 20
30.53655929500644
 10
-50.76946312434542
 20
30.1345943619574
 10
-51.76926573324275
 20
27.78831959105071
 10
-50.63410042670526
 20
27.3045990783985
 10
-50.95771626263457
 20
26.54515750008113
 10
-54.17934737907554
 20
27.91796994091806
 10
-53.85573154314624
 20
28.67741151923542
  0
LWPOLYLINE
  5
101E
330
FE8
100
AcDbEntity
  8
LW 3801-04-01
 62
     1
100
AcDbPolyline
 90
       73
 70
     1
 43
0.0
 10
-43.12968391972467
 20
25.92981235357536
 10
-44.06499617933653
 20
26.32837080414092
 10
-44.53804512120468
 20
27.47924126609547
 10
-42.78733243013631
 20
26.73322160221636
 10
-42.5968814571019
 20
26.6426202801153
 10
-42.41524197950373
 20
26.536882334881
 10
-42.25132571412472
 20
26.41952188655407
 10
-42.09382942297661
 20
26.29365675200853
 10
-41.95405634404768
 20
26.15616911437027
 10
-41.82938564119021
 20
26.01094839702083
 10
-41.72210226337865
 20
25.85830707094454
 10
-41.62449974306892
 20
25.69930625365754
 10
-41.54956823611108
 20
25.53768667095773
 10
-41.49159432590057
 20
25.37271392895846
 10
-41.44932365375754
 20
25.20309785975519
 10
-41.42315275975618
 20
25.03023537985274
 10
-41.41966484882149
 20
24.86108785666784
 10
-41.43472004350349
 20
24.69275770704209
 10
-41.47031687427135
 20
24.5260965515964
 10
-41.52760225097355
 20
24.36395454142081
 10
-41.60657617361
 20
24.20633167651539
 10
-41.70212891845559
 20
24.06521913969565
 10
-41.81511210613115
 20
23.93861840049237
 10
-41.94152867569807
 20
23.82482621766377
 10
-42.0833771576258
 20
23.72469421183075
 10
-42.23780740082406
 20
23.63936929284173
 10
-42.40396021680486
 20
23.56829642629094
 10
-42.57556742853443
 20
23.51173276338122
 10
-42.75804559242569
 20
23.47141968337906
 10
-42.94816955211515
 20
23.44758864130159
 10
-43.13935394731319
 20
23.4355443201959
 10
-43.33933104815782
 20
23.44283218810497
 10
-43.53934239606416
 20
23.4666646311614
 10
-43.74301379711733
 20
23.51019245987067
 10
-43.94316695612642
 20
23.56780649457016
 10
-44.13873030153249
 20
23.6394279416844
 10
-47.30240403436502
 20
24.98754338451619
 10
-45.11512274426908
 20
25.83128393684612
 10
-46.00896354657723
 20
28.10603404305325
 10
-44.79585555173875
 20
27.58910032618727
 10
-43.8446821913389
 20
25.3158951602411
 10
-44.94346680717381
 20
24.89857827640802
 10
-43.77632501312821
 20
24.40123183382195
 10
-43.66014904559984
 20
24.3573939565317
 10
-43.54003467281496
 20
24.32585747420219
 10
-43.41733326059824
 20
24.30682040729582
 10
-43.293330133462
 20
24.30054709156377
 10
-43.1995135289882
 20
24.30638130353469
 10
-43.11195207824225
 20
24.31724240890267
 10
-43.06426900965651
 20
24.32648858999684
 10
-43.01763130787226
 20
24.34024187899792
 10
-42.87308143484026
 20
24.39652817760421
 10
-42.7844618914334
 20
24.44358773571247
 10
-42.7196533547872
 20
24.48974224778351
 10
-42.64080123958676
 20
24.56344471079209
 10
-42.59985953449991
 20
24.61306298883358
 10
-42.56391063033915
 20
24.66641458588521
 10
-42.53403034236535
 20
24.72121867790983
 10
-42.50835877994605
 20
24.7780051205007
 10
-42.48025505543969
 20
24.8631313007447
 10
-42.46513003444156
 20
24.95142658444689
 10
-42.4602793902471
 20
25.03786585612363
 10
-42.46624319789684
 20
25.12428502404168
 10
-42.48260612228061
 20
25.21012927603468
 10
-42.50666024441944
 20
25.29415024739197
 10
-42.54691420790112
 20
25.38743577635575
 10
-42.6299284423491
 20
25.53077447969542
 10
-42.66654181799237
 20
25.58179768551713
 10
-42.70714684207153
 20
25.62970451724186
 10
-42.78447365309805
 20
25.70714454668956
 10
-42.8787628219469
 20
25.78463389901592
 10
-42.98086754516261
 20
25.85147400038613
 10
-43.06982201487383
 20
25.90023046609417
  0
LWPOLYLINE
  5
101F
330
FE8
100
AcDbEntity
  8
LW 3801-04-01
 62
     1
100
AcDbPolyline
 90
       76
 70
     1
 43
0.0
 10
-42.93438736147314
 20
23.30109580111335
 10
-42.73298330053162
 20
23.32634074477386
 10
-42.53658569107241
 20
23.3697289089987
 10
-42.35192465994794
 20
23.43059525728219
 10
-42.17316193262656
 20
23.5070620892655
 10
-42.00517194967885
 20
23.59987895848187
 10
-41.95564259575689
 20
23.63484213530563
 10
-40.95299203852425
 20
23.20758925965623
 10
-40.81853416569078
 20
23.15737789008679
 10
-40.68496216053981
 20
23.12171256519554
 10
-40.55974706880664
 20
23.10321013024725
 10
-40.43331855672206
 20
23.09713124270331
 10
-40.31607446225598
 20
23.11055146181587
 10
-40.20120666738864
 20
23.13754706389056
 10
-40.09290092596393
 20
23.18112963812934
 10
-39.99147664362964
 20
23.24181311890891
 10
-41.62039054000651
 20
23.93593146491889
 10
-41.58585983799182
 20
23.97462405706659
 10
-41.47940033628683
 20
24.13184372017969
 10
-41.39199538347411
 20
24.30629395146283
 10
-41.32847846174676
 20
24.4860738876684
 10
-41.28903030146124
 20
24.67076662102625
 10
-41.28597396202211
 20
24.70493914990809
 10
-39.6967261019525
 20
24.02772343059655
 10
-39.72946440322417
 20
24.13376959938612
 10
-39.7818712521872
 20
24.24082934783644
 10
-39.84566242506684
 20
24.34149983569046
 10
-39.92006529883314
 20
24.4346017168439
 10
-40.00810338066549
 20
24.52170674960425
 10
-40.11310610973926
 20
24.60225008814928
 10
-40.22542249261157
 20
24.67221367527023
 10
-40.34399348774734
 20
24.73095731449936
 10
-41.29013679421364
 20
25.13413112769695
 10
-41.30494645542944
 20
25.23195104795445
 10
-41.35055688359776
 20
25.4149682830344
 10
-41.41316376161257
 20
25.59312477267969
 10
-41.49467758568393
 20
25.7689417389405
 10
-41.59915290506606
 20
25.93913879036262
 10
-41.71315770644576
 20
26.10134326617822
 10
-41.84650451212869
 20
26.25667020613844
 10
-41.9694734450851
 20
26.37762846379883
 10
-40.01992406160983
 20
25.54687983028754
 10
-39.82947308857542
 20
25.45627850818647
 10
-39.64783361097726
 20
25.35054056295218
 10
-39.48100122022303
 20
25.23222085644736
 10
-39.32727267507101
 20
25.10531644961046
 10
-39.18996984682932
 20
24.96670893174445
 10
-39.06168198343629
 20
24.81975794353261
 10
-38.95211365665028
 20
24.66680414647198
 10
-38.85985932023177
 20
24.5074375184806
 10
-38.78204821798737
 20
24.34260727501377
 10
-38.72060910258414
 20
24.17379650200411
 10
-38.67803644994688
 20
24.00216261108003
 10
-38.65400690292632
 20
23.8313460937151
 10
-38.65137061261251
 20
23.66020004006092
 10
-38.6644272768252
 20
23.49101826981428
 10
-38.70202263806239
 20
23.32520873498942
 10
-38.76015963538538
 20
23.16106819434461
 10
-38.83628340693173
 20
23.00459223928755
 10
-38.92698747021793
 20
22.86377499169538
 10
-39.03597359695492
 20
22.73547101125036
 10
-39.1543960446449
 20
22.61827234593829
 10
-39.28739878407469
 20
22.51673238809104
 10
-39.43319948529317
 20
22.42971381703754
 10
-39.58583830149912
 20
22.35533820179569
 10
-39.74790785670279
 20
22.29499369126703
 10
-39.92102452694956
 20
22.25276951449837
 10
-40.09691018779299
 20
22.22409914144316
 10
-40.28315861751862
 20
22.21372977141815
 10
-40.47229144539612
 20
22.21875806669215
 10
-40.66345705080457
 20
22.24118255773442
 10
-40.85950558483408
 20
22.27985633469655
 10
-41.05558836592529
 20
22.33507468680605
 10
-41.25485083439588
 20
22.41053938577397
 10
-43.33132399195305
 20
23.29537321085433
 10
-43.13740381614763
 20
23.28830607856665
  0
LWPOLYLINE
  5
1020
330
FE8
100
AcDbEntity
  8
LW 3801-04-01
 62
     1
100
AcDbPolyline
 90
        6
 70
     1
 43
0.0
 10
-50.54018845177433
 20
30.02981077852914
 10
-48.48170206844045
 20
29.15264153903658
 10
-49.80256565140449
 20
26.05292078122025
 10
-50.74387350242417
 20
26.45403409364841
 10
-49.76280654718589
 20
28.75634119423148
 10
-50.8799850795001
 20
29.23239712129592
  0
LWPOLYLINE
  5
1021
330
FE8
100
AcDbEntity
  8
LW 3801-04-01
 62
     1
100
AcDbPolyline
 90
       57
 70
     1
 43
0.0
 10
-45.91738217293634
 20
27.38040086555637
 10
-45.85821648713856
 20
27.2135034245066
 10
-45.81279022519137
 20
27.04244822757366
 10
-45.79075920864007
 20
26.87248333082957
 10
-45.786124387857
 20
26.70048565655455
 10
-45.80117958253899
 20
26.5321555069288
 10
-45.83677641330688
 20
26.36549435148305
 10
-45.89491341062993
 20
26.20135381083824
 10
-45.97303571264553
 20
26.04572947640207
 10
-46.0685884574911
 20
25.90461693958236
 10
-46.1775745842281
 20
25.77631295913733
 10
-46.3039911537951
 20
25.6625207763087
 10
-46.43899242369413
 20
25.56183243908237
 10
-46.58942560595391
 20
25.47480427885154
 10
-46.75036445833372
 20
25.4033987611081
 10
-46.92089037527263
 20
25.34646879021182
 10
-47.10187853350237
 20
25.30457621353321
 10
-47.28579905461524
 20
25.2781017410486
 10
-47.47128213697801
 20
25.26731178155643
 10
-47.6692607073534
 20
25.27374802884464
 10
-47.86442337370035
 20
25.29787576112864
 10
-48.06247043819912
 20
25.33740115871166
 10
-48.2634019008497
 20
25.39232422159361
 10
-48.46066583885104
 20
25.46693729994067
 10
-49.59583114538853
 20
25.95065781259288
 10
-49.27221530945924
 20
26.71009939091019
 10
-48.131054411514
 20
26.22382401639538
 10
-47.99574491805961
 20
26.1756111772952
 10
-47.86120780361727
 20
26.14775235905782
 10
-47.72458692019398
 20
26.1329852397173
 10
-47.58717176897658
 20
26.13138702072749
 10
-47.46206637780422
 20
26.15099751812247
 10
-47.33910588295078
 20
26.18153445209515
 10
-47.224248218725
 20
26.22940937650003
 10
-47.12197231576982
 20
26.2920913877488
 10
-49.0925233584564
 20
27.13178931992326
 10
-48.76805590190623
 20
27.89322942870987
 10
-46.831479877197
 20
27.06800904709016
 10
-46.8664697140458
 20
27.17586476124342
 10
-46.91561907093047
 20
27.28352001385815
 10
-46.97841097857545
 20
27.38376469140173
 10
-47.05541735445442
 20
27.48279329470103
 10
-47.14333509820397
 20
27.57239738861645
 10
-47.24083790404736
 20
27.65125614690123
 10
-47.35389003833248
 20
27.72332793864845
 10
-47.47278591864581
 20
27.78523264427784
 10
-48.60795122518331
 20
28.26895315693003
 10
-48.27156107994102
 20
29.05837269228621
 10
-47.15837960856537
 20
28.58402000646353
 10
-46.9659301050617
 20
28.49256706374161
 10
-46.78543753731193
 20
28.38967926959745
 10
-46.61860514655765
 20
28.27135956309258
 10
-46.46487660140564
 20
28.14445515625564
 10
-46.3239566126283
 20
28.00411736752733
 10
-46.19728737930166
 20
27.85804502955696
 10
-46.08771905251569
 20
27.70509123249636
 10
-45.99533539093646
 20
27.5454805819501
  0
LWPOLYLINE
  5
1022
330
FE8
100
AcDbEntity
  8
LW 3801-04-01
100
AcDbPolyline
 90
       25
 70
     0
 43
0.0
 10
17.43611335754661
 20
0.2693438530044432
 10
17.41324782371788
 20
0.2577066421584959
 10
17.39000916481285
 20
0.2460885047988484
 10
17.36639857292442
 20
0.2344870567397663
 10
17.34242439270286
 20
0.2229118347243855
 10
17.31808781624107
 20
0.2113604545668863
 10
17.29339361191063
 20
0.1998353004531168
 10
17.2683489322689
 20
0.1883411407546305
 10
17.24295496940879
 20
0.1768803596572184
 10
17.21721887588768
 20
0.1654553413466715
 10
17.19114303589134
 20
0.1540660858229899
 10
17.16473221779136
 20
0.1427173614577555
 10
17.13799238205223
 20
0.131411552436731
 10
17.11092710495262
 20
0.1201486587599732
 10
17.08354115486412
 20
0.1089358329848267
 10
17.05583810806541
 20
0.0977730751112631
 10
17.02782392502098
 20
0.0866603851393393
 10
16.99950098991661
 20
0.0756049156263998
 10
16.97087526321678
 20
0.0646066665724447
 10
16.94195151329307
 20
0.053665637977474
 10
16.91273331642418
 20
0.0427913665846518
 10
16.88322544098167
 20
0.0319790840223959
 10
16.85343265533714
 20
0.0212359428480795
 10
16.8233776092556
 20
0.0105667114332846
 10
16.7931246757534
 20
0.0000000000075033
  0
LWPOLYLINE
  5
1023
330
FE8
100
AcDbEntity
  8
LW 3801-04-01
100
AcDbPolyline
 90
       25
 70
     0
 43
0.0
 10
25.88672399521141
 20
0.0000000000043201
 10
25.87240219116478
 20
0.0000000000043201
 10
25.85839271545677
 20
0.0000000000043201
 10
25.84470272064476
 20
0.0000000000043769
 10
25.83133220672875
 20
0.0000000000043769
 10
25.81827878952294
 20
0.0000000000043769
 10
25.8055496215847
 20
0.0000000000043769
 10
25.79314231872826
 20
0.0000000000043769
 10
25.78106164932518
 20
0.0000000000043769
 10
25.76930761337548
 20
0.0000000000043769
 10
25.75788021087914
 20
0.0000000000044054
 10
25.74678421020775
 20
0.0000000000044054
 10
25.73601961136132
 20
0.0000000000044338
 10
25.72558641433983
 20
0.0000000000044338
 10
25.71548938751488
 20
0.0000000000044338
 10
25.70572853088646
 20
0.0000000000044338
 10
25.69630622864037
 20
0.0000000000044338
 10
25.6872224807766
 20
0.0000000000044622
 10
25.67847967148094
 20
0.0000000000044622
 10
25.6700801849392
 20
0.0000000000044906
 10
25.66202402115135
 20
0.0000000000044906
 10
25.654315948489
 20
0.0000000000044906
 10
25.64695358276634
 20
0.0000000000044906
 10
25.63994169235497
 20
0.0000000000044906
 10
25.63328027725487
 20
0.0000000000045191
  0
LWPOLYLINE
  5
1024
330
FE8
100
AcDbEntity
  8
LW 3801-04-01
100
AcDbPolyline
 90
       25
 70
     0
 43
0.0
 10
25.63328266144066
 20
0.0000000000048317
 10
25.64370393753319
 20
0.0105333328295387
 10
25.65469026565819
 20
0.0211524963427223
 10
25.66623449325829
 20
0.0318503379870094
 10
25.6783318519619
 20
0.0426292419481911
 10
25.69098234176903
 20
0.0534868240404762
 10
25.70418119430809
 20
0.0644183158922829
 10
25.7179260253933
 20
0.0754189491320858
 10
25.73220968246727
 20
0.0864934921313534
 10
25.74702978134423
 20
0.0976324081469784
 10
25.76238393783837
 20
0.1088356971789608
 10
25.77825307846337
 20
0.1200914382983456
 10
25.79462051391869
 20
0.1313900947620254
 10
25.81148147583275
 20
0.1427268981983047
 10
25.82882881164818
 20
0.1541018486072403
 10
25.84666013717919
 20
0.1655101776172501
 10
25.8649682998684
 20
0.176951885228334
 10
25.88374376297264
 20
0.1884245872547012
 10
25.90298652649193
 20
0.1999211311389786
 10
25.92268943786888
 20
0.2114462852527481
 10
25.94284534454613
 20
0.2229905128528742
 10
25.9634470939663
 20
0.234556198125091
 10
25.98449230194359
 20
0.2461385726978733
 10
26.00597381592064
 20
0.2577352523853733
 10
26.02788448334008
 20
0.2693438530018284
  0
LINE
  5
1025
330
FE8
100
AcDbEntity
  8
LW 3801-04-01
100
AcDbLine
 10
17.43611317461932
 20
0.2693436563177443
 30
0.0
 11
85.82143159158365
 21
35.38742005144695
 31
0.0
  0
LINE
  5
1026
330
FE8
100
AcDbEntity
  8
LW 3801-04-01
100
AcDbLine
 10
82.50000000000285
 20
49.6626174458024
 30
0.0
 11
10.60660171780222
 21
25.00000000000933
 31
0.0
  0
LINE
  5
1027
330
FE8
100
AcDbEntity
  8
LW 3801-04-01
100
AcDbLine
 10
82.50000000000285
 20
50.00000000003197
 30
0.0
 11
137.5000000000028
 21
50.00000000003163
 31
0.0
  0
LINE
  5
1028
330
FE8
100
AcDbEntity
  8
LW 3801-04-01
100
AcDbLine
 10
82.50000000000275
 20
36.00000000003201
 30
0.0
 11
137.5000000000027
 21
36.00000000003163
 31
0.0
  0
LINE
  5
1029
330
FE8
100
AcDbEntity
  8
LW 3801-04-01
100
AcDbLine
 10
137.5000000000029
 20
50.00000000003166
 30
0.0
 11
137.5000000000028
 21
36.00000000003163
 31
0.0
  0
LINE
  5
102A
330
FE8
100
AcDbEntity
  8
LW 3801-04-01
100
AcDbLine
 10
82.50000000000291
 20
50.00000000003203
 30
0.0
 11
82.5000000000028
 21
36.00000000003203
 31
0.0
  0
LINE
  5
102B
330
FE8
100
AcDbEntity
  8
LW 3801-04-01
100
AcDbLine
 10
87.50000000000328
 20
32.53815374277142
 30
0.0
 11
26.02788566646359
 21
0.2693436563153568
 31
0.0
  0
LWPOLYLINE
  5
102C
330
FE8
100
AcDbEntity
  8
LW 3801-04-01
100
AcDbPolyline
 90
       25
 70
     0
 43
0.0
 10
85.97890853882116
 20
35.46503424647168
 10
86.06705665588659
 20
35.50698161127883
 10
86.1501407623319
 20
35.54713249209246
 10
86.22795104980749
 20
35.58542728426781
 10
86.30030632019323
 20
35.62180519106713
 10
86.36700630188268
 20
35.65620422365993
 10
86.42786979675573
 20
35.68856596949431
 10
86.48260116577429
 20
35.71879863741734
 10
86.53094291687292
 20
35.74688076975685
 10
86.57276153564733
 20
35.77286481860026
 10
86.60791397095007
 20
35.79680204394208
 10
86.63626670837683
 20
35.81874728205551
 10
86.65770530700964
 20
35.83875060084219
 10
86.67204856872839
 20
35.85684657099603
 10
86.67920112610143
 20
35.87309479716188
 10
86.67913436889929
 20
35.88760495188604
 10
86.67180061340612
 20
35.90048551562202
 10
86.65716171264929
 20
35.91184616091624
 10
86.63518905639929
 20
35.92179656031508
 10
86.60591125488561
 20
35.93043565752888
 10
86.5694522857694
 20
35.93784928324607
 10
86.52588844299597
 20
35.94413042071253
 10
86.47531509399694
 20
35.94937205317413
 10
86.41780853271765
 20
35.95366716387668
 10
86.35343551636022
 20
35.95710992815893
  0
ELLIPSE
  5
102D
330
FE8
100
AcDbEntity
  8
LW 3801-04-01
100
AcDbEllipse
 10
90.97160552419872
 20
26.00000000002683
 30
0.0
 11
-5.402805235575535
 21
9.248900854284567
 31
0.0
210
0.0
220
0.0
230
-1.0
 40
0.7037724952034639
 41
0.0382151688669673
 42
0.0614758569958965
  0
LWPOLYLINE
  5
102E
330
FE8
100
AcDbEntity
  8
LW 3801-04-01
100
AcDbPolyline
 90
       25
 70
     0
 43
0.0
 10
86.35343551636022
 20
35.95710992815893
 10
86.28812789917272
 20
35.96003532412453
 10
86.22333526611608
 20
35.96290826800274
 10
86.15906715393347
 20
35.96572518351488
 10
86.09532356262487
 20
35.96847653391774
 10
86.0321044921903
 20
35.97115874293266
 10
85.96941947937292
 20
35.9737622738165
 10
85.90725898742956
 20
35.97628235819764
 10
85.84563255310339
 20
35.97871303561161
 10
85.7845401763944
 20
35.98104596140814
 10
85.72399139404577
 20
35.98327636721567
 10
85.66397666931433
 20
35.98539590838394
 10
85.60450553894323
 20
35.98739981654131
 10
85.54556846618933
 20
35.98928093913045
 10
85.48718452453893
 20
35.99103212359401
 10
85.4293441772489
 20
35.99264860156032
 10
85.37205696106237
 20
35.99412202837922
 10
85.31532287597936
 20
35.99544644358613
 10
85.25914192199987
 20
35.99661588671665
 10
85.2035140991239
 20
35.99762201312049
 10
85.14843940735143
 20
35.99846124651899
 10
85.09392738342565
 20
35.99912405016892
 10
85.03998756408972
 20
35.99960684779162
 10
84.98660087585729
 20
35.99990010264398
 10
84.93377685547155
 20
36.00000023844723
  0
LINE
  5
102F
330
FE8
100
AcDbEntity
  8
LW 3801-04-01
100
AcDbLine
 10
124.5000000000035
 20
8.000000000031917
 30
0.0
 11
95.50000000000354
 21
8.00000000003169
 31
0.0
  0
LINE
  5
1030
330
FE8
100
AcDbEntity
  8
LW 3801-04-01
100
AcDbLine
 10
127.5000000000035
 20
11.00000000003197
 30
0.0
 11
92.50000000000348
 21
11.00000000003169
 31
0.0
  0
LINE
  5
1031
330
FE8
100
AcDbEntity
  8
LW 3801-04-01
100
AcDbLine
 10
95.50000000000354
 20
8.00000000003169
 30
0.0
 11
92.50000000000348
 21
11.00000000003169
 31
0.0
  0
LINE
  5
1032
330
FE8
100
AcDbEntity
  8
LW 3801-04-01
100
AcDbLine
 10
124.5000000000035
 20
8.000000000031917
 30
0.0
 11
127.5000000000035
 21
11.00000000003197
 31
0.0
  0
LINE
  5
1033
330
FE8
100
AcDbEntity
  8
LW 3801-04-01
100
AcDbLine
 10
127.5000000000035
 20
13.00000000003194
 30
0.0
 11
127.5000000000035
 21
11.00000000003194
 31
0.0
  0
LINE
  5
1034
330
FE8
100
AcDbEntity
  8
LW 3801-04-01
100
AcDbLine
 10
127.5000000000034
 20
31.00000000003195
 30
0.0
 11
127.5000000000034
 21
17.00000000003194
 31
0.0
  0
LINE
  5
1035
330
FE8
100
AcDbEntity
  8
LW 3801-04-01
100
AcDbLine
 10
92.50000000000337
 20
31.00000000003169
 30
0.0
 11
92.50000000000348
 21
11.00000000003169
 31
0.0
  0
LWPOLYLINE
  5
1036
330
FE8
100
AcDbEntity
  8
LW 3801-04-01
100
AcDbPolyline
 90
       25
 70
     0
 43
0.0
 10
127.5000000000034
 20
17.00000023845055
 10
127.4980533123051
 20
16.98318338397368
 10
127.4923813343082
 20
16.9325075149857
 10
127.4832415580784
 20
16.84763169291855
 10
127.4711489677464
 20
16.72932362559683
 10
127.4572539329563
 20
16.58275818827999
 10
127.4427628517185
 20
16.41421055796999
 10
127.4282586574589
 20
16.22194862368965
 10
127.4143302440678
 20
16.00386357310682
 10
127.4021911621128
 20
15.76566910746965
 10
127.39300489426
 20
15.5135331154195
 10
127.3872995376622
 20
15.25547957423603
 10
127.3853385448491
 20
14.99999976161396
 10
127.3872995376622
 20
14.74452114108479
 10
127.3930048942601
 20
14.48646640780842
 10
127.4021911621128
 20
14.23433041575822
 10
127.4143302440678
 20
13.99613595012098
 10
127.4282586574589
 20
13.77805209163094
 10
127.4427628517186
 20
13.58578896525759
 10
127.4572539329563
 20
13.41724133494748
 10
127.4711489677464
 20
13.27067708972342
 10
127.4832415580784
 20
13.15236783030869
 10
127.4923813343083
 20
13.06749200824131
 10
127.4980533123051
 20
13.01681613925322
 10
127.5000000000035
 20
13.00000047686913
  0
LWPOLYLINE
  5
1037
330
FE8
100
AcDbEntity
  8
LW 3801-04-01
100
AcDbPolyline
 90
       25
 70
     0
 43
0.0
 10
101.2500000000034
 20
17.00000023845482
 10
101.0297214984928
 20
16.98318338397786
 10
100.809074044231
 20
16.93250751498976
 10
100.5952864885365
 20
16.84763169292248
 10
100.3950482606922
 20
16.72932362560064
 10
100.2131289243732
 20
16.58275818828372
 10
100.0538706779514
 20
16.41421055797363
 10
99.91515755653727
 20
16.22194862369321
 10
99.79519367218363
 20
16.00386357311029
 10
99.69880700111735
 20
15.76566910747309
 10
99.62989687919963
 20
15.51353311542289
 10
99.58886265755047
 20
15.25547957423938
 10
99.57527995109906
 20
14.99999976161731
 10
99.58886265755047
 20
14.74452114108814
 10
99.62989687919964
 20
14.4864664078118
 10
99.69880700111737
 20
14.23433041576166
 10
99.79519367218365
 20
13.99613595012445
 10
99.91515755653729
 20
13.77805209163449
 10
100.0538706779515
 20
13.58578896526123
 10
100.2131289243733
 20
13.4172413349512
 10
100.3950482606922
 20
13.27067708972723
 10
100.5952864885365
 20
13.15236783031261
 10
100.809074044231
 20
13.06749200824538
 10
101.0297214984928
 20
13.0168161392574
 10
101.2500000000035
 20
13.00000047687339
  0
LWPOLYLINE
  5
1038
330
FE8
100
AcDbEntity
  8
LW 3801-04-01
100
AcDbPolyline
 90
       25
 70
     0
 43
0.0
 10
101.2500000000035
 20
13.00000047687339
 10
101.4722257852589
 20
13.01681613925746
 10
101.6985440254246
 20
13.06749200824555
 10
101.9214719533955
 20
13.15236783031284
 10
102.1338021755253
 20
13.27067708972757
 10
102.3296165466343
 20
13.41724133495157
 10
102.5033658742939
 20
13.58578896526168
 10
102.6565837860142
 20
13.77805209163497
 10
102.7904760837589
 20
13.99613595012499
 10
102.8990024328266
 20
14.23433041576223
 10
102.9770988225972
 20
14.4864664078124
 10
103.0238378047978
 20
14.74452114108877
 10
103.0393815040623
 20
14.99999976161794
 10
103.0238378047978
 20
15.25547957424001
 10
102.9770988225971
 20
15.51353311542348
 10
102.8990024328266
 20
15.76566910747365
 10
102.7904760837589
 20
16.00386357311083
 10
102.6565837860142
 20
16.22194862369369
 10
102.5033658742939
 20
16.41421055797408
 10
102.3296165466343
 20
16.58275818828409
 10
102.1338021755253
 20
16.72932362560098
 10
101.9214719533955
 20
16.8476316929227
 10
101.6985440254246
 20
16.93250751498993
 10
101.4722257852589
 20
16.98318338397792
 10
101.2500000000034
 20
17.00000023845482
  0
ELLIPSE
  5
1039
330
FE8
100
AcDbEntity
  8
LW 3801-04-01
100
AcDbEllipse
 10
103.7500000000034
 20
15.00000000003496
 30
0.0
 11
-0.0000000000008315
 21
-1.999999999999999
 31
0.0
210
0.0
220
0.0
230
-1.0
 40
0.866025403784438
 41
0.7941688477848424
 42
2.347423805805178
  0
LINE
  5
103A
330
FE8
100
AcDbEntity
  8
LW 3801-04-01
100
AcDbLine
 10
132.5000000000034
 20
31.00000000003201
 30
0.0
 11
87.50000000000337
 21
31.00000000003166
 31
0.0
  0
LINE
  5
103B
330
FE8
100
AcDbEntity
  8
LW 3801-04-01
100
AcDbLine
 10
87.50000000000337
 20
31.00000000003166
 30
0.0
 11
87.50000000000332
 21
36.00000000003163
 31
0.0
  0
LINE
  5
103C
330
FE8
100
AcDbEntity
  8
LW 3801-04-01
100
AcDbLine
 10
132.5000000000034
 20
31.00000000003201
 30
0.0
 11
132.5000000000033
 21
36.00000000003203
 31
0.0
  0
LINE
  5
103D
330
FE8
100
AcDbEntity
  8
LW 3801-04-01
100
AcDbLine
 10
132.500000000003
 20
55.00000000003183
 30
0.0
 11
87.500000000003
 21
55.00000000003183
 31
0.0
  0
LINE
  5
103E
330
FE8
100
AcDbEntity
  8
LW 3801-04-01
100
AcDbLine
 10
87.500000000003
 20
50.00000000003183
 30
0.0
 11
87.500000000003
 21
55.00000000003183
 31
0.0
  0
LINE
  5
103F
330
FE8
100
AcDbEntity
  8
LW 3801-04-01
100
AcDbLine
 10
132.500000000003
 20
50.00000000003183
 30
0.0
 11
132.500000000003
 21
55.00000000003183
 31
0.0
  0
LINE
  5
1040
330
FE8
100
AcDbEntity
  8
LW 3801-04-01
100
AcDbLine
 10
10.60660171780108
 20
25.00000000000933
 30
0.0
 11
16.79312521135363
 21
0.0000000000075033
 31
0.0
  0
LINE
  5
1041
330
FE8
100
AcDbEntity
  8
LW 3801-04-01
  6
MITTE2
 62
     3
100
AcDbLine
 10
110.0000000000028
 20
85.50000000000713
 30
0.0
 11
110.0000000000059
 21
2.735882419465866
 31
0.0
  0
LINE
  5
1042
330
FE8
100
AcDbEntity
  8
LW 3801-04-01
100
AcDbLine
 10
103.000000000004
 20
55.00000000003183
 30
0.0
 11
103.000000000004
 21
68.00000000003183
 31
0.0
  0
LINE
  5
1043
330
FE8
100
AcDbEntity
  8
LW 3801-04-01
100
AcDbLine
 10
104.000000000004
 20
69.00000000003183
 30
0.0
 11
103.000000000004
 21
68.00000000003183
 31
0.0
  0
LINE
  5
1044
330
FE8
100
AcDbEntity
  8
LW 3801-04-01
100
AcDbLine
 10
104.000000000004
 20
69.00000000003183
 30
0.0
 11
116.000000000004
 21
69.00000000003183
 31
0.0
  0
LINE
  5
1045
330
FE8
100
AcDbEntity
  8
LW 3801-04-01
100
AcDbLine
 10
117.000000000004
 20
68.00000000003183
 30
0.0
 11
116.000000000004
 21
69.00000000003183
 31
0.0
  0
LINE
  5
1046
330
FE8
100
AcDbEntity
  8
LW 3801-04-01
100
AcDbLine
 10
117.000000000004
 20
68.00000000003183
 30
0.0
 11
117.000000000004
 21
55.00000000003183
 31
0.0
  0
LINE
  5
1047
330
FE8
100
AcDbEntity
  8
LW 3801-04-01
100
AcDbLine
 10
117.000000000004
 20
68.00000000003183
 30
0.0
 11
103.000000000004
 21
68.00000000003183
 31
0.0
  0
LINE
  5
1048
330
FE8
100
AcDbEntity
  8
LW 3801-04-01
 62
     3
100
AcDbLine
 10
116.000000000004
 20
69.00000000003183
 30
0.0
 11
116.000000000004
 21
55.00000000003183
 31
0.0
  0
LINE
  5
1049
330
FE8
100
AcDbEntity
  8
LW 3801-04-01
 62
     3
100
AcDbLine
 10
104.000000000004
 20
69.00000000003183
 30
0.0
 11
104.000000000004
 21
55.00000000003183
 31
0.0
  0
ENDBLK
  5
FEA
330
FE8
100
AcDbEntity
  8
0
100
AcDbBlockEnd
  0
BLOCK
  5
104C
330
104B
100
AcDbEntity
  8
0
100
AcDbBlockBegin
  2
LW 3801-04-01_c
 70
     0
 10
0.0
 20
0.0
 30
0.0
  3
LW 3801-04-01_c
  1

  0
LINE
  5
104E
330
104B
100
AcDbEntity
  8
LW 3801-04-01
100
AcDbLine
 10
-0.0000000000002274
 20
-30.00000000000121
 30
0.0
 11
0.0000000000002274
 21
29.99999999999874
 31
0.0
  0
LINE
  5
104F
330
104B
100
AcDbEntity
  8
LW 3801-04-01
100
AcDbLine
 10
-2.354441988466419
 20
29.99999999999879
 30
0.0
 11
0.0000000000002274
 21
29.99999999999874
 31
0.0
  0
LINE
  5
1050
330
104B
100
AcDbEntity
  8
LW 3801-04-01
100
AcDbLine
 10
-2.354441988468067
 20
-30.0000000000013
 30
0.0
 11
-0.0000000000002274
 21
-30.00000000000132
 31
0.0
  0
LINE
  5
1051
330
104B
100
AcDbEntity
  8
LW 3801-04-01
100
AcDbLine
 10
-25.00000000000933
 20
10.60660171779709
 30
0.0
 11
-25.00000000000318
 21
-10.60660171777967
 31
0.0
  0
LWPOLYLINE
  5
1052
330
104B
100
AcDbEntity
  8
LW 3801-04-01
100
AcDbPolyline
 90
       25
 70
     0
 43
0.0
 10
-0.2693438530044432
 20
17.43611335754262
 10
-0.2577066421584959
 20
17.41324782371389
 10
-0.2460885047988199
 20
17.39000916480886
 10
-0.2344870567397379
 20
17.36639857292043
 10
-0.222911834724357
 20
17.34242439269887
 10
-0.2113604545668863
 20
17.31808781623708
 10
-0.1998353004531168
 20
17.29339361190664
 10
-0.1883411407546305
 20
17.26834893226491
 10
-0.1768803596572184
 20
17.2429549694048
 10
-0.1654553413466715
 20
17.21721887588369
 10
-0.1540660858229899
 20
17.19114303588735
 10
-0.1427173614577555
 20
17.16473221778737
 10
-0.1314115524367025
 20
17.13799238204824
 10
-0.1201486587599447
 20
17.11092710494863
 10
-0.1089358329847982
 20
17.08354115486013
 10
-0.0977730751112631
 20
17.05583810806142
 10
-0.0866603851393393
 20
17.02782392501699
 10
-0.0756049156263998
 20
16.99950098991262
 10
-0.0646066665724447
 20
16.97087526321279
 10
-0.053665637977474
 20
16.94195151328908
 10
-0.0427913665846518
 20
16.91273331642018
 10
-0.0319790840223959
 20
16.88322544097768
 10
-0.0212359428480795
 20
16.85343265533315
 10
-0.0105667114332846
 20
16.82337760925161
 10
-0.0000000000075033
 20
16.79312467574941
  0
LWPOLYLINE
  5
1053
330
104B
100
AcDbEntity
  8
LW 3801-04-01
100
AcDbPolyline
 90
       25
 70
     0
 43
0.0
 10
-0.0000000000043201
 20
25.88672399520742
 10
-0.0000000000043201
 20
25.87240219116079
 10
-0.0000000000043201
 20
25.85839271545278
 10
-0.0000000000043769
 20
25.84470272064077
 10
-0.0000000000043769
 20
25.83133220672475
 10
-0.0000000000043769
 20
25.81827878951894
 10
-0.0000000000043769
 20
25.80554962158071
 10
-0.0000000000043769
 20
25.79314231872427
 10
-0.0000000000043769
 20
25.78106164932119
 10
-0.0000000000043769
 20
25.76930761337148
 10
-0.0000000000043769
 20
25.75788021087515
 10
-0.0000000000043769
 20
25.74678421020376
 10
-0.0000000000044338
 20
25.73601961135732
 10
-0.0000000000044338
 20
25.72558641433584
 10
-0.0000000000044338
 20
25.71548938751089
 10
-0.0000000000044338
 20
25.70572853088247
 10
-0.0000000000044338
 20
25.69630622863638
 10
-0.0000000000044338
 20
25.68722248077261
 10
-0.0000000000044338
 20
25.67847967147695
 10
-0.0000000000044906
 20
25.6700801849352
 10
-0.0000000000044906
 20
25.66202402114736
 10
-0.0000000000044906
 20
25.65431594848501
 10
-0.0000000000044906
 20
25.64695358276235
 10
-0.0000000000044906
 20
25.63994169235098
 10
-0.0000000000044906
 20
25.63328027725088
  0
LWPOLYLINE
  5
1054
330
104B
100
AcDbEntity
  8
LW 3801-04-01
100
AcDbPolyline
 90
       25
 70
     0
 43
0.0
 10
-0.0000000000048317
 20
25.63328266143667
 10
-0.0105333328295387
 20
25.6437039375292
 10
-0.0211524963427223
 20
25.6546902656542
 10
-0.0318503379870094
 20
25.6662344932543
 10
-0.0426292419481911
 20
25.67833185195791
 10
-0.0534868240404762
 20
25.69098234176504
 10
-0.0644183158922829
 20
25.7041811943041
 10
-0.0754189491320858
 20
25.71792602538931
 10
-0.0864934921313534
 20
25.73220968246328
 10
-0.0976324081469784
 20
25.74702978134023
 10
-0.1088356971789608
 20
25.76238393783437
 10
-0.1200914382983456
 20
25.77825307845937
 10
-0.1313900947620254
 20
25.7946205139147
 10
-0.1427268981983047
 20
25.81148147582876
 10
-0.1541018486072403
 20
25.82882881164419
 10
-0.1655101776172501
 20
25.84666013717519
 10
-0.176951885228334
 20
25.8649682998644
 10
-0.1884245872547012
 20
25.88374376296865
 10
-0.1999211311389786
 20
25.90298652648794
 10
-0.2114462852527481
 20
25.92268943786489
 10
-0.2229905128528458
 20
25.94284534454214
 10
-0.2345561981250626
 20
25.9634470939623
 10
-0.2461385726978733
 20
25.9844923019396
 10
-0.2577352523853733
 20
26.00597381591665
 10
-0.2693438530018284
 20
26.02788448333608
  0
LINE
  5
1055
330
104B
100
AcDbEntity
  8
LW 3801-04-01
100
AcDbLine
 10
-0.2693436563177443
 20
17.43611317461533
 30
0.0
 11
-35.38742005144695
 21
85.82143159157963
 31
0.0
  0
LINE
  5
1056
330
104B
100
AcDbEntity
  8
LW 3801-04-01
100
AcDbLine
 10
-49.6626174458024
 20
82.49999999999884
 30
0.0
 11
-25.00000000000933
 21
10.60660171779822
 31
0.0
  0
LINE
  5
1057
330
104B
100
AcDbEntity
  8
LW 3801-04-01
100
AcDbLine
 10
-50.00000000003197
 20
82.49999999999884
 30
0.0
 11
-50.00000000003163
 21
137.4999999999988
 31
0.0
  0
LINE
  5
1058
330
104B
100
AcDbEntity
  8
LW 3801-04-01
100
AcDbLine
 10
-36.00000000003201
 20
82.49999999999873
 30
0.0
 11
-36.00000000003161
 21
137.4999999999987
 31
0.0
  0
LINE
  5
1059
330
104B
100
AcDbEntity
  8
LW 3801-04-01
100
AcDbLine
 10
-50.00000000003166
 20
137.4999999999989
 30
0.0
 11
-36.00000000003161
 21
137.4999999999988
 31
0.0
  0
LINE
  5
105A
330
104B
100
AcDbEntity
  8
LW 3801-04-01
100
AcDbLine
 10
-50.00000000003203
 20
82.49999999999891
 30
0.0
 11
-36.00000000003201
 21
82.49999999999879
 31
0.0
  0
LINE
  5
105B
330
104B
100
AcDbEntity
  8
LW 3801-04-01
100
AcDbLine
 10
-32.53815374277138
 20
87.49999999999927
 30
0.0
 11
-0.2693436563153568
 21
26.0278856664596
 31
0.0
  0
LWPOLYLINE
  5
105C
330
104B
100
AcDbEntity
  8
LW 3801-04-01
100
AcDbPolyline
 90
       25
 70
     0
 43
0.0
 10
-35.46503424647165
 20
85.97890853881715
 10
-35.50698161127883
 20
86.06705665588258
 10
-35.54713249209243
 20
86.15014076232789
 10
-35.58542728426778
 20
86.22795104980347
 10
-35.6218051910671
 20
86.30030632018922
 10
-35.65620422365993
 20
86.36700630187867
 10
-35.68856596949428
 20
86.42786979675172
 10
-35.71879863741731
 20
86.48260116577027
 10
-35.74688076975685
 20
86.5309429168689
 10
-35.77286481860023
 20
86.57276153564332
 10
-35.79680204394208
 20
86.60791397094605
 10
-35.81874728205548
 20
86.63626670837281
 10
-35.83875060084216
 20
86.65770530700562
 10
-35.85684657099603
 20
86.67204856872437
 10
-35.87309479716186
 20
86.67920112609742
 10
-35.88760495188604
 20
86.67913436889527
 10
-35.900485515622
 20
86.67180061340211
 10
-35.91184616091624
 20
86.65716171264527
 10
-35.92179656031504
 20
86.63518905639527
 10
-35.93043565752885
 20
86.6059112548816
 10
-35.93784928324607
 20
86.56945228576539
 10
-35.9441304207125
 20
86.52588844299195
 10
-35.9493720531741
 20
86.47531509399293
 10
-35.95366716387668
 20
86.41780853271363
 10
-35.9571099281589
 20
86.35343551635621
  0
ELLIPSE
  5
105D
330
104B
100
AcDbEntity
  8
LW 3801-04-01
100
AcDbEllipse
 10
-26.00000000002683
 20
90.97160552419472
 30
0.0
 11
9.24890085427741
 21
5.402805235588297
 31
0.0
210
0.0
220
0.0
230
-0.9999999999999998
 40
0.7037724952103868
 41
3.179807822458326
 42
3.203068510587026
  0
LWPOLYLINE
  5
105E
330
104B
100
AcDbEntity
  8
LW 3801-04-01
100
AcDbPolyline
 90
       25
 70
     0
 43
0.0
 10
-35.9571099281589
 20
86.35343551635621
 10
-35.96003532412453
 20
86.28812789916871
 10
-35.96290826800271
 20
86.22333526611207
 10
-35.96572518351485
 20
86.15906715392945
 10
-35.96847653391774
 20
86.09532356262086
 10
-35.97115874293263
 20
86.03210449218629
 10
-35.97376227381648
 20
85.9694194793689
 10
-35.97628235819764
 20
85.90725898742554
 10
-35.97871303561158
 20
85.84563255309937
 10
-35.98104596140814
 20
85.78454017639039
 10
-35.98327636721564
 20
85.72399139404176
 10
-35.98539590838391
 20
85.66397666931031
 10
-35.98739981654131
 20
85.60450553893922
 10
-35.98928093913043
 20
85.54556846618531
 10
-35.99103212359398
 20
85.48718452453492
 10
-35.99264860156029
 20
85.42934417724488
 10
-35.9941220283792
 20
85.37205696105836
 10
-35.99544644358611
 20
85.31532287597535
 10
-35.99661588671665
 20
85.25914192199586
 10
-35.99762201312046
 20
85.20351409911988
 10
-35.99846124651896
 20
85.14843940734742
 10
-35.99912405016892
 20
85.09392738342164
 10
-35.9996068477916
 20
85.0399875640857
 10
-35.99990010264395
 20
84.98660087585328
 10
-36.00000023844723
 20
84.93377685546754
  0
LINE
  5
105F
330
104B
100
AcDbEntity
  8
LW 3801-04-01
100
AcDbLine
 10
-8.000000000031889
 20
124.4999999999995
 30
0.0
 11
-8.000000000031661
 21
95.49999999999952
 31
0.0
  0
LINE
  5
1060
330
104B
100
AcDbEntity
  8
LW 3801-04-01
100
AcDbLine
 10
-11.00000000003194
 20
127.4999999999995
 30
0.0
 11
-11.00000000003166
 21
92.49999999999948
 31
0.0
  0
LINE
  5
1061
330
104B
100
AcDbEntity
  8
LW 3801-04-01
100
AcDbLine
 10
-8.000000000031661
 20
95.49999999999952
 30
0.0
 11
-11.00000000003166
 21
92.49999999999948
 31
0.0
  0
LINE
  5
1062
330
104B
100
AcDbEntity
  8
LW 3801-04-01
100
AcDbLine
 10
-8.000000000031889
 20
124.4999999999995
 30
0.0
 11
-11.00000000003194
 21
127.4999999999995
 31
0.0
  0
LINE
  5
1063
330
104B
100
AcDbEntity
  8
LW 3801-04-01
100
AcDbLine
 10
-13.00000000003194
 20
127.4999999999995
 30
0.0
 11
-11.00000000003194
 21
127.4999999999995
 31
0.0
  0
LINE
  5
1064
330
104B
100
AcDbEntity
  8
LW 3801-04-01
100
AcDbLine
 10
-31.00000000003195
 20
127.4999999999993
 30
0.0
 11
-17.00000000003194
 21
127.4999999999994
 31
0.0
  0
LINE
  5
1065
330
104B
100
AcDbEntity
  8
LW 3801-04-01
100
AcDbLine
 10
-31.00000000003166
 20
92.49999999999936
 30
0.0
 11
-11.00000000003166
 21
92.49999999999948
 31
0.0
  0
LWPOLYLINE
  5
1066
330
104B
100
AcDbEntity
  8
LW 3801-04-01
100
AcDbPolyline
 90
       25
 70
     0
 43
0.0
 10
-17.00000023845052
 20
127.4999999999994
 10
-16.98318338397365
 20
127.4980533123011
 10
-16.93250751498567
 20
127.4923813343042
 10
-16.84763169291852
 20
127.4832415580744
 10
-16.7293236255968
 20
127.4711489677423
 10
-16.58275818827997
 20
127.4572539329523
 10
-16.41421055796996
 20
127.4427628517145
 10
-16.22194862368963
 20
127.4282586574549
 10
-16.0038635731068
 20
127.4143302440638
 10
-15.76566910746965
 20
127.4021911621088
 10
-15.51353311541947
 20
127.393004894256
 10
-15.255479574236
 20
127.3872995376581
 10
-14.99999976161393
 20
127.385338544845
 10
-14.74452114108476
 20
127.3872995376581
 10
-14.48646640780839
 20
127.393004894256
 10
-14.23433041575822
 20
127.4021911621088
 10
-13.99613595012096
 20
127.4143302440638
 10
-13.77805209163091
 20
127.4282586574549
 10
-13.58578896525756
 20
127.4427628517145
 10
-13.41724133494745
 20
127.4572539329523
 10
-13.27067708972339
 20
127.4711489677424
 10
-13.15236783030866
 20
127.4832415580744
 10
-13.06749200824129
 20
127.4923813343043
 10
-13.01681613925319
 20
127.4980533123011
 10
-13.0000004768691
 20
127.4999999999995
  0
LWPOLYLINE
  5
1067
330
104B
100
AcDbEntity
  8
LW 3801-04-01
100
AcDbPolyline
 90
       25
 70
     0
 43
0.0
 10
-17.00000023845479
 20
101.2499999999994
 10
-16.98318338397786
 20
101.0297214984888
 10
-16.93250751498976
 20
100.809074044227
 10
-16.84763169292245
 20
100.5952864885324
 10
-16.72932362560061
 20
100.3950482606882
 10
-16.58275818828372
 20
100.2131289243692
 10
-16.4142105579736
 20
100.0538706779474
 10
-16.22194862369321
 20
99.91515755653326
 10
-16.00386357311026
 20
99.79519367217962
 10
-15.76566910747306
 20
99.69880700111334
 10
-15.51353311542289
 20
99.62989687919561
 10
-15.25547957423936
 20
99.58886265754648
 10
-14.99999976161729
 20
99.57527995109506
 10
-14.74452114108811
 20
99.58886265754648
 10
-14.4864664078118
 20
99.62989687919565
 10
-14.23433041576163
 20
99.69880700111337
 10
-13.99613595012442
 20
99.79519367217966
 10
-13.77805209163449
 20
99.91515755653329
 10
-13.5857889652612
 20
100.0538706779474
 10
-13.4172413349512
 20
100.2131289243693
 10
-13.2706770897272
 20
100.3950482606882
 10
-13.15236783031258
 20
100.5952864885325
 10
-13.06749200824538
 20
100.809074044227
 10
-13.0168161392574
 20
101.0297214984888
 10
-13.00000047687337
 20
101.2499999999995
  0
LWPOLYLINE
  5
1068
330
104B
100
AcDbEntity
  8
LW 3801-04-01
100
AcDbPolyline
 90
       25
 70
     0
 43
0.0
 10
-13.00000047687337
 20
101.2499999999995
 10
-13.01681613925746
 20
101.4722257852549
 10
-13.06749200824555
 20
101.6985440254206
 10
-13.15236783031281
 20
101.9214719533915
 10
-13.27067708972754
 20
102.1338021755213
 10
-13.41724133495154
 20
102.3296165466303
 10
-13.58578896526166
 20
102.5033658742899
 10
-13.77805209163495
 20
102.6565837860102
 10
-13.99613595012499
 20
102.790476083755
 10
-14.2343304157622
 20
102.8990024328226
 10
-14.48646640781237
 20
102.9770988225931
 10
-14.74452114108874
 20
103.0238378047938
 10
-14.99999976161791
 20
103.0393815040583
 10
-15.25547957423998
 20
103.0238378047938
 10
-15.51353311542345
 20
102.9770988225931
 10
-15.76566910747362
 20
102.8990024328226
 10
-16.00386357311083
 20
102.7904760837549
 10
-16.22194862369366
 20
102.6565837860102
 10
-16.41421055797406
 20
102.5033658742899
 10
-16.58275818828406
 20
102.3296165466303
 10
-16.72932362560095
 20
102.1338021755213
 10
-16.84763169292267
 20
101.9214719533914
 10
-16.93250751498993
 20
101.6985440254206
 10
-16.98318338397792
 20
101.4722257852548
 10
-17.00000023845479
 20
101.2499999999994
  0
ELLIPSE
  5
1069
330
104B
100
AcDbEntity
  8
LW 3801-04-01
100
AcDbEllipse
 10
-15.00000000003496
 20
103.7499999999994
 30
0.0
 11
-2.00000000000002
 21
0.0000000000008239
 31
0.0
210
0.0
220
0.0
230
-1.0
 40
0.866025403784425
 41
3.935761501374646
 42
5.489016459394974
  0
LINE
  5
106A
330
104B
100
AcDbEntity
  8
LW 3801-04-01
100
AcDbLine
 10
-31.00000000003201
 20
132.4999999999993
 30
0.0
 11
-31.00000000003166
 21
87.49999999999936
 31
0.0
  0
LINE
  5
106B
330
104B
100
AcDbEntity
  8
LW 3801-04-01
100
AcDbLine
 10
-31.00000000003166
 20
87.49999999999936
 30
0.0
 11
-36.00000000003161
 21
87.4999999999993
 31
0.0
  0
LINE
  5
106C
330
104B
100
AcDbEntity
  8
LW 3801-04-01
100
AcDbLine
 10
-31.00000000003201
 20
132.4999999999993
 30
0.0
 11
-36.00000000003201
 21
132.4999999999993
 31
0.0
  0
LINE
  5
106D
330
104B
100
AcDbEntity
  8
LW 3801-04-01
100
AcDbLine
 10
-55.00000000003183
 20
132.4999999999989
 30
0.0
 11
-55.00000000003183
 21
87.49999999999898
 31
0.0
  0
LINE
  5
106E
330
104B
100
AcDbEntity
  8
LW 3801-04-01
100
AcDbLine
 10
-50.00000000003183
 20
87.49999999999898
 30
0.0
 11
-55.00000000003183
 21
87.49999999999898
 31
0.0
  0
LINE
  5
106F
330
104B
100
AcDbEntity
  8
LW 3801-04-01
100
AcDbLine
 10
-50.00000000003183
 20
132.4999999999989
 30
0.0
 11
-55.00000000003183
 21
132.4999999999989
 31
0.0
  0
LINE
  5
1070
330
104B
100
AcDbEntity
  8
LW 3801-04-01
100
AcDbLine
 10
-25.00000000000933
 20
10.60660171779709
 30
0.0
 11
-0.0000000000075033
 21
16.79312521134965
 31
0.0
  0
LINE
  5
1071
330
104B
100
AcDbEntity
  8
LW 3801-04-01
  6
MITTE2
 62
     3
100
AcDbLine
 10
-52.50000000000614
 20
-0.0000000000019895
 30
0.0
 11
7.49999999999386
 21
0.00000000000027
 31
0.0
  0
LINE
  5
1072
330
104B
100
AcDbEntity
  8
LW 3801-04-01
  6
MITTE2
 62
     3
100
AcDbLine
 10
-85.50000000000713
 20
109.9999999999988
 30
0.0
 11
-2.735882419465838
 21
110.0000000000019
 31
0.0
  0
LINE
  5
1073
330
104B
100
AcDbEntity
  8
LW 3801-04-01
100
AcDbLine
 10
-55.00000000003183
 20
103.0
 30
0.0
 11
-68.00000000003183
 21
103.0
 31
0.0
  0
LINE
  5
1074
330
104B
100
AcDbEntity
  8
LW 3801-04-01
100
AcDbLine
 10
-69.00000000003183
 20
104.0
 30
0.0
 11
-68.00000000003183
 21
103.0
 31
0.0
  0
LINE
  5
1075
330
104B
100
AcDbEntity
  8
LW 3801-04-01
100
AcDbLine
 10
-69.00000000003183
 20
104.0
 30
0.0
 11
-69.00000000003183
 21
116.0
 31
0.0
  0
LINE
  5
1076
330
104B
100
AcDbEntity
  8
LW 3801-04-01
100
AcDbLine
 10
-68.00000000003183
 20
117.0
 30
0.0
 11
-69.00000000003183
 21
116.0
 31
0.0
  0
LINE
  5
1077
330
104B
100
AcDbEntity
  8
LW 3801-04-01
100
AcDbLine
 10
-68.00000000003183
 20
117.0
 30
0.0
 11
-55.00000000003183
 21
117.0
 31
0.0
  0
LINE
  5
1078
330
104B
100
AcDbEntity
  8
LW 3801-04-01
100
AcDbLine
 10
-68.00000000003183
 20
117.0
 30
0.0
 11
-68.00000000003183
 21
103.0
 31
0.0
  0
LINE
  5
1079
330
104B
100
AcDbEntity
  8
LW 3801-04-01
 62
     3
100
AcDbLine
 10
-69.00000000003183
 20
116.0
 30
0.0
 11
-55.00000000003183
 21
116.0
 31
0.0
  0
LINE
  5
107A
330
104B
100
AcDbEntity
  8
LW 3801-04-01
 62
     3
100
AcDbLine
 10
-69.00000000003183
 20
104.0
 30
0.0
 11
-55.00000000003183
 21
104.0
 31
0.0
  0
HATCH
  5
107B
330
104B
100
AcDbEntity
  8
LW 3801-04-01
 62
     1
100
AcDbHatch
 10
0.0
 20
0.0
 30
0.0
210
0.0
220
0.0
230
1.0
  2
SOLID
 70
     1
 71
     0
 91
        5
 92
        5
 93
       76
 72
     1
 10
-29.85730374340835
 20
56.55812968081024
 11
-29.79736223506188
 21
56.54904143506816
 72
     1
 10
-29.79736223506188
 20
56.54904143506816
 11
-29.61190565317344
 21
56.49963028434036
 72
     1
 10
-29.61190565317344
 20
56.49963028434036
 11
-29.4300037499292
 21
56.43096452381131
 72
     1
 10
-29.4300037499292
 20
56.43096452381131
 11
-29.25465316903814
 21
56.34696105632038
 72
     1
 10
-29.25465316903814
 20
56.34696105632038
 11
-29.08294348362261
 21
56.2422216762831
 72
     1
 10
-29.08294348362261
 20
56.2422216762831
 11
-28.920189612228
 21
56.120928311707
 72
     1
 10
-28.92018961222794
 20
56.12092831170698
 11
-28.7648998325509
 21
55.98953446786611
 72
     1
 10
-28.7648998325509
 20
55.98953446786611
 11
-28.62992477996278
 21
55.85011885137355
 72
     1
 10
-28.62992477996284
 20
55.85011885137358
 11
-29.51475860504331
 21
57.92659200893074
 72
     1
 10
-29.51475860504331
 20
57.92659200893074
 11
-29.60621154776527
 21
58.11904151243435
 72
     1
 10
-29.60621154776527
 20
58.11904151243435
 11
-29.70939463113694
 21
58.29468539862476
 72
     1
 10
-29.70939463113694
 20
58.29468539862476
 11
-29.82401256593084
 21
58.45837234906132
 72
     1
 10
-29.82401256593084
 20
58.45837234906132
 11
-29.94636358043578
 21
58.60695692342635
 72
     1
 10
-29.94636358043578
 20
58.60695692342635
 11
-30.07929782574223
 21
58.74158603156847
 72
     1
 10
-30.07929782574229
 20
58.74158603156847
 11
-30.22081677138078
 21
58.86311129410815
 72
     1
 10
-30.22081677138073
 20
58.86311129410815
 11
-30.36753743230736
 21
58.96425872926433
 72
     1
 10
-30.36753743230736
 20
58.96425872926433
 11
-30.52164888883851
 21
59.0537121897171
 72
     1
 10
-30.52164888883851
 20
59.05371218971713
 11
-30.68034331774038
 21
59.12244412487381
 72
     1
 10
-30.68034331774038
 20
59.12244412487378
 11
-30.84195418030822
 21
59.17452357816792
 72
     1
 10
-30.84195418030828
 20
59.17452357816792
 11
-31.00738997813119
 21
59.21274756255851
 72
     1
 10
-31.00738997813113
 20
59.21274756255847
 11
-31.17365310316427
 21
59.23163313879216
 72
     1
 10
-31.17365310316427
 20
59.23163313879216
 11
-31.34024576448678
 21
59.22912545831898
 72
     1
 10
-31.34024576448678
 20
59.22912545831898
 11
-31.50772429349138
 21
59.2120717331678
 72
     1
 10
-31.50772429349138
 20
59.2120717331678
 11
-31.67068367722618
 21
59.17332946208223
 72
     1
 10
-31.67068367722624
 20
59.17332946208226
 11
-31.83397259725018
 21
59.11319393429001
 72
     1
 10
-31.83397259725018
 20
59.11319393429001
 11
-31.98959693168644
 21
59.0350716322743
 72
     1
 10
-31.98959693168638
 20
59.0350716322743
 11
-32.13156108912694
 21
58.94151741789805
 72
     1
 10
-32.13156108912699
 20
58.94151741789802
 11
-32.25816182833023
 21
58.82853423022247
 72
     1
 10
-32.25816182833023
 20
58.82853423022247
 11
-32.37480416224895
 21
58.70326457050389
 72
     1
 10
-32.37480416224895
 20
58.70326457050389
 11
-32.47578778870286
 21
58.56341461904536
 72
     1
 10
-32.47578778870286
 20
58.56341461904536
 11
-32.56396285878202
 21
58.41013128569558
 72
     1
 10
-32.56396285878202
 20
58.41013128569558
 11
-32.63657456645854
 21
58.24581639929163
 72
     1
 10
-32.63657456645854
 20
58.24581639929163
 11
-32.69462044092313
 21
58.07303256540824
 72
     1
 10
-32.69462044092313
 20
58.07303256540824
 11
-32.73846439104574
 21
57.89418544425995
 72
     1
 10
-32.73846439104574
 20
57.89418544425995
 11
-32.76537833621808
 21
57.707971261596
 72
     1
 10
-32.76537833621808
 20
57.70797126159597
 11
-32.77463248948328
 21
57.51312073047596
 72
     1
 10
-32.77463248948322
 20
57.51312073047596
 11
-32.77160527865163
 21
57.31804395931475
 72
     1
 10
-32.77160527865163
 20
57.31804395931478
 11
-32.74862445621602
 21
57.12003114187758
 72
     1
 10
-32.74862445621608
 20
57.12003114187758
 11
-32.71024596848145
 21
56.91913392628875
 72
     1
 10
-32.71024596848145
 20
56.91913392628875
 11
-32.65247275450941
 21
56.71705555378979
 72
     1
 10
-32.65247275450935
 20
56.71705555378976
 11
-32.57785967616229
 21
56.51979161578847
 72
     1
 10
-32.57785967616229
 20
56.51979161578847
 11
-31.74711104265089
 21
54.57024223231321
 72
     1
 10
-31.74711104265089
 20
54.57024223231321
 11
-31.75202426047156
 21
54.74266067349431
 72
     1
 10
-31.75202426047162
 20
54.74266067349431
 11
-31.74061742460378
 21
54.94705664448868
 72
     1
 10
-31.74061742460373
 20
54.94705664448868
 11
-31.71049594827719
 21
55.14301603664979
 72
     1
 10
-31.71049594827719
 20
55.14301603664979
 11
-31.66796504492845
 21
55.33813971776796
 72
     1
 10
-31.66796504492845
 20
55.33813971776796
 11
-31.60497993464441
 21
55.52141269728871
 72
     1
 10
-31.60497993464441
 20
55.52141269728874
 11
-31.52673722268719
 21
55.6932772777091
 72
     1
 10
-31.52673722268719
 20
55.6932772777091
 11
-31.43286858793601
 21
55.85687525723186
 72
     1
 10
-31.43286858793596
 20
55.85687525723186
 11
-31.37579575959382
 21
55.93768834484489
 72
     1
 10
-31.37579575959382
 20
55.93768834484489
 11
-31.77896957279143
 21
56.88383165131118
 72
     1
 10
-31.77896957279148
 20
56.88383165131118
 11
-31.82380343995459
 21
57.00832992596817
 72
     1
 10
-31.82380343995459
 20
57.00832992596817
 11
-31.85635453669113
 21
57.13658864686308
 72
     1
 10
-31.85635453669113
 20
57.13658864686308
 11
-31.87630243140836
 21
57.26741251316146
 72
     1
 10
-31.8763024314083
 20
57.26741251316146
 11
-31.87946918445982
 21
57.39121866107031
 72
     1
 10
-31.87946918445982
 20
57.39121866107031
 11
-31.86864748121207
 21
57.50990580712162
 72
     1
 10
-31.86864748121207
 20
57.50990580712162
 11
-31.84492943265957
 21
57.62670184744401
 72
     1
 10
-31.84492943265951
 20
57.62670184744401
 11
-31.80857463463599
 21
57.74022099216047
 72
     1
 10
-31.80857463463599
 20
57.74022099216047
 11
-31.75873542682365
 21
57.83938570185971
 72
     1
 10
-31.75873542682365
 20
57.83938570185968
 11
-31.08151970751197
 21
56.2501378417901
 72
     1
 10
-31.08151970751203
 20
56.2501378417901
 11
-31.05564573629044
 21
56.27266872180332
 72
     1
 10
-31.05564573629044
 20
56.27266872180335
 11
-30.89926580440647
 21
56.37855960908403
 72
     1
 10
-30.89926580440647
 20
56.37855960908403
 11
-30.72892847352728
 21
56.46423585151289
 72
     1
 10
-30.72892847352728
 20
56.46423585151293
 11
-30.54505287021039
 21
56.52952192564668
 72
     1
 10
-30.54505287021033
 20
56.52952192564668
 11
-30.35936837113081
 21
56.56918191523617
 72
     1
 10
-30.35936837113087
 20
56.56918191523614
 11
-30.30766187023545
 21
56.57317238311474
 72
     1
 10
-30.30766187023545
 20
56.57317238311474
 11
-31.00178021624549
 21
58.20208627949158
 72
     1
 10
-31.00178021624549
 20
58.20208627949158
 11
-30.88659301573063
 21
58.1756046117935
 72
     1
 10
-30.88659301573063
 20
58.1756046117935
 11
-30.77828727430585
 21
58.13202203755479
 72
     1
 10
-30.77828727430585
 20
58.13202203755479
 11
-30.67673739659801
 21
58.07193048102156
 72
     1
 10
-30.67673739659801
 20
58.0719304810216
 11
-30.5828765001209
 21
58.00040138148357
 72
     1
 10
-30.58287650012085
 20
58.00040138148354
 11
-30.49589709918149
 21
57.90844647213162
 72
     1
 10
-30.49589709918149
 20
57.90844647213164
 11
-30.4183980447807
 21
57.80837122112645
 72
     1
 10
-30.4183980447807
 20
57.80837122112642
 11
-30.34675917144284
 21
57.69012838715112
 72
     1
 10
-30.34675917144279
 20
57.69012838715112
 11
-30.28455661905781
 21
57.56078023804279
 72
     1
 10
-30.28455661905781
 20
57.56078023804279
 11
-29.85730374340835
 21
56.55812968081021
 97
        0
 92
        5
 93
       72
 72
     1
 10
-29.19314865401856
 20
54.96229182260775
 11
-29.12835662468058
 21
54.85634841695411
 72
     1
 10
-29.12835662468058
 20
54.85634841695411
 11
-29.07492580113791
 21
54.74426022840585
 72
     1
 10
-29.07492580113791
 20
54.74426022840585
 11
-28.57757935855176
 21
53.57711843436032
 72
     1
 10
-28.57757935855176
 20
53.57711843436032
 11
-29.65916032666087
 21
54.03718758454523
 72
     1
 10
-29.65916032666087
 20
54.03718758454523
 11
-30.54763036307782
 21
51.73875040193447
 72
     1
 10
-30.54763036307782
 20
51.73875040193447
 11
-30.03069664621177
 21
50.52564240709601
 72
     1
 10
-30.03069664621177
 20
50.52564240709601
 11
-29.09980387973218
 21
52.78548268527415
 72
     1
 10
-29.09980387973218
 20
52.78548268527415
 11
-26.93775460630076
 21
51.87903880896162
 72
     1
 10
-26.93775460630076
 20
51.87903880896162
 11
-28.28587004913265
 21
55.04271254179396
 72
     1
 10
-28.28587004913265
 20
55.04271254179396
 11
-28.377316918502
 21
55.22982781064122
 72
     1
 10
-28.377316918502
 20
55.22982781064122
 11
-28.48177650740093
 21
55.41001898229716
 72
     1
 10
-28.48177650740093
 20
55.41001898229716
 11
-28.59853049250364
 21
55.58248700380168
 72
     1
 10
-28.59853049250364
 20
55.58248700380168
 11
-28.72628651996149
 21
55.738214079423
 72
     1
 10
-28.72628651996149
 20
55.738214079423
 11
-28.86547739884145
 21
55.88198421929043
 72
     1
 10
-28.86547739884145
 20
55.88198421929043
 11
-29.01171669090093
 21
56.00572026131594
 72
     1
 10
-29.01171669090087
 20
56.00572026131594
 11
-29.16535515449329
 21
56.12022030987226
 72
     1
 10
-29.16535515449334
 20
56.1202203098723
 11
-29.32489512141677
 21
56.21753641167687
 72
     1
 10
-29.32489512141677
 20
56.21753641167687
 11
-29.48785004525007
 21
56.2956016144105
 72
     1
 10
-29.48785004525007
 20
56.2956016144105
 11
-29.65692059988521
 21
56.35942369658796
 72
     1
 10
-29.65692059988521
 20
56.35942369658796
 11
-29.82740758096099
 21
56.40484650031537
 72
     1
 10
-29.82740758096099
 20
56.40484650031537
 11
-29.99907571894664
 21
56.4308745778052
 72
     1
 10
-29.99907571894664
 20
56.4308745778052
 11
-30.1690748627525
 21
56.43636101920908
 72
     1
 10
-30.1690748627525
 20
56.43636101920906
 11
-30.33825663299916
 21
56.42330435499634
 72
     1
 10
-30.33825663299916
 20
56.42330435499637
 11
-30.50491778844486
 21
56.38770752422842
 72
     1
 10
-30.50491778844486
 20
56.38770752422842
 11
-30.67105685955903
 21
56.32871890628452
 72
     1
 10
-30.67105685955903
 20
56.32871890628449
 11
-30.82468266352589
 21
56.25144822488978
 72
     1
 10
-30.82468266352589
 20
56.25144822488981
 11
-30.96579520034561
 21
56.15589548004426
 72
     1
 10
-30.96579520034556
 20
56.15589548004424
 11
-31.09324756016974
 21
56.04491082283796
 72
     1
 10
-31.09324756016974
 20
56.04491082283796
 11
-31.20789136361918
 21
55.92049278374021
 72
     1
 10
-31.20789136361918
 20
55.92049278374021
 11
-31.30874761678609
 21
55.77768392950502
 72
     1
 10
-31.30874761678604
 20
55.77768392950502
 11
-31.39574285983537
 21
55.62606516964262
 72
     1
 10
-31.39574285983537
 20
55.62606516964262
 11
-31.4681955375836
 21
55.46691872967322
 72
     1
 10
-31.46819553758366
 20
55.46691872967322
 11
-31.52609454162695
 21
55.29844521371938
 72
     1
 10
-31.52609454162689
 20
55.29844521371938
 11
-31.5658275942028
 21
55.11615753887063
 72
     1
 10
-31.5658275942028
 20
55.11615753887063
 11
-31.59417318742232
 21
54.93175139763336
 72
     1
 10
-31.59417318742232
 20
54.93175139763336
 11
-31.6048378466748
 21
54.74065428634837
 72
     1
 10
-31.6048378466748
 20
54.74065428634837
 11
-31.59925322000754
 21
54.54467424644225
 72
     1
 10
-31.59925322000754
 20
54.54467424644225
 11
-31.5728349616121
 21
54.34480131319983
 72
     1
 10
-31.5728349616121
 20
54.34480131319983
 11
-31.53589537936801
 21
54.14661583403717
 72
     1
 10
-31.53589537936801
 20
54.14661583403717
 11
-31.47812216539586
 21
53.94453746153813
 72
     1
 10
-31.47812216539586
 20
53.94453746153813
 11
-31.40350908704886
 21
53.74727352353686
 72
     1
 10
-31.40350908704886
 20
53.74727352353686
 11
-30.65748942316964
 21
51.99656083246849
 72
     1
 10
-30.65748942316969
 20
51.99656083246849
 11
-30.20154138784227
 21
53.15431275351342
 72
     1
 10
-30.20154138784227
 20
53.15431275351342
 11
-30.60009983840791
 21
54.08962501312529
 72
     1
 10
-30.60009983840791
 20
54.08962501312529
 11
-30.62278701815308
 21
54.15242491435565
 72
     1
 10
-30.62278701815302
 20
54.15242491435565
 11
-30.65317676646578
 21
54.24920587233502
 72
     1
 10
-30.65317676646578
 20
54.24920587233502
 11
-30.68052590576349
 21
54.36813861901909
 72
     1
 10
-30.68052590576349
 20
54.36813861901909
 11
-30.69486169526141
 21
54.48933899948729
 72
     1
 10
-30.69486169526141
 20
54.48933899948729
 11
-30.69699709662746
 21
54.59875487550805
 72
     1
 10
-30.69699709662746
 20
54.59875487550805
 11
-30.69310201858906
 21
54.66143390608017
 72
     1
 10
-30.69310201858906
 20
54.66143390608017
 11
-30.68416931033306
 21
54.72359590034945
 72
     1
 10
-30.68416931033312
 20
54.72359590034945
 11
-30.64476238756407
 21
54.88448232436939
 72
     1
 10
-30.64476238756402
 20
54.88448232436939
 11
-30.60918267187015
 21
54.97964878548457
 72
     1
 10
-30.6091826718702
 20
54.97964878548454
 11
-30.56833545950838
 21
55.05691216401498
 72
     1
 10
-30.56833545950832
 20
55.05691216401498
 11
-30.52067787615499
 21
55.13016334587279
 72
     1
 10
-30.52067787615505
 20
55.13016334587279
 11
-30.4651214395372
 21
55.19662628242894
 72
     1
 10
-30.46512143953715
 20
55.19662628242894
 11
-30.40175086723849
 21
55.25561311997454
 72
     1
 10
-30.40175086723855
 20
55.25561311997454
 11
-30.32968406608751
 21
55.30882213759484
 72
     1
 10
-30.32968406608751
 20
55.30882213759484
 11
-30.25045110053998
 21
55.35075569294848
 72
     1
 10
-30.25045110053992
 20
55.35075569294848
 11
-30.19260183541423
 21
55.37393308934212
 72
     1
 10
-30.19260183541423
 20
55.37393308934212
 11
-30.13308998459752
 21
55.39276550088182
 72
     1
 10
-30.13308998459752
 20
55.39276550088179
 11
-30.07020704955704
 21
55.4063468520307
 72
     1
 10
-30.07020704955704
 20
55.40634685203072
 11
-30.00630879694484
 21
55.41377719820907
 72
     1
 10
-30.00630879694484
 20
55.41377719820907
 11
-29.89838481090749
 21
55.41232036503298
 72
     1
 10
-29.89838481090749
 20
55.41232036503298
 11
-29.81967113925936
 21
55.40072108477854
 72
     1
 10
-29.81967113925936
 20
55.40072108477851
 11
-29.72315626845614
 21
55.37328196677477
 72
     1
 10
-29.72315626845614
 20
55.3732819667748
 11
-29.55603299486518
 21
55.3038364731416
 72
     1
 10
-29.55603299486518
 20
55.3038364731416
 11
-29.49594740439255
 21
55.26501586178882
 72
     1
 10
-29.49594740439255
 20
55.2650158617888
 11
-29.42526846661497
 21
55.21220053237424
 72
     1
 10
-29.42526846661503
 20
55.21220053237427
 11
-29.3535596963788
 21
55.15142680799015
 72
     1
 10
-29.35355969637874
 20
55.15142680799015
 11
-29.26846433893923
 21
55.06101159814086
 72
     1
 10
-29.26846433893923
 20
55.06101159814086
 11
-29.19314865401856
 21
54.96229182260775
 97
        0
 92
        5
 93
       57
 72
     1
 10
-27.42663102763851
 20
50.76043464421274
 11
-27.33831798702937
 21
50.65515339963731
 72
     1
 10
-27.33831798702937
 20
50.65515339963734
 11
-27.2605758482793
 21
50.54187273589197
 72
     1
 10
-27.26057584827936
 20
50.54187273589197
 11
-27.19637476542511
 21
50.41337620740456
 72
     1
 10
-27.19637476542511
 20
50.41337620740456
 11
-26.71009939091022
 21
49.27221530945924
 72
     1
 10
-26.71009939091022
 20
49.27221530945924
 11
-25.95065781259291
 21
49.59583114538857
 72
     1
 10
-25.95065781259291
 20
49.59583114538857
 11
-26.43437832524518
 21
50.73099645192598
 72
     1
 10
-26.43437832524518
 20
50.73099645192595
 11
-26.5249796473463
 21
50.92144742496036
 72
     1
 10
-26.52497964734624
 20
50.92144742496039
 11
-26.63186450242881
 21
51.10023675146845
 72
     1
 10
-26.63186450242887
 20
51.10023675146845
 11
-26.74733405784361
 21
51.26592223237428
 72
     1
 10
-26.74733405784361
 20
51.26592223237428
 11
-26.87138831359039
 21
51.4185038676779
 72
     1
 10
-26.87138831359039
 20
51.4185038676779
 11
-27.00972757184951
 21
51.56027547707601
 72
     1
 10
-27.00972757184957
 20
51.56027547707601
 11
-27.15098581045856
 21
51.68096726260348
 72
     1
 10
-27.15098581045856
 20
51.68096726260346
 11
-27.30198084364384
 21
51.78926387258325
 72
     1
 10
-27.30198084364384
 20
51.78926387258328
 11
-27.46154013826623
 21
51.88440867222964
 72
     1
 10
-27.46154013826623
 20
51.88440867222964
 11
-27.6239688716754
 21
51.96146070982219
 72
     1
 10
-27.62396887167535
 20
51.96146070982216
 11
-27.78950912636697
 21
52.02143142139205
 72
     1
 10
-27.78950912636697
 20
52.02143142139205
 11
-27.95829286620102
 21
52.0628571641809
 72
     1
 10
-27.95829286620102
 20
52.0628571641809
 11
-28.125407611855
 21
52.08374127088383
 72
     1
 10
-28.125407611855
 20
52.08374127088386
 11
-28.29540675566079
 21
52.08922771228778
 72
     1
 10
-28.29540675566079
 20
52.08922771228778
 11
-28.46288528466556
 21
52.07217398713656
 72
     1
 10
-28.46288528466556
 20
52.07217398713656
 11
-28.62954644011137
 21
52.03657715636866
 72
     1
 10
-28.62954644011137
 20
52.03657715636866
 11
-28.79368698075621
 21
51.97844015904557
 72
     1
 10
-28.79368698075621
 20
51.97844015904557
 11
-28.94931131519241
 21
51.90031785702998
 72
     1
 10
-28.94931131519235
 20
51.90031785702998
 11
-29.09042385201212
 21
51.8047651121844
 72
     1
 10
-29.09042385201212
 20
51.80476511218436
 11
-29.21787621183625
 21
51.69378045497812
 72
     1
 10
-29.21787621183625
 20
51.69378045497812
 11
-29.33366692513408
 21
51.56651226479024
 72
     1
 10
-29.33366692513408
 20
51.56651226479024
 11
-29.43550217220883
 21
51.42866084380104
 72
     1
 10
-29.43550217220883
 20
51.42866084380104
 11
-29.52121816996595
 21
51.27381836448505
 72
     1
 10
-29.52121816996595
 20
51.27381836448503
 11
-29.5941443852268
 21
51.11245820418322
 72
     1
 10
-29.5941443852268
 20
51.11245820418322
 11
-29.65226055163964
 21
50.93939599524471
 72
     1
 10
-29.6522605516397
 20
50.93939599524471
 11
-29.69618024408248
 21
50.76028328963643
 72
     1
 10
-29.69618024408248
 20
50.76028328963643
 11
-29.72309418925488
 21
50.57406910697249
 72
     1
 10
-29.72309418925488
 20
50.57406910697249
 11
-29.73290722788659
 21
50.38097346521819
 72
     1
 10
-29.73290722788659
 20
50.38097346521819
 11
-29.72846951106755
 21
50.18214327422199
 72
     1
 10
-29.72846951106755
 20
50.18214327422201
 11
-29.70548868863193
 21
49.98413045678488
 72
     1
 10
-29.70548868863193
 20
49.98413045678486
 11
-29.66711020089736
 21
49.78323324119601
 72
     1
 10
-29.66711020089736
 20
49.78323324119601
 11
-29.60819007707687
 21
49.58400501978708
 72
     1
 10
-29.60819007707682
 20
49.58400501978708
 11
-29.53272537810887
 21
49.38474255131648
 72
     1
 10
-29.53272537810892
 20
49.38474255131651
 11
-29.05837269228618
 21
48.27156107994092
 72
     1
 10
-29.05837269228618
 20
48.27156107994092
 11
-28.26895315693003
 21
48.60795122518324
 72
     1
 10
-28.26895315693003
 20
48.60795122518322
 11
-28.7526736695823
 21
49.74311653172073
 72
     1
 10
-28.7526736695823
 20
49.74311653172073
 11
-28.79555236514432
 21
49.87011984034468
 72
     1
 10
-28.79555236514438
 20
49.87011984034468
 11
-28.82717390019389
 21
50.00040877599612
 72
     1
 10
-28.82717390019383
 20
50.00040877599612
 11
-28.84287909565006
 21
50.12482279345893
 72
     1
 10
-28.84287909565006
 20
50.12482279345893
 11
-28.84422808404321
 21
50.25034810382591
 72
     1
 10
-28.84422808404321
 20
50.25034810382591
 11
-28.83117909862659
 21
50.37511336412309
 72
     1
 10
-28.83117909862659
 20
50.37511336412309
 11
-28.80703523976365
 21
50.49091013921081
 72
     1
 10
-28.80703523976365
 20
50.49091013921081
 11
-28.76791841471629
 21
50.60260251449189
 72
     1
 10
-28.76791841471629
 20
50.60260251449189
 11
-28.71844981032968
 21
50.70463192661536
 72
     1
 10
-28.71844981032962
 20
50.70463192661536
 11
-27.89322942870985
 21
48.76805590190618
 72
     1
 10
-27.89322942870985
 20
48.76805590190618
 11
-27.13178931992326
 21
49.09252335845635
 72
     1
 10
-27.13178931992326
 20
49.09252335845635
 11
-27.9714872520978
 21
51.06307440114289
 72
     1
 10
-27.9714872520978
 20
51.06307440114289
 11
-27.85430152111354
 21
51.0374443540657
 72
     1
 10
-27.85430152111354
 20
51.0374443540657
 11
-27.73829694703943
 21
50.99241958075102
 72
     1
 10
-27.73829694703943
 20
50.99241958075102
 11
-27.62845710085151
 21
50.92927691830725
 72
     1
 10
-27.62845710085151
 20
50.92927691830725
 11
-27.52463835646523
 21
50.85676761667961
 72
     1
 10
-27.52463835646523
 20
50.85676761667959
 11
-27.42663102763845
 21
50.76043464421274
 97
        0
 92
        5
 93
        6
 72
     1
 10
-25.87237720959655
 20
49.37887719192223
 11
-28.97209796741282
 21
48.05801360895803
 72
     1
 10
-28.97209796741282
 20
48.05801360895803
 11
-28.09492872792015
 21
45.99952722562422
 72
     1
 10
-28.09492872792015
 20
45.99952722562419
 11
-27.29751507068693
 21
46.33932385335
 72
     1
 10
-27.29751507068693
 20
46.33932385335
 11
-27.7735709977514
 21
47.45650238566416
 72
     1
 10
-27.7735709977514
 20
47.45650238566416
 11
-25.47126389716834
 21
48.43756934090255
 72
     1
 10
-25.47126389716834
 20
48.43756934090258
 11
-25.87237720959655
 21
49.37887719192223
 97
        0
 92
        5
 93
        8
 72
     1
 10
-25.38014049073564
 20
48.22372658069217
 11
-26.13958206905301
 21
47.90011074476284
 72
     1
 10
-26.13958206905301
 20
47.90011074476281
 11
-25.65586155640074
 21
46.76494543822535
 72
     1
 10
-25.65586155640074
 20
46.76494543822535
 11
-28.00213632730737
 21
45.7651428293279
 72
     1
 10
-28.00213632730737
 20
45.7651428293279
 11
-27.60017139425833
 21
44.82183644783897
 72
     1
 10
-27.60017139425833
 20
44.82183644783897
 11
-25.25389662335164
 21
45.82163905673645
 72
     1
 10
-25.25389662335164
 20
45.82163905673645
 11
-24.76676962821591
 21
44.67847962832188
 72
     1
 10
-24.76676962821591
 20
44.6784796283219
 11
-24.00732804989855
 21
45.00209546425124
 72
     1
 10
-24.00732804989855
 20
45.00209546425124
 11
-25.38014049073564
 21
48.22372658069217
 97
        0
 75
     0
 76
     1
 47
0.0142553043587597
 98
        5
 10
-345.7261957179936
 20
-86.21989171806538
 10
-346.396623465023
 20
-88.39069608558984
 10
-348.0422283364878
 20
-92.57103127167956
 10
-349.2343154928495
 20
-95.03213078767467
 10
-349.6414399395898
 20
-96.38767261466492
450
        0
451
        0
460
0.0
461
0.0
452
        0
462
0.0
453
        0
470

  0
LWPOLYLINE
  5
107C
330
104B
100
AcDbEntity
  8
LW 3801-04-01
 62
     1
100
AcDbPolyline
 90
        8
 70
     1
 43
0.0
 10
-25.25389662335164
 20
45.82163905673645
 10
-27.60017139425833
 20
44.82183644783897
 10
-28.00213632730737
 20
45.7651428293279
 10
-25.65586155640074
 20
46.76494543822535
 10
-26.13958206905301
 20
47.90011074476281
 10
-25.38014049073564
 20
48.22372658069217
 10
-24.00732804989855
 20
45.00209546425124
 10
-24.76676962821591
 20
44.6784796283219
  0
LWPOLYLINE
  5
107D
330
104B
100
AcDbEntity
  8
LW 3801-04-01
 62
     1
100
AcDbPolyline
 90
       73
 70
     1
 43
0.0
 10
-30.60009983840786
 20
54.08962501312526
 10
-30.20154138784227
 20
53.15431275351342
 10
-30.65748942316969
 20
51.99656083246849
 10
-31.40350908704886
 20
53.74727352353684
 10
-31.47812216539592
 20
53.94453746153816
 10
-31.53589537936796
 20
54.14661583403715
 10
-31.5728349616121
 20
54.34480131319983
 10
-31.59925322000749
 20
54.54467424644223
 10
-31.6048378466748
 20
54.74065428634837
 10
-31.59417318742232
 20
54.93175139763342
 10
-31.56582759420274
 20
55.11615753887067
 10
-31.52609454162689
 20
55.29844521371938
 10
-31.46819553758366
 20
55.46691872967317
 10
-31.39574285983537
 20
55.62606516964267
 10
-31.30874761678609
 20
55.77768392950495
 10
-31.20789136361918
 20
55.92049278374021
 10
-31.09324756016974
 20
56.04491082283796
 10
-30.96579520034556
 20
56.15589548004424
 10
-30.82468266352589
 20
56.25144822488981
 10
-30.67105685955898
 20
56.32871890628452
 10
-30.50491778844492
 20
56.38770752422847
 10
-30.33825663299916
 20
56.42330435499637
 10
-30.16907486275255
 20
56.43636101920906
 10
-29.99907571894676
 20
56.43087457780517
 10
-29.82740758096094
 20
56.40484650031531
 10
-29.65692059988521
 20
56.35942369658796
 10
-29.48785004525013
 20
56.29560161441053
 10
-29.32489512141677
 20
56.21753641167696
 10
-29.16535515449329
 20
56.12022030987235
 10
-29.01171669090081
 20
56.00572026131583
 10
-28.8654773988415
 20
55.8819842192904
 10
-28.72628651996149
 20
55.738214079423
 10
-28.59853049250364
 20
55.58248700380175
 10
-28.48177650740087
 20
55.41001898229713
 10
-28.377316918502
 20
55.22982781064114
 10
-28.28587004913271
 20
55.04271254179407
 10
-26.93775460630076
 20
51.87903880896162
 10
-29.09980387973218
 20
52.78548268527415
 10
-30.03069664621177
 20
50.52564240709601
 10
-30.54763036307782
 20
51.73875040193447
 10
-29.65916032666087
 20
54.03718758454523
 10
-28.57757935855176
 20
53.57711843436032
 10
-29.07492580113791
 20
54.74426022840585
 10
-29.12835662468058
 20
54.85634841695411
 10
-29.19314865401856
 20
54.96229182260775
 10
-29.26846433893923
 20
55.06101159814086
 10
-29.35355969637874
 20
55.15142680799009
 10
-29.42526846661497
 20
55.21220053237427
 10
-29.49594740439255
 20
55.26501586178888
 10
-29.53674442624856
 20
55.29137435002811
 10
-29.57990928501192
 20
55.31375789653008
 10
-29.72315626845614
 20
55.3732819667748
 10
-29.81967113925936
 20
55.40072108477851
 10
-29.89838481090743
 20
55.41232036503301
 10
-30.00630879694484
 20
55.41377719820907
 10
-30.07020704955704
 20
55.40634685203072
 10
-30.1330899845974
 20
55.39276550088185
 10
-30.19260183541417
 20
55.37393308934212
 10
-30.25045110053986
 20
55.35075569294848
 10
-30.32968406608745
 20
55.30882213759482
 10
-30.40175086723849
 20
55.25561311997456
 10
-30.46512143953715
 20
55.19662628242885
 10
-30.52067787615505
 20
55.13016334587279
 10
-30.56833545950832
 20
55.05691216401512
 10
-30.6091826718702
 20
54.97964878548454
 10
-30.64476238756402
 20
54.88448232436939
 10
-30.68416931033318
 20
54.72359590034933
 10
-30.69310201858912
 20
54.66143390608009
 10
-30.69699709662746
 20
54.59875487550805
 10
-30.69486169526141
 20
54.48933899948729
 10
-30.68052590576343
 20
54.36813861901909
 10
-30.65317676646578
 20
54.24920587233502
 10
-30.62278701815302
 20
54.15242491435553
  0
LWPOLYLINE
  5
107E
330
104B
100
AcDbEntity
  8
LW 3801-04-01
 62
     1
100
AcDbPolyline
 90
       76
 70
     1
 43
0.0
 10
-28.92018961222794
 20
56.12092831170698
 10
-29.08294348362261
 20
56.24222167628314
 10
-29.25465316903819
 20
56.34696105632041
 10
-29.4300037499292
 20
56.43096452381131
 10
-29.61190565317355
 20
56.49963028434036
 10
-29.79736223506171
 20
56.54904143506816
 10
-29.85730374340835
 20
56.55812968081024
 10
-30.28455661905781
 20
57.56078023804285
 10
-30.34675917144273
 20
57.69012838715115
 10
-30.4183980447807
 20
57.80837122112647
 10
-30.49589709918149
 20
57.90844647213164
 10
-30.58287650012085
 20
58.00040138148354
 10
-30.67673739659801
 20
58.07193048102151
 10
-30.77828727430585
 20
58.1320220375547
 10
-30.88659301573051
 20
58.17560461179358
 10
-31.00178021624549
 20
58.20208627949158
 10
-30.30766187023545
 20
56.57317238311474
 10
-30.35936837113087
 20
56.56918191523614
 10
-30.54505287021044
 20
56.52952192564665
 10
-30.72892847352722
 20
56.46423585151286
 10
-30.89926580440653
 20
56.378559609084
 10
-31.05564573629039
 20
56.2726687218033
 10
-31.08151970751203
 20
56.2501378417901
 10
-31.75873542682365
 20
57.83938570185968
 10
-31.80857463463599
 20
57.74022099216047
 10
-31.84492943265951
 20
57.62670184744401
 10
-31.86864748121207
 20
57.50990580712162
 10
-31.87946918445982
 20
57.39121866107031
 10
-31.8763024314083
 20
57.26741251316155
 10
-31.85635453669113
 20
57.13658864686308
 10
-31.82380343995459
 20
57.00832992596817
 10
-31.77896957279148
 20
56.88383165131118
 10
-31.37579575959382
 20
55.93768834484489
 10
-31.4328685879359
 20
55.85687525723189
 10
-31.52673722268719
 20
55.6932772777091
 10
-31.60497993464441
 20
55.52141269728874
 10
-31.6679650449284
 20
55.33813971776798
 10
-31.71049594827719
 20
55.14301603664979
 10
-31.74061742460373
 20
54.94705664448868
 10
-31.75202426047162
 20
54.74266067349431
 10
-31.74711104265089
 20
54.57024223231321
 10
-32.57785967616229
 20
56.51979161578847
 10
-32.65247275450935
 20
56.71705555378976
 10
-32.71024596848145
 20
56.91913392628875
 10
-32.74862445621608
 20
57.12003114187765
 10
-32.77160527865169
 20
57.31804395931472
 10
-32.77463248948328
 20
57.51312073047602
 10
-32.76537833621808
 20
57.70797126159597
 10
-32.73846439104574
 20
57.89418544425995
 10
-32.69462044092319
 20
58.07303256540812
 10
-32.63657456645854
 20
58.24581639929163
 10
-32.56396285878196
 20
58.41013128569556
 10
-32.47578778870286
 20
58.56341461904541
 10
-32.37480416224895
 20
58.70326457050389
 10
-32.25816182833023
 20
58.82853423022247
 10
-32.13156108912699
 20
58.94151741789802
 10
-31.98959693168632
 20
59.0350716322743
 10
-31.83397259725024
 20
59.11319393428998
 10
-31.67068367722624
 20
59.1733294620823
 10
-31.50772429349155
 20
59.21207173316777
 10
-31.34024576448667
 20
59.22912545831905
 10
-31.17365310316433
 20
59.23163313879213
 10
-31.00738997813124
 20
59.21274756255847
 10
-30.84195418030834
 20
59.17452357816789
 10
-30.68034331774038
 20
59.12244412487384
 10
-30.52164888883857
 20
59.05371218971716
 10
-30.36753743230747
 20
58.96425872926435
 10
-30.22081677138073
 20
58.8631112941082
 10
-30.07929782574223
 20
58.74158603156844
 10
-29.94636358043584
 20
58.60695692342638
 10
-29.82401256593078
 20
58.45837234906129
 10
-29.70939463113689
 20
58.29468539862467
 10
-29.60621154776521
 20
58.11904151243429
 10
-29.51475860504331
 20
57.92659200893062
 10
-28.62992477996284
 20
55.85011885137352
 10
-28.7648998325509
 20
55.98953446786611
  0
LWPOLYLINE
  5
107F
330
104B
100
AcDbEntity
  8
LW 3801-04-01
 62
     1
100
AcDbPolyline
 90
        6
 70
     1
 43
0.0
 10
-28.09492872792015
 20
45.99952722562419
 10
-28.97209796741282
 20
48.05801360895803
 10
-25.87237720959655
 20
49.37887719192223
 10
-25.47126389716834
 20
48.43756934090258
 10
-27.7735709977514
 20
47.45650238566416
 10
-27.29751507068693
 20
46.33932385335
  0
LWPOLYLINE
  5
1080
330
104B
100
AcDbEntity
  8
LW 3801-04-01
 62
     1
100
AcDbPolyline
 90
       57
 70
     1
 43
0.0
 10
-29.5941443852268
 20
51.11245820418322
 10
-29.52121816996595
 20
51.27381836448496
 10
-29.43550217220883
 20
51.42866084380113
 10
-29.33366692513408
 20
51.56651226479024
 10
-29.21787621183625
 20
51.69378045497812
 10
-29.09042385201212
 20
51.80476511218436
 10
-28.94931131519235
 20
51.90031785702998
 10
-28.79368698075621
 20
51.97844015904561
 10
-28.62954644011143
 20
52.03657715636864
 10
-28.46288528466568
 20
52.07217398713651
 10
-28.29540675566079
 20
52.08922771228778
 10
-28.12540761185494
 20
52.08374127088386
 10
-27.95829286620108
 20
52.06285716418093
 10
-27.78950912636702
 20
52.02143142139211
 10
-27.62396887167552
 20
51.96146070982222
 10
-27.46154013826623
 20
51.88440867222964
 10
-27.30198084364378
 20
51.78926387258328
 10
-27.15098581045851
 20
51.68096726260334
 10
-27.00972757184957
 20
51.5602754770761
 10
-26.87138831359045
 20
51.41850386767792
 10
-26.74733405784366
 20
51.2659222323743
 10
-26.63186450242893
 20
51.10023675146847
 10
-26.52497964734624
 20
50.92144742496045
 10
-26.43437832524518
 20
50.73099645192603
 10
-25.95065781259291
 20
49.59583114538857
 10
-26.71009939091022
 20
49.27221530945924
 10
-27.19637476542511
 20
50.41337620740448
 10
-27.2605758482793
 20
50.54187273589191
 10
-27.33831798702937
 20
50.6551533996374
 10
-27.42663102763856
 20
50.76043464421279
 10
-27.52463835646523
 20
50.85676761667959
 10
-27.62845710085151
 20
50.92927691830725
 10
-27.73829694703938
 20
50.99241958075102
 10
-27.85430152111354
 20
51.0374443540657
 10
-27.9714872520978
 20
51.06307440114289
 10
-27.13178931992326
 20
49.09252335845635
 10
-27.89322942870985
 20
48.76805590190618
 10
-28.71844981032962
 20
50.70463192661536
 10
-28.76791841471629
 20
50.60260251449189
 10
-28.80703523976365
 20
50.49091013921081
 10
-28.83117909862659
 20
50.37511336412309
 10
-28.84422808404321
 20
50.25034810382591
 10
-28.84287909565006
 20
50.12482279345893
 10
-28.82717390019383
 20
50.00040877599612
 10
-28.79555236514438
 20
49.87011984034468
 10
-28.7526736695823
 20
49.7431165317207
 10
-28.26895315693003
 20
48.60795122518322
 10
-29.05837269228618
 20
48.27156107994092
 10
-29.53272537810892
 20
49.38474255131651
 10
-29.60819007707682
 20
49.58400501978708
 10
-29.6671102008973
 20
49.78323324119599
 10
-29.70548868863193
 20
49.98413045678491
 10
-29.72846951106755
 20
50.18214327422201
 10
-29.73290722788659
 20
50.38097346521819
 10
-29.72309418925488
 20
50.57406910697249
 10
-29.69618024408248
 20
50.76028328963643
 10
-29.6522605516397
 20
50.93939599524471
  0
INSERT
  5
1081
330
104B
100
AcDbEntity
  8
LW 3801-04-01
100
AcDbBlockReference
 66
     1
  2
insertpoint-ECKELT
 10
0.0
 20
0.0
 30
0.0
 41
-1.0
 43
-1.0
 50
270.0
210
0.0
220
0.0
230
-1.0
  0
ATTRIB
  5
1082
330
1081
100
AcDbEntity
  8
insertpoint_ECKELT
100
AcDbText
 10
0.0000000000000558
 20
-6.93151432469303
 30
0.0
 40
0.6000000000000228
  1
LW 3801/04-01
 50
270.0
 71
     6
 72
     2
 11
0.0000000000000568
 21
-1.199999999999988
 31
0.0
100
AcDbAttribute
  2
LINKS
 70
     0
  0
ATTRIB
  5
1083
330
1081
100
AcDbEntity
  8
insertpoint_ECKELT
100
AcDbText
 10
0.0
 20
1.199999999999988
 30
0.0
 40
0.5999999999999659
  1

 50
270.0
 71
     6
100
AcDbAttribute
  2
RECHTS
 70
     0
  0
SEQEND
  5
1084
330
1081
100
AcDbEntity
  8
LW 3801-04-01
  0
LWPOLYLINE
  5
1085
330
104B
100
AcDbEntity
  8
LW 3801-04-01
100
AcDbPolyline
 90
       25
 70
     0
 43
0.0
 10
-0.2693438530044432
 20
-17.43611335754207
 10
-0.2577066421584959
 20
-17.41324782371333
 10
-0.2460885047988199
 20
-17.3900091648083
 10
-0.2344870567397379
 20
-17.36639857291988
 10
-0.222911834724357
 20
-17.34242439269832
 10
-0.2113604545668863
 20
-17.31808781623653
 10
-0.1998353004531168
 20
-17.29339361190608
 10
-0.1883411407546305
 20
-17.26834893226436
 10
-0.1768803596572184
 20
-17.24295496940425
 10
-0.1654553413466715
 20
-17.21721887588313
 10
-0.1540660858229899
 20
-17.19114303588679
 10
-0.1427173614577555
 20
-17.16473221778682
 10
-0.1314115524367025
 20
-17.13799238204768
 10
-0.1201486587599447
 20
-17.11092710494807
 10
-0.1089358329847982
 20
-17.08354115485957
 10
-0.0977730751112631
 20
-17.05583810806087
 10
-0.0866603851393393
 20
-17.02782392501643
 10
-0.0756049156263998
 20
-16.99950098991206
 10
-0.0646066665724447
 20
-16.97087526321223
 10
-0.053665637977474
 20
-16.94195151328853
 10
-0.0427913665846518
 20
-16.91273331641963
 10
-0.0319790840223959
 20
-16.88322544097713
 10
-0.0212359428480795
 20
-16.8534326553326
 10
-0.0105667114332846
 20
-16.82337760925105
 10
-0.0000000000075033
 20
-16.79312467574886
  0
LWPOLYLINE
  5
1086
330
104B
100
AcDbEntity
  8
LW 3801-04-01
100
AcDbPolyline
 90
       25
 70
     0
 43
0.0
 10
-0.0000000000043201
 20
-25.88672399520687
 10
-0.0000000000043201
 20
-25.87240219116023
 10
-0.0000000000043201
 20
-25.85839271545223
 10
-0.0000000000043769
 20
-25.84470272064022
 10
-0.0000000000043769
 20
-25.8313322067242
 10
-0.0000000000043769
 20
-25.81827878951839
 10
-0.0000000000043769
 20
-25.80554962158016
 10
-0.0000000000043769
 20
-25.79314231872371
 10
-0.0000000000043769
 20
-25.78106164932064
 10
-0.0000000000043769
 20
-25.76930761337093
 10
-0.0000000000043769
 20
-25.75788021087459
 10
-0.0000000000043769
 20
-25.7467842102032
 10
-0.0000000000044338
 20
-25.73601961135677
 10
-0.0000000000044338
 20
-25.72558641433528
 10
-0.0000000000044338
 20
-25.71548938751033
 10
-0.0000000000044338
 20
-25.70572853088191
 10
-0.0000000000044338
 20
-25.69630622863582
 10
-0.0000000000044338
 20
-25.68722248077205
 10
-0.0000000000044338
 20
-25.6784796714764
 10
-0.0000000000044906
 20
-25.67008018493465
 10
-0.0000000000044906
 20
-25.66202402114681
 10
-0.0000000000044906
 20
-25.65431594848445
 10
-0.0000000000044906
 20
-25.6469535827618
 10
-0.0000000000044906
 20
-25.63994169235042
 10
-0.0000000000044906
 20
-25.63328027725032
  0
LWPOLYLINE
  5
1087
330
104B
100
AcDbEntity
  8
LW 3801-04-01
100
AcDbPolyline
 90
       25
 70
     0
 43
0.0
 10
-0.0000000000048317
 20
-25.63328266143611
 10
-0.0105333328295387
 20
-25.64370393752864
 10
-0.0211524963427223
 20
-25.65469026565364
 10
-0.0318503379870094
 20
-25.66623449325374
 10
-0.0426292419481911
 20
-25.67833185195735
 10
-0.0534868240404762
 20
-25.69098234176448
 10
-0.0644183158922829
 20
-25.70418119430355
 10
-0.0754189491320858
 20
-25.71792602538875
 10
-0.0864934921313534
 20
-25.73220968246272
 10
-0.0976324081469784
 20
-25.74702978133968
 10
-0.1088356971789608
 20
-25.76238393783382
 10
-0.1200914382983456
 20
-25.77825307845882
 10
-0.1313900947620254
 20
-25.79462051391414
 10
-0.1427268981983047
 20
-25.8114814758282
 10
-0.1541018486072403
 20
-25.82882881164363
 10
-0.1655101776172501
 20
-25.84666013717464
 10
-0.176951885228334
 20
-25.86496829986385
 10
-0.1884245872547012
 20
-25.8837437629681
 10
-0.1999211311389786
 20
-25.90298652648738
 10
-0.2114462852527481
 20
-25.92268943786434
 10
-0.2229905128528458
 20
-25.94284534454158
 10
-0.2345561981250626
 20
-25.96344709396175
 10
-0.2461385726978733
 20
-25.98449230193904
 10
-0.2577352523853733
 20
-26.00597381591609
 10
-0.2693438530018284
 20
-26.02788448333553
  0
LINE
  5
1088
330
104B
100
AcDbEntity
  8
LW 3801-04-01
100
AcDbLine
 10
-0.2693436563177443
 20
-17.43611317461477
 30
0.0
 11
-35.38742005144695
 21
-85.82143159157908
 31
0.0
  0
LINE
  5
1089
330
104B
100
AcDbEntity
  8
LW 3801-04-01
100
AcDbLine
 10
-49.6626174458024
 20
-82.49999999999829
 30
0.0
 11
-25.00000000000933
 21
-10.60660171779767
 31
0.0
  0
LINE
  5
108A
330
104B
100
AcDbEntity
  8
LW 3801-04-01
100
AcDbLine
 10
-50.00000000003197
 20
-82.49999999999829
 30
0.0
 11
-50.00000000003163
 21
-137.4999999999983
 31
0.0
  0
LINE
  5
108B
330
104B
100
AcDbEntity
  8
LW 3801-04-01
100
AcDbLine
 10
-36.00000000003201
 20
-82.49999999999818
 30
0.0
 11
-36.00000000003161
 21
-137.4999999999981
 31
0.0
  0
LINE
  5
108C
330
104B
100
AcDbEntity
  8
LW 3801-04-01
100
AcDbLine
 10
-50.00000000003166
 20
-137.4999999999983
 30
0.0
 11
-36.00000000003161
 21
-137.4999999999982
 31
0.0
  0
LINE
  5
108D
330
104B
100
AcDbEntity
  8
LW 3801-04-01
100
AcDbLine
 10
-50.00000000003203
 20
-82.49999999999834
 30
0.0
 11
-36.00000000003201
 21
-82.49999999999824
 31
0.0
  0
LINE
  5
108E
330
104B
100
AcDbEntity
  8
LW 3801-04-01
100
AcDbLine
 10
-32.53815374277138
 20
-87.49999999999872
 30
0.0
 11
-0.2693436563153568
 21
-26.02788566645904
 31
0.0
  0
LWPOLYLINE
  5
108F
330
104B
100
AcDbEntity
  8
LW 3801-04-01
100
AcDbPolyline
 90
       25
 70
     0
 43
0.0
 10
-35.46503424647165
 20
-85.9789085388166
 10
-35.50698161127883
 20
-86.06705665588203
 10
-35.54713249209243
 20
-86.15014076232734
 10
-35.58542728426778
 20
-86.22795104980292
 10
-35.6218051910671
 20
-86.30030632018867
 10
-35.65620422365993
 20
-86.36700630187812
 10
-35.68856596949428
 20
-86.42786979675117
 10
-35.71879863741731
 20
-86.48260116576972
 10
-35.74688076975685
 20
-86.53094291686835
 10
-35.77286481860023
 20
-86.57276153564277
 10
-35.79680204394208
 20
-86.6079139709455
 10
-35.81874728205548
 20
-86.63626670837226
 10
-35.83875060084216
 20
-86.65770530700507
 10
-35.85684657099603
 20
-86.67204856872382
 10
-35.87309479716186
 20
-86.67920112609687
 10
-35.88760495188604
 20
-86.67913436889472
 10
-35.900485515622
 20
-86.67180061340156
 10
-35.91184616091624
 20
-86.65716171264472
 10
-35.92179656031504
 20
-86.63518905639472
 10
-35.93043565752885
 20
-86.60591125488105
 10
-35.93784928324607
 20
-86.56945228576484
 10
-35.9441304207125
 20
-86.5258884429914
 10
-35.9493720531741
 20
-86.47531509399238
 10
-35.95366716387668
 20
-86.41780853271308
 10
-35.9571099281589
 20
-86.35343551635566
  0
ELLIPSE
  5
1090
330
104B
100
AcDbEntity
  8
LW 3801-04-01
100
AcDbEllipse
 10
-26.00000000002683
 20
-90.97160552419415
 30
0.0
 11
9.248900854277408
 21
-5.402805235588295
 31
0.0
210
0.0
220
0.0
230
0.9999999999999998
 40
0.7037724952103868
 41
3.179807822458326
 42
3.203068510587026
  0
LWPOLYLINE
  5
1091
330
104B
100
AcDbEntity
  8
LW 3801-04-01
100
AcDbPolyline
 90
       25
 70
     0
 43
0.0
 10
-35.9571099281589
 20
-86.35343551635566
 10
-35.96003532412453
 20
-86.28812789916816
 10
-35.96290826800271
 20
-86.22333526611152
 10
-35.96572518351485
 20
-86.1590671539289
 10
-35.96847653391774
 20
-86.09532356262031
 10
-35.97115874293263
 20
-86.03210449218574
 10
-35.97376227381648
 20
-85.96941947936835
 10
-35.97628235819764
 20
-85.90725898742499
 10
-35.97871303561158
 20
-85.84563255309882
 10
-35.98104596140814
 20
-85.78454017638984
 10
-35.98327636721564
 20
-85.72399139404121
 10
-35.98539590838391
 20
-85.66397666930976
 10
-35.98739981654131
 20
-85.60450553893867
 10
-35.98928093913043
 20
-85.54556846618476
 10
-35.99103212359398
 20
-85.48718452453437
 10
-35.99264860156029
 20
-85.42934417724433
 10
-35.9941220283792
 20
-85.37205696105781
 10
-35.99544644358611
 20
-85.3153228759748
 10
-35.99661588671665
 20
-85.25914192199531
 10
-35.99762201312046
 20
-85.20351409911933
 10
-35.99846124651896
 20
-85.14843940734687
 10
-35.99912405016892
 20
-85.09392738342109
 10
-35.9996068477916
 20
-85.03998756408515
 10
-35.99990010264395
 20
-84.98660087585273
 10
-36.00000023844723
 20
-84.93377685546699
  0
LINE
  5
1092
330
104B
100
AcDbEntity
  8
LW 3801-04-01
100
AcDbLine
 10
-8.000000000031889
 20
-124.4999999999989
 30
0.0
 11
-8.000000000031661
 21
-95.49999999999895
 31
0.0
  0
LINE
  5
1093
330
104B
100
AcDbEntity
  8
LW 3801-04-01
100
AcDbLine
 10
-11.00000000003194
 20
-127.4999999999989
 30
0.0
 11
-11.00000000003166
 21
-92.49999999999891
 31
0.0
  0
LINE
  5
1094
330
104B
100
AcDbEntity
  8
LW 3801-04-01
100
AcDbLine
 10
-8.000000000031661
 20
-95.49999999999895
 30
0.0
 11
-11.00000000003166
 21
-92.49999999999891
 31
0.0
  0
LINE
  5
1095
330
104B
100
AcDbEntity
  8
LW 3801-04-01
100
AcDbLine
 10
-8.000000000031889
 20
-124.4999999999989
 30
0.0
 11
-11.00000000003194
 21
-127.4999999999989
 31
0.0
  0
LINE
  5
1096
330
104B
100
AcDbEntity
  8
LW 3801-04-01
100
AcDbLine
 10
-13.00000000003194
 20
-127.4999999999989
 30
0.0
 11
-11.00000000003194
 21
-127.4999999999989
 31
0.0
  0
LINE
  5
1097
330
104B
100
AcDbEntity
  8
LW 3801-04-01
100
AcDbLine
 10
-31.00000000003195
 20
-127.4999999999988
 30
0.0
 11
-17.00000000003194
 21
-127.4999999999989
 31
0.0
  0
LINE
  5
1098
330
104B
100
AcDbEntity
  8
LW 3801-04-01
100
AcDbLine
 10
-31.00000000003166
 20
-92.4999999999988
 30
0.0
 11
-11.00000000003166
 21
-92.49999999999891
 31
0.0
  0
LWPOLYLINE
  5
1099
330
104B
100
AcDbEntity
  8
LW 3801-04-01
100
AcDbPolyline
 90
       25
 70
     0
 43
0.0
 10
-17.00000023845052
 20
-127.4999999999989
 10
-16.98318338397365
 20
-127.4980533123005
 10
-16.93250751498567
 20
-127.4923813343037
 10
-16.84763169291852
 20
-127.4832415580738
 10
-16.7293236255968
 20
-127.4711489677418
 10
-16.58275818827997
 20
-127.4572539329517
 10
-16.41421055796996
 20
-127.4427628517139
 10
-16.22194862368963
 20
-127.4282586574543
 10
-16.0038635731068
 20
-127.4143302440632
 10
-15.76566910746965
 20
-127.4021911621082
 10
-15.51353311541947
 20
-127.3930048942554
 10
-15.255479574236
 20
-127.3872995376576
 10
-14.99999976161393
 20
-127.3853385448445
 10
-14.74452114108476
 20
-127.3872995376576
 10
-14.48646640780839
 20
-127.3930048942555
 10
-14.23433041575822
 20
-127.4021911621083
 10
-13.99613595012096
 20
-127.4143302440632
 10
-13.77805209163091
 20
-127.4282586574543
 10
-13.58578896525756
 20
-127.442762851714
 10
-13.41724133494745
 20
-127.4572539329518
 10
-13.27067708972339
 20
-127.4711489677418
 10
-13.15236783030866
 20
-127.4832415580738
 10
-13.06749200824129
 20
-127.4923813343037
 10
-13.01681613925319
 20
-127.4980533123005
 10
-13.0000004768691
 20
-127.4999999999989
  0
LWPOLYLINE
  5
109A
330
104B
100
AcDbEntity
  8
LW 3801-04-01
100
AcDbPolyline
 90
       25
 70
     0
 43
0.0
 10
-17.00000023845479
 20
-101.2499999999989
 10
-16.98318338397786
 20
-101.0297214984882
 10
-16.93250751498976
 20
-100.8090740442264
 10
-16.84763169292245
 20
-100.5952864885319
 10
-16.72932362560061
 20
-100.3950482606876
 10
-16.58275818828372
 20
-100.2131289243687
 10
-16.4142105579736
 20
-100.0538706779469
 10
-16.22194862369321
 20
-99.91515755653269
 10
-16.00386357311026
 20
-99.79519367217905
 10
-15.76566910747306
 20
-99.69880700111277
 10
-15.51353311542289
 20
-99.62989687919504
 10
-15.25547957423936
 20
-99.58886265754591
 10
-14.99999976161729
 20
-99.57527995109449
 10
-14.74452114108811
 20
-99.58886265754591
 10
-14.4864664078118
 20
-99.62989687919508
 10
-14.23433041576163
 20
-99.6988070011128
 10
-13.99613595012442
 20
-99.79519367217909
 10
-13.77805209163449
 20
-99.91515755653272
 10
-13.5857889652612
 20
-100.0538706779469
 10
-13.4172413349512
 20
-100.2131289243687
 10
-13.2706770897272
 20
-100.3950482606877
 10
-13.15236783031258
 20
-100.5952864885319
 10
-13.06749200824538
 20
-100.8090740442265
 10
-13.0168161392574
 20
-101.0297214984883
 10
-13.00000047687337
 20
-101.2499999999989
  0
LWPOLYLINE
  5
109B
330
104B
100
AcDbEntity
  8
LW 3801-04-01
100
AcDbPolyline
 90
       25
 70
     0
 43
0.0
 10
-13.00000047687337
 20
-101.2499999999989
 10
-13.01681613925746
 20
-101.4722257852543
 10
-13.06749200824555
 20
-101.69854402542
 10
-13.15236783031281
 20
-101.9214719533909
 10
-13.27067708972754
 20
-102.1338021755207
 10
-13.41724133495154
 20
-102.3296165466297
 10
-13.58578896526166
 20
-102.5033658742893
 10
-13.77805209163495
 20
-102.6565837860096
 10
-13.99613595012499
 20
-102.7904760837544
 10
-14.2343304157622
 20
-102.8990024328221
 10
-14.48646640781237
 20
-102.9770988225926
 10
-14.74452114108874
 20
-103.0238378047932
 10
-14.99999976161791
 20
-103.0393815040577
 10
-15.25547957423998
 20
-103.0238378047932
 10
-15.51353311542345
 20
-102.9770988225925
 10
-15.76566910747362
 20
-102.899002432822
 10
-16.00386357311083
 20
-102.7904760837544
 10
-16.22194862369366
 20
-102.6565837860096
 10
-16.41421055797406
 20
-102.5033658742893
 10
-16.58275818828406
 20
-102.3296165466297
 10
-16.72932362560095
 20
-102.1338021755207
 10
-16.84763169292267
 20
-101.9214719533909
 10
-16.93250751498993
 20
-101.69854402542
 10
-16.98318338397792
 20
-101.4722257852543
 10
-17.00000023845479
 20
-101.2499999999989
  0
ELLIPSE
  5
109C
330
104B
100
AcDbEntity
  8
LW 3801-04-01
100
AcDbEllipse
 10
-15.00000000003496
 20
-103.7499999999988
 30
0.0
 11
-2.00000000000002
 21
-0.0000000000008239
 31
0.0
210
0.0
220
0.0
230
1.0
 40
0.866025403784425
 41
3.935761501374646
 42
5.489016459394974
  0
LINE
  5
109D
330
104B
100
AcDbEntity
  8
LW 3801-04-01
100
AcDbLine
 10
-31.00000000003201
 20
-132.4999999999988
 30
0.0
 11
-31.00000000003166
 21
-87.4999999999988
 31
0.0
  0
LINE
  5
109E
330
104B
100
AcDbEntity
  8
LW 3801-04-01
100
AcDbLine
 10
-31.00000000003166
 20
-87.4999999999988
 30
0.0
 11
-36.00000000003161
 21
-87.49999999999875
 31
0.0
  0
LINE
  5
109F
330
104B
100
AcDbEntity
  8
LW 3801-04-01
100
AcDbLine
 10
-31.00000000003201
 20
-132.4999999999988
 30
0.0
 11
-36.00000000003201
 21
-132.4999999999987
 31
0.0
  0
LINE
  5
10A0
330
104B
100
AcDbEntity
  8
LW 3801-04-01
100
AcDbLine
 10
-55.00000000003183
 20
-132.4999999999984
 30
0.0
 11
-55.00000000003183
 21
-87.49999999999843
 31
0.0
  0
LINE
  5
10A1
330
104B
100
AcDbEntity
  8
LW 3801-04-01
100
AcDbLine
 10
-50.00000000003183
 20
-87.49999999999843
 30
0.0
 11
-55.00000000003183
 21
-87.49999999999843
 31
0.0
  0
LINE
  5
10A2
330
104B
100
AcDbEntity
  8
LW 3801-04-01
100
AcDbLine
 10
-50.00000000003183
 20
-132.4999999999984
 30
0.0
 11
-55.00000000003183
 21
-132.4999999999984
 31
0.0
  0
LINE
  5
10A3
330
104B
100
AcDbEntity
  8
LW 3801-04-01
100
AcDbLine
 10
-25.00000000000933
 20
-10.60660171779653
 30
0.0
 11
-0.0000000000075033
 21
-16.79312521134909
 31
0.0
  0
LINE
  5
10A4
330
104B
100
AcDbEntity
  8
LW 3801-04-01
  6
MITTE2
 62
     3
100
AcDbLine
 10
-85.50000000000713
 20
-109.9999999999983
 30
0.0
 11
-2.735882419465838
 21
-110.0000000000013
 31
0.0
  0
LINE
  5
10A5
330
104B
100
AcDbEntity
  8
LW 3801-04-01
100
AcDbLine
 10
-55.00000000003183
 20
-102.9999999999994
 30
0.0
 11
-68.00000000003183
 21
-102.9999999999994
 31
0.0
  0
LINE
  5
10A6
330
104B
100
AcDbEntity
  8
LW 3801-04-01
100
AcDbLine
 10
-69.00000000003183
 20
-103.9999999999994
 30
0.0
 11
-68.00000000003183
 21
-102.9999999999994
 31
0.0
  0
LINE
  5
10A7
330
104B
100
AcDbEntity
  8
LW 3801-04-01
100
AcDbLine
 10
-69.00000000003183
 20
-103.9999999999994
 30
0.0
 11
-69.00000000003183
 21
-115.9999999999994
 31
0.0
  0
LINE
  5
10A8
330
104B
100
AcDbEntity
  8
LW 3801-04-01
100
AcDbLine
 10
-68.00000000003183
 20
-116.9999999999994
 30
0.0
 11
-69.00000000003183
 21
-115.9999999999994
 31
0.0
  0
LINE
  5
10A9
330
104B
100
AcDbEntity
  8
LW 3801-04-01
100
AcDbLine
 10
-68.00000000003183
 20
-116.9999999999994
 30
0.0
 11
-55.00000000003183
 21
-116.9999999999994
 31
0.0
  0
LINE
  5
10AA
330
104B
100
AcDbEntity
  8
LW 3801-04-01
100
AcDbLine
 10
-68.00000000003183
 20
-116.9999999999994
 30
0.0
 11
-68.00000000003183
 21
-102.9999999999994
 31
0.0
  0
LINE
  5
10AB
330
104B
100
AcDbEntity
  8
LW 3801-04-01
 62
     3
100
AcDbLine
 10
-69.00000000003183
 20
-115.9999999999994
 30
0.0
 11
-55.00000000003183
 21
-115.9999999999994
 31
0.0
  0
LINE
  5
10AC
330
104B
100
AcDbEntity
  8
LW 3801-04-01
 62
     3
100
AcDbLine
 10
-69.00000000003183
 20
-103.9999999999994
 30
0.0
 11
-55.00000000003183
 21
-103.9999999999994
 31
0.0
  0
ENDBLK
  5
104D
330
104B
100
AcDbEntity
  8
0
100
AcDbBlockEnd
  0
ENDSEC
  0
SECTION
  2
ENTITIES
  0
INSERT
  5
FE7
330
1F
100
AcDbEntity
  8
0
100
AcDbBlockReference
  2
LW 3801-04-01_a
 10
-0.0000000000013642
 20
109.9662303711006
 30
0.0
  0
INSERT
  5
104A
330
1F
100
AcDbEntity
  8
0
100
AcDbBlockReference
  2
LW 3801-04-01_b
 10
-0.0000000000031264
 20
-162.8322509068583
 30
0.0
  0
INSERT
  5
10AD
330
1F
100
AcDbEntity
  8
0
100
AcDbBlockReference
  2
LW 3801-04-01_c
 10
303.9220305564331
 20
109.9662303711023
 30
0.0
  0
VIEWPORT
  5
623
330
1B
100
AcDbEntity
 67
     1
  8
0
100
AcDbViewport
 10
144.2296600341797
 20
98.97533035278321
 30
0.0
 40
338.7692671638768
 41
211.6598603888209
 68
     1
 69
     1
 12
144.2296600341797
 22
98.97533035278321
 13
0.0
 23
0.0
 14
10.0
 24
10.0
 15
10.0
 25
10.0
 16
0.0
 26
0.0
 36
1.0
 17
0.0
 27
0.0
 37
0.0
 42
50.0
 43
0.0
 44
0.0
 45
211.6598603888209
 50
0.0
 51
0.0
 72
   100
 90
    32800
  1

281
     0
 71
     1
 74
     0
110
0.0
120
0.0
130
0.0
111
1.0
121
0.0
131
0.0
112
0.0
122
1.0
132
0.0
 79
     0
146
0.0
170
     0
  0
ENDSEC
  0
SECTION
  2
OBJECTS
  0
DICTIONARY
  5
C
330
0
100
AcDbDictionary
281
     1
  3
ACAD_COLOR
350
7C7
  3
ACAD_GROUP
350
D
  3
ACAD_LAYOUT
350
1A
  3
ACAD_MATERIAL
350
7C6
  3
ACAD_MLINESTYLE
350
17
  3
ACAD_PLOTSETTINGS
350
19
  3
ACAD_PLOTSTYLENAME
350
E
  3
ACAD_TABLESTYLE
350
83F
  3
AcDbVariableDictionary
350
615
  0
DICTIONARY
  5
843
330
2
100
AcDbDictionary
280
     1
281
     1
  3
ACAD_LAYERFILTERS
360
F53
  3
ACLYDICTIONARY
360
F52
  0
DICTIONARY
  5
526
330
1F
100
AcDbDictionary
280
     1
281
     1
  3
ACAD_LAYOUTSELFREF
360
7C1
  3
ACAD_SORTENTS
360
865
  0
DICTIONARY
  5
528
330
1B
100
AcDbDictionary
280
     1
281
     1
  3
ACAD_LAYOUTSELFREF
360
7C0
  0
DICTIONARY
  5
52A
330
23
100
AcDbDictionary
280
     1
281
     1
  3
ACAD_LAYOUTSELFREF
360
7C2
  0
DICTIONARY
  5
7C7
102
{ACAD_REACTORS
330
C
102
}
330
C
100
AcDbDictionary
281
     1
  0
DICTIONARY
  5
D
102
{ACAD_REACTORS
330
C
102
}
330
C
100
AcDbDictionary
281
     1
  0
DICTIONARY
  5
1A
102
{ACAD_REACTORS
330
C
102
}
330
C
100
AcDbDictionary
281
     1
  3
Layout1
350
1E
  3
Layout2
350
26
  3
Model
350
22
  0
DICTIONARY
  5
7C6
102
{ACAD_REACTORS
330
C
102
}
330
C
100
AcDbDictionary
281
     1
  0
DICTIONARY
  5
17
102
{ACAD_REACTORS
330
C
102
}
330
C
100
AcDbDictionary
281
     1
  3
Standard
350
18
  0
DICTIONARY
  5
19
102
{ACAD_REACTORS
330
C
102
}
330
C
100
AcDbDictionary
281
     1
  0
ACDBDICTIONARYWDFLT
  5
E
102
{ACAD_REACTORS
330
C
102
}
330
C
100
AcDbDictionary
281
     1
  3
Normal
350
F
100
AcDbDictionaryWithDefault
340
F
  0
DICTIONARY
  5
83F
102
{ACAD_REACTORS
330
C
102
}
330
C
100
AcDbDictionary
281
     1
  3
Standard
350
840
  0
DICTIONARY
  5
615
102
{ACAD_REACTORS
330
C
102
}
330
C
100
AcDbDictionary
281
     1
  3
CTABLESTYLE
350
852
  3
DIMASSOC
350
617
  3
HIDETEXT
350
616
  3
PROJECTNAME
350
83D
  0
DICTIONARY
  5
F53
102
{ACAD_REACTORS
330
843
102
}
330
843
100
AcDbDictionary
281
     1
  0
DICTIONARY
  5
F52
102
{ACAD_REACTORS
330
843
102
}
330
843
100
AcDbDictionary
281
     1
1001
ACAD
1000
<All
  0
XRECORD
  5
7C1
102
{ACAD_REACTORS
330
526
102
}
330
526
100
AcDbXrecord
280
     1
340
1F
  0
SORTENTSTABLE
  5
865
102
{ACAD_REACTORS
330
526
102
}
330
526
100
AcDbSortentsTable
330
1F
  0
XRECORD
  5
7C0
102
{ACAD_REACTORS
330
528
102
}
330
528
100
AcDbXrecord
280
     1
340
1B
  0
XRECORD
  5
7C2
102
{ACAD_REACTORS
330
52A
102
}
330
52A
100
AcDbXrecord
280
     1
340
23
  0
LAYOUT
  5
1E
102
{ACAD_REACTORS
330
1A
102
}
330
1A
100
AcDbPlotSettings
  1

  2
\\A-SERVER\HP LaserJet 5N - AWT
  4
A4
  6

 40
6.011333465576171
 41
4.233341693878173
 42
6.011322021484375
 43
4.23333740234375
 44
209.9733276367187
 45
296.9259948730469
 46
0.0
 47
0.0
 48
0.0
 49
0.0
140
0.0
141
0.0
142
1.0
143
1.0
 70
   688
 72
     1
 73
     1
 74
     5
  7

 75
    16
147
1.0
 76
     0
 77
     2
 78
   300
148
0.0
149
0.0
100
AcDbLayout
  1
Layout1
 70
     1
 71
     1
 10
-4.23333740234375
 20
-6.011333465576171
 11
292.6926574707031
 21
203.9619941711426
 12
0.0
 22
0.0
 32
0.0
 14
1.000000000000000E+20
 24
1.000000000000000E+20
 34
1.000000000000000E+20
 15
-1.000000000000000E+20
 25
-1.000000000000000E+20
 35
-1.000000000000000E+20
146
0.0
 13
0.0
 23
0.0
 33
0.0
 16
1.0
 26
0.0
 36
0.0
 17
0.0
 27
1.0
 37
0.0
 76
     0
330
1B
331
623
  0
LAYOUT
  5
26
102
{ACAD_REACTORS
330
1A
102
}
330
1A
100
AcDbPlotSettings
  1

  2

  4

  6

 40
0.0
 41
0.0
 42
0.0
 43
0.0
 44
0.0
 45
0.0
 46
0.0
 47
0.0
 48
0.0
 49
0.0
140
0.0
141
0.0
142
1.0
143
1.0
 70
   688
 72
     0
 73
     0
 74
     5
  7

 75
    16
147
1.0
 76
     0
 77
     2
 78
   300
148
0.0
149
0.0
100
AcDbLayout
  1
Layout2
 70
     1
 71
     2
 10
0.0
 20
0.0
 11
12.0
 21
9.0
 12
0.0
 22
0.0
 32
0.0
 14
0.0
 24
0.0
 34
0.0
 15
0.0
 25
0.0
 35
0.0
146
0.0
 13
0.0
 23
0.0
 33
0.0
 16
1.0
 26
0.0
 36
0.0
 17
0.0
 27
1.0
 37
0.0
 76
     0
330
23
  0
LAYOUT
  5
22
102
{ACAD_REACTORS
330
1A
102
}
330
1A
100
AcDbPlotSettings
  1

  2

  4

  6

 40
0.0
 41
0.0
 42
0.0
 43
0.0
 44
0.0
 45
0.0
 46
0.0
 47
0.0
 48
0.0
 49
0.0
140
0.0
141
0.0
142
1.0
143
1.0
 70
  1712
 72
     0
 73
     0
 74
     0
  7

 75
     0
147
1.0
 76
     0
 77
     2
 78
   300
148
0.0
149
0.0
100
AcDbLayout
  1
Model
 70
     1
 71
     0
 10
0.0
 20
0.0
 11
12.0
 21
9.0
 12
0.0
 22
0.0
 32
0.0
 14
0.0
 24
0.0
 34
0.0
 15
0.0
 25
0.0
 35
0.0
146
0.0
 13
0.0
 23
0.0
 33
0.0
 16
1.0
 26
0.0
 36
0.0
 17
0.0
 27
1.0
 37
0.0
 76
     0
330
1F
  0
MLINESTYLE
  5
18
102
{ACAD_REACTORS
330
17
102
}
330
17
100
AcDbMlineStyle
  2
STANDARD
 70
     0
  3

 62
   256
 51
90.0
 52
90.0
 71
     2
 49
0.5
 62
   256
  6
BYLAYER
 49
-0.5
 62
   256
  6
BYLAYER
  0
ACDBPLACEHOLDER
  5
F
102
{ACAD_REACTORS
330
E
102
}
330
E
  0
TABLESTYLE
  5
840
102
{ACAD_REACTORS
330
83F
102
}
330
83F
100
AcDbTableStyle
  3
Standard
 70
     0
 71
     0
 40
1.5
 41
1.5
280
     0
281
     0
  7
Standard
140
4.5
170
     2
 62
     0
 63
     7
283
     0
274
    -2
284
     1
 64
     0
275
    -2
285
     1
 65
     0
276
    -2
286
     1
 66
     0
277
    -2
287
     1
 67
     0
278
    -2
288
     1
 68
     0
279
    -2
289
     1
 69
     0
  7
Standard
140
6.0
170
     5
 62
     0
 63
     7
283
     0
274
    -2
284
     1
 64
     0
275
    -2
285
     1
 65
     0
276
    -2
286
     1
 66
     0
277
    -2
287
     1
 67
     0
278
    -2
288
     1
 68
     0
279
    -2
289
     1
 69
     0
  7
Standard
140
4.5
170
     5
 62
     0
 63
     7
283
     0
274
    -2
284
     1
 64
     0
275
    -2
285
     1
 65
     0
276
    -2
286
     1
 66
     0
277
    -2
287
     1
 67
     0
278
    -2
288
     1
 68
     0
279
    -2
289
     1
 69
     0
  0
DICTIONARYVAR
  5
852
102
{ACAD_REACTORS
330
615
102
}
330
615
100
DictionaryVariables
280
     0
  1
STANDARD
  0
DICTIONARYVAR
  5
617
102
{ACAD_REACTORS
330
615
102
}
330
615
100
DictionaryVariables
280
     0
  1
2
  0
DICTIONARYVAR
  5
616
102
{ACAD_REACTORS
330
615
102
}
330
615
100
DictionaryVariables
280
     0
  1
1
  0
DICTIONARYVAR
  5
83D
102
{ACAD_REACTORS
330
615
102
}
330
615
100
DictionaryVariables
280
     0
  1

  0
ENDSEC
  0
EOF
