  0
SECTION
  2
HEADER
  9
$ACADVER
  1
AC1018
  9
$ACADMAINTVER
 70
    76
  9
$DWGCODEPAGE
  3
ANSI_1252
  9
$AUTHOR
  1
Grandl
  9
$INSBASE
 10
0.0
 20
0.0
 30
0.0
  9
$EXTMIN
 10
-140.0000000000009
 20
-62.49999999999402
 30
0.0
  9
$EXTMAX
 10
294.6506200632203
 20
133.1263632900703
 30
0.0
  9
$LIMMIN
 10
0.0
 20
0.0
  9
$LIMMAX
 10
18025.7704
 20
13929.0044
  9
$ORTHOMODE
 70
     1
  9
$REGENMODE
 70
     1
  9
$FILLMODE
 70
     1
  9
$QTEXTMODE
 70
     0
  9
$MIRRTEXT
 70
     1
  9
$LTSCALE
 40
0.4
  9
$ATTMODE
 70
     1
  9
$TEXTSIZE
 40
0.2
  9
$TRACEWID
 40
0.05
  9
$TEXTSTYLE
  7
Standard
  9
$CLAYER
  8
0
  9
$CELTYPE
  6
ByLayer
  9
$CECOLOR
 62
   256
  9
$CELTSCALE
 40
1.0
  9
$DISPSILH
 70
     0
  9
$DIMSCALE
 40
1.0
  9
$DIMASZ
 40
1.799999999999999
  9
$DIMEXO
 40
0.0625
  9
$DIMDLI
 40
0.38
  9
$DIMRND
 40
0.0
  9
$DIMDLE
 40
0.0
  9
$DIMEXE
 40
0.18
  9
$DIMTP
 40
0.0
  9
$DIMTM
 40
0.0
  9
$DIMTXT
 40
0.3499999940395355
  9
$DIMCEN
 40
0.09
  9
$DIMTSZ
 40
0.0
  9
$DIMTOL
 70
     0
  9
$DIMLIM
 70
     0
  9
$DIMTIH
 70
     1
  9
$DIMTOH
 70
     1
  9
$DIMSE1
 70
     0
  9
$DIMSE2
 70
     0
  9
$DIMTAD
 70
     0
  9
$DIMZIN
 70
     0
  9
$DIMBLK
  1

  9
$DIMASO
 70
     1
  9
$DIMSHO
 70
     1
  9
$DIMPOST
  1

  9
$DIMAPOST
  1

  9
$DIMALT
 70
     0
  9
$DIMALTD
 70
     2
  9
$DIMALTF
 40
25.4
  9
$DIMLFAC
 40
1.0
  9
$DIMTOFL
 70
     0
  9
$DIMTVP
 40
0.0
  9
$DIMTIX
 70
     0
  9
$DIMSOXD
 70
     0
  9
$DIMSAH
 70
     0
  9
$DIMBLK1
  1

  9
$DIMBLK2
  1

  9
$DIMSTYLE
  2
2dTranslator-Bemaßungsstil
  9
$DIMCLRD
 70
     0
  9
$DIMCLRE
 70
     0
  9
$DIMCLRT
 70
     0
  9
$DIMTFAC
 40
1.0
  9
$DIMGAP
 40
0.09
  9
$DIMJUST
 70
     0
  9
$DIMSD1
 70
     0
  9
$DIMSD2
 70
     0
  9
$DIMTOLJ
 70
     1
  9
$DIMTZIN
 70
     0
  9
$DIMALTZ
 70
     0
  9
$DIMALTTZ
 70
     0
  9
$DIMUPT
 70
     0
  9
$DIMDEC
 70
     4
  9
$DIMTDEC
 70
     4
  9
$DIMALTU
 70
     2
  9
$DIMALTTD
 70
     2
  9
$DIMTXSTY
  7
Standard
  9
$DIMAUNIT
 70
     0
  9
$DIMADEC
 70
     0
  9
$DIMALTRND
 40
0.0
  9
$DIMAZIN
 70
     0
  9
$DIMDSEP
 70
    46
  9
$DIMATFIT
 70
     3
  9
$DIMFRAC
 70
     0
  9
$DIMLDRBLK
  1

  9
$DIMLUNIT
 70
     2
  9
$DIMLWD
 70
    -2
  9
$DIMLWE
 70
    -2
  9
$DIMTMOVE
 70
     0
  9
$LUNITS
 70
     2
  9
$LUPREC
 70
     4
  9
$SKETCHINC
 40
0.1
  9
$FILLETRAD
 40
0.0
  9
$AUNITS
 70
     0
  9
$AUPREC
 70
     0
  9
$MENU
  1
.
  9
$ELEVATION
 40
0.0
  9
$PELEVATION
 40
0.0
  9
$THICKNESS
 40
0.0
  9
$LIMCHECK
 70
     0
  9
$CHAMFERA
 40
0.0
  9
$CHAMFERB
 40
0.0
  9
$CHAMFERC
 40
0.0
  9
$CHAMFERD
 40
0.0
  9
$SKPOLY
 70
     0
  9
$TDCREATE
 40
2452781.345939480
  9
$TDUCREATE
 40
2452781.304272813
  9
$TDUPDATE
 40
2453704.425285394
  9
$TDUUPDATE
 40
2453704.383618727
  9
$TDINDWG
 40
0.0476802083
  9
$TDUSRTIMER
 40
0.0476802083
  9
$USRTIMER
 70
     1
  9
$ANGBASE
 50
0.0
  9
$ANGDIR
 70
     0
  9
$PDMODE
 70
     0
  9
$PDSIZE
 40
0.0
  9
$PLINEWID
 40
0.0
  9
$SPLFRAME
 70
     0
  9
$SPLINETYPE
 70
     6
  9
$SPLINESEGS
 70
     8
  9
$HANDSEED
  5
13D2
  9
$SURFTAB1
 70
     6
  9
$SURFTAB2
 70
     6
  9
$SURFTYPE
 70
     6
  9
$SURFU
 70
     6
  9
$SURFV
 70
     6
  9
$UCSBASE
  2

  9
$UCSNAME
  2

  9
$UCSORG
 10
0.0
 20
0.0
 30
0.0
  9
$UCSXDIR
 10
1.0
 20
0.0
 30
0.0
  9
$UCSYDIR
 10
0.0
 20
1.0
 30
0.0
  9
$UCSORTHOREF
  2

  9
$UCSORTHOVIEW
 70
     0
  9
$UCSORGTOP
 10
0.0
 20
0.0
 30
0.0
  9
$UCSORGBOTTOM
 10
0.0
 20
0.0
 30
0.0
  9
$UCSORGLEFT
 10
0.0
 20
0.0
 30
0.0
  9
$UCSORGRIGHT
 10
0.0
 20
0.0
 30
0.0
  9
$UCSORGFRONT
 10
0.0
 20
0.0
 30
0.0
  9
$UCSORGBACK
 10
0.0
 20
0.0
 30
0.0
  9
$PUCSBASE
  2

  9
$PUCSNAME
  2

  9
$PUCSORG
 10
0.0
 20
0.0
 30
0.0
  9
$PUCSXDIR
 10
1.0
 20
0.0
 30
0.0
  9
$PUCSYDIR
 10
0.0
 20
1.0
 30
0.0
  9
$PUCSORTHOREF
  2

  9
$PUCSORTHOVIEW
 70
     0
  9
$PUCSORGTOP
 10
0.0
 20
0.0
 30
0.0
  9
$PUCSORGBOTTOM
 10
0.0
 20
0.0
 30
0.0
  9
$PUCSORGLEFT
 10
0.0
 20
0.0
 30
0.0
  9
$PUCSORGRIGHT
 10
0.0
 20
0.0
 30
0.0
  9
$PUCSORGFRONT
 10
0.0
 20
0.0
 30
0.0
  9
$PUCSORGBACK
 10
0.0
 20
0.0
 30
0.0
  9
$USERI1
 70
     0
  9
$USERI2
 70
     0
  9
$USERI3
 70
     0
  9
$USERI4
 70
     0
  9
$USERI5
 70
     0
  9
$USERR1
 40
0.0
  9
$USERR2
 40
0.0
  9
$USERR3
 40
0.0
  9
$USERR4
 40
0.0
  9
$USERR5
 40
0.0
  9
$WORLDVIEW
 70
     1
  9
$SHADEDGE
 70
     3
  9
$SHADEDIF
 70
    70
  9
$TILEMODE
 70
     1
  9
$MAXACTVP
 70
    48
  9
$PINSBASE
 10
0.0
 20
0.0
 30
0.0
  9
$PLIMCHECK
 70
     0
  9
$PEXTMIN
 10
1.000000000000000E+20
 20
1.000000000000000E+20
 30
1.000000000000000E+20
  9
$PEXTMAX
 10
-1.000000000000000E+20
 20
-1.000000000000000E+20
 30
-1.000000000000000E+20
  9
$PLIMMIN
 10
-4.23333740234375
 20
-6.011333465576171
  9
$PLIMMAX
 10
292.6926574707031
 20
203.9619941711426
  9
$UNITMODE
 70
     0
  9
$VISRETAIN
 70
     1
  9
$PLINEGEN
 70
     0
  9
$PSLTSCALE
 70
     1
  9
$TREEDEPTH
 70
  3020
  9
$CMLSTYLE
  2
Standard
  9
$CMLJUST
 70
     0
  9
$CMLSCALE
 40
1.0
  9
$PROXYGRAPHICS
 70
     1
  9
$MEASUREMENT
 70
     1
  9
$CELWEIGHT
370
    -1
  9
$ENDCAPS
280
     0
  9
$JOINSTYLE
280
     0
  9
$LWDISPLAY
290
     1
  9
$INSUNITS
 70
     0
  9
$HYPERLINKBASE
  1

  9
$STYLESHEET
  1

  9
$XEDIT
290
     1
  9
$CEPSNTYPE
380
     0
  9
$PSTYLEMODE
290
     1
  9
$FINGERPRINTGUID
  2
{3DF52122-9783-4719-AB1E-BA2747631FB8}
  9
$VERSIONGUID
  2
{80EC33FC-7963-446C-82D2-C2871C040466}
  9
$EXTNAMES
290
     1
  9
$PSVPSCALE
 40
0.0
  9
$OLESTARTUP
290
     0
  9
$SORTENTS
280
   127
  9
$INDEXCTL
280
     0
  9
$HIDETEXT
280
     1
  9
$XCLIPFRAME
290
     0
  9
$HALOGAP
280
     0
  9
$OBSCOLOR
 70
   257
  9
$OBSLTYPE
280
     0
  9
$INTERSECTIONDISPLAY
280
     0
  9
$INTERSECTIONCOLOR
 70
   257
  9
$DIMASSOC
280
     2
  9
$PROJECTNAME
  1

  0
ENDSEC
  0
SECTION
  2
CLASSES
  0
CLASS
  1
ACDBDICTIONARYWDFLT
  2
AcDbDictionaryWithDefault
  3
ObjectDBX Classes
 90
        0
 91
        1
280
     0
281
     0
  0
CLASS
  1
DICTIONARYVAR
  2
AcDbDictionaryVar
  3
ObjectDBX Classes
 90
        0
 91
        4
280
     0
281
     0
  0
CLASS
  1
TABLESTYLE
  2
AcDbTableStyle
  3
ObjectDBX Classes
 90
     2047
 91
        1
280
     0
281
     0
  0
CLASS
  1
SORTENTSTABLE
  2
AcDbSortentsTable
  3
ObjectDBX Classes
 90
        0
 91
        1
280
     0
281
     0
  0
ENDSEC
  0
SECTION
  2
TABLES
  0
TABLE
  2
VPORT
  5
8
330
0
100
AcDbSymbolTable
 70
     3
  0
VPORT
  5
13D1
330
8
100
AcDbSymbolTableRecord
100
AcDbViewportTableRecord
  2
*Active
 70
     0
 10
0.0
 20
0.0
 11
1.0
 21
1.0
 12
77.18906975488787
 22
35.41204912575813
 13
0.0
 23
0.0
 14
1.0
 24
1.0
 15
0.0
 25
0.0
 16
0.0
 26
0.0
 36
1.0
 17
0.0
 27
0.0
 37
0.0
 40
247.4260571028167
 41
1.773333333333333
 42
50.0
 43
0.0
 44
0.0
 50
0.0
 51
0.0
 71
     0
 72
   100
 73
     1
 74
     1
 75
     0
 76
     0
 77
     0
 78
     0
281
     0
 65
     1
110
0.0
120
0.0
130
0.0
111
1.0
121
0.0
131
0.0
112
0.0
122
1.0
132
0.0
 79
     0
146
0.0
  0
ENDTAB
  0
TABLE
  2
LTYPE
  5
5
330
0
100
AcDbSymbolTable
 70
     2
  0
LTYPE
  5
14
330
5
100
AcDbSymbolTableRecord
100
AcDbLinetypeTableRecord
  2
ByBlock
 70
     0
  3

 72
    65
 73
     0
 40
0.0
  0
LTYPE
  5
15
330
5
100
AcDbSymbolTableRecord
100
AcDbLinetypeTableRecord
  2
ByLayer
 70
     0
  3

 72
    65
 73
     0
 40
0.0
  0
LTYPE
  5
16
330
5
100
AcDbSymbolTableRecord
100
AcDbLinetypeTableRecord
  2
Continuous
 70
     0
  3
Solid line
 72
    65
 73
     0
 40
0.0
  0
LTYPE
  5
677
330
5
100
AcDbSymbolTableRecord
100
AcDbLinetypeTableRecord
  2
MITTE2
 70
     0
  3
Mitte (.5x) ___ _ ___ _ ___ _ ___ _ ___ _ ___
 72
    65
 73
     4
 40
28.575
 49
19.05
 74
     0
 49
-3.174999999999999
 74
     0
 49
3.174999999999999
 74
     0
 49
-3.174999999999999
 74
     0
  0
ENDTAB
  0
TABLE
  2
LAYER
  5
2
102
{ACAD_XDICTIONARY
360
C2B
102
}
330
0
100
AcDbSymbolTable
 70
     3
  0
LAYER
  5
10
330
2
100
AcDbSymbolTableRecord
100
AcDbLayerTableRecord
  2
0
 70
     0
 62
     7
  6
Continuous
370
    -3
390
F
  0
LAYER
  5
678
330
2
100
AcDbSymbolTableRecord
100
AcDbLayerTableRecord
  2
LW 3801-06-01
 70
     0
 62
     7
  6
Continuous
370
    -3
390
F
  0
LAYER
  5
708
330
2
100
AcDbSymbolTableRecord
100
AcDbLayerTableRecord
  2
insertpoint_ECKELT
 70
     0
 62
   141
  6
Continuous
370
    -3
390
F
  0
ENDTAB
  0
TABLE
  2
STYLE
  5
3
330
0
100
AcDbSymbolTable
 70
     1
  0
STYLE
  5
11
330
3
100
AcDbSymbolTableRecord
100
AcDbTextStyleTableRecord
  2
Standard
 70
     0
 40
0.0
 41
1.0
 50
0.0
 71
     0
 42
0.2
  3
ARIAL.TTF
  4

1001
ACAD
1000
Arial
1071
      256
  0
ENDTAB
  0
TABLE
  2
VIEW
  5
6
330
0
100
AcDbSymbolTable
 70
     0
  0
ENDTAB
  0
TABLE
  2
UCS
  5
7
330
0
100
AcDbSymbolTable
 70
     0
  0
ENDTAB
  0
TABLE
  2
APPID
  5
9
330
0
100
AcDbSymbolTable
 70
     1
  0
APPID
  5
12
330
9
100
AcDbSymbolTableRecord
100
AcDbRegAppTableRecord
  2
ACAD
 70
     0
  0
ENDTAB
  0
TABLE
  2
DIMSTYLE
  5
A
330
0
100
AcDbSymbolTable
 70
     2
100
AcDbDimStyleTable
 71
     1
340
57
  0
DIMSTYLE
105
27
330
A
100
AcDbSymbolTableRecord
100
AcDbDimStyleTableRecord
  2
Standard
 70
     0
340
11
  0
DIMSTYLE
105
57
330
A
100
AcDbSymbolTableRecord
100
AcDbDimStyleTableRecord
  2
2dTranslator-Bemaßungsstil
 70
     0
 41
1.799999999999999
140
1.799999999999999
340
11
  0
ENDTAB
  0
TABLE
  2
BLOCK_RECORD
  5
1
330
0
100
AcDbSymbolTable
 70
     5
  0
BLOCK_RECORD
  5
1F
102
{ACAD_XDICTIONARY
360
56F
102
}
330
1
100
AcDbSymbolTableRecord
100
AcDbBlockTableRecord
  2
*Model_Space
340
22
  0
BLOCK_RECORD
  5
1B
102
{ACAD_XDICTIONARY
360
571
102
}
330
1
100
AcDbSymbolTableRecord
100
AcDbBlockTableRecord
  2
*Paper_Space
340
1E
  0
BLOCK_RECORD
  5
23
102
{ACAD_XDICTIONARY
360
573
102
}
330
1
100
AcDbSymbolTableRecord
100
AcDbBlockTableRecord
  2
*Paper_Space0
340
26
  0
BLOCK_RECORD
  5
709
330
1
100
AcDbSymbolTableRecord
100
AcDbBlockTableRecord
  2
insertpoint-ECKELT
340
0
102
{BLKREFS
331
1306
331
1358
331
13B9
102
}
  0
BLOCK_RECORD
  5
12C2
330
1
100
AcDbSymbolTableRecord
100
AcDbBlockTableRecord
  2
LW 3801-06-01_a
340
0
310
2800000020000000200000000100080000000000000400000000000000000000000000000000000000000000000080000080000000808000800000008000800080800000C0C0C000C0DCC000F0CAA6000020400000206000002080000020A0000020C0000020E00000400000004020000040400000406000004080000040A0
310
000040C0000040E00000600000006020000060400000606000006080000060A0000060C0000060E00000800000008020000080400000806000008080000080A0000080C0000080E00000A0000000A0200000A0400000A0600000A0800000A0A00000A0C00000A0E00000C0000000C0200000C0400000C0600000C0800000C0
310
A00000C0C00000C0E00000E0000000E0200000E0400000E0600000E0800000E0A00000E0C00000E0E00040000000400020004000400040006000400080004000A0004000C0004000E00040200000402020004020400040206000402080004020A0004020C0004020E000404000004040200040404000404060004040800040
310
40A0004040C0004040E00040600000406020004060400040606000406080004060A0004060C0004060E00040800000408020004080400040806000408080004080A0004080C0004080E00040A0000040A0200040A0400040A0600040A0800040A0A00040A0C00040A0E00040C0000040C0200040C0400040C0600040C08000
310
40C0A00040C0C00040C0E00040E0000040E0200040E0400040E0600040E0800040E0A00040E0C00040E0E00080000000800020008000400080006000800080008000A0008000C0008000E00080200000802020008020400080206000802080008020A0008020C0008020E00080400000804020008040400080406000804080
310
008040A0008040C0008040E00080600000806020008060400080606000806080008060A0008060C0008060E00080800000808020008080400080806000808080008080A0008080C0008080E00080A0000080A0200080A0400080A0600080A0800080A0A00080A0C00080A0E00080C0000080C0200080C0400080C0600080C0
310
800080C0A00080C0C00080C0E00080E0000080E0200080E0400080E0600080E0800080E0A00080E0C00080E0E000C0000000C0002000C0004000C0006000C0008000C000A000C000C000C000E000C0200000C0202000C0204000C0206000C0208000C020A000C020C000C020E000C0400000C0402000C0404000C0406000C0
310
408000C040A000C040C000C040E000C0600000C0602000C0604000C0606000C0608000C060A000C060C000C060E000C0800000C0802000C0804000C0806000C0808000C080A000C080C000C080E000C0A00000C0A02000C0A04000C0A06000C0A08000C0A0A000C0A0C000C0A0E000C0C00000C0C02000C0C04000C0C06000
310
C0C08000C0C0A000F0FBFF00A4A0A000808080000000FF0000FF000000FFFF00FF000000FF00FF00FFFF0000FFFFFF0000000000000000000000000000000000000000000000000000000000000000000000000000000000000000000000000000000000000000000000000000000000000000000000000000000000000000
310
00000000000000000000000000000000000000000000000000000000000000000000000000000000000000000000000000000000000000000000000000000000000000000000000000000000000000000000000000000000000000000000000000000000000000000000000000000000000000000000000000000000000000
310
00000000000000000000000000000000000000000000000000000000000000000000000000000000000000000000000000000000000000000000000000000000000000000000000000000000000000000000000000000000000000000000000000000000000000000000000000000000000000000000000000000000000000
310
00000000000000000000000000000000000000000000000000000000000000000000000000000000000000000000000000000000000000FA00000000000000000000FFFA00000000000000000000FA0000000000000000FFFFFF000000000000FFFFFFFAFFFF000000000000FFFFFF000000000000FFFFFFFFFFFFFFFFFFFF
310
FFFF0000FA00FFFFFFFFFFFFFFFFFFFFFFFF00000000FFFFFAFAFFFFFFF9F9F9FFFF000909FFFFFAFFFFFFFFFAFAFAFAFFFF000000FAFFFFFA00FFFFFFF9F9F9FFFFFF0909FFFFFFFFFFFFFFFFFF00FAFAFAFA000000FFFFFFFFFFFFFFFFFFFFFFFF0000FA00FFFFFFFFFFFFFFFFFFFFFFFF0000000000FFFFFFFF00000000
310
0000FFFFFFFAFFFF000000000000FFFFFFFF00000000000000FA00000000000000000000FFFA00000000000000000000FA000000000000000000000000000000000000000000000000000000000000000000000000000000000000000000000000000000000000000000000000000000000000000000000000000000000000
310
00000000000000000000000000000000000000000000000000000000000000000000000000000000000000000000000000000000000000000000000000000000000000000000000000000000000000000000000000000000000000000000000000000000000000000000000000000000000000000000000000000000000000
310
00000000000000000000000000000000000000000000000000000000000000000000000000000000000000000000000000000000000000000000000000000000000000000000000000000000000000000000000000000000000000000000000000000000000000000000000000000000000000000000000000000000000000
310
0000000000000000000000000000000000000000000000000000000000000000000000000000000000000000000000000000000000000000
102
{BLKREFS
331
1310
102
}
  0
BLOCK_RECORD
  5
1311
330
1
100
AcDbSymbolTableRecord
100
AcDbBlockTableRecord
  2
LW 3801-06-01_b
340
0
310
2800000020000000200000000100080000000000000400000000000000000000000000000000000000000000000080000080000000808000800000008000800080800000C0C0C000C0DCC000F0CAA6000020400000206000002080000020A0000020C0000020E00000400000004020000040400000406000004080000040A0
310
000040C0000040E00000600000006020000060400000606000006080000060A0000060C0000060E00000800000008020000080400000806000008080000080A0000080C0000080E00000A0000000A0200000A0400000A0600000A0800000A0A00000A0C00000A0E00000C0000000C0200000C0400000C0600000C0800000C0
310
A00000C0C00000C0E00000E0000000E0200000E0400000E0600000E0800000E0A00000E0C00000E0E00040000000400020004000400040006000400080004000A0004000C0004000E00040200000402020004020400040206000402080004020A0004020C0004020E000404000004040200040404000404060004040800040
310
40A0004040C0004040E00040600000406020004060400040606000406080004060A0004060C0004060E00040800000408020004080400040806000408080004080A0004080C0004080E00040A0000040A0200040A0400040A0600040A0800040A0A00040A0C00040A0E00040C0000040C0200040C0400040C0600040C08000
310
40C0A00040C0C00040C0E00040E0000040E0200040E0400040E0600040E0800040E0A00040E0C00040E0E00080000000800020008000400080006000800080008000A0008000C0008000E00080200000802020008020400080206000802080008020A0008020C0008020E00080400000804020008040400080406000804080
310
008040A0008040C0008040E00080600000806020008060400080606000806080008060A0008060C0008060E00080800000808020008080400080806000808080008080A0008080C0008080E00080A0000080A0200080A0400080A0600080A0800080A0A00080A0C00080A0E00080C0000080C0200080C0400080C0600080C0
310
800080C0A00080C0C00080C0E00080E0000080E0200080E0400080E0600080E0800080E0A00080E0C00080E0E000C0000000C0002000C0004000C0006000C0008000C000A000C000C000C000E000C0200000C0202000C0204000C0206000C0208000C020A000C020C000C020E000C0400000C0402000C0404000C0406000C0
310
408000C040A000C040C000C040E000C0600000C0602000C0604000C0606000C0608000C060A000C060C000C060E000C0800000C0802000C0804000C0806000C0808000C080A000C080C000C080E000C0A00000C0A02000C0A04000C0A06000C0A08000C0A0A000C0A0C000C0A0E000C0C00000C0C02000C0C04000C0C06000
310
C0C08000C0C0A000F0FBFF00A4A0A000808080000000FF0000FF000000FFFF00FF000000FF00FF00FFFF0000FFFFFF0000000000000000000000000000000000000000000000000000000000000000000000000000000000000000000000000000000000000000000000000000000000000000000000000000000000000000
310
00000000000000000000000000000000000000000000000000000000000000000000000000000000000000000000000000000000000000000000000000000000000000000000000000000000000000000000000000000000000000000000000000000000000000000000000000000000000000000000000000000000000000
310
00000000000000000000000000000000000000000000000000000000000000000000000000000000000000000000000000000000000000000000000000000000000000000000000000000000000000000000000000000000000000000000000000000000000000000000000000000000000000000000000000000000000000
310
000000000000000000000000000000000000000000000000000000000000000000000909000000000000000000000000000000000000FFFAFFFF0000000000FFFFFF0909FFFFFF0000000000FFFFFAFF0000000000FFFFFAFFFF00000000FFFF0000FA000000FFFF00000000FFFFFAFFFF00000000FF00FA00FF0000F9F9FF
310
FFFFFFFAFFFFFFFFFFFFFF0000FF00FA00FF000000FFFFFFFAFFFFFFFFF9F900000000FA0000000000FFFFFFFFFFFFFAFFFFFF0000FF0000FA0000FFFF000000000000FA00000000000000FFFF0000FA0000FF0000FFFFFFFAFAFFFF00000000000000FA0000000000000000FFFFFAFAFFFFFF0000000000FAFA0000000000
310
000000000000000000000000000000FAFA0000000000000000FAFA0000000000000000000000000000000000000000FAFA0000000000000000FA00000000000000000000000000000000000000000000FA00000000000000000000000000000000000000000000000000000000000000000000000000000000000000000000
310
00000000000000000000000000000000000000000000000000000000000000000000000000000000000000000000000000000000000000000000000000000000000000000000000000000000000000000000000000000000000000000000000000000000000000000000000000000000000000000000000000000000000000
310
00000000000000000000000000000000000000000000000000000000000000000000000000000000000000000000000000000000000000000000000000000000000000000000000000000000000000000000000000000000000000000000000000000000000000000000000000000000000000000000000000000000000000
310
0000000000000000000000000000000000000000000000000000000000000000000000000000000000000000000000000000000000000000
102
{BLKREFS
331
136C
102
}
  0
BLOCK_RECORD
  5
136D
330
1
100
AcDbSymbolTableRecord
100
AcDbBlockTableRecord
  2
LW 3801-06-01_c
340
0
310
2800000020000000200000000100080000000000000400000000000000000000000000000000000000000000000080000080000000808000800000008000800080800000C0C0C000C0DCC000F0CAA6000020400000206000002080000020A0000020C0000020E00000400000004020000040400000406000004080000040A0
310
000040C0000040E00000600000006020000060400000606000006080000060A0000060C0000060E00000800000008020000080400000806000008080000080A0000080C0000080E00000A0000000A0200000A0400000A0600000A0800000A0A00000A0C00000A0E00000C0000000C0200000C0400000C0600000C0800000C0
310
A00000C0C00000C0E00000E0000000E0200000E0400000E0600000E0800000E0A00000E0C00000E0E00040000000400020004000400040006000400080004000A0004000C0004000E00040200000402020004020400040206000402080004020A0004020C0004020E000404000004040200040404000404060004040800040
310
40A0004040C0004040E00040600000406020004060400040606000406080004060A0004060C0004060E00040800000408020004080400040806000408080004080A0004080C0004080E00040A0000040A0200040A0400040A0600040A0800040A0A00040A0C00040A0E00040C0000040C0200040C0400040C0600040C08000
310
40C0A00040C0C00040C0E00040E0000040E0200040E0400040E0600040E0800040E0A00040E0C00040E0E00080000000800020008000400080006000800080008000A0008000C0008000E00080200000802020008020400080206000802080008020A0008020C0008020E00080400000804020008040400080406000804080
310
008040A0008040C0008040E00080600000806020008060400080606000806080008060A0008060C0008060E00080800000808020008080400080806000808080008080A0008080C0008080E00080A0000080A0200080A0400080A0600080A0800080A0A00080A0C00080A0E00080C0000080C0200080C0400080C0600080C0
310
800080C0A00080C0C00080C0E00080E0000080E0200080E0400080E0600080E0800080E0A00080E0C00080E0E000C0000000C0002000C0004000C0006000C0008000C000A000C000C000C000E000C0200000C0202000C0204000C0206000C0208000C020A000C020C000C020E000C0400000C0402000C0404000C0406000C0
310
408000C040A000C040C000C040E000C0600000C0602000C0604000C0606000C0608000C060A000C060C000C060E000C0800000C0802000C0804000C0806000C0808000C080A000C080C000C080E000C0A00000C0A02000C0A04000C0A06000C0A08000C0A0A000C0A0C000C0A0E000C0C00000C0C02000C0C04000C0C06000
310
C0C08000C0C0A000F0FBFF00A4A0A000808080000000FF0000FF000000FFFF00FF000000FF00FF00FFFF0000FFFFFF0000000000000000000000000000000000000000000000000000000000000000000000000000000000000000000000000000000000000000000000000000000000000000000000000000000000000000
310
00000000000000000000000000000000000000000000000000000000000000000000000000000000000000000000000000000000000000000000000000000000000000000000000000000000000000000000000000000000000000000000000000000000000000000000000000000000000000000000000000000000000000
310
000000000000FFFFFFFFFFFFFFFFFF000000000000000000000000000000FFFFFFFFFFFF0000FF00000000000000FF000000000000000000000000000000FF00000000FF0000FF00000000000000FF0000000000000000000000000000FFFF00000000FFFF00FF00000000000000FF0000000000000000000000000000FFFF
310
00000000FFFFFFFFFFFFFFFF000000FF0000000000000000000000000000FFFF00000000FFFF0000000000FFFF0000FF0000000000000000000000000000FFFF00000000FFFF00000000FFFFFFFFFFFF00000000000000000000FFFFFFFFFFFF00000000FFFF000000FFFFFFFFFF0909000000000000000000FAFAFAFAFAFA
310
FF00000000FFFF0000000000FFFF00090900000000FAFAFAFAFAFFFFFAFAFAFAFAFAFAFA00FFFF0000000000FFFF000909000000000000000000FFFF000000FFFF000000FAFAFAFAFAFAFAFAFAFAFAFA09FAFA00000000000000FAFAFAFAFAFAFF00000000FFFF0000000000FFFF0000FF00000000000000000000FFFFFFFF
310
FFFF00000000FFFF0000000000FFFFFF00FF0000000000000000000000000000FFFF00000000FFFF0000000000FFFFFFFFFF0000000000000000000000000000FFFF00000000FFFF0000000000FFFF0000FF0000000000000000000000000000FFFF00000000FFFFFFFFFFFFFFFF000000FF00000000000000000000000000
310
00FFFF00000000FFFF00FF00000000000000FF000000000000000000000000000000FF00000000FF0000FF00000000000000FF000000000000000000000000000000FFFFFFFFFFFF0000FF00000000000000FF0000000000000000000000000000000000000000000000FFFFFFFFFFFFFFFFFF000000000000000000000000
310
00000000000000000000000000000000000000000000000000000000000000000000000000000000000000000000000000000000000000000000000000000000000000000000000000000000000000000000000000000000000000000000000000000000000000000000000000000000000000000000000000000000000000
310
0000000000000000000000000000000000000000000000000000000000000000000000000000000000000000000000000000000000000000
102
{BLKREFS
331
13BD
102
}
  0
ENDTAB
  0
ENDSEC
  0
SECTION
  2
BLOCKS
  0
BLOCK
  5
20
330
1F
100
AcDbEntity
  8
0
100
AcDbBlockBegin
  2
*Model_Space
 70
     0
 10
0.0
 20
0.0
 30
0.0
  3
*Model_Space
  1

  0
ENDBLK
  5
21
330
1F
100
AcDbEntity
  8
0
100
AcDbBlockEnd
  0
BLOCK
  5
1C
330
1B
100
AcDbEntity
 67
     1
  8
0
100
AcDbBlockBegin
  2
*Paper_Space
 70
     0
 10
0.0
 20
0.0
 30
0.0
  3
*Paper_Space
  1

  0
ENDBLK
  5
1D
330
1B
100
AcDbEntity
 67
     1
  8
0
100
AcDbBlockEnd
  0
BLOCK
  5
24
330
23
100
AcDbEntity
 67
     1
  8
0
100
AcDbBlockBegin
  2
*Paper_Space0
 70
     0
 10
0.0
 20
0.0
 30
0.0
  3
*Paper_Space0
  1

  0
ENDBLK
  5
25
330
23
100
AcDbEntity
 67
     1
  8
0
100
AcDbBlockEnd
  0
BLOCK
  5
710
330
709
100
AcDbEntity
  8
0
100
AcDbBlockBegin
  2
insertpoint-ECKELT
 70
     2
 10
0.0
 20
0.0
 30
0.0
  3
insertpoint-ECKELT
  1

  0
ATTDEF
  5
70A
330
709
100
AcDbEntity
  8
insertpoint_ECKELT
100
AcDbText
 10
-2.457298772169167
 20
-0.0000000000000255
 30
0.0
 40
0.6
  1
LW
 72
     2
 11
-1.199999999999999
 21
-0.0000000000000255
 31
0.0
100
AcDbAttributeDefinition
  3
Nr. links
  2
LINKS
 70
     0
  0
ATTDEF
  5
70B
330
709
100
AcDbEntity
  8
insertpoint_ECKELT
100
AcDbText
 10
1.199999999999999
 20
-0.0000000000000255
 30
0.0
 40
0.6
  1
LW
100
AcDbAttributeDefinition
  3
Nr. rechts
  2
RECHTS
 70
     0
  0
LINE
  5
70C
102
{ACAD_REACTORS
330
70F
102
}
330
709
100
AcDbEntity
  8
insertpoint_ECKELT
100
AcDbLine
 10
0.0
 20
1.799999999999999
 30
0.0
 11
0.0
 21
-1.799999999999999
 31
0.0
  0
LINE
  5
70D
102
{ACAD_REACTORS
330
70F
102
}
330
709
100
AcDbEntity
  8
insertpoint_ECKELT
100
AcDbLine
 10
-1.8
 20
-0.0000000000000255
 30
0.0
 11
1.8
 21
-0.0000000000000255
 31
0.0
  0
CIRCLE
  5
70E
102
{ACAD_REACTORS
330
70F
102
}
330
709
100
AcDbEntity
  8
insertpoint_ECKELT
100
AcDbCircle
 10
0.0
 20
0.0
 30
0.0
 40
1.199999999999999
  0
HATCH
  5
70F
330
709
100
AcDbEntity
  8
insertpoint_ECKELT
100
AcDbHatch
 10
0.0
 20
0.0
 30
0.0
210
0.0
220
0.0
230
1.0
  2
SOLID
 70
     1
 71
     1
 91
        2
 92
        7
 72
     1
 73
     1
 93
        3
 10
0.0
 20
-0.0000000000000255
 42
0.0
 10
0.0
 20
1.199999999999999
 42
0.4142135623731013
 10
-1.199999999999999
 20
-0.0000000000000255
 42
0.0
 97
        3
330
70E
330
70D
330
70C
 92
        7
 72
     1
 73
     1
 93
        3
 10
1.199999999999999
 20
-0.0000000000000255
 42
0.0
 10
0.0
 20
-0.0000000000000255
 42
0.0
 10
0.0
 20
-1.199999999999999
 42
0.4142135623730888
 97
        3
330
70D
330
70C
330
70E
 75
     0
 76
     1
 47
0.0223086566480813
 98
        2
 10
-0.3163651093721391
 20
0.2714132920773493
 10
0.7415965996738798
 20
-0.4513871917946231
450
        0
451
        0
460
0.0
461
0.0
452
        0
462
0.0
453
        0
470

  0
ENDBLK
  5
711
330
709
100
AcDbEntity
  8
0
100
AcDbBlockEnd
  0
BLOCK
  5
12C3
330
12C2
100
AcDbEntity
  8
0
100
AcDbBlockBegin
  2
LW 3801-06-01_a
 70
     0
 10
0.0
 20
0.0
 30
0.0
  3
LW 3801-06-01_a
  1

  0
ARC
  5
12C5
330
12C2
100
AcDbEntity
  8
LW 3801-06-01
100
AcDbCircle
 10
-0.0000000000042064
 20
0.0000000000001137
 30
0.0
 40
29.99999999999997
100
AcDbArc
 50
270.0
 51
334.3846520658764
  0
ARC
  5
12C6
330
12C2
100
AcDbEntity
  8
LW 3801-06-01
100
AcDbCircle
 10
-0.0000000000042064
 20
0.0
 30
0.0
 40
29.99999999999997
100
AcDbArc
 50
25.61534793412366
 51
90.0
  0
ARC
  5
12C7
330
12C2
100
AcDbEntity
  8
LW 3801-06-01
100
AcDbCircle
 10
0.0
 20
0.0000000000001137
 30
0.0
 40
29.99999999999997
100
AcDbArc
 50
205.6153479341237
 51
270.0
  0
ARC
  5
12C8
330
12C2
100
AcDbEntity
  8
LW 3801-06-01
100
AcDbCircle
 10
0.0
 20
0.0
 30
0.0
 40
29.99999999999997
100
AcDbArc
 50
90.0
 51
154.3846520658763
  0
LWPOLYLINE
  5
12C9
330
12C2
100
AcDbEntity
  8
LW 3801-06-01
100
AcDbPolyline
 90
       25
 70
     0
 43
0.0
 10
25.90115070342596
 20
-18.43931794166559
 10
25.67920684814032
 20
-18.50341558456415
 10
25.45891284942205
 20
-18.57280969619745
 10
25.24034976958807
 20
-18.64740252494806
 10
25.02359151839788
 20
-18.72709512710565
 10
24.80871915816839
 20
-18.81179094314569
 10
24.59580659865912
 20
-18.90139102935785
 10
24.38493490218695
 20
-18.99579882621759
 10
24.1761803626972
 20
-19.09491419792169
 10
23.9696168899494
 20
-19.19864058494562
 10
23.76532793044622
 20
-19.30688023567194
 10
23.56338500976141
 20
-19.41953420639032
 10
23.36386919021185
 20
-19.53650474548334
 10
23.16685676574286
 20
-19.65769410133356
 10
22.97241449355658
 20
-19.78300929069513
 10
22.780599594112
 20
-19.91236329078668
 10
22.59147405623968
 20
-20.04566669464105
 10
22.40509510039862
 20
-20.18283605575556
 10
22.22152709960516
 20
-20.32378435134882
 10
22.04082727431829
 20
-20.46842098236078
 10
21.8630552291828
 20
-20.61666011810297
 10
21.68827295302923
 20
-20.7684159278869
 10
21.51653766631659
 20
-20.92360019683832
 10
21.34791135787542
 20
-21.08212709426874
 10
21.18245363235052
 20
-21.2439084053039
  0
LINE
  5
12CA
330
12C2
100
AcDbEntity
  8
LW 3801-06-01
100
AcDbLine
 10
29.99999999999579
 20
-17.30916318669739
 30
0.0
 11
25.90115056774119
 21
-18.43931833570997
 31
0.0
  0
LWPOLYLINE
  5
12CB
330
12C2
100
AcDbEntity
  8
LW 3801-06-01
100
AcDbPolyline
 90
       25
 70
     0
 43
0.0
 10
27.05150365829046
 20
-12.96981930732721
 10
27.13727712630804
 20
-12.79549002647394
 10
27.22654581069525
 20
-12.62301564216608
 10
27.31926918029364
 20
-12.45246291160578
 10
27.41541624068792
 20
-12.2838938236236
 10
27.51494884490545
 20
-12.1173739433288
 10
27.61783123015936
 20
-11.95296764373773
 10
27.72402763366278
 20
-11.79073810577387
 10
27.83350467681463
 20
-11.63075089454645
 10
27.94622421264227
 20
-11.47307157516474
 10
28.06215047835882
 20
-11.3177609443664
 10
28.18125009536322
 20
-11.16488695144647
 10
28.3034849166828
 20
-11.01451158523554
 10
28.4288191795307
 20
-10.86670041084284
 10
28.55721950530584
 20
-10.72151780128473
 10
28.68865013122137
 20
-10.57902693748468
 10
28.82307291030462
 20
-10.43929338455194
 10
28.96045684814032
 20
-10.30238151550287
 10
29.10075902938421
 20
-10.16835570335382
 10
29.24395084380682
 20
-10.03727912902826
 10
29.3899369239765
 20
-9.909267425537052
 10
29.53858375548895
 20
-9.7844642400741
 10
29.68984365462835
 20
-9.662932157516422
 10
29.8436665534931
 20
-9.544734358787479
 10
29.99999999999579
 20
-9.42993223667139
  0
LWPOLYLINE
  5
12CC
330
12C2
100
AcDbEntity
  8
LW 3801-06-01
100
AcDbPolyline
 90
       25
 70
     0
 43
0.0
 10
29.99999999999579
 20
-9.42993223667139
 10
30.09423494338568
 20
-9.380226731300297
 10
30.18922567367132
 20
-9.332437515258732
 10
30.28494834899481
 20
-9.286567568778934
 10
30.38138389586981
 20
-9.242620468139591
 10
30.47849893569525
 20
-9.200602173805179
 10
30.57615041732367
 20
-9.160563945770206
 10
30.6742763519245
 20
-9.12251412868494
 10
30.7728600501972
 20
-9.086443781852665
 10
30.87187767028387
 20
-9.052344560623112
 10
30.97131252288397
 20
-9.020209312438908
 10
31.07114076613958
 20
-8.990028500556888
 10
31.17134332656439
 20
-8.961794972419681
 10
31.27190113067205
 20
-8.935500383377018
 10
31.37279272079046
 20
-8.911135792732181
 10
31.47399663924749
 20
-8.888693451881351
 10
31.57549619674261
 20
-8.868165612220707
 10
31.6772675514179
 20
-8.849543333053532
 10
31.77928924560125
 20
-8.832818865776005
 10
31.88154697417791
 20
-8.817983865737858
 10
31.98401451110418
 20
-8.805029988288822
 10
32.08667278289373
 20
-8.793949484825077
 10
32.18950271606023
 20
-8.784733414649906
 10
32.29248523711736
 20
-8.777374625205936
 10
32.39559650420721
 20
-8.771863579750004
  0
LWPOLYLINE
  5
12CD
330
12C2
100
AcDbEntity
  8
LW 3801-06-01
100
AcDbPolyline
 90
       25
 70
     0
 43
0.0
 10
29.99999999999573
 20
9.429932236671504
 10
29.8436522483783
 20
9.544743895530757
 10
29.68982219695618
 20
9.662948846817073
 10
29.53863620757629
 20
9.784418344497737
 10
29.39013957976868
 20
9.909089207649287
 10
29.24437046050598
 20
10.03689765930181
 10
29.10137414931824
 20
10.16777992248541
 10
28.9611887931781
 20
10.30167102813726
 10
28.82385730742981
 20
10.43850898742681
 10
28.68942022323181
 20
10.57822823524481
 10
28.55792045592835
 20
10.72076678276068
 10
28.42939853667786
 20
10.86605906486517
 10
28.30389738082459
 20
11.01404309272772
 10
28.18146705627014
 20
11.16464138031011
 10
28.06220293044617
 20
11.31772041320806
 10
27.9461479186969
 20
11.47319912910467
 10
27.83333301543762
 20
11.63101434707647
 10
27.72379636764099
 20
11.79110050201422
 10
27.6175665855365
 20
11.95339202880865
 10
27.51467704772522
 20
12.11782574653631
 10
27.41516113280823
 20
12.28433370590215
 10
27.31905460357239
 20
12.45285272598272
 10
27.22638607024719
 20
12.62331604957586
 10
27.13719129561951
 20
12.79566049575811
 10
27.05150365829041
 20
12.96981930732733
  0
LINE
  5
12CE
330
12C2
100
AcDbEntity
  8
LW 3801-06-01
100
AcDbLine
 10
29.99999999999579
 20
-9.429932378622709
 30
0.0
 11
29.99999999999574
 21
9.429932330254132
 31
0.0
  0
LWPOLYLINE
  5
12CF
330
12C2
100
AcDbEntity
  8
LW 3801-06-01
100
AcDbPolyline
 90
       25
 70
     0
 43
0.0
 10
32.39559650420715
 20
8.771863579750117
 10
32.2922730445819
 20
8.777387738227901
 10
32.18910217284729
 20
8.784766197204646
 10
32.08610534667541
 20
8.794005513191279
 10
31.98330640792419
 20
8.805112838745174
 10
31.88072443007996
 20
8.818094730377254
 10
31.77837848662903
 20
8.832958340644893
 10
31.67629003524353
 20
8.849709630012569
 10
31.57448053359558
 20
8.868356347084102
 10
31.47296667098572
 20
8.88890445232397
 10
31.37177467345764
 20
8.911360502243098
 10
31.2709188461261
 20
8.935732245445308
 10
31.17042541503479
 20
8.962026238441524
 10
31.07031106948425
 20
8.990249037742671
 10
30.97059726714661
 20
9.020407199859675
 10
30.87130546569397
 20
9.052507281303462
 10
30.77245473861267
 20
9.086557030677852
 10
30.67406415938904
 20
9.122562408447322
 10
30.57615756988098
 20
9.160529971122798
 10
30.47875404357483
 20
9.200467467308101
 10
30.3818750381427
 20
9.242380857467708
 10
30.28553962707092
 20
9.286277294158992
 10
30.18976688384582
 20
9.332163929939326
 10
30.09458065032532
 20
9.380046129226741
 10
29.99999999999573
 20
9.429932236671504
  0
LWPOLYLINE
  5
12D0
330
12C2
100
AcDbEntity
  8
LW 3801-06-01
100
AcDbPolyline
 90
       25
 70
     0
 43
0.0
 10
21.18245363235046
 20
21.24390840530395
 10
21.34791135787537
 20
21.0821270942688
 10
21.51653766631653
 20
20.92360019683838
 10
21.68827295302917
 20
20.76841592788696
 10
21.86305522918274
 20
20.61666011810303
 10
22.04082727431824
 20
20.46842098236084
 10
22.2215270996051
 20
20.32378435134888
 10
22.40509510039856
 20
20.18283605575561
 10
22.59147405623962
 20
20.04566669464111
 10
22.78059959411194
 20
19.91236209869384
 10
22.97241449355652
 20
19.78300809860229
 10
23.16685914992859
 20
19.65769410133361
 10
23.36387157439758
 20
19.5365047454834
 10
23.56338739394714
 20
19.41953301429748
 10
23.76532793044617
 20
19.3068790435791
 10
23.96961927413513
 20
19.19864058494568
 10
24.17618036269714
 20
19.09491419792175
 10
24.38493728637268
 20
18.99579763412475
 10
24.59580898284485
 20
18.90139102935791
 10
24.80871915816833
 20
18.81179094314575
 10
25.02359151839783
 20
18.72709512710571
 10
25.24034976958801
 20
18.64740133285522
 10
25.458912849422
 20
18.57280969619751
 10
25.67920684814026
 20
18.50341558456421
 10
25.9011507034259
 20
18.43931794166565
  0
LINE
  5
12D1
330
12C2
100
AcDbEntity
  8
LW 3801-06-01
100
AcDbLine
 10
25.90115056774113
 20
18.43931833571008
 30
0.0
 11
29.99999999999574
 21
17.30916318669756
 31
0.0
  0
LINE
  5
12D2
330
12C2
100
AcDbEntity
  8
LW 3801-06-01
100
AcDbLine
 10
82.49999999999561
 20
8.575737194204918
 30
0.0
 11
82.4999999999957
 21
-8.575737194206396
 31
0.0
  0
LINE
  5
12D3
330
12C2
100
AcDbEntity
  8
LW 3801-06-01
100
AcDbLine
 10
77.31306395617791
 20
-6.773851745367323
 30
0.0
 11
32.39559732936786
 21
-8.771863626879508
 31
0.0
  0
LINE
  5
12D4
330
12C2
100
AcDbEntity
  8
LW 3801-06-01
100
AcDbLine
 10
29.99999999999579
 20
-17.30916318669739
 30
0.0
 11
79.67092764521776
 21
-11.59007895866335
 31
0.0
  0
LINE
  5
12D5
330
12C2
100
AcDbEntity
  8
LW 3801-06-01
100
AcDbLine
 10
79.67092764521773
 20
11.59007895866375
 30
0.0
 11
29.99999999999574
 21
17.30916318669756
 31
0.0
  0
LINE
  5
12D6
330
12C2
100
AcDbEntity
  8
LW 3801-06-01
100
AcDbLine
 10
32.39559732936786
 20
8.771863626879564
 30
0.0
 11
77.31306395617789
 21
6.773851745367608
 31
0.0
  0
LWPOLYLINE
  5
12D7
330
12C2
100
AcDbEntity
  8
LW 3801-06-01
100
AcDbPolyline
 90
       25
 70
     0
 43
0.0
 10
79.6709299087481
 20
11.59007906913774
 10
79.78905200957818
 20
11.57760977745073
 10
79.90736961364312
 20
11.56736493110674
 10
80.02585411071338
 20
11.55932426452654
 10
80.14448165893115
 20
11.55346512794511
 10
80.26321411132373
 20
11.54976844787614
 10
80.38203239440479
 20
11.54821276664751
 10
80.5008888244585
 20
11.54877781867998
 10
80.61976432799854
 20
11.55144095420854
 10
80.73863029479541
 20
11.55618429183977
 10
80.85745811461963
 20
11.56298398971574
 10
80.97620964049854
 20
11.57182097435014
 10
81.09485626220264
 20
11.58267498016374
 10
81.21337890624561
 20
11.59552335739153
 10
81.33173942565479
 20
11.61034584045427
 10
81.44990921020069
 20
11.62712216377275
 10
81.56785964965381
 20
11.64583206176775
 10
81.68556213378467
 20
11.66645288467424
 10
81.80298805236377
 20
11.68896555900591
 10
81.92009925841846
 20
11.71334862709062
 10
82.03686714171924
 20
11.73958182334917
 10
82.15326309203662
 20
11.76764249801653
 10
82.26926803588428
 20
11.79751157760637
 10
82.38484382628955
 20
11.82916760444658
 10
82.49999999999561
 20
11.86260223388689
  0
LWPOLYLINE
  5
12D8
330
12C2
100
AcDbEntity
  8
LW 3801-06-01
100
AcDbPolyline
 90
       25
 70
     0
 43
0.0
 10
82.49999999999561
 20
8.575737476349047
 10
82.30062484740772
 20
8.425759673118761
 10
82.09819793700733
 20
8.28163206577318
 10
81.89291954040088
 20
8.143448233604601
 10
81.68498039245166
 20
8.011301755905321
 10
81.47457122802295
 20
7.885286211967638
 10
81.26190185546436
 20
7.765495181083849
 10
81.047153472896
 20
7.652021050453356
 10
80.83052635192432
 20
7.544959187507799
 10
80.61222076415576
 20
7.444401383400133
 10
80.39262771606006
 20
7.350520491600207
 10
80.17219543456592
 20
7.263475060463122
 10
79.95110988616509
 20
7.18330979347246
 10
79.72954750060601
 20
7.11006760597246
 10
79.50769424438043
 20
7.043792605400255
 10
79.28573131560845
 20
6.984528303146532
 10
79.06383991241021
 20
6.932318806648424
 10
78.84220123290582
 20
6.88720703125017
 10
78.62099647521539
 20
6.849237680435351
 10
78.40040683745904
 20
6.818454265594652
 10
78.18061351775689
 20
6.794900298118761
 10
77.96180248260064
 20
6.778619289398363
 10
77.74415493011041
 20
6.769654750824145
 10
77.52784729003472
 20
6.768051385879687
 10
77.31306552886529
 20
6.77385151386278
  0
LWPOLYLINE
  5
12D9
330
12C2
100
AcDbEntity
  8
LW 3801-06-01
100
AcDbPolyline
 90
       25
 70
     0
 43
0.0
 10
84.9820899963335
 20
11.41727685928362
 10
84.91398811339893
 20
11.27267479896562
 10
84.84250068664112
 20
11.12985134124773
 10
84.76764678954639
 20
10.98887205123918
 10
84.68948364257373
 20
10.84980010986345
 10
84.60803985595264
 20
10.71270346641557
 10
84.52336311339893
 20
10.57764768600481
 10
84.43549156188526
 20
10.44469714164751
 10
84.34446334838428
 20
10.31391859054582
 10
84.25032615661182
 20
10.18537759780901
 10
84.15310859679737
 20
10.05913853645342
 10
84.05285835265674
 20
9.935268759727648
 10
83.9496135711626
 20
9.813832640648058
 10
83.84342193603076
 20
9.694896340370348
 10
83.73431205749072
 20
9.578524827957323
 10
83.62232208251514
 20
9.464784860611132
 10
83.50750923156299
 20
9.353741407394579
 10
83.38995933532276
 20
9.245510101318529
 10
83.26988220214404
 20
9.140301942825487
 10
83.14735412597217
 20
9.038180708885363
 10
83.02243232726612
 20
8.939199447632006
 10
82.89517402648487
 20
8.843411207199267
 10
82.76564598083057
 20
8.750869631767443
 10
82.63389587401904
 20
8.661627173423937
 10
82.49999999999561
 20
8.575737476349047
  0
LWPOLYLINE
  5
12DA
330
12C2
100
AcDbEntity
  8
LW 3801-06-01
100
AcDbPolyline
 90
       25
 70
     0
 43
0.0
 10
82.49999999999561
 20
11.86260223388689
 10
82.71893501281299
 20
11.90532684326189
 10
82.93601989745654
 20
11.95594668388384
 10
83.15106391906299
 20
12.01435327529924
 10
83.36385726928272
 20
12.08043813705461
 10
83.57421874999561
 20
12.15409517288225
 10
83.78195762633838
 20
12.23521590232866
 10
83.98687362670459
 20
12.32369422912614
 10
84.18876647948779
 20
12.41941928863542
 10
84.38745498656787
 20
12.52228617668169
 10
84.58248138427295
 20
12.63203501701372
 10
84.77347373961963
 20
12.7484047412874
 10
84.96028900146045
 20
12.87124752998369
 10
85.14275550841846
 20
13.00041079521196
 10
85.32073020934619
 20
13.13574552536028
 10
85.49405097960987
 20
13.27710390090959
 10
85.66257476806201
 20
13.42433333396928
 10
85.82610130309619
 20
13.57725381851213
 10
85.98431587218799
 20
13.73553276062029
 10
86.13705635070362
 20
13.89897227287309
 10
86.2842082977251
 20
14.06740665435808
 10
86.42563819884815
 20
14.24066543579118
 10
86.56122207641162
 20
14.41857933998125
 10
86.6908359527544
 20
14.60098028183
 10
86.81435585021533
 20
14.78769779205339
  0
LWPOLYLINE
  5
12DB
330
12C2
100
AcDbEntity
  8
LW 3801-06-01
100
AcDbPolyline
 90
       25
 70
     0
 43
0.0
 10
86.81435585021542
 20
-14.78769779205299
 10
86.69074058532284
 20
-14.60083603858925
 10
86.56107902526425
 20
-14.41837549209572
 10
86.42549514770077
 20
-14.24047827720619
 10
86.28413200377988
 20
-14.06731009483315
 10
86.13711357116269
 20
-13.89903187751747
 10
85.98459243773984
 20
-13.73580932617165
 10
85.82667350768613
 20
-13.57780456542946
 10
85.66351890563534
 20
-13.42518091201759
 10
85.49524307250546
 20
-13.27810287475563
 10
85.32198905944394
 20
-13.13673377037025
 10
85.14388084411191
 20
-13.00123572349525
 10
84.96107101439999
 20
-12.87178754806496
 10
84.77406501769589
 20
-12.74878144264198
 10
84.58316802978085
 20
-12.63243436813332
 10
84.38855171203183
 20
-12.52287268638588
 10
84.1904067993121
 20
-12.42021799087501
 10
83.98889541625546
 20
-12.32459545135475
 10
83.78422737121152
 20
-12.23612904548622
 10
83.57656478881406
 20
-12.15494275093056
 10
83.3660888671832
 20
-12.081159353256
 10
83.15298080443906
 20
-12.01490521430946
 10
82.93743133544491
 20
-11.9563019275663
 10
82.71962165832089
 20
-11.90547466278059
 10
82.4999999999957
 20
-11.86260223388654
  0
LWPOLYLINE
  5
12DC
330
12C2
100
AcDbEntity
  8
LW 3801-06-01
100
AcDbPolyline
 90
       25
 70
     0
 43
0.0
 10
82.4999999999957
 20
-8.575737476348706
 10
82.63413429259824
 20
-8.661782145500012
 10
82.76601791381406
 20
-8.751131892204114
 10
82.89560317992734
 20
-8.843728899955578
 10
83.02284240722226
 20
-8.939515352248974
 10
83.14765930175351
 20
-9.038433432578869
 10
83.27002525329159
 20
-9.140424728393384
 10
83.38987350463437
 20
-9.24543261527998
 10
83.50714683532284
 20
-9.353397488593884
 10
83.6217975616412
 20
-9.464262723922558
 10
83.73376846313046
 20
-9.577969908714123
 10
83.8430118560748
 20
-9.694458246230908
 10
83.94936561584042
 20
-9.813549518585034
 10
84.0527343749957
 20
-9.935123920440503
 10
84.15307998656796
 20
-10.05911469459511
 10
84.25037384032773
 20
-10.18545389175392
 10
84.34457778930234
 20
-10.31407713890053
 10
84.43563461303281
 20
-10.44491767883278
 10
84.52352523803281
 20
-10.57790756225563
 10
84.60821151732968
 20
-10.71298122405983
 10
84.68963623046445
 20
-10.85007190704323
 10
84.76778030395077
 20
-10.98911285400368
 10
84.84259605407284
 20
-11.13003849983192
 10
84.914045333858
 20
-11.27278208732582
 10
84.98208999633359
 20
-11.41727685928322
  0
LWPOLYLINE
  5
12DD
330
12C2
100
AcDbEntity
  8
LW 3801-06-01
100
AcDbPolyline
 90
       25
 70
     0
 43
0.0
 10
77.31306552886533
 20
-6.773851513862439
 10
77.53962516784238
 20
-6.767936348914929
 10
77.76656150817441
 20
-6.770206093787976
 10
77.99367904662656
 20
-6.780487298965283
 10
78.22076797484921
 20
-6.798604726791211
 10
78.44762325286435
 20
-6.824383735656567
 10
78.67404460906552
 20
-6.857650279998608
 10
78.8998270034747
 20
-6.898229718208142
 10
79.12476539611386
 20
-6.945947408675976
 10
79.34865474700497
 20
-7.00062870979292
 10
79.57129955291318
 20
-7.062099575996228
 10
79.79248523711728
 20
-7.130184769630261
 10
80.01201629638241
 20
-7.204710245132275
 10
80.22968292235898
 20
-7.285501360893078
 10
80.44567108153866
 20
-7.372540831565686
 10
80.66025733947324
 20
-7.465907335281201
 10
80.8732795715289
 20
-7.565508484840222
 10
81.08455657958554
 20
-7.671252489089795
 10
81.2939167022662
 20
-7.783048152923413
 10
81.50118827819394
 20
-7.900802493095227
 10
81.70618057250546
 20
-8.024423718452283
 10
81.90874099731015
 20
-8.153819441795178
 10
82.10867881774472
 20
-8.288898468017407
 10
82.30582237243222
 20
-8.429568409919568
 10
82.4999999999957
 20
-8.575737476348706
  0
LWPOLYLINE
  5
12DE
330
12C2
100
AcDbEntity
  8
LW 3801-06-01
100
AcDbPolyline
 90
       25
 70
     0
 43
0.0
 10
82.4999999999957
 20
-11.86260223388654
 10
82.38484382628964
 20
-11.82916760444624
 10
82.26926803588437
 20
-11.79751157760603
 10
82.15327262877988
 20
-11.76764249801618
 10
82.03686714171933
 20
-11.73958182334883
 10
81.92009925841855
 20
-11.71334981918318
 10
81.80298805236386
 20
-11.68896675109846
 10
81.68556213378476
 20
-11.66645407676679
 10
81.56786918639706
 20
-11.6458320617674
 10
81.44991874694394
 20
-11.6271233558653
 10
81.33174896239804
 20
-11.61034584045393
 10
81.21338844298886
 20
-11.59552335739118
 10
81.09486579894589
 20
-11.5826749801634
 10
80.97620964049863
 20
-11.5718209743498
 10
80.85745811461972
 20
-11.5629839897154
 10
80.7386302947955
 20
-11.55618429183943
 10
80.61976432799863
 20
-11.5514421463011
 10
80.50088882445859
 20
-11.54877781867964
 10
80.38203239440488
 20
-11.54821276664717
 10
80.26321411132382
 20
-11.5497684478758
 10
80.14448165893124
 20
-11.55346512794477
 10
80.02586364745663
 20
-11.55932426452619
 10
79.90736961364316
 20
-11.56736493110639
 10
79.78905200957822
 20
-11.57760977745039
 10
79.67092990874814
 20
-11.5900790691374
  0
LINE
  5
12DF
330
12C2
100
AcDbEntity
  8
LW 3801-06-01
  6
MITTE2
 62
     3
100
AcDbLine
 10
109.9999999999958
 20
30.00000000000023
 30
0.0
 11
109.9999999999981
 21
-29.99999999999977
 31
0.0
  0
ARC
  5
12E0
330
12C2
100
AcDbEntity
  8
LW 3801-06-01
100
AcDbCircle
 10
109.9999999999956
 20
0.0000000000002274
 30
0.0
 40
27.49999999999997
100
AcDbArc
 50
204.5302557472131
 51
155.4697442527877
  0
CIRCLE
  5
12E1
330
12C2
100
AcDbEntity
  8
LW 3801-06-01
100
AcDbCircle
 10
109.9999999999961
 20
0.0000000000002274
 30
0.0
 40
14.5
  0
CIRCLE
  5
12E2
330
12C2
100
AcDbEntity
  8
LW 3801-06-01
100
AcDbCircle
 10
109.9999999999961
 20
0.0000000000002274
 30
0.0
 40
17.5
  0
CIRCLE
  5
12E3
330
12C2
100
AcDbEntity
  8
LW 3801-06-01
100
AcDbCircle
 10
109.999999999996
 20
0.0000000000002274
 30
0.0
 40
22.5
  0
LINE
  5
12E4
330
12C2
100
AcDbEntity
  8
LW 3801-06-01
  6
MITTE2
 62
     3
100
AcDbLine
 10
79.99999999999561
 20
-0.0000000000009095
 30
0.0
 11
139.9999999999955
 21
0.0000000000013642
 31
0.0
  0
LINE
  5
12E5
330
12C2
100
AcDbEntity
  8
LW 3801-06-01
  6
MITTE2
 62
     3
100
AcDbLine
 10
-79.99999999999985
 20
-0.0000000000009095
 30
0.0
 11
-139.9999999999998
 21
0.0000000000013642
 31
0.0
  0
LINE
  5
12E6
330
12C2
100
AcDbEntity
  8
LW 3801-06-01
  6
MITTE2
 62
     3
100
AcDbLine
 10
-110.0000000000001
 20
30.00000000000023
 30
0.0
 11
-110.0000000000023
 21
-29.99999999999977
 31
0.0
  0
LINE
  5
12E7
330
12C2
100
AcDbEntity
  8
LW 3801-06-01
  6
MITTE2
 62
     3
100
AcDbLine
 10
-0.0000000000000568
 20
30.0
 30
0.0
 11
-0.0000000000021032
 21
-29.99999999999995
 31
0.0
  0
LINE
  5
12E8
330
12C2
100
AcDbEntity
  8
LW 3801-06-01
  6
MITTE2
 62
     3
100
AcDbLine
 10
30.00000000000017
 20
-0.0000000000010232
 30
0.0
 11
-29.99999999999983
 21
0.0000000000011369
 31
0.0
  0
CIRCLE
  5
12E9
330
12C2
100
AcDbEntity
  8
LW 3801-06-01
100
AcDbCircle
 10
-110.0000000000002
 20
0.0000000000002274
 30
0.0
 40
22.5
  0
CIRCLE
  5
12EA
330
12C2
100
AcDbEntity
  8
LW 3801-06-01
100
AcDbCircle
 10
-110.0000000000003
 20
0.0000000000002274
 30
0.0
 40
17.5
  0
CIRCLE
  5
12EB
330
12C2
100
AcDbEntity
  8
LW 3801-06-01
100
AcDbCircle
 10
-110.0000000000003
 20
0.0000000000002274
 30
0.0
 40
14.5
  0
CIRCLE
  5
12EC
330
12C2
100
AcDbEntity
  8
LW 3801-06-01
100
AcDbCircle
 10
20.99999999999994
 20
-0.0000000000000568
 30
0.0
 40
2.999999999999997
  0
CIRCLE
  5
12ED
330
12C2
100
AcDbEntity
  8
LW 3801-06-01
100
AcDbCircle
 10
-21.0
 20
0.0000000000000568
 30
0.0
 40
2.999999999999997
  0
CIRCLE
  5
12EE
330
12C2
100
AcDbEntity
  8
LW 3801-06-01
100
AcDbCircle
 10
0.0
 20
0.0
 30
0.0
 40
8.499999999999992
  0
ARC
  5
12EF
330
12C2
100
AcDbEntity
  8
LW 3801-06-01
100
AcDbCircle
 10
-109.9999999999998
 20
0.0000000000002274
 30
0.0
 40
27.49999999999997
100
AcDbArc
 50
24.53025574721223
 51
335.4697442527869
  0
LWPOLYLINE
  5
12F0
330
12C2
100
AcDbEntity
  8
LW 3801-06-01
100
AcDbPolyline
 90
       25
 70
     0
 43
0.0
 10
-82.49999999999992
 20
-11.86260223388654
 10
-82.38484382629387
 20
-11.82916760444624
 10
-82.2692680358886
 20
-11.79751157760603
 10
-82.1532726287841
 20
-11.76764249801618
 10
-82.03686714172356
 20
-11.73958182334883
 10
-81.92009925842278
 20
-11.71334981918318
 10
-81.80298805236809
 20
-11.68896675109846
 10
-81.68556213378899
 20
-11.66645407676679
 10
-81.56786918640129
 20
-11.6458320617674
 10
-81.44991874694817
 20
-11.6271233558653
 10
-81.33174896240227
 20
-11.61034584045393
 10
-81.21338844299309
 20
-11.59552335739118
 10
-81.09486579895012
 20
-11.5826749801634
 10
-80.97620964050285
 20
-11.5718209743498
 10
-80.85745811462395
 20
-11.5629839897154
 10
-80.73863029479973
 20
-11.55618429183943
 10
-80.61976432800285
 20
-11.5514421463011
 10
-80.50088882446281
 20
-11.54877781867964
 10
-80.3820323944091
 20
-11.54821276664717
 10
-80.26321411132805
 20
-11.5497684478758
 10
-80.14448165893547
 20
-11.55346512794477
 10
-80.02586364746086
 20
-11.55932426452619
 10
-79.90736961364738
 20
-11.56736493110639
 10
-79.78905200958244
 20
-11.57760977745039
 10
-79.67092990875237
 20
-11.5900790691374
  0
LWPOLYLINE
  5
12F1
330
12C2
100
AcDbEntity
  8
LW 3801-06-01
100
AcDbPolyline
 90
       25
 70
     0
 43
0.0
 10
-77.31306552886955
 20
-6.773851513862439
 10
-77.5396251678466
 20
-6.767936348914929
 10
-77.76656150817863
 20
-6.770206093787976
 10
-77.99367904663078
 20
-6.780487298965283
 10
-78.22076797485344
 20
-6.798604726791211
 10
-78.44762325286858
 20
-6.824383735656567
 10
-78.67404460906975
 20
-6.857650279998608
 10
-78.89982700347893
 20
-6.898229718208142
 10
-79.12476539611809
 20
-6.945947408675976
 10
-79.3486547470092
 20
-7.00062870979292
 10
-79.5712995529174
 20
-7.062099575996228
 10
-79.79248523712151
 20
-7.130184769630261
 10
-80.01201629638664
 20
-7.204710245132275
 10
-80.22968292236321
 20
-7.285501360893078
 10
-80.44567108154289
 20
-7.372540831565686
 10
-80.66025733947746
 20
-7.465907335281201
 10
-80.87327957153313
 20
-7.565508484840222
 10
-81.08455657958977
 20
-7.671252489089795
 10
-81.29391670227043
 20
-7.783048152923413
 10
-81.50118827819817
 20
-7.900802493095227
 10
-81.70618057250969
 20
-8.024423718452283
 10
-81.90874099731438
 20
-8.153819441795178
 10
-82.10867881774895
 20
-8.288898468017407
 10
-82.30582237243645
 20
-8.429568409919568
 10
-82.49999999999992
 20
-8.575737476348706
  0
LWPOLYLINE
  5
12F2
330
12C2
100
AcDbEntity
  8
LW 3801-06-01
100
AcDbPolyline
 90
       25
 70
     0
 43
0.0
 10
-82.49999999999992
 20
-8.575737476348706
 10
-82.63413429260246
 20
-8.661782145500012
 10
-82.76601791381828
 20
-8.751131892204114
 10
-82.89560317993156
 20
-8.843728899955578
 10
-83.02284240722649
 20
-8.939515352248974
 10
-83.14765930175774
 20
-9.038433432578869
 10
-83.27002525329582
 20
-9.140424728393384
 10
-83.3898735046386
 20
-9.24543261527998
 10
-83.50714683532707
 20
-9.353397488593884
 10
-83.62179756164543
 20
-9.464262723922558
 10
-83.73376846313469
 20
-9.577969908714123
 10
-83.84301185607903
 20
-9.694458246230908
 10
-83.94936561584465
 20
-9.813549518585034
 10
-84.05273437499992
 20
-9.935123920440503
 10
-84.15307998657219
 20
-10.05911469459511
 10
-84.25037384033196
 20
-10.18545389175392
 10
-84.34457778930656
 20
-10.31407713890053
 10
-84.43563461303703
 20
-10.44491767883278
 10
-84.52352523803703
 20
-10.57790756225563
 10
-84.60821151733391
 20
-10.71298122405983
 10
-84.68963623046867
 20
-10.85007190704323
 10
-84.767780303955
 20
-10.98911285400368
 10
-84.84259605407707
 20
-11.13003849983192
 10
-84.91404533386223
 20
-11.27278208732582
 10
-84.98208999633781
 20
-11.41727685928322
  0
LWPOLYLINE
  5
12F3
330
12C2
100
AcDbEntity
  8
LW 3801-06-01
100
AcDbPolyline
 90
       25
 70
     0
 43
0.0
 10
-86.81435585021965
 20
-14.78769779205299
 10
-86.69074058532707
 20
-14.60083603858925
 10
-86.56107902526848
 20
-14.41837549209572
 10
-86.425495147705
 20
-14.24047827720619
 10
-86.2841320037841
 20
-14.06731009483315
 10
-86.13711357116692
 20
-13.89903187751747
 10
-85.98459243774406
 20
-13.73580932617165
 10
-85.82667350769035
 20
-13.57780456542946
 10
-85.66351890563957
 20
-13.42518091201759
 10
-85.49524307250969
 20
-13.27810287475563
 10
-85.32198905944817
 20
-13.13673377037025
 10
-85.14388084411613
 20
-13.00123572349525
 10
-84.96107101440422
 20
-12.87178754806496
 10
-84.77406501770012
 20
-12.74878144264198
 10
-84.58316802978508
 20
-12.63243436813332
 10
-84.38855171203606
 20
-12.52287268638588
 10
-84.19040679931633
 20
-12.42021799087501
 10
-83.98889541625969
 20
-12.32459545135475
 10
-83.78422737121574
 20
-12.23612904548622
 10
-83.57656478881828
 20
-12.15494275093056
 10
-83.36608886718742
 20
-12.081159353256
 10
-83.15298080444328
 20
-12.01490521430946
 10
-82.93743133544914
 20
-11.9563019275663
 10
-82.71962165832512
 20
-11.90547466278059
 10
-82.49999999999992
 20
-11.86260223388654
  0
LWPOLYLINE
  5
12F4
330
12C2
100
AcDbEntity
  8
LW 3801-06-01
100
AcDbPolyline
 90
       25
 70
     0
 43
0.0
 10
-82.49999999999984
 20
11.86260223388689
 10
-82.71893501281722
 20
11.90532684326189
 10
-82.93601989746077
 20
11.95594668388384
 10
-83.15106391906722
 20
12.01435327529924
 10
-83.36385726928694
 20
12.08043813705461
 10
-83.57421874999984
 20
12.15409517288225
 10
-83.78195762634261
 20
12.23521590232866
 10
-83.98687362670882
 20
12.32369422912614
 10
-84.18876647949202
 20
12.41941928863542
 10
-84.3874549865721
 20
12.52228617668169
 10
-84.58248138427718
 20
12.63203501701372
 10
-84.77347373962386
 20
12.7484047412874
 10
-84.96028900146468
 20
12.87124752998369
 10
-85.14275550842269
 20
13.00041079521196
 10
-85.32073020935042
 20
13.13574552536028
 10
-85.49405097961409
 20
13.27710390090959
 10
-85.66257476806624
 20
13.42433333396928
 10
-85.82610130310042
 20
13.57725381851213
 10
-85.98431587219222
 20
13.73553276062029
 10
-86.13705635070784
 20
13.89897227287309
 10
-86.28420829772933
 20
14.06740665435808
 10
-86.42563819885237
 20
14.24066543579118
 10
-86.56122207641585
 20
14.41857933998125
 10
-86.69083595275862
 20
14.60098028183
 10
-86.81435585021956
 20
14.78769779205339
  0
LWPOLYLINE
  5
12F5
330
12C2
100
AcDbEntity
  8
LW 3801-06-01
100
AcDbPolyline
 90
       25
 70
     0
 43
0.0
 10
-84.98208999633773
 20
11.41727685928362
 10
-84.91398811340316
 20
11.27267479896562
 10
-84.84250068664534
 20
11.12985134124773
 10
-84.76764678955062
 20
10.98887205123918
 10
-84.68948364257796
 20
10.84980010986345
 10
-84.60803985595687
 20
10.71270346641557
 10
-84.52336311340316
 20
10.57764768600481
 10
-84.43549156188948
 20
10.44469714164751
 10
-84.34446334838851
 20
10.31391859054582
 10
-84.25032615661605
 20
10.18537759780901
 10
-84.15310859680159
 20
10.05913853645342
 10
-84.05285835266097
 20
9.935268759727648
 10
-83.94961357116683
 20
9.813832640648058
 10
-83.84342193603499
 20
9.694896340370348
 10
-83.73431205749495
 20
9.578524827957323
 10
-83.62232208251937
 20
9.464784860611132
 10
-83.50750923156722
 20
9.353741407394579
 10
-83.38995933532698
 20
9.245510101318529
 10
-83.26988220214827
 20
9.140301942825487
 10
-83.1473541259764
 20
9.038180708885363
 10
-83.02243232727034
 20
8.939199447632006
 10
-82.89517402648909
 20
8.843411207199267
 10
-82.7656459808348
 20
8.750869631767443
 10
-82.63389587402327
 20
8.661627173423937
 10
-82.49999999999984
 20
8.575737476349047
  0
LWPOLYLINE
  5
12F6
330
12C2
100
AcDbEntity
  8
LW 3801-06-01
100
AcDbPolyline
 90
       25
 70
     0
 43
0.0
 10
-82.49999999999984
 20
8.575737476349047
 10
-82.30062484741194
 20
8.425759673118761
 10
-82.09819793701155
 20
8.28163206577318
 10
-81.89291954040511
 20
8.143448233604601
 10
-81.68498039245589
 20
8.011301755905321
 10
-81.47457122802718
 20
7.885286211967638
 10
-81.26190185546859
 20
7.765495181083849
 10
-81.04715347290023
 20
7.652021050453356
 10
-80.83052635192855
 20
7.544959187507799
 10
-80.61222076415999
 20
7.444401383400133
 10
-80.39262771606429
 20
7.350520491600207
 10
-80.17219543457015
 20
7.263475060463122
 10
-79.95110988616933
 20
7.18330979347246
 10
-79.72954750061025
 20
7.11006760597246
 10
-79.50769424438466
 20
7.043792605400255
 10
-79.28573131561269
 20
6.984528303146532
 10
-79.06383991241445
 20
6.932318806648424
 10
-78.84220123291005
 20
6.88720703125017
 10
-78.62099647521962
 20
6.849237680435351
 10
-78.40040683746328
 20
6.818454265594652
 10
-78.18061351776113
 20
6.794900298118761
 10
-77.96180248260488
 20
6.778619289398363
 10
-77.74415493011464
 20
6.769654750824145
 10
-77.52784729003896
 20
6.768051385879687
 10
-77.31306552886953
 20
6.77385151386278
  0
LWPOLYLINE
  5
12F7
330
12C2
100
AcDbEntity
  8
LW 3801-06-01
100
AcDbPolyline
 90
       25
 70
     0
 43
0.0
 10
-79.67092990875234
 20
11.59007906913774
 10
-79.78905200958242
 20
11.57760977745073
 10
-79.90736961364736
 20
11.56736493110674
 10
-80.02585411071761
 20
11.55932426452654
 10
-80.14448165893538
 20
11.55346512794511
 10
-80.26321411132796
 20
11.54976844787614
 10
-80.38203239440901
 20
11.54821276664751
 10
-80.50088882446273
 20
11.54877781867998
 10
-80.61976432800276
 20
11.55144095420854
 10
-80.73863029479964
 20
11.55618429183977
 10
-80.85745811462386
 20
11.56298398971574
 10
-80.97620964050276
 20
11.57182097435014
 10
-81.09485626220687
 20
11.58267498016374
 10
-81.21337890624984
 20
11.59552335739153
 10
-81.33173942565901
 20
11.61034584045427
 10
-81.44990921020491
 20
11.62712216377275
 10
-81.56785964965804
 20
11.64583206176775
 10
-81.6855621337889
 20
11.66645288467424
 10
-81.802988052368
 20
11.68896555900591
 10
-81.92009925842269
 20
11.71334862709062
 10
-82.03686714172347
 20
11.73958182334917
 10
-82.15326309204085
 20
11.76764249801653
 10
-82.26926803588851
 20
11.79751157760637
 10
-82.38484382629378
 20
11.82916760444658
 10
-82.49999999999984
 20
11.86260223388689
  0
LINE
  5
12F8
330
12C2
100
AcDbEntity
  8
LW 3801-06-01
100
AcDbLine
 10
-32.39559732937212
 20
8.771863626879564
 30
0.0
 11
-77.31306395618211
 21
6.773851745367608
 31
0.0
  0
LINE
  5
12F9
330
12C2
100
AcDbEntity
  8
LW 3801-06-01
100
AcDbLine
 10
-25.90115056774533
 20
18.43931833571008
 30
0.0
 11
-29.99999999999995
 21
17.30916318669756
 31
0.0
  0
LINE
  5
12FA
330
12C2
100
AcDbEntity
  8
LW 3801-06-01
100
AcDbLine
 10
-79.67092764522195
 20
11.59007895866375
 30
0.0
 11
-29.99999999999995
 21
17.30916318669756
 31
0.0
  0
LWPOLYLINE
  5
12FB
330
12C2
100
AcDbEntity
  8
LW 3801-06-01
100
AcDbPolyline
 90
       25
 70
     0
 43
0.0
 10
-30.00000000000001
 20
-9.42993223667139
 10
-30.09423494338991
 20
-9.380226731300297
 10
-30.18922567367555
 20
-9.332437515258732
 10
-30.28494834899904
 20
-9.286567568778934
 10
-30.38138389587404
 20
-9.242620468139591
 10
-30.47849893569948
 20
-9.200602173805179
 10
-30.57615041732789
 20
-9.160563945770206
 10
-30.67427635192872
 20
-9.12251412868494
 10
-30.77286005020143
 20
-9.086443781852665
 10
-30.8718776702881
 20
-9.052344560623112
 10
-30.9713125228882
 20
-9.020209312438908
 10
-31.07114076614381
 20
-8.990028500556888
 10
-31.17134332656862
 20
-8.961794972419681
 10
-31.27190113067628
 20
-8.935500383377018
 10
-31.37279272079469
 20
-8.911135792732181
 10
-31.47399663925172
 20
-8.888693451881351
 10
-31.57549619674684
 20
-8.868165612220707
 10
-31.67726755142213
 20
-8.849543333053532
 10
-31.77928924560548
 20
-8.832818865776005
 10
-31.88154697418214
 20
-8.817983865737858
 10
-31.98401451110841
 20
-8.805029988288822
 10
-32.08667278289797
 20
-8.793949484825077
 10
-32.18950271606447
 20
-8.784733414649906
 10
-32.2924852371216
 20
-8.777374625205936
 10
-32.39559650421144
 20
-8.771863579750004
  0
LWPOLYLINE
  5
12FC
330
12C2
100
AcDbEntity
  8
LW 3801-06-01
100
AcDbPolyline
 90
       25
 70
     0
 43
0.0
 10
-25.90115070343019
 20
-18.43931794166559
 10
-25.67920684814454
 20
-18.50341558456415
 10
-25.45891284942628
 20
-18.57280969619745
 10
-25.2403497695923
 20
-18.64740252494806
 10
-25.02359151840211
 20
-18.72709512710565
 10
-24.80871915817262
 20
-18.81179094314569
 10
-24.59580659866334
 20
-18.90139102935785
 10
-24.38493490219117
 20
-18.99579882621759
 10
-24.17618036270143
 20
-19.09491419792169
 10
-23.96961688995363
 20
-19.19864058494562
 10
-23.76532793045045
 20
-19.30688023567194
 10
-23.56338500976564
 20
-19.41953420639032
 10
-23.36386919021608
 20
-19.53650474548334
 10
-23.16685676574708
 20
-19.65769410133356
 10
-22.9724144935608
 20
-19.78300929069513
 10
-22.78059959411622
 20
-19.91236329078668
 10
-22.59147405624391
 20
-20.04566669464105
 10
-22.40509510040284
 20
-20.18283605575556
 10
-22.22152709960939
 20
-20.32378435134882
 10
-22.04082727432252
 20
-20.46842098236078
 10
-21.86305522918702
 20
-20.61666011810297
 10
-21.68827295303346
 20
-20.7684159278869
 10
-21.51653766632081
 20
-20.92360019683832
 10
-21.34791135787965
 20
-21.08212709426874
 10
-21.18245363235475
 20
-21.2439084053039
  0
LWPOLYLINE
  5
12FD
330
12C2
100
AcDbEntity
  8
LW 3801-06-01
100
AcDbPolyline
 90
       25
 70
     0
 43
0.0
 10
-27.05150365829469
 20
-12.96981930732721
 10
-27.13727712631227
 20
-12.79549002647394
 10
-27.22654581069948
 20
-12.62301564216608
 10
-27.31926918029786
 20
-12.45246291160578
 10
-27.41541624069215
 20
-12.2838938236236
 10
-27.51494884490968
 20
-12.1173739433288
 10
-27.61783123016359
 20
-11.95296764373773
 10
-27.724027633667
 20
-11.79073810577387
 10
-27.83350467681886
 20
-11.63075089454645
 10
-27.9462242126465
 20
-11.47307157516474
 10
-28.06215047836305
 20
-11.3177609443664
 10
-28.18125009536744
 20
-11.16488695144647
 10
-28.30348491668702
 20
-11.01451158523554
 10
-28.42881917953492
 20
-10.86670041084284
 10
-28.55721950531007
 20
-10.72151780128473
 10
-28.6886501312256
 20
-10.57902693748468
 10
-28.82307291030885
 20
-10.43929338455194
 10
-28.96045684814454
 20
-10.30238151550287
 10
-29.10075902938844
 20
-10.16835570335382
 10
-29.24395084381105
 20
-10.03727912902826
 10
-29.38993692398073
 20
-9.909267425537052
 10
-29.53858375549318
 20
-9.7844642400741
 10
-29.68984365463258
 20
-9.662932157516422
 10
-29.84366655349733
 20
-9.544734358787479
 10
-30.00000000000001
 20
-9.42993223667139
  0
LWPOLYLINE
  5
12FE
330
12C2
100
AcDbEntity
  8
LW 3801-06-01
100
AcDbPolyline
 90
       25
 70
     0
 43
0.0
 10
-29.99999999999996
 20
9.429932236671504
 10
-29.84365224838252
 20
9.544743895530757
 10
-29.68982219696041
 20
9.662948846817073
 10
-29.53863620758052
 20
9.784418344497737
 10
-29.39013957977291
 20
9.909089207649287
 10
-29.24437046051021
 20
10.03689765930181
 10
-29.10137414932247
 20
10.16777992248541
 10
-28.96118879318233
 20
10.30167102813726
 10
-28.82385730743404
 20
10.43850898742681
 10
-28.68942022323604
 20
10.57822823524481
 10
-28.55792045593257
 20
10.72076678276068
 10
-28.42939853668208
 20
10.86605906486517
 10
-28.30389738082881
 20
11.01404309272772
 10
-28.18146705627437
 20
11.16464138031011
 10
-28.0622029304504
 20
11.31772041320806
 10
-27.94614791870113
 20
11.47319912910467
 10
-27.83333301544185
 20
11.63101434707647
 10
-27.72379636764522
 20
11.79110050201422
 10
-27.61756658554073
 20
11.95339202880865
 10
-27.51467704772945
 20
12.11782574653631
 10
-27.41516113281246
 20
12.28433370590215
 10
-27.31905460357662
 20
12.45285272598272
 10
-27.22638607025142
 20
12.62331604957586
 10
-27.13719129562373
 20
12.79566049575811
 10
-27.05150365829463
 20
12.96981930732733
  0
LWPOLYLINE
  5
12FF
330
12C2
100
AcDbEntity
  8
LW 3801-06-01
100
AcDbPolyline
 90
       25
 70
     0
 43
0.0
 10
-21.18245363235469
 20
21.24390840530395
 10
-21.34791135787959
 20
21.0821270942688
 10
-21.51653766632076
 20
20.92360019683838
 10
-21.6882729530334
 20
20.76841592788696
 10
-21.86305522918697
 20
20.61666011810303
 10
-22.04082727432246
 20
20.46842098236084
 10
-22.22152709960933
 20
20.32378435134888
 10
-22.40509510040279
 20
20.18283605575561
 10
-22.59147405624385
 20
20.04566669464111
 10
-22.78059959411617
 20
19.91236209869384
 10
-22.97241449356075
 20
19.78300809860229
 10
-23.16685914993282
 20
19.65769410133361
 10
-23.36387157440181
 20
19.5365047454834
 10
-23.56338739395137
 20
19.41953301429748
 10
-23.76532793045039
 20
19.3068790435791
 10
-23.96961927413936
 20
19.19864058494568
 10
-24.17618036270137
 20
19.09491419792175
 10
-24.38493728637691
 20
18.99579763412475
 10
-24.59580898284908
 20
18.90139102935791
 10
-24.80871915817256
 20
18.81179094314575
 10
-25.02359151840205
 20
18.72709512710571
 10
-25.24034976959224
 20
18.64740133285522
 10
-25.45891284942622
 20
18.57280969619751
 10
-25.67920684814449
 20
18.50341558456421
 10
-25.90115070343013
 20
18.43931794166565
  0
LWPOLYLINE
  5
1300
330
12C2
100
AcDbEntity
  8
LW 3801-06-01
100
AcDbPolyline
 90
       25
 70
     0
 43
0.0
 10
-32.39559650421139
 20
8.771863579750117
 10
-32.29227304458614
 20
8.777387738227901
 10
-32.18910217285152
 20
8.784766197204646
 10
-32.08610534667965
 20
8.794005513191279
 10
-31.98330640792842
 20
8.805112838745174
 10
-31.88072443008418
 20
8.818094730377254
 10
-31.77837848663326
 20
8.832958340644893
 10
-31.67629003524776
 20
8.849709630012569
 10
-31.57448053359981
 20
8.868356347084102
 10
-31.47296667098995
 20
8.88890445232397
 10
-31.37177467346187
 20
8.911360502243098
 10
-31.27091884613033
 20
8.935732245445308
 10
-31.17042541503902
 20
8.962026238441524
 10
-31.07031106948848
 20
8.990249037742671
 10
-30.97059726715083
 20
9.020407199859675
 10
-30.8713054656982
 20
9.052507281303462
 10
-30.7724547386169
 20
9.086557030677852
 10
-30.67406415939327
 20
9.122562408447322
 10
-30.57615756988521
 20
9.160529971122798
 10
-30.47875404357906
 20
9.200467467308101
 10
-30.38187503814693
 20
9.242380857467708
 10
-30.28553962707515
 20
9.286277294158992
 10
-30.18976688385005
 20
9.332163929939326
 10
-30.09458065032954
 20
9.380046129226741
 10
-29.99999999999996
 20
9.429932236671504
  0
LINE
  5
1301
330
12C2
100
AcDbEntity
  8
LW 3801-06-01
100
AcDbLine
 10
-30.0
 20
-17.30916318669739
 30
0.0
 11
-79.67092764522201
 21
-11.59007895866335
 31
0.0
  0
LINE
  5
1302
330
12C2
100
AcDbEntity
  8
LW 3801-06-01
100
AcDbLine
 10
-30.0
 20
-17.30916318669739
 30
0.0
 11
-25.90115056774539
 21
-18.43931833570997
 31
0.0
  0
LINE
  5
1303
330
12C2
100
AcDbEntity
  8
LW 3801-06-01
100
AcDbLine
 10
-77.31306395618216
 20
-6.773851745367323
 30
0.0
 11
-32.39559732937212
 21
-8.771863626879508
 31
0.0
  0
LINE
  5
1304
330
12C2
100
AcDbEntity
  8
LW 3801-06-01
100
AcDbLine
 10
-30.0
 20
-9.429932378622709
 30
0.0
 11
-29.99999999999995
 21
9.429932330254132
 31
0.0
  0
LINE
  5
1305
330
12C2
100
AcDbEntity
  8
LW 3801-06-01
100
AcDbLine
 10
-82.49999999999985
 20
8.575737194204918
 30
0.0
 11
-82.49999999999991
 21
-8.575737194206396
 31
0.0
  0
INSERT
  5
1306
330
12C2
100
AcDbEntity
  8
LW 3801-06-01
100
AcDbBlockReference
 66
     1
  2
insertpoint-ECKELT
 10
-0.0000000000000284
 20
0.0
 30
0.0
  0
ATTRIB
  5
1307
330
1306
100
AcDbEntity
  8
insertpoint_ECKELT
100
AcDbText
 10
-6.931514324693115
 20
-0.0000000000000284
 30
0.0
 40
0.6
  1
LW 3801/06-01
 72
     2
 11
-1.200000000000073
 21
-0.0000000000000284
 31
0.0
100
AcDbAttribute
  2
LINKS
 70
     0
  0
ATTRIB
  5
1308
330
1306
100
AcDbEntity
  8
insertpoint_ECKELT
100
AcDbText
 10
1.199999999999903
 20
-0.0000000000000284
 30
0.0
 40
0.6
  1

100
AcDbAttribute
  2
RECHTS
 70
     0
  0
SEQEND
  5
1309
330
1306
100
AcDbEntity
  8
LW 3801-06-01
  0
HATCH
  5
130A
330
12C2
100
AcDbEntity
  8
LW 3801-06-01
 62
     1
100
AcDbHatch
 10
0.0
 20
0.0
 30
0.0
210
0.0
220
0.0
230
1.0
  2
SOLID
 70
     1
 71
     0
 91
        5
 92
        7
 72
     0
 73
     1
 93
       76
 10
-58.33463960009289
 20
0.8331206923008807
 10
-58.30278077072008
 20
0.8847016541425745
 10
-58.18462264648883
 20
1.035944053158559
 10
-58.05014457127604
 20
1.176368183421104
 10
-57.90412466481459
 20
1.30475274513445
 10
-57.7404558687326
 20
1.421659028050171
 10
-57.56506891536786
 20
1.52383690987186
 10
-57.38331598276755
 20
1.615188589454703
 10
-57.20214704730181
 20
1.684706901900895
 10
-59.45928498550184
 20
1.684706901900838
 10
-59.67218153790181
 20
1.676017246700823
 10
-59.87421602130178
 20
1.649948281100861
 10
-60.06973326330181
 20
1.608672418900795
 10
-60.25438843630173
 20
1.55436207390079
 10
-60.43035395410183
 20
1.484844832300794
 10
-60.59762981670179
 20
1.402293107900703
 10
-60.74819807924868
 20
1.306967590356876
 10
-60.89090567970171
 20
1.200258624500776
 10
-61.01634693527238
 20
1.081210348260654
 10
-61.12761188734975
 20
0.9529510375087966
 10
-61.22762981870173
 20
0.8157413819007928
 10
-61.3101815431018
 20
0.6701896573007389
 10
-61.3731815433018
 20
0.5159482775005842
 10
-61.42314706070166
 20
0.3551896563008512
 10
-61.45138844010169
 20
0.1900862075007552
 10
-61.46007809530174
 20
0.0162931035007858
 10
-61.44921602630168
 20
-0.1575000004993257
 10
-61.41880223310173
 20
-0.3247758630992763
 10
-61.36449188810162
 20
-0.4855344842992225
 10
-61.29497464650173
 20
-0.6419482778992603
 10
-61.20590568070163
 20
-0.7896724162993394
 10
-61.09945740450169
 20
-0.9308793132992008
 10
-60.97675947307767
 20
-1.062093106819247
 10
-60.84056042436941
 20
-1.183226900307161
 10
-60.6932160239017
 20
-1.293672417899259
 10
-60.53245740270156
 20
-1.391431038899142
 10
-60.3568307814544
 20
-1.476328970203169
 10
-60.17618153950173
 20
-1.550017246299191
 10
-59.98500912510161
 20
-1.606500005099235
 10
-59.78514705550165
 20
-1.649948281099185
 10
-59.57659533070168
 20
-1.676017246699203
 10
-59.36587119210173
 20
-1.684706901899204
 10
-57.24670010634906
 20
-1.684706901899076
 10
-57.40724397040158
 20
-1.621636098164216
 10
-57.59080811420398
 20
-1.531015824641443
 10
-57.75927452037407
 20
-1.426486131709864
 10
-57.92210741513489
 20
-1.310867893284452
 10
-58.06601978350506
 20
-1.181078296744558
 10
-58.19345567698936
 20
-1.041724613516038
 10
-58.3071610317327
 20
-0.8912363688034474
 10
-58.35913226318133
 20
-0.8070517266991572
 10
-59.38759533010176
 20
-0.8070517266992141
 10
-59.51970415810723
 20
-0.7994917266751145
 10
-59.65045739990175
 20
-0.7791579335072214
 10
-59.77862981410161
 20
-0.746224140299205
 10
-59.89376774550165
 20
-0.7006034504991306
 10
-59.99871271135209
 20
-0.6441206916992286
 10
-60.09686236683612
 20
-0.5765151742432125
 10
-60.18704360850171
 20
-0.4985689670992599
 10
-60.25873326390165
 20
-0.413844828899201
 10
-58.53121194964289
 20
-0.4138448288991726
 10
-58.5417964169159
 20
-0.3812093881408458
 10
-58.57790822488034
 20
-0.1958354405897182
 10
-58.58995187766206
 20
-0.0055457266389851
 10
-58.57793020523269
 20
0.189205366716024
 10
-58.54162448355744
 20
0.3755747379825181
 10
-58.52502578088238
 20
0.4247068979008049
 10
-60.29566429850174
 20
0.4247068979007623
 10
-60.22614705690175
 20
0.5202931051007198
 10
-60.14359533250178
 20
0.6028448295008247
 10
-60.04850443564819
 20
0.6727096573087437
 10
-59.94590567670171
 20
0.7310172437008334
 10
-59.82721367632496
 20
0.7749868990127738
 10
-59.70476774490165
 20
0.8070517267008199
 10
-59.56790567550175
 20
0.8266034509007482
 10
-59.42452636470173
 20
0.8331206923008238
 97
        0
 92
        7
 72
     0
 73
     1
 93
       72
 10
-56.60617573506499
 20
0.8185220715648711
 10
-56.48331270019217
 20
0.8365965543808755
 10
-56.35925049290178
 20
0.8418103475008962
 10
-55.09056083370174
 20
0.841810347500953
 10
-55.93780221570169
 20
0.0271551725010255
 10
-54.17162979630163
 20
-1.691224143298953
 10
-52.85297461970171
 20
-1.691224143298967
 10
-54.5670091079017
 20
0.0510517243010043
 10
-52.88556082670173
 20
1.684706901901094
 10
-56.32449187210167
 20
1.684706901900923
 10
-56.53247876931381
 20
1.673931729452945
 10
-56.73919697686668
 20
1.648471039716852
 10
-56.94362980510174
 20
1.608672418900908
 10
-57.13697463330176
 20
1.552189660100893
 10
-57.32380222010184
 20
1.480500004700871
 10
-57.49496235857623
 20
1.3944724182209
 10
-57.66052635910174
 20
1.29801724550083
 10
-57.81259532510171
 20
1.189396555500891
 10
-57.94829298070489
 20
1.070087589604895
 10
-58.07328498110175
 20
0.9395689685008363
 10
-58.18190567110182
 20
0.8005344853008153
 10
-58.27314705070174
 20
0.6528103469009495
 10
-58.34483670610175
 20
0.4985689671008658
 10
-58.39914705110174
 20
0.3378103459008486
 10
-58.43173325810173
 20
0.1705344833008269
 10
-58.44259532710172
 20
-0.0054310344992672
 10
-58.43173325810167
 20
-0.1770517246991261
 10
-58.39914705110169
 20
-0.3443275872991194
 10
-58.34700911990168
 20
-0.505086208499094
 10
-58.27749187830171
 20
-0.6593275882991208
 10
-58.18565091249289
 20
-0.8080944853230533
 10
-58.08027146388244
 20
-0.9475634512832016
 10
-57.96226594626642
 20
-1.07660483100301
 10
-57.82997463550167
 20
-1.195913796899105
 10
-57.67785353157044
 20
-1.303926211035175
 10
-57.51931946210163
 20
-1.40229310789914
 10
-57.34769877190164
 20
-1.487017246099128
 10
-57.16521601270162
 20
-1.558706901499093
 10
-56.97098483967124
 20
-1.612756556843081
 10
-56.77418152870174
 20
-1.656465522499132
 10
-56.56562980390162
 20
-1.682534488099108
 10
-56.35490566530171
 20
-1.691224143299081
 10
-54.45187117650167
 20
-1.691224143298981
 10
-55.33821600690169
 20
-0.817913795698999
 10
-56.35490566530169
 20
-0.8179137956990558
 10
-56.4215726999962
 20
-0.8141665027597611
 10
-56.52252042445448
 20
-0.8041841404830876
 10
-56.64265490759446
 20
-0.7827206921390797
 10
-56.75977408038008
 20
-0.7483965540991449
 10
-56.86126925311606
 20
-0.7074682781070721
 10
-56.91740442570813
 20
-0.6793137952590343
 10
-56.9710891155337
 20
-0.6467275882589832
 10
-57.10364980560973
 20
-0.5474048293231136
 10
-57.17725118515367
 20
-0.4773662084110839
 10
-57.23231753015602
 20
-0.4095000012992216
 10
-57.28102304755211
 20
-0.3369413803791303
 10
-57.32038718560821
 20
-0.2597772422031852
 10
-57.34981035811533
 20
-0.178355172979181
 10
-57.37050911680171
 20
-0.091197931323066
 10
-57.37802566854977
 20
-0.0018682758672099
 10
-57.37667008233849
 20
0.0604365519168795
 10
-57.37066553059531
 20
0.1225675865967588
 10
-57.35850870297048
 20
0.1857413799009322
 10
-57.3402951856713
 20
0.2474379318208975
 10
-57.29664704760179
 20
0.346152414892785
 10
-57.25511918540092
 20
0.4140186220048321
 10
-57.19204097830412
 20
0.4920517257008897
 10
-57.06263903793933
 20
0.6185744627545518
 10
-57.00337118460168
 20
0.6586324158848953
 10
-56.92707601194577
 20
0.7029496574048295
 10
-56.84305573581699
 20
0.7450944851248949
 10
-56.72651876992974
 20
0.7879344852609194
 97
        0
 92
        7
 72
     0
 73
     1
 93
       57
 10
-52.04813875507761
 20
0.796450347357137
 10
-51.9166642719017
 20
0.8364227612771202
 10
-51.7819746163018
 20
0.8635344855011481
 10
-51.63859530550187
 20
0.8722241407010926
 10
-50.39814702570173
 20
0.8722241407011637
 10
-50.39814702570175
 20
1.69774138470116
 10
-51.63207806410176
 20
1.697741384701046
 10
-51.84280220270176
 20
1.689051729501073
 10
-52.04918151370174
 20
1.660810350101087
 10
-52.24687116950171
 20
1.61953448790112
 10
-52.43587117010171
 20
1.565224142901087
 10
-52.62052634310165
 20
1.493534487501094
 10
-52.78693324018195
 20
1.410895866549012
 10
-52.94575406827225
 20
1.31444069382897
 10
-53.09583310323134
 20
1.204951038309033
 10
-53.23039241400325
 20
1.085728968965085
 10
-53.35045737990171
 20
0.9569482789010095
 10
-53.45473324230169
 20
0.8179137957010311
 10
-53.53945738050176
 20
0.6723620711009915
 10
-53.61114703590179
 20
0.5181206913009504
 10
-53.66111255330171
 20
0.3573620701011322
 10
-53.69369876030169
 20
0.1900862075011105
 10
-53.70456082930168
 20
0.0162931035010843
 10
-53.69369876030169
 20
-0.1575000004989562
 10
-53.66111255330169
 20
-0.3247758630989637
 10
-53.60897462210177
 20
-0.4855344842990235
 10
-53.53728496670166
 20
-0.6419482778989476
 10
-53.45038841470162
 20
-0.7896724162989699
 10
-53.34154179366652
 20
-0.9292282788109531
 10
-53.22168537949288
 20
-1.05957310681093
 10
-53.08525779285286
 20
-1.18088069340294
 10
-52.93769875790168
 20
-1.291500004098978
 10
-52.77694013670171
 20
-1.389258625099031
 10
-52.60314703270168
 20
-1.473982763298934
 10
-52.41849185970164
 20
-1.547844832498853
 10
-52.22731944530164
 20
-1.604327591298925
 10
-52.02745737570168
 20
-1.647775867298875
 10
-51.82107806470169
 20
-1.671672419098968
 10
-51.60818151230166
 20
-1.680362074298926
 10
-50.39814702570168
 20
-1.680362074298869
 10
-50.3981470257017
 20
-0.8222586232989073
 10
-51.63207806410176
 20
-0.8222586232989641
 10
-51.76572496107773
 20
-0.8119179336109709
 10
-51.89798151322164
 20
-0.7899331059548871
 10
-52.01859392739766
 20
-0.7556089679149097
 10
-52.13460082431762
 20
-0.7076420712108558
 10
-52.24426427294168
 20
-0.6467275882588979
 10
-52.34132772152573
 20
-0.579122070802967
 10
-52.42874565283767
 20
-0.4993510360669263
 10
-52.50321599790169
 20
-0.4138448288989452
 10
-50.39814702570172
 20
-0.4138448288988883
 10
-50.39814702570172
 20
0.4138448289011621
 10
-52.54014703250175
 20
0.4138448289010484
 10
-52.47062979090173
 20
0.5116034499010738
 10
-52.38373323890184
 20
0.6006724157009984
 10
-52.28258565237371
 20
0.6769675883571012
 10
-52.17518151410171
 20
0.7440517265010698
 97
        0
 92
        7
 72
     0
 73
     1
 93
        6
 10
-50.16787116290172
 20
1.684706901901208
 10
-50.16787116290164
 20
-1.684706901898834
 10
-47.9302849489016
 20
-1.684706901898721
 10
-47.93028494890164
 20
-0.817913795698729
 10
-49.14466426310162
 20
-0.8179137956987432
 10
-49.14466426310174
 20
1.684706901901222
 97
        0
 92
        7
 72
     0
 73
     1
 93
        8
 10
-48.91221598650179
 20
1.684706901901179
 10
-48.91221598650176
 20
0.8591896579011546
 10
-47.67828494810174
 20
0.8591896579012683
 10
-47.67828494810165
 20
-1.69122414329874
 10
-46.65290563450168
 20
-1.691224143298725
 10
-46.65290563450176
 20
0.8591896579012399
 10
-45.41028494090174
 20
0.8591896579012683
 10
-45.41028494090179
 20
1.684706901901279
 97
        0
 75
     0
 76
     1
 47
0.0142553043587597
 98
        5
 10
-59.02497947402652
 20
1.242257232311715
 10
-56.75748226068394
 20
1.099704247306036
 10
-52.2652705284824
 20
1.156725419853884
 10
-49.54142144465079
 20
1.399065644546297
 10
-48.12958346242405
 20
1.299278512132914
450
        0
451
        0
460
0.0
461
0.0
452
        0
462
0.0
453
        0
470

  0
LWPOLYLINE
  5
130B
330
12C2
100
AcDbEntity
  8
LW 3801-06-01
 62
     1
100
AcDbPolyline
 90
        8
 70
     1
 43
0.0
 10
-46.65290563450176
 20
0.8591896579012399
 10
-46.65290563450168
 20
-1.691224143298725
 10
-47.67828494810165
 20
-1.69122414329874
 10
-47.67828494810174
 20
0.8591896579012683
 10
-48.91221598650176
 20
0.8591896579011546
 10
-48.91221598650179
 20
1.684706901901179
 10
-45.41028494090179
 20
1.684706901901279
 10
-45.41028494090174
 20
0.8591896579012683
  0
LWPOLYLINE
  5
130C
330
12C2
100
AcDbEntity
  8
LW 3801-06-01
 62
     1
100
AcDbPolyline
 90
       73
 70
     1
 43
0.0
 10
-56.35490566530169
 20
-0.8179137956990558
 10
-55.33821600690169
 20
-0.817913795698999
 10
-54.45187117650167
 20
-1.691224143298981
 10
-56.35490566530167
 20
-1.691224143299123
 10
-56.56562980390167
 20
-1.682534488099079
 10
-56.77418152870163
 20
-1.656465522499061
 10
-56.97098483967124
 20
-1.612756556843081
 10
-57.16521601270162
 20
-1.558706901499093
 10
-57.34769877190164
 20
-1.487017246099128
 10
-57.51931946210165
 20
-1.402293107899112
 10
-57.67785353157042
 20
-1.303926211035062
 10
-57.82997463550167
 20
-1.195913796899105
 10
-57.96226594626647
 20
-1.076604831003137
 10
-58.08027146388248
 20
-0.9475634512831732
 10
-58.18565091249283
 20
-0.8080944853231102
 10
-58.27749187830171
 20
-0.6593275882991208
 10
-58.34700911990168
 20
-0.505086208499094
 10
-58.39914705110169
 20
-0.3443275872991194
 10
-58.43173325810167
 20
-0.1770517246991261
 10
-58.4425953271017
 20
-0.0054310344991251
 10
-58.43173325810173
 20
0.1705344833008269
 10
-58.39914705110174
 20
0.3378103459008486
 10
-58.34483670610173
 20
0.4985689671008516
 10
-58.27314705070171
 20
0.652810346900921
 10
-58.18190567110173
 20
0.8005344853008864
 10
-58.07328498110175
 20
0.9395689685008363
 10
-57.94829298070492
 20
1.070087589604909
 10
-57.81259532510183
 20
1.189396555500849
 10
-57.66052635910179
 20
1.298017245500886
 10
-57.49496235857617
 20
1.394472418220843
 10
-57.32380222010181
 20
1.480500004700843
 10
-57.13697463330176
 20
1.552189660100893
 10
-56.94362980510177
 20
1.608672418900951
 10
-56.73919697686658
 20
1.648471039716909
 10
-56.53247876931378
 20
1.673931729452931
 10
-56.32449187210181
 20
1.684706901900909
 10
-52.88556082670173
 20
1.684706901901094
 10
-54.5670091079017
 20
0.0510517243010043
 10
-52.85297461970171
 20
-1.691224143298967
 10
-54.17162979630163
 20
-1.691224143298953
 10
-55.93780221570169
 20
0.0271551725010255
 10
-55.09056083370174
 20
0.841810347500953
 10
-56.35925049290178
 20
0.8418103475008962
 10
-56.48331270019217
 20
0.8365965543808755
 10
-56.60617573506499
 20
0.8185220715648711
 10
-56.72651876992971
 20
0.7879344852609194
 10
-56.84305573581695
 20
0.7450944851248523
 10
-56.92707601194581
 20
0.7029496574048722
 10
-57.00337118460175
 20
0.6586324158849238
 10
-57.04361297783295
 20
0.6314337951088902
 10
-57.08112621933134
 20
0.6004986225969163
 10
-57.19204097830412
 20
0.4920517257008897
 10
-57.25511918540092
 20
0.4140186220048321
 10
-57.29664704760174
 20
0.3461524148928845
 10
-57.3402951856713
 20
0.2474379318208975
 10
-57.35850870297048
 20
0.1857413799009322
 10
-57.37066553059529
 20
0.1225675865969009
 10
-57.37667008233851
 20
0.0604365519169079
 10
-57.3780256685497
 20
-0.0018682758671105
 10
-57.3705091168017
 20
-0.0911979313230944
 10
-57.34981035811526
 20
-0.1783551729790815
 10
-57.32038718560808
 20
-0.2597772422031426
 10
-57.28102304755211
 20
-0.3369413803791303
 10
-57.2323175301561
 20
-0.4095000012991364
 10
-57.17725118515367
 20
-0.4773662084110839
 10
-57.10364980560973
 20
-0.5474048293231136
 10
-56.97108911553364
 20
-0.6467275882590542
 10
-56.91740442570807
 20
-0.6793137952591053
 10
-56.86126925311606
 20
-0.7074682781070721
 10
-56.75977408038008
 20
-0.7483965540991449
 10
-56.64265490759447
 20
-0.7827206921390797
 10
-56.52252042445448
 20
-0.8041841404830876
 10
-56.42157269999607
 20
-0.8141665027597468
  0
LWPOLYLINE
  5
130D
330
12C2
100
AcDbEntity
  8
LW 3801-06-01
 62
     1
100
AcDbPolyline
 90
       76
 70
     1
 43
0.0
 10
-57.56506891536786
 20
1.52383690987186
 10
-57.7404558687327
 20
1.421659028050115
 10
-57.90412466481463
 20
1.304752745134479
 10
-58.05014457127604
 20
1.176368183421104
 10
-58.18462264648883
 20
1.035944053158559
 10
-58.30278077072003
 20
0.8847016541426739
 10
-58.33463960009289
 20
0.8331206923008807
 10
-59.42452636470175
 20
0.833120692300838
 10
-59.56790567550178
 20
0.8266034509007766
 10
-59.70476774490179
 20
0.8070517267007772
 10
-59.82721367632496
 20
0.7749868990127738
 10
-59.94590567670171
 20
0.7310172437008334
 10
-60.04850443564811
 20
0.6727096573088148
 10
-60.14359533250173
 20
0.602844829500782
 10
-60.2261470569018
 20
0.5202931051007909
 10
-60.29566429850174
 20
0.4247068979007623
 10
-58.52502578088238
 20
0.4247068979008049
 10
-58.54162448355744
 20
0.3755747379825181
 10
-58.57793020523274
 20
0.1892053667159104
 10
-58.58995187766204
 20
-0.0055457266390135
 10
-58.57790822488033
 20
-0.1958354405897324
 10
-58.54179641691581
 20
-0.3812093881407605
 10
-58.53121194964289
 20
-0.4138448288991726
 10
-60.25873326390165
 20
-0.413844828899201
 10
-60.18704360850171
 20
-0.4985689670992599
 10
-60.09686236683612
 20
-0.5765151742432125
 10
-59.99871271135209
 20
-0.6441206916992286
 10
-59.89376774550165
 20
-0.7006034504991306
 10
-59.77862981410165
 20
-0.7462241402991623
 10
-59.65045739990175
 20
-0.7791579335072214
 10
-59.51970415810723
 20
-0.7994917266751145
 10
-59.38759533010176
 20
-0.8070517266992141
 10
-58.35913226318133
 20
-0.8070517266991572
 10
-58.30716103173273
 20
-0.891236368803419
 10
-58.19345567698936
 20
-1.041724613516038
 10
-58.06601978350506
 20
-1.181078296744558
 10
-57.92210741513483
 20
-1.310867893284338
 10
-57.75927452037407
 20
-1.426486131709864
 10
-57.59080811420398
 20
-1.531015824641443
 10
-57.40724397040158
 20
-1.621636098164216
 10
-57.24670010634906
 20
-1.684706901899076
 10
-59.3658711921017
 20
-1.684706901899247
 10
-59.57659533070168
 20
-1.676017246699203
 10
-59.78514705550165
 20
-1.649948281099185
 10
-59.98500912510166
 20
-1.606500005099192
 10
-60.17618153950166
 20
-1.550017246299262
 10
-60.3568307814545
 20
-1.476328970203226
 10
-60.53245740270156
 20
-1.391431038899142
 10
-60.6932160239017
 20
-1.293672417899259
 10
-60.84056042436936
 20
-1.183226900307218
 10
-60.97675947307767
 20
-1.062093106819247
 10
-61.09945740450164
 20
-0.9308793132992292
 10
-61.20590568070169
 20
-0.7896724162992684
 10
-61.2949746465016
 20
-0.6419482778992176
 10
-61.36449188810162
 20
-0.4855344842992225
 10
-61.41880223310173
 20
-0.3247758630992763
 10
-61.44921602630164
 20
-0.1575000004991978
 10
-61.4600780953017
 20
0.0162931035007432
 10
-61.4513884401018
 20
0.1900862075006984
 10
-61.42314706070172
 20
0.3551896563007517
 10
-61.37318154330177
 20
0.5159482775007121
 10
-61.31018154310176
 20
0.6701896573006963
 10
-61.22762981870173
 20
0.8157413819007928
 10
-61.12761188734973
 20
0.9529510375087824
 10
-61.01634693527245
 20
1.081210348260725
 10
-60.8909056797018
 20
1.200258624500705
 10
-60.74819807924872
 20
1.306967590356762
 10
-60.59762981670174
 20
1.402293107900817
 10
-60.43035395410178
 20
1.484844832300765
 10
-60.25438843630175
 20
1.554362073900819
 10
-60.06973326330177
 20
1.608672418900752
 10
-59.87421602130175
 20
1.649948281100833
 10
-59.67218153790179
 20
1.676017246700823
 10
-59.45928498550178
 20
1.684706901900781
 10
-57.20214704730167
 20
1.684706901900938
 10
-57.38331598276755
 20
1.615188589454703
  0
LWPOLYLINE
  5
130E
330
12C2
100
AcDbEntity
  8
LW 3801-06-01
 62
     1
100
AcDbPolyline
 90
        6
 70
     1
 43
0.0
 10
-47.9302849489016
 20
-1.684706901898721
 10
-50.16787116290164
 20
-1.684706901898834
 10
-50.16787116290172
 20
1.684706901901208
 10
-49.14466426310174
 20
1.684706901901222
 10
-49.14466426310162
 20
-0.8179137956987432
 10
-47.93028494890164
 20
-0.817913795698729
  0
LWPOLYLINE
  5
130F
330
12C2
100
AcDbEntity
  8
LW 3801-06-01
 62
     1
100
AcDbPolyline
 90
       57
 70
     1
 43
0.0
 10
-53.22168537949288
 20
-1.05957310681093
 10
-53.34154179366649
 20
-0.9292282788109815
 10
-53.45038841470175
 20
-0.7896724162990126
 10
-53.53728496670166
 20
-0.6419482778989476
 10
-53.60897462210177
 20
-0.4855344842990235
 10
-53.66111255330169
 20
-0.3247758630989637
 10
-53.69369876030169
 20
-0.1575000004989562
 10
-53.70456082930165
 20
0.0162931035010701
 10
-53.69369876030169
 20
0.1900862075010963
 10
-53.66111255330173
 20
0.3573620701009901
 10
-53.61114703590179
 20
0.5181206913009504
 10
-53.53945738050178
 20
0.6723620711010341
 10
-53.45473324230181
 20
0.8179137957009743
 10
-53.35045737990174
 20
0.9569482789010521
 10
-53.23039241400337
 20
1.085728968965028
 10
-53.09583310323134
 20
1.204951038309033
 10
-52.94575406827217
 20
1.314440693829055
 10
-52.7869332401817
 20
1.410895866549083
 10
-52.62052634310177
 20
1.493534487501065
 10
-52.43587117010182
 20
1.565224142901044
 10
-52.24687116950171
 20
1.61953448790112
 10
-52.04918151370174
 20
1.660810350101087
 10
-51.84280220270178
 20
1.689051729501102
 10
-51.63207806410179
 20
1.697741384701089
 10
-50.39814702570175
 20
1.69774138470116
 10
-50.39814702570173
 20
0.8722241407011637
 10
-51.63859530550173
 20
0.8722241407011068
 10
-51.78197461630175
 20
0.8635344855011055
 10
-51.91666427190172
 20
0.8364227612771344
 10
-52.04813875507774
 20
0.7964503473570943
 10
-52.17518151410171
 20
0.7440517265010698
 10
-52.28258565237371
 20
0.6769675883571012
 10
-52.38373323890177
 20
0.6006724157010837
 10
-52.47062979090173
 20
0.5116034499010738
 10
-52.54014703250175
 20
0.4138448289010484
 10
-50.39814702570172
 20
0.4138448289011621
 10
-50.39814702570172
 20
-0.4138448288988883
 10
-52.50321599790169
 20
-0.4138448288989452
 10
-52.42874565283767
 20
-0.4993510360669263
 10
-52.34132772152573
 20
-0.579122070802967
 10
-52.24426427294168
 20
-0.6467275882588979
 10
-52.13460082431762
 20
-0.7076420712108558
 10
-52.01859392739766
 20
-0.7556089679149097
 10
-51.89798151322164
 20
-0.7899331059548871
 10
-51.76572496107773
 20
-0.8119179336109709
 10
-51.63207806410174
 20
-0.8222586232989641
 10
-50.3981470257017
 20
-0.8222586232989073
 10
-50.39814702570168
 20
-1.680362074298869
 10
-51.60818151230166
 20
-1.680362074298926
 10
-51.82107806470169
 20
-1.671672419098968
 10
-52.02745737570166
 20
-1.647775867298932
 10
-52.22731944530166
 20
-1.604327591298911
 10
-52.41849185970164
 20
-1.547844832498853
 10
-52.60314703270168
 20
-1.473982763298934
 10
-52.77694013670167
 20
-1.389258625098918
 10
-52.93769875790168
 20
-1.291500004098978
 10
-53.08525779285286
 20
-1.18088069340294
  0
ENDBLK
  5
12C4
330
12C2
100
AcDbEntity
  8
0
100
AcDbBlockEnd
  0
BLOCK
  5
1312
330
1311
100
AcDbEntity
  8
0
100
AcDbBlockBegin
  2
LW 3801-06-01_b
 70
     0
 10
0.0
 20
0.0
 30
0.0
  3
LW 3801-06-01_b
  1

  0
LWPOLYLINE
  5
1314
330
1311
100
AcDbEntity
  8
LW 3801-06-01
100
AcDbPolyline
 90
       25
 70
     0
 43
0.0
 10
-32.3955964398932
 20
1.642694456835741
 10
-32.29227298026795
 20
1.57184360768413
 10
-32.18910210853334
 20
1.501097662707323
 10
-32.08610528236146
 20
1.430473311205858
 10
-31.98330634361024
 20
1.35998247410869
 10
-31.880724365766
 20
1.289639456530579
 10
-31.77837842231507
 20
1.219460947772034
 10
-31.67628997092957
 20
1.149456484576234
 10
-31.57448046928162
 20
1.079642756243714
 10
-31.47296660667176
 20
1.010034067889222
 10
-31.37177460914368
 20
0.940644724627532
 10
-31.27091878181214
 20
0.8714890315733327
 10
-31.17042535072083
 20
0.8025765254698313
 10
-31.07031100517029
 20
0.7339286639891185
 10
-30.97059720283265
 20
0.6655525996885956
 10
-30.87130540138001
 20
0.5974650218687714
 10
-30.77245467429871
 20
0.5296826198302256
 10
-30.67406409507508
 20
0.4622149303160655
 10
-30.57615750556702
 20
0.3950810268126616
 10
-30.47875397926087
 20
0.3282880618773731
 10
-30.38187497382874
 20
0.2618574931823048
 10
-30.28553956275696
 20
0.1957988574706491
 10
-30.18976681953187
 20
0.1301264598571379
 10
-30.09458058601136
 20
0.0648546054565316
 10
-29.99999993568177
 20
-0.0000000164306613
  0
LINE
  5
1315
330
1311
100
AcDbEntity
  8
LW 3801-06-01
100
AcDbLine
 10
30.00000006431812
 20
-0.0000000164335034
 30
0.0
 11
-30.0000000643182
 21
0.0000000164334892
 31
0.0
  0
LINE
  5
1316
330
1311
100
AcDbEntity
  8
LW 3801-06-01
100
AcDbLine
 10
30.00000006431812
 20
24.99999998356648
 30
0.0
 11
-29.99999993568648
 21
24.99999998357389
 31
0.0
  0
LINE
  5
1317
330
1311
100
AcDbEntity
  8
LW 3801-06-01
100
AcDbLine
 10
30.00000006431812
 20
24.99999998356648
 30
0.0
 11
30.00000006431812
 21
-0.0000000164335177
 31
0.0
  0
LINE
  5
1318
330
1311
100
AcDbEntity
  8
LW 3801-06-01
100
AcDbLine
 10
-79.67092758090378
 20
48.65282267177093
 30
0.0
 11
-29.99999993568177
 21
24.99999998357165
 31
0.0
  0
LINE
  5
1319
330
1311
100
AcDbEntity
  8
LW 3801-06-01
100
AcDbLine
 10
-32.39559726505393
 20
1.642695295138608
 30
0.0
 11
-77.31306389186393
 21
32.44324383923632
 31
0.0
  0
LWPOLYLINE
  5
131A
330
1311
100
AcDbEntity
  8
LW 3801-06-01
100
AcDbPolyline
 90
       25
 70
     0
 43
0.0
 10
-79.67092984443415
 20
48.65282295491394
 10
-79.78905194526423
 20
48.70907066609558
 10
-79.90736954932917
 20
48.76541374470886
 10
-80.02585404639942
 20
48.82183788563904
 10
-80.1444815946172
 20
48.87832639958557
 10
-80.26321404700977
 20
48.93486498143372
 10
-80.38203233009083
 20
48.99144171025452
 10
-80.50088876014454
 20
49.04804228093323
 10
-80.61976426368458
 20
49.10465000416931
 10
-80.73863023048145
 20
49.16125295903381
 10
-80.85745805030567
 20
49.21783684041199
 10
-80.97620957618458
 20
49.2743849590033
 10
-81.09485619788868
 20
49.33088539387878
 10
-81.21337884193165
 20
49.38732383992371
 10
-81.33173936134083
 20
49.44368837620911
 10
-81.44990914588673
 20
49.49995992924866
 10
-81.56785958533985
 20
49.55612657811343
 10
-81.68556206947071
 20
49.61217401768863
 10
-81.80298798804981
 20
49.66808794285952
 10
-81.9200991941045
 20
49.72385404851141
 10
-82.03686707740528
 20
49.77946041371527
 10
-82.15326302772266
 20
49.83489034917059
 10
-82.26926797157032
 20
49.89012954976264
 10
-82.38484376197559
 20
49.94516371037668
 10
-82.49999993568165
 20
49.99999998357004
  0
LWPOLYLINE
  5
131B
330
1311
100
AcDbEntity
  8
LW 3801-06-01
100
AcDbPolyline
 90
       25
 70
     0
 43
0.0
 10
-82.49999993568165
 20
36.00000022198765
 10
-82.30062478309376
 20
35.86328504826628
 10
-82.09819787269337
 20
35.72447775151332
 10
-81.89291947608692
 20
35.58371542241173
 10
-81.6849803281377
 20
35.44112799908712
 10
-81.47457116370899
 20
35.29685138012954
 10
-81.2619017911504
 20
35.15101907994335
 10
-81.04715340858204
 20
35.00376342083993
 10
-80.83052628761036
 20
34.85521970536288
 10
-80.61222069984181
 20
34.70552144791657
 10
-80.3926276517461
 20
34.5549434259134
 10
-80.17219537025196
 20
34.40379141118098
 10
-79.95110982185114
 20
34.25218938138056
 10
-79.72954743629206
 20
34.10026191021965
 10
-79.50769418006648
 20
33.94813476349873
 10
-79.2857312512945
 20
33.7959313228325
 10
-79.06383984809626
 20
33.64377616192857
 10
-78.84220116859187
 20
33.49179504658739
 10
-78.62099641090144
 20
33.3401113584236
 10
-78.40040677314509
 20
33.1888502671913
 10
-78.18061345344294
 20
33.03813634659801
 10
-77.96180241828669
 20
32.88809417035137
 10
-77.74415486579646
 20
32.73884831215892
 10
-77.52784722572077
 20
32.59052334572826
 10
-77.31306546455134
 20
32.44324384476696
  0
LWPOLYLINE
  5
131C
330
1311
100
AcDbEntity
  8
LW 3801-06-01
100
AcDbPolyline
 90
       25
 70
     0
 43
0.0
 10
-84.98208993201954
 20
36.0000002219885
 10
-84.91398804908497
 20
36.00000022198845
 10
-84.84250062232716
 20
36.00000022198841
 10
-84.76764672523243
 20
36.00000022198836
 10
-84.68948357825977
 20
36.00000022198833
 10
-84.60803979163868
 20
36.0000002219883
 10
-84.52336304908497
 20
36.00000022198825
 10
-84.4354914975713
 20
36.00000022198819
 10
-84.34446328407032
 20
36.00000022198816
 10
-84.25032609229786
 20
36.00000022198813
 10
-84.15310853248341
 20
36.0000002219881
 10
-84.05285828834278
 20
36.00000022198808
 10
-83.94961350684864
 20
36.00000022198802
 10
-83.84342187171681
 20
36.00000022198799
 10
-83.73431199317677
 20
36.00000022198796
 10
-83.62232201820118
 20
36.0000002219879
 10
-83.50750916724903
 20
36.00000022198788
 10
-83.3899592710088
 20
36.00000022198785
 10
-83.26988213783009
 20
36.00000022198782
 10
-83.14735406165821
 20
36.00000022198779
 10
-83.02243226295216
 20
36.00000022198776
 10
-82.89517396217091
 20
36.00000022198774
 10
-82.76564591651661
 20
36.0000002219877
 10
-82.63389580970509
 20
36.00000022198768
 10
-82.49999993568165
 20
36.00000022198765
  0
LWPOLYLINE
  5
131D
330
1311
100
AcDbEntity
  8
LW 3801-06-01
100
AcDbPolyline
 90
       25
 70
     0
 43
0.0
 10
-82.49999993568165
 20
49.99999998357004
 10
-82.71893494849903
 20
49.99999998357006
 10
-82.93601983314259
 20
49.99999998357006
 10
-83.15106385474903
 20
49.99999998357009
 10
-83.36385720496876
 20
49.99999998357009
 10
-83.57421868568165
 20
49.99999998357012
 10
-83.78195756202442
 20
49.99999998357015
 10
-83.98687356239063
 20
49.99999998357018
 10
-84.18876641517384
 20
49.99999998357018
 10
-84.38745492225391
 20
49.99999998357023
 10
-84.58248131995899
 20
49.99999998357026
 10
-84.77347367530567
 20
49.99999998357029
 10
-84.96028893714649
 20
49.99999998357035
 10
-85.1427554441045
 20
49.99999998357037
 10
-85.32073014503223
 20
49.9999999835704
 10
-85.49405091529591
 20
49.99999998357046
 10
-85.66257470374806
 20
49.99999998357049
 10
-85.82610123878223
 20
49.99999998357054
 10
-85.98431580787403
 20
49.99999998357058
 10
-86.13705628638966
 20
49.99999998357063
 10
-86.28420823341114
 20
49.99999998357068
 10
-86.42563813453419
 20
49.99999998357075
 10
-86.56122201209766
 20
49.9999999835708
 10
-86.69083588844044
 20
49.99999998357086
 10
-86.81435578590138
 20
49.99999998357091
  0
LINE
  5
131E
330
1311
100
AcDbEntity
  8
LW 3801-06-01
100
AcDbLine
 10
-86.81435816733765
 20
49.99999998357091
 30
0.0
 11
-137.4999999356816
 21
49.99999998356654
 31
0.0
  0
LINE
  5
131F
330
1311
100
AcDbEntity
  8
LW 3801-06-01
100
AcDbLine
 10
-84.98209053282899
 20
35.99999998356992
 30
0.0
 11
-137.4999999356816
 21
35.99999998356657
 31
0.0
  0
LINE
  5
1320
330
1311
100
AcDbEntity
  8
LW 3801-06-01
100
AcDbLine
 10
-137.4999999356818
 20
49.99999998356656
 30
0.0
 11
-137.4999999356818
 21
35.99999998356654
 31
0.0
  0
LINE
  5
1321
330
1311
100
AcDbEntity
  8
LW 3801-06-01
100
AcDbLine
 10
-124.4999999356822
 20
7.99999998356661
 30
0.0
 11
-95.49999993568222
 21
7.999999983566397
 31
0.0
  0
LINE
  5
1322
330
1311
100
AcDbEntity
  8
LW 3801-06-01
100
AcDbLine
 10
-127.4999999356821
 20
10.99999998356665
 30
0.0
 11
-92.49999993568216
 21
10.99999998356637
 31
0.0
  0
LINE
  5
1323
330
1311
100
AcDbEntity
  8
LW 3801-06-01
100
AcDbLine
 10
-95.49999993568222
 20
7.999999983566382
 30
0.0
 11
-92.49999993568216
 21
10.99999998356637
 31
0.0
  0
LINE
  5
1324
330
1311
100
AcDbEntity
  8
LW 3801-06-01
100
AcDbLine
 10
-124.4999999356822
 20
7.99999998356661
 30
0.0
 11
-127.4999999356822
 21
10.99999998356665
 31
0.0
  0
LINE
  5
1325
330
1311
100
AcDbEntity
  8
LW 3801-06-01
100
AcDbLine
 10
-127.4999999356821
 20
12.99999998356665
 30
0.0
 11
-127.4999999356821
 21
10.99999998356664
 31
0.0
  0
LINE
  5
1326
330
1311
100
AcDbEntity
  8
LW 3801-06-01
100
AcDbLine
 10
-127.499999935682
 20
30.99999998356662
 30
0.0
 11
-127.4999999356821
 21
16.99999998356662
 31
0.0
  0
LINE
  5
1327
330
1311
100
AcDbEntity
  8
LW 3801-06-01
100
AcDbLine
 10
-92.49999993568202
 20
30.99999998356637
 30
0.0
 11
-92.49999993568216
 21
10.99999998356637
 31
0.0
  0
LWPOLYLINE
  5
1328
330
1311
100
AcDbEntity
  8
LW 3801-06-01
100
AcDbPolyline
 90
       25
 70
     0
 43
0.0
 10
-127.4999999356821
 20
17.00000022198523
 10
-127.4980532479838
 20
16.98318336750837
 10
-127.4923812699869
 20
16.93250749852041
 10
-127.4832414937571
 20
16.84763167645323
 10
-127.471148903425
 20
16.72932360913151
 10
-127.457253868635
 20
16.58275817181469
 10
-127.4427627873972
 20
16.41421054150469
 10
-127.4282585931375
 20
16.22194860722433
 10
-127.4143301797465
 20
16.0038635566415
 10
-127.4021910977915
 20
15.76566909100434
 10
-127.3930048299387
 20
15.51353309895418
 10
-127.3872994733408
 20
15.25547955777073
 10
-127.3853384805277
 20
14.99999974514865
 10
-127.3872994733408
 20
14.74452112461948
 10
-127.3930048299387
 20
14.4864663913431
 10
-127.4021910977915
 20
14.23433039929291
 10
-127.4143301797465
 20
13.99613593365566
 10
-127.4282585931376
 20
13.77805207516562
 10
-127.4427627873972
 20
13.58578894879228
 10
-127.457253868635
 20
13.41724131848217
 10
-127.4711489034251
 20
13.2706770732581
 10
-127.4832414937571
 20
13.15236781384337
 10
-127.492381269987
 20
13.06749199177602
 10
-127.4980532479838
 20
13.01681612278791
 10
-127.4999999356821
 20
13.00000046040381
  0
LWPOLYLINE
  5
1329
330
1311
100
AcDbEntity
  8
LW 3801-06-01
100
AcDbPolyline
 90
       25
 70
     0
 43
0.0
 10
-101.2499999356821
 20
17.00000022198951
 10
-101.0297214341715
 20
16.98318336751255
 10
-100.8090739799097
 20
16.93250749852446
 10
-100.5952864242151
 20
16.84763167645715
 10
-100.3950481963709
 20
16.72932360913535
 10
-100.2131288600519
 20
16.58275817181842
 10
-100.0538706136301
 20
16.41421054150832
 10
-99.91515749221596
 20
16.22194860722788
 10
-99.79519360786232
 20
16.00386355664499
 10
-99.69880693679604
 20
15.76566909100776
 10
-99.62989681487831
 20
15.51353309895758
 10
-99.58886259322916
 20
15.25547955777409
 10
-99.57527988677774
 20
14.99999974515202
 10
-99.58886259322916
 20
14.74452112462285
 10
-99.62989681487833
 20
14.4864663913465
 10
-99.69880693679606
 20
14.23433039929634
 10
-99.79519360786234
 20
13.99613593365915
 10
-99.91515749221598
 20
13.77805207516917
 10
-100.0538706136301
 20
13.58578894879592
 10
-100.213128860052
 20
13.41724131848591
 10
-100.3950481963709
 20
13.27067707326193
 10
-100.5952864242152
 20
13.15236781384729
 10
-100.8090739799097
 20
13.06749199178007
 10
-101.0297214341715
 20
13.01681612279209
 10
-101.2499999356822
 20
13.00000046040809
  0
LWPOLYLINE
  5
132A
330
1311
100
AcDbEntity
  8
LW 3801-06-01
100
AcDbPolyline
 90
       25
 70
     0
 43
0.0
 10
-101.2499999356822
 20
13.00000046040809
 10
-101.4722257209376
 20
13.01681612279218
 10
-101.6985439611033
 20
13.06749199178026
 10
-101.9214718890742
 20
13.15236781384754
 10
-102.133802111204
 20
13.27067707326225
 10
-102.329616482313
 20
13.41724131848627
 10
-102.5033658099726
 20
13.58578894879636
 10
-102.6565837216929
 20
13.77805207516968
 10
-102.7904760194376
 20
13.99613593365969
 10
-102.8990023685053
 20
14.23433039929691
 10
-102.9770987582758
 20
14.48646639134708
 10
-103.0238377404764
 20
14.74452112462346
 10
-103.039381439741
 20
14.99999974515263
 10
-103.0238377404764
 20
15.2554795577747
 10
-102.9770987582758
 20
15.51353309895816
 10
-102.8990023685053
 20
15.76566909100833
 10
-102.7904760194376
 20
16.00386355664553
 10
-102.6565837216929
 20
16.2219486072284
 10
-102.5033658099726
 20
16.41421054150876
 10
-102.329616482313
 20
16.58275817181879
 10
-102.133802111204
 20
16.72932360913566
 10
-101.9214718890741
 20
16.84763167645741
 10
-101.6985439611033
 20
16.93250749852464
 10
-101.4722257209375
 20
16.98318336751263
 10
-101.2499999356821
 20
17.00000022198951
  0
ELLIPSE
  5
132B
330
1311
100
AcDbEntity
  8
LW 3801-06-01
100
AcDbEllipse
 10
-103.7499999356821
 20
14.99999998356966
 30
0.0
 11
0.0000000000008313
 21
-1.999999999999999
 31
0.0
210
0.0
220
0.0
230
1.0
 40
0.866025403784438
 41
0.7941688477848424
 42
2.347423805805178
  0
LINE
  5
132C
330
1311
100
AcDbEntity
  8
LW 3801-06-01
100
AcDbLine
 10
-132.499999935682
 20
30.99999998356671
 30
0.0
 11
-87.49999993568202
 21
30.99999998356634
 31
0.0
  0
LINE
  5
132D
330
1311
100
AcDbEntity
  8
LW 3801-06-01
100
AcDbLine
 10
-87.49999993568202
 20
30.99999998356634
 30
0.0
 11
-87.499999935682
 21
35.99999998356634
 31
0.0
  0
LINE
  5
132E
330
1311
100
AcDbEntity
  8
LW 3801-06-01
100
AcDbLine
 10
-132.499999935682
 20
30.99999998356671
 30
0.0
 11
-132.499999935682
 21
35.99999998356671
 31
0.0
  0
LINE
  5
132F
330
1311
100
AcDbEntity
  8
LW 3801-06-01
100
AcDbLine
 10
-132.4999999356816
 20
54.99999998356654
 30
0.0
 11
-87.49999993568165
 21
54.99999998356651
 31
0.0
  0
LINE
  5
1330
330
1311
100
AcDbEntity
  8
LW 3801-06-01
100
AcDbLine
 10
-87.49999993568165
 20
49.99999998356651
 30
0.0
 11
-87.49999993568165
 21
54.99999998356651
 31
0.0
  0
LINE
  5
1331
330
1311
100
AcDbEntity
  8
LW 3801-06-01
100
AcDbLine
 10
-132.4999999356816
 20
49.99999998356654
 30
0.0
 11
-132.4999999356816
 21
54.99999998356654
 31
0.0
  0
LINE
  5
1332
330
1311
100
AcDbEntity
  8
LW 3801-06-01
100
AcDbLine
 10
-30.00000000769732
 20
25.00000000071822
 30
0.0
 11
-30.0000000643182
 21
0.0000000164334892
 31
0.0
  0
LINE
  5
1333
330
1311
100
AcDbEntity
  8
LW 3801-06-01
100
AcDbLine
 10
-82.49999993568165
 20
49.99999998357004
 30
0.0
 11
-82.50000000769468
 21
36.00000000071492
 31
0.0
  0
LINE
  5
1334
330
1311
100
AcDbEntity
  8
LW 3801-06-01
  6
MITTE2
 62
     3
100
AcDbLine
 10
-109.999999935682
 20
85.49999998357341
 30
0.0
 11
-109.9999999356851
 21
2.735882403032192
 31
0.0
  0
LINE
  5
1335
330
1311
100
AcDbEntity
  8
LW 3801-06-01
  6
MITTE2
 62
     3
100
AcDbLine
 10
0.0000000643188009
 20
52.49999998357245
 30
0.0
 11
0.0000000643165271
 21
-7.500000016427563
 31
0.0
  0
LINE
  5
1336
330
1311
100
AcDbEntity
  8
LW 3801-06-01
100
AcDbLine
 10
132.5000000643193
 20
54.99999998356654
 30
0.0
 11
87.50000006431925
 21
54.99999998356651
 31
0.0
  0
LINE
  5
1337
330
1311
100
AcDbEntity
  8
LW 3801-06-01
100
AcDbLine
 10
132.5000000643196
 20
30.99999998356671
 30
0.0
 11
87.50000006431962
 21
30.99999998356634
 31
0.0
  0
LWPOLYLINE
  5
1338
330
1311
100
AcDbEntity
  8
LW 3801-06-01
100
AcDbPolyline
 90
       25
 70
     0
 43
0.0
 10
101.2500000643197
 20
13.00000046040809
 10
101.4722258495752
 20
13.01681612279218
 10
101.6985440897409
 20
13.06749199178026
 10
101.9214720177118
 20
13.15236781384754
 10
102.1338022398416
 20
13.27067707326225
 10
102.3296166109506
 20
13.41724131848627
 10
102.5033659386102
 20
13.58578894879636
 10
102.6565838503305
 20
13.77805207516968
 10
102.7904761480752
 20
13.99613593365969
 10
102.8990024971429
 20
14.23433039929691
 10
102.9770988869134
 20
14.48646639134708
 10
103.0238378691141
 20
14.74452112462346
 10
103.0393815683786
 20
14.99999974515263
 10
103.0238378691141
 20
15.2554795577747
 10
102.9770988869134
 20
15.51353309895816
 10
102.8990024971429
 20
15.76566909100833
 10
102.7904761480752
 20
16.00386355664553
 10
102.6565838503304
 20
16.2219486072284
 10
102.5033659386102
 20
16.41421054150876
 10
102.3296166109506
 20
16.58275817181879
 10
102.1338022398416
 20
16.72932360913566
 10
101.9214720177117
 20
16.84763167645741
 10
101.6985440897409
 20
16.93250749852464
 10
101.4722258495751
 20
16.98318336751263
 10
101.2500000643197
 20
17.00000022198951
  0
LINE
  5
1339
330
1311
100
AcDbEntity
  8
LW 3801-06-01
100
AcDbLine
 10
127.5000000643197
 20
10.99999998356665
 30
0.0
 11
92.50000006431976
 21
10.99999998356637
 31
0.0
  0
LINE
  5
133A
330
1311
100
AcDbEntity
  8
LW 3801-06-01
100
AcDbLine
 10
124.5000000643198
 20
7.99999998356661
 30
0.0
 11
95.50000006431982
 21
7.999999983566397
 31
0.0
  0
LINE
  5
133B
330
1311
100
AcDbEntity
  8
LW 3801-06-01
100
AcDbLine
 10
84.98209066146658
 20
35.99999998356992
 30
0.0
 11
137.5000000643192
 21
35.99999998356657
 31
0.0
  0
LINE
  5
133C
330
1311
100
AcDbEntity
  8
LW 3801-06-01
100
AcDbLine
 10
86.81435829597525
 20
49.99999998357091
 30
0.0
 11
137.5000000643192
 21
49.99999998356654
 31
0.0
  0
LINE
  5
133D
330
1311
100
AcDbEntity
  8
LW 3801-06-01
  6
MITTE2
 62
     3
100
AcDbLine
 10
110.0000000643196
 20
85.49999998357341
 30
0.0
 11
110.0000000643227
 21
2.735882403032192
 31
0.0
  0
LINE
  5
133E
330
1311
100
AcDbEntity
  8
LW 3801-06-01
100
AcDbLine
 10
132.5000000643193
 20
49.99999998356654
 30
0.0
 11
132.5000000643193
 21
54.99999998356654
 31
0.0
  0
LINE
  5
133F
330
1311
100
AcDbEntity
  8
LW 3801-06-01
100
AcDbLine
 10
132.5000000643196
 20
30.99999998356671
 30
0.0
 11
132.5000000643196
 21
35.99999998356671
 31
0.0
  0
LWPOLYLINE
  5
1340
330
1311
100
AcDbEntity
  8
LW 3801-06-01
100
AcDbPolyline
 90
       25
 70
     0
 43
0.0
 10
127.5000000643197
 20
17.00000022198523
 10
127.4980533766213
 20
16.98318336750837
 10
127.4923813986245
 20
16.93250749852041
 10
127.4832416223947
 20
16.84763167645323
 10
127.4711490320626
 20
16.72932360913151
 10
127.4572539972726
 20
16.58275817181469
 10
127.4427629160348
 20
16.41421054150469
 10
127.4282587217752
 20
16.22194860722433
 10
127.414330308384
 20
16.0038635566415
 10
127.4021912264291
 20
15.76566909100434
 10
127.3930049585763
 20
15.51353309895418
 10
127.3872996019784
 20
15.25547955777073
 10
127.3853386091653
 20
14.99999974514865
 10
127.3872996019784
 20
14.74452112461948
 10
127.3930049585763
 20
14.4864663913431
 10
127.4021912264291
 20
14.23433039929291
 10
127.4143303083841
 20
13.99613593365566
 10
127.4282587217752
 20
13.77805207516562
 10
127.4427629160348
 20
13.58578894879228
 10
127.4572539972726
 20
13.41724131848217
 10
127.4711490320627
 20
13.2706770732581
 10
127.4832416223947
 20
13.15236781384337
 10
127.4923813986245
 20
13.06749199177602
 10
127.4980533766214
 20
13.01681612278791
 10
127.5000000643197
 20
13.00000046040381
  0
LINE
  5
1341
330
1311
100
AcDbEntity
  8
LW 3801-06-01
100
AcDbLine
 10
127.5000000643196
 20
30.99999998356662
 30
0.0
 11
127.5000000643197
 21
16.99999998356662
 31
0.0
  0
LINE
  5
1342
330
1311
100
AcDbEntity
  8
LW 3801-06-01
100
AcDbLine
 10
127.5000000643197
 20
12.99999998356665
 30
0.0
 11
127.5000000643197
 21
10.99999998356664
 31
0.0
  0
LINE
  5
1343
330
1311
100
AcDbEntity
  8
LW 3801-06-01
100
AcDbLine
 10
124.5000000643198
 20
7.99999998356661
 30
0.0
 11
127.5000000643198
 21
10.99999998356665
 31
0.0
  0
LINE
  5
1344
330
1311
100
AcDbEntity
  8
LW 3801-06-01
100
AcDbLine
 10
137.5000000643194
 20
49.99999998356656
 30
0.0
 11
137.5000000643194
 21
35.99999998356654
 31
0.0
  0
LINE
  5
1345
330
1311
100
AcDbEntity
  8
LW 3801-06-01
100
AcDbLine
 10
82.50000006431925
 20
49.99999998357004
 30
0.0
 11
82.50000013633227
 21
36.00000000071492
 31
0.0
  0
LINE
  5
1346
330
1311
100
AcDbEntity
  8
LW 3801-06-01
100
AcDbLine
 10
87.50000006431925
 20
49.99999998356651
 30
0.0
 11
87.50000006431925
 21
54.99999998356651
 31
0.0
  0
LINE
  5
1347
330
1311
100
AcDbEntity
  8
LW 3801-06-01
100
AcDbLine
 10
87.50000006431962
 20
30.99999998356634
 30
0.0
 11
87.50000006431958
 21
35.99999998356634
 31
0.0
  0
ELLIPSE
  5
1348
330
1311
100
AcDbEntity
  8
LW 3801-06-01
100
AcDbEllipse
 10
103.7500000643197
 20
14.99999998356966
 30
0.0
 11
-0.0000000000008313
 21
-1.999999999999999
 31
0.0
210
0.0
220
0.0
230
-1.0
 40
0.866025403784438
 41
0.7941688477848424
 42
2.347423805805178
  0
LWPOLYLINE
  5
1349
330
1311
100
AcDbEntity
  8
LW 3801-06-01
100
AcDbPolyline
 90
       25
 70
     0
 43
0.0
 10
101.2500000643197
 20
17.00000022198951
 10
101.0297215628091
 20
16.98318336751255
 10
100.8090741085473
 20
16.93250749852446
 10
100.5952865528527
 20
16.84763167645715
 10
100.3950483250085
 20
16.72932360913535
 10
100.2131289886895
 20
16.58275817181842
 10
100.0538707422677
 20
16.41421054150832
 10
99.91515762085356
 20
16.22194860722788
 10
99.79519373649992
 20
16.00386355664499
 10
99.69880706543364
 20
15.76566909100776
 10
99.62989694351591
 20
15.51353309895758
 10
99.58886272186676
 20
15.25547955777409
 10
99.57528001541534
 20
14.99999974515202
 10
99.58886272186676
 20
14.74452112462285
 10
99.62989694351593
 20
14.4864663913465
 10
99.69880706543365
 20
14.23433039929634
 10
99.79519373649994
 20
13.99613593365915
 10
99.91515762085358
 20
13.77805207516917
 10
100.0538707422677
 20
13.58578894879592
 10
100.2131289886895
 20
13.41724131848591
 10
100.3950483250085
 20
13.27067707326193
 10
100.5952865528528
 20
13.15236781384729
 10
100.8090741085473
 20
13.06749199178007
 10
101.0297215628091
 20
13.01681612279209
 10
101.2500000643197
 20
13.00000046040809
  0
LINE
  5
134A
330
1311
100
AcDbEntity
  8
LW 3801-06-01
100
AcDbLine
 10
92.50000006431962
 20
30.99999998356637
 30
0.0
 11
92.50000006431976
 21
10.99999998356637
 31
0.0
  0
LINE
  5
134B
330
1311
100
AcDbEntity
  8
LW 3801-06-01
100
AcDbLine
 10
95.50000006431982
 20
7.999999983566382
 30
0.0
 11
92.50000006431976
 21
10.99999998356637
 31
0.0
  0
LWPOLYLINE
  5
134C
330
1311
100
AcDbEntity
  8
LW 3801-06-01
100
AcDbPolyline
 90
       25
 70
     0
 43
0.0
 10
82.50000006431925
 20
49.99999998357004
 10
82.71893507713663
 20
49.99999998357006
 10
82.93601996178018
 20
49.99999998357006
 10
83.15106398338663
 20
49.99999998357009
 10
83.36385733360636
 20
49.99999998357009
 10
83.57421881431925
 20
49.99999998357012
 10
83.78195769066202
 20
49.99999998357015
 10
83.98687369102823
 20
49.99999998357018
 10
84.18876654381143
 20
49.99999998357018
 10
84.38745505089151
 20
49.99999998357023
 10
84.58248144859659
 20
49.99999998357026
 10
84.77347380394327
 20
49.99999998357029
 10
84.96028906578409
 20
49.99999998357035
 10
85.1427555727421
 20
49.99999998357037
 10
85.32073027366983
 20
49.9999999835704
 10
85.4940510439335
 20
49.99999998357046
 10
85.66257483238565
 20
49.99999998357049
 10
85.82610136741983
 20
49.99999998357054
 10
85.98431593651163
 20
49.99999998357058
 10
86.13705641502725
 20
49.99999998357063
 10
86.28420836204874
 20
49.99999998357068
 10
86.42563826317179
 20
49.99999998357075
 10
86.56122214073526
 20
49.9999999835708
 10
86.69083601707804
 20
49.99999998357086
 10
86.81435591453897
 20
49.99999998357091
  0
LWPOLYLINE
  5
134D
330
1311
100
AcDbEntity
  8
LW 3801-06-01
100
AcDbPolyline
 90
       25
 70
     0
 43
0.0
 10
84.98209006065714
 20
36.0000002219885
 10
84.91398817772257
 20
36.00000022198845
 10
84.84250075096475
 20
36.00000022198841
 10
84.76764685387003
 20
36.00000022198836
 10
84.68948370689737
 20
36.00000022198833
 10
84.60803992027628
 20
36.0000002219883
 10
84.52336317772257
 20
36.00000022198825
 10
84.4354916262089
 20
36.00000022198819
 10
84.34446341270792
 20
36.00000022198816
 10
84.25032622093546
 20
36.00000022198813
 10
84.153108661121
 20
36.0000002219881
 10
84.05285841698038
 20
36.00000022198808
 10
83.94961363548624
 20
36.00000022198802
 10
83.8434220003544
 20
36.00000022198799
 10
83.73431212181436
 20
36.00000022198796
 10
83.62232214683878
 20
36.0000002219879
 10
83.50750929588663
 20
36.00000022198788
 10
83.3899593996464
 20
36.00000022198785
 10
83.26988226646768
 20
36.00000022198782
 10
83.14735419029581
 20
36.00000022198779
 10
83.02243239158975
 20
36.00000022198776
 10
82.8951740908085
 20
36.00000022198774
 10
82.76564604515421
 20
36.0000002219877
 10
82.63389593834268
 20
36.00000022198768
 10
82.50000006431925
 20
36.00000022198765
  0
LWPOLYLINE
  5
134E
330
1311
100
AcDbEntity
  8
LW 3801-06-01
100
AcDbPolyline
 90
       25
 70
     0
 43
0.0
 10
82.50000006431925
 20
36.00000022198765
 10
82.30062491173136
 20
35.86328504826628
 10
82.09819800133097
 20
35.72447775151332
 10
81.89291960472452
 20
35.58371542241173
 10
81.6849804567753
 20
35.44112799908712
 10
81.47457129234659
 20
35.29685138012954
 10
81.261901919788
 20
35.15101907994335
 10
81.04715353721964
 20
35.00376342083993
 10
80.83052641624796
 20
34.85521970536288
 10
80.6122208284794
 20
34.70552144791657
 10
80.3926277803837
 20
34.5549434259134
 10
80.17219549888956
 20
34.40379141118098
 10
79.95110995048874
 20
34.25218938138056
 10
79.72954756492966
 20
34.10026191021965
 10
79.50769430870407
 20
33.94813476349873
 10
79.2857313799321
 20
33.7959313228325
 10
79.06383997673386
 20
33.64377616192857
 10
78.84220129722947
 20
33.49179504658739
 10
78.62099653953904
 20
33.3401113584236
 10
78.40040690178269
 20
33.1888502671913
 10
78.18061358208054
 20
33.03813634659801
 10
77.96180254692429
 20
32.88809417035137
 10
77.74415499443406
 20
32.73884831215892
 10
77.52784735435837
 20
32.59052334572826
 10
77.31306559318894
 20
32.44324384476696
  0
LWPOLYLINE
  5
134F
330
1311
100
AcDbEntity
  8
LW 3801-06-01
100
AcDbPolyline
 90
       25
 70
     0
 43
0.0
 10
79.67092997307175
 20
48.65282295491394
 10
79.78905207390183
 20
48.70907066609558
 10
79.90736967796677
 20
48.76541374470886
 10
80.02585417503702
 20
48.82183788563904
 10
80.14448172325479
 20
48.87832639958557
 10
80.26321417564737
 20
48.93486498143372
 10
80.38203245872843
 20
48.99144171025452
 10
80.50088888878214
 20
49.04804228093323
 10
80.61976439232218
 20
49.10465000416931
 10
80.73863035911905
 20
49.16125295903381
 10
80.85745817894327
 20
49.21783684041199
 10
80.97620970482218
 20
49.2743849590033
 10
81.09485632652628
 20
49.33088539387878
 10
81.21337897056925
 20
49.38732383992371
 10
81.33173948997843
 20
49.44368837620911
 10
81.44990927452433
 20
49.49995992924866
 10
81.56785971397745
 20
49.55612657811343
 10
81.68556219810831
 20
49.61217401768863
 10
81.80298811668741
 20
49.66808794285952
 10
81.9200993227421
 20
49.72385404851141
 10
82.03686720604288
 20
49.77946041371527
 10
82.15326315636026
 20
49.83489034917059
 10
82.26926810020792
 20
49.89012954976264
 10
82.38484389061319
 20
49.94516371037668
 10
82.50000006431925
 20
49.99999998357004
  0
LINE
  5
1350
330
1311
100
AcDbEntity
  8
LW 3801-06-01
100
AcDbLine
 10
30.00000006431546
 20
-0.0000000164335177
 30
0.0
 11
77.31306402050153
 21
32.44324383923632
 31
0.0
  0
LINE
  5
1351
330
1311
100
AcDbEntity
  8
LW 3801-06-01
100
AcDbLine
 10
79.67092770954137
 20
48.65282267177093
 30
0.0
 11
30.00000006431937
 21
24.99999998357165
 31
0.0
  0
HATCH
  5
1352
330
1311
100
AcDbEntity
  8
LW 3801-06-01
 62
     1
100
AcDbHatch
 10
0.0
 20
0.0
 30
0.0
210
0.0
220
0.0
230
1.0
  2
SOLID
 70
     1
 71
     0
 91
        5
 92
        7
 72
     0
 73
     1
 93
       76
 10
-54.46345158990993
 20
26.56235654541594
 10
-54.51927934029703
 20
26.5387166866972
 10
-54.70315600748035
 20
26.48371689717448
 10
-54.8940850607139
 20
26.4469829114901
 10
-55.08746266051883
 20
26.42674649226594
 10
-55.2885947406737
 20
26.42608307034667
 10
-55.49076356031465
 20
26.44421236457294
 10
-55.69186125672095
 20
26.47485505328517
 10
-55.87985090176877
 20
26.52296817309578
 10
-54.03882489022251
 20
25.21709877040958
 10
-53.860149214821
 20
25.10101494228924
 10
-53.68027832751968
 20
25.0053907437221
 10
-53.49692523830872
 20
24.92594054928288
 10
-53.31489064153437
 20
24.86340614221874
 10
-53.13114576393934
 20
24.81830259145052
 10
-52.94694745769184
 20
24.78885797588942
 10
-52.76898635140774
 20
24.77949845498654
 10
-52.59085085903112
 20
24.78397159447573
 10
-52.41965967515557
 20
24.80849870678309
 10
-52.25470228634593
 20
24.8487404790163
 10
-52.0937402564661
 20
24.90278954118148
 10
-51.94219815981659
 20
24.97374787176039
 10
-51.80157594429623
 20
25.06310555620891
 10
-51.66781469880627
 20
25.16532011693315
 10
-51.54925895987044
 20
25.28364704151707
 10
-51.44162310206372
 20
25.42037331997027
 10
-51.34993453405876
 20
25.56841126793681
 10
-51.27796381235978
 20
25.72244512214913
 10
-51.22925477914502
 20
25.88498858694373
 10
-51.19546289789006
 20
26.05278617473706
 10
-51.18264571510929
 20
26.22480774768738
 10
-51.18777445754545
 20
26.4015683747153
 10
-51.21193868970134
 20
26.57957941895126
 10
-51.25294685110162
 20
26.75717983418831
 10
-51.30922938912441
 20
26.93251055203058
 10
-51.38379320214998
 20
27.10525406148037
 10
-51.47792460794447
 20
27.27610969432156
 10
-51.58263805248445
 20
27.44072805655579
 10
-51.70588895195146
 20
27.59740099566713
 10
-51.84376864878359
 20
27.74846981691641
 10
-51.99879084731688
 20
27.89039067812568
 10
-52.16563978428435
 20
28.01939302279044
 10
-53.89413365511031
 20
29.24544156555186
 10
-53.79967633670433
 20
29.1011152908537
 10
-53.7023813874882
 20
28.92099998967064
 10
-53.62544815925243
 20
28.73827433436888
 10
-53.55952517230541
 20
28.54976362256516
 10
-53.51723349441148
 20
28.3606405855738
 10
-53.49391410274349
 20
28.1732491184529
 10
-53.48823588464099
 20
27.98471960529071
 10
-53.49455085507769
 20
27.88598671303638
 10
-52.65568884931787
 20
27.29096838112393
 10
-52.55230862959431
 20
27.20837040168571
 10
-52.45742437937884
 20
27.11613780199662
 10
-52.37193491399247
 20
27.01512120036674
 10
-52.3044169918023
 20
26.91129769258528
 10
-52.25149718420272
 20
26.80451172973146
 10
-52.21055502887072
 20
26.69258496448346
 10
-52.18209489641361
 20
26.57683398860417
 10
-52.17263873503121
 20
26.4662529445821
 10
-53.58168495290977
 20
27.46571212188773
 10
-53.59193303902369
 20
27.43296949413816
 10
-53.66972686163587
 20
27.26087741335429
 10
-53.76999580542465
 20
27.09870046147995
 10
-53.89247467608567
 20
26.94680762026425
 10
-54.02991148588661
 20
26.81580085981132
 10
-54.07187561493033
 20
26.78532959560481
 10
-52.6276610134149
 20
25.76092491734193
 10
-52.73966398366273
 20
25.72317965880292
 10
-52.85475736743646
 20
25.70360703980699
 10
-52.97273826307436
 20
25.70163699068578
 10
-53.09015646446162
 20
25.71343724285148
 10
-53.21240583296715
 20
25.74624293506659
 10
-53.33082953123332
 20
25.79093059539632
 10
-53.45377222935798
 20
25.85416499218681
 10
-53.57448957774119
 20
25.93180147201609
 97
        0
 92
        7
 72
     0
 73
     1
 93
       72
 10
-55.86482054918408
 20
27.57426834612662
 10
-55.97549032833652
 20
27.63060849388623
 10
-56.07969764309483
 20
27.69813219689002
 10
-57.11449955911313
 20
28.43213386307742
 10
-55.95213077132643
 20
28.60643192590918
 10
-56.39853255175228
 20
31.02984232005448
 10
-57.47408865281915
 20
31.79275158610883
 10
-57.08403835238051
 20
29.38001451201889
 10
-59.40065810575567
 20
29.02033343116838
 10
-56.59570702175414
 20
27.03073644902
 10
-56.41982930993233
 20
26.91919415104506
 10
-56.23649007937006
 20
26.82036404129848
 10
-56.04671968548398
 20
26.73455081922073
 10
-55.85634055218509
 20
26.66876092457311
 10
-55.6624792169767
 20
26.61914503405336
 10
-55.47310175235281
 20
26.59028824055805
 10
-55.28225586604757
 20
26.57317431947549
 10
-55.09537878140607
 20
26.57379072216006
 10
-54.91567118142464
 20
26.59259661454189
 10
-54.73821025138244
 20
26.62673938722789
 10
-54.56917565816858
 20
26.67729972852205
 10
-54.40928902499488
 20
26.74500257151745
 10
-54.26157912511827
 20
26.82933284729336
 10
-54.12427403744985
 20
26.92903370368151
 10
-54.00091760416792
 20
27.04661884501819
 10
-53.89025297310397
 20
27.18386019239247
 10
-53.79982125726722
 20
27.33012621926979
 10
-53.72962245665737
 20
27.48541692565027
 10
-53.67914150235346
 20
27.6467035382767
 10
-53.64660647326666
 20
27.81272920498097
 10
-53.6354469727548
 20
27.98720504342045
 10
-53.64070941174967
 20
28.16192976231066
 10
-53.66230314652113
 20
28.33545408477418
 10
-53.7011797320877
 20
28.50930526061647
 10
-53.7627660446295
 20
28.6854149933863
 10
-53.83516349185281
 20
28.85736762412089
 10
-53.9261280233325
 20
29.02576386787688
 10
-54.03349327326619
 20
29.18981284593907
 10
-54.16064671205498
 20
29.34627088128333
 10
-54.2958807217334
 20
29.49578268521056
 10
-54.45090292026691
 20
29.63770354641988
 10
-54.61775185723436
 20
29.76670589108464
 10
-56.16995473126181
 20
30.86770839036579
 10
-55.95226549850822
 20
29.64260042796199
 10
-55.12300642882231
 20
29.05439361327755
 10
-55.07079771450384
 20
29.01276686864693
 10
-54.99423539097647
 20
28.94622138611051
 10
-54.90866585417179
 20
28.85921088085292
 10
-54.83299630867417
 20
28.7634551135574
 10
-54.77389125024026
 20
28.67135198694425
 10
-54.74439361339761
 20
28.61591082960536
 10
-54.71945868196642
 20
28.55827268249046
 10
-54.66879933823806
 20
28.4005673309989
 10
-54.64928756564068
 20
28.30085844363098
 10
-54.64363697160728
 20
28.21364494005075
 10
-54.64588936320584
 20
28.12628415006615
 10
-54.65842554208375
 20
28.04057135169579
 10
-54.68153346211479
 20
27.95713694351226
 10
-54.71507550696347
 20
27.87407218196067
 10
-54.76062642114875
 20
27.79686207827638
 10
-54.79777862009036
 20
27.74682765719467
 10
-54.83862218198901
 20
27.69962465344001
 10
-54.88508711345264
 20
27.65513053290249
 10
-54.93563750143831
 20
27.61534542255047
 10
-55.02835030247961
 20
27.56008200202507
 10
-55.10148640775079
 20
27.52875317324842
 10
-55.19808203837228
 20
27.50159972728267
 10
-55.37682809655088
 20
27.47326755745167
 10
-55.44834526536831
 20
27.47488391527034
 10
-55.53621491824626
 20
27.48287737319798
 10
-55.62912867034884
 20
27.49711211852447
 10
-55.74896673000663
 20
27.52959241235507
 97
        0
 92
        7
 72
     0
 73
     1
 93
       57
 10
-59.56979653266671
 20
30.22932789983873
 10
-59.70015927687096
 20
30.27278924501497
 10
-59.82570389945161
 20
30.3286005042473
 10
-59.94767810000296
 20
30.40446506298754
 10
-60.9594450418633
 20
31.12212765098929
 10
-61.43704886575239
 20
30.44879763714182
 10
-60.43059768715927
 20
29.7349056056445
 10
-60.25369393284681
 20
29.62007862969226
 10
-60.06902235119916
 20
29.52371264787786
 10
-59.88389734089916
 20
29.44300560127052
 10
-59.69831890194662
 20
29.37795748987012
 10
-59.50622948782726
 20
29.32959845151857
 10
-59.32268967592846
 20
29.30072745366807
 10
-59.13734383268368
 20
29.28751480171538
 10
-58.95158708689251
 20
29.28999124942158
 10
-58.77285824764864
 20
29.30938485549598
 10
-58.60042151637101
 20
29.34496063202803
 10
-58.43493076533522
 20
29.39803467765849
 10
-58.28161674759666
 20
29.46773615606927
 10
-58.13390684772017
 20
29.55206643184515
 10
-58.00014560222997
 20
29.65428099256942
 10
-57.87678916894792
 20
29.77186613390611
 10
-57.76738139005226
 20
29.90733556019127
 10
-57.67569282204733
 20
30.05537350815775
 10
-57.60549402143747
 20
30.2106642145383
 10
-57.55501306713355
 20
30.37195082716473
 10
-57.52299310696765
 20
30.54100526712618
 10
-57.50840400309784
 20
30.71176998790833
 10
-57.51644415406409
 20
30.88857151970224
 10
-57.53879345430263
 20
31.06422983286658
 10
-57.5798874736281
 20
31.24210422263895
 10
-57.636244529281
 20
31.41770087116249
 10
-57.71080834230666
 20
31.59044438061233
 10
-57.80354479487527
 20
31.76009747653645
 10
-57.91142511373006
 20
31.92717522785584
 10
-58.03467601319709
 20
32.08384816696713
 10
-58.17255571002922
 20
32.23491698821644
 10
-58.32706283964163
 20
32.37380907616854
 10
-58.49568369769823
 20
32.50406827300146
 10
-59.48264374431158
 20
33.2041349306494
 10
-59.97910035072255
 20
32.50422610046579
 10
-58.97264917212932
 20
31.79033406896842
 10
-58.86962320305002
 20
31.70457817920117
 10
-58.77446799108867
 20
31.61012917778405
 10
-58.69594919647993
 20
31.51235239220218
 10
-58.62907990619572
 20
31.40611246877738
 10
-58.57487546441372
 20
31.29298190399262
 10
-58.53481926962607
 20
31.18168356482866
 10
-58.5096687766156
 20
31.06604289119245
 10
-58.49839702301975
 20
30.95321518480306
 10
-60.2153885583309
 20
32.1711049357202
 10
-60.69424923438806
 20
31.49600300078359
 10
-58.94713504056269
 20
30.25674676300824
 10
-59.06039486297878
 20
30.21722958338014
 10
-59.18280264543492
 20
30.19485490545334
 10
-59.30944393948691
 20
30.19114407375322
 10
-59.43585931308247
 20
30.19856592171498
 97
        0
 92
        7
 72
     0
 73
     1
 93
        6
 10
-61.61733138818535
 20
30.59265549349794
 10
-59.66795367541692
 20
33.34090510264921
 10
-61.4930323971616
 20
34.63546283582223
 10
-61.99451641224508
 20
33.92846632128232
 10
-61.00401252345367
 20
33.22588595929813
 10
-62.45190622113838
 20
31.18463286468673
 97
        0
 92
        7
 72
     0
 73
     1
 93
        8
 10
-62.64150177766919
 20
31.31911604667657
 10
-62.16389795378008
 20
31.9924460605241
 10
-63.17034913237319
 20
32.70633809202144
 10
-61.69480468698964
 20
34.7865734505924
 10
-62.53115144103171
 20
35.37980767394936
 10
-64.00669588641537
 20
33.29957231537839
 10
-65.02023474936475
 20
34.01849175554827
 10
-65.49783857325387
 20
33.34516174170074
 97
        0
 75
     0
 76
     1
 47
0.0142553043587597
 98
        5
 10
-54.13708483884396
 20
25.82924905417517
 10
-55.90408618244466
 20
27.25738462818889
 10
-59.60113132605971
 20
29.80984909750489
 10
-61.96303469452526
 20
31.1880708118981
 10
-63.05686305325512
 20
32.08628207963635
450
        0
451
        0
460
0.0
461
0.0
452
        0
462
0.0
453
        0
470

  0
LWPOLYLINE
  5
1353
330
1311
100
AcDbEntity
  8
LW 3801-06-01
 62
     1
100
AcDbPolyline
 90
        8
 70
     1
 43
0.0
 10
-64.00669588641537
 20
33.29957231537839
 10
-62.53115144103171
 20
35.37980767394936
 10
-61.69480468698964
 20
34.7865734505924
 10
-63.17034913237319
 20
32.70633809202144
 10
-62.16389795378008
 20
31.9924460605241
 10
-62.64150177766919
 20
31.31911604667657
 10
-65.49783857325387
 20
33.34516174170074
 10
-65.02023474936475
 20
34.01849175554827
  0
LWPOLYLINE
  5
1354
330
1311
100
AcDbEntity
  8
LW 3801-06-01
 62
     1
100
AcDbPolyline
 90
       73
 70
     1
 43
0.0
 10
-55.12300642882243
 20
29.05439361327757
 10
-55.95226549850822
 20
29.64260042796199
 10
-56.16995473126181
 20
30.86770839036579
 10
-54.61775185723436
 20
29.76670589108467
 10
-54.45090292026691
 20
29.63770354641988
 10
-54.29588072173351
 20
29.49578268521058
 10
-54.16064671205498
 20
29.34627088128333
 10
-54.0334932732663
 20
29.18981284593913
 10
-53.9261280233325
 20
29.02576386787688
 10
-53.83516349185271
 20
28.85736762412084
 10
-53.76276604462951
 20
28.68541499338625
 10
-53.7011797320877
 20
28.50930526061647
 10
-53.66230314652113
 20
28.33545408477424
 10
-53.64070941174968
 20
28.1619297623106
 10
-53.63544697275479
 20
27.98720504342051
 10
-53.64660647326666
 20
27.81272920498097
 10
-53.67914150235346
 20
27.6467035382767
 10
-53.72962245665737
 20
27.48541692565027
 10
-53.79982125726722
 20
27.33012621926979
 10
-53.890252973104
 20
27.18386019239239
 10
-54.0009176041678
 20
27.04661884501817
 10
-54.12427403744985
 20
26.92903370368151
 10
-54.26157912511825
 20
26.82933284729342
 10
-54.40928902499475
 20
26.74500257151751
 10
-54.56917565816858
 20
26.67729972852202
 10
-54.73821025138244
 20
26.62673938722789
 10
-54.91567118142465
 20
26.59259661454186
 10
-55.09537878140596
 20
26.57379072216
 10
-55.28225586604758
 20
26.57317431947543
 10
-55.47310175235281
 20
26.59028824055808
 10
-55.66247921697658
 20
26.6191450340534
 10
-55.85634055218509
 20
26.66876092457311
 10
-56.04671968548398
 20
26.7345508192207
 10
-56.23649007937006
 20
26.82036404129851
 10
-56.41982930993243
 20
26.91919415104511
 10
-56.59570702175404
 20
27.03073644901996
 10
-59.40065810575567
 20
29.02033343116838
 10
-57.08403835238051
 20
29.38001451201889
 10
-57.47408865281915
 20
31.79275158610883
 10
-56.39853255175228
 20
31.02984232005448
 10
-55.95213077132643
 20
28.60643192590918
 10
-57.11449955911313
 20
28.43213386307742
 10
-56.07969764309483
 20
27.69813219689002
 10
-55.97549032833652
 20
27.63060849388623
 10
-55.86482054918408
 20
27.57426834612662
 10
-55.74896673000663
 20
27.5295924123551
 10
-55.62912867034895
 20
27.49711211852448
 10
-55.53621491824627
 20
27.48287737319792
 10
-55.44834526536821
 20
27.47488391527028
 10
-55.3997864099692
 20
27.47378643774305
 10
-55.35129130172898
 20
27.47731527081219
 10
-55.19808203837228
 20
27.50159972728267
 10
-55.10148640775079
 20
27.52875317324842
 10
-55.02835030247972
 20
27.56008200202504
 10
-54.93563750143831
 20
27.61534542255047
 10
-54.88508711345264
 20
27.65513053290249
 10
-54.83862218198904
 20
27.6996246534399
 10
-54.79777862009036
 20
27.74682765719465
 10
-54.76062642114875
 20
27.79686207827632
 10
-54.71507550696358
 20
27.87407218196072
 10
-54.6815334621148
 20
27.95713694351224
 10
-54.65842554208375
 20
28.04057135169582
 10
-54.64588936320584
 20
28.12628415006615
 10
-54.64363697160731
 20
28.21364494005063
 10
-54.64928756564068
 20
28.30085844363098
 10
-54.66879933823806
 20
28.4005673309989
 10
-54.7194586819664
 20
28.55827268249054
 10
-54.7443936133976
 20
28.61591082960544
 10
-54.77389125024026
 20
28.67135198694425
 10
-54.83299630867417
 20
28.7634551135574
 10
-54.9086658541719
 20
28.85921088085289
 10
-54.99423539097647
 20
28.94622138611051
 10
-55.07079771450394
 20
29.01276686864702
  0
LWPOLYLINE
  5
1355
330
1311
100
AcDbEntity
  8
LW 3801-06-01
 62
     1
100
AcDbPolyline
 90
       76
 70
     1
 43
0.0
 10
-55.49076356031465
 20
26.44421236457294
 10
-55.2885947406737
 20
26.42608307034663
 10
-55.08746266051872
 20
26.42674649226591
 10
-54.8940850607139
 20
26.4469829114901
 10
-54.70315600748023
 20
26.48371689717449
 10
-54.51927934029715
 20
26.53871668669714
 10
-54.46345158990993
 20
26.56235654541594
 10
-53.57448957774119
 20
25.93180147201609
 10
-53.45377222935799
 20
25.85416499218676
 10
-53.3308295312332
 20
25.79093059539629
 10
-53.21240583296715
 20
25.74624293506659
 10
-53.09015646446162
 20
25.71343724285148
 10
-52.97273826307435
 20
25.7016369906858
 10
-52.85475736743656
 20
25.70360703980704
 10
-52.73966398366276
 20
25.72317965880281
 10
-52.6276610134149
 20
25.76092491734193
 10
-54.07187561493033
 20
26.78532959560481
 10
-54.02991148588661
 20
26.81580085981132
 10
-53.89247467608555
 20
26.94680762026428
 10
-53.76999580542475
 20
27.09870046148
 10
-53.66972686163586
 20
27.26087741335434
 10
-53.59193303902369
 20
27.43296949413814
 10
-53.58168495290977
 20
27.46571212188773
 10
-52.17263873503121
 20
26.4662529445821
 10
-52.18209489641361
 20
26.57683398860417
 10
-52.21055502887072
 20
26.69258496448346
 10
-52.25149718420272
 20
26.80451172973146
 10
-52.3044169918023
 20
26.91129769258528
 10
-52.37193491399238
 20
27.01512120036668
 10
-52.45742437937884
 20
27.11613780199662
 10
-52.55230862959431
 20
27.20837040168571
 10
-52.65568884931787
 20
27.29096838112393
 10
-53.49455085507769
 20
27.88598671303638
 10
-53.488235884641
 20
27.98471960529065
 10
-53.49391410274349
 20
28.1732491184529
 10
-53.51723349441148
 20
28.3606405855738
 10
-53.55952517230541
 20
28.54976362256511
 10
-53.62544815925243
 20
28.73827433436888
 10
-53.7023813874882
 20
28.92099998967064
 10
-53.79967633670433
 20
29.1011152908537
 10
-53.89413365511031
 20
29.24544156555186
 10
-52.16563978428446
 20
28.01939302279049
 10
-51.99879084731688
 20
27.89039067812568
 10
-51.84376864878359
 20
27.74846981691641
 10
-51.70588895195147
 20
27.5974009956671
 10
-51.58263805248442
 20
27.44072805655587
 10
-51.47792460794448
 20
27.27610969432153
 10
-51.38379320214998
 20
27.10525406148037
 10
-51.30922938912441
 20
26.93251055203058
 10
-51.2529468511016
 20
26.75717983418837
 10
-51.21193868970134
 20
26.57957941895126
 10
-51.18777445754545
 20
26.4015683747153
 10
-51.1826457151093
 20
26.22480774768729
 10
-51.19546289789006
 20
26.05278617473709
 10
-51.22925477914502
 20
25.88498858694373
 10
-51.27796381235978
 20
25.72244512214913
 10
-51.34993453405878
 20
25.56841126793675
 10
-51.44162310206371
 20
25.42037331997033
 10
-51.54925895987034
 20
25.28364704151702
 10
-51.66781469880602
 20
25.16532011693322
 10
-51.80157594429635
 20
25.06310555620885
 10
-51.94219815981657
 20
24.97374787176044
 10
-52.09374025646599
 20
24.90278954118149
 10
-52.25470228634591
 20
24.84874047901635
 10
-52.41965967515548
 20
24.80849870678301
 10
-52.59085085903103
 20
24.78397159447567
 10
-52.76898635140761
 20
24.77949845498658
 10
-52.94694745769197
 20
24.78885797588939
 10
-53.13114576393934
 20
24.81830259145055
 10
-53.31489064153438
 20
24.86340614221871
 10
-53.49692523830872
 20
24.92594054928288
 10
-53.68027832751968
 20
25.00539074372213
 10
-53.86014921482099
 20
25.10101494228927
 10
-54.03882489022262
 20
25.21709877040965
 10
-55.87985090176887
 20
26.52296817309583
 10
-55.69186125672095
 20
26.47485505328517
  0
LWPOLYLINE
  5
1356
330
1311
100
AcDbEntity
  8
LW 3801-06-01
 62
     1
100
AcDbPolyline
 90
        6
 70
     1
 43
0.0
 10
-61.4930323971616
 20
34.63546283582223
 10
-59.66795367541692
 20
33.34090510264921
 10
-61.61733138818535
 20
30.59265549349794
 10
-62.45190622113838
 20
31.18463286468673
 10
-61.00401252345367
 20
33.22588595929813
 10
-61.99451641224508
 20
33.92846632128232
  0
LWPOLYLINE
  5
1357
330
1311
100
AcDbEntity
  8
LW 3801-06-01
 62
     1
100
AcDbPolyline
 90
       57
 70
     1
 43
0.0
 10
-57.53879345430263
 20
31.06422983286658
 10
-57.51644415406409
 20
30.88857151970227
 10
-57.50840400309774
 20
30.71176998790827
 10
-57.52299310696765
 20
30.54100526712618
 10
-57.55501306713355
 20
30.37195082716473
 10
-57.60549402143747
 20
30.2106642145383
 10
-57.67569282204733
 20
30.05537350815775
 10
-57.76738139005225
 20
29.90733556019133
 10
-57.8767891689479
 20
29.77186613390616
 10
-58.00014560222995
 20
29.65428099256954
 10
-58.13390684772017
 20
29.55206643184515
 10
-58.28161674759667
 20
29.46773615606922
 10
-58.43493076533511
 20
29.39803467765843
 10
-58.60042151637091
 20
29.34496063202797
 10
-58.77285824764842
 20
29.30938485549593
 10
-58.95158708689251
 20
29.28999124942158
 10
-59.1373438326838
 20
29.28751480171534
 10
-59.32268967592857
 20
29.30072745366815
 10
-59.50622948782715
 20
29.32959845151848
 10
-59.69831890194662
 20
29.37795748987009
 10
-59.88389734089916
 20
29.44300560127052
 10
-60.06902235119914
 20
29.52371264787792
 10
-60.25369393284671
 20
29.62007862969221
 10
-60.43059768715928
 20
29.73490560564448
 10
-61.43704886575239
 20
30.44879763714182
 10
-60.9594450418633
 20
31.12212765098929
 10
-59.94767810000295
 20
30.40446506298756
 10
-59.82570389945172
 20
30.32860050424732
 10
-59.70015927687096
 20
30.27278924501497
 10
-59.56979653266671
 20
30.22932789983873
 10
-59.43585931308247
 20
30.19856592171498
 10
-59.30944393948691
 20
30.19114407375322
 10
-59.18280264543504
 20
30.19485490545331
 10
-59.06039486297878
 20
30.21722958338014
 10
-58.94713504056269
 20
30.25674676300824
 10
-60.69424923438806
 20
31.49600300078359
 10
-60.2153885583309
 20
32.1711049357202
 10
-58.49839702301975
 20
30.95321518480306
 10
-58.5096687766156
 20
31.06604289119245
 10
-58.53481926962607
 20
31.18168356482866
 10
-58.57487546441372
 20
31.29298190399262
 10
-58.62907990619572
 20
31.40611246877738
 10
-58.69594919647993
 20
31.51235239220218
 10
-58.77446799108867
 20
31.61012917778405
 10
-58.86962320305002
 20
31.70457817920117
 10
-58.97264917212943
 20
31.79033406896847
 10
-59.97910035072255
 20
32.50422610046579
 10
-59.48264374431158
 20
33.2041349306494
 10
-58.49568369769823
 20
32.50406827300146
 10
-58.32706283964163
 20
32.37380907616854
 10
-58.17255571002921
 20
32.23491698821647
 10
-58.03467601319709
 20
32.0838481669671
 10
-57.91142511373006
 20
31.92717522785584
 10
-57.80354479487527
 20
31.76009747653645
 10
-57.71080834230667
 20
31.59044438061228
 10
-57.636244529281
 20
31.41770087116249
 10
-57.5798874736281
 20
31.24210422263895
  0
INSERT
  5
1358
330
1311
100
AcDbEntity
  8
LW 3801-06-01
100
AcDbBlockReference
 66
     1
  2
insertpoint-ECKELT
 10
0.0
 20
0.0
 30
0.0
  0
ATTRIB
  5
1359
330
1358
100
AcDbEntity
  8
insertpoint_ECKELT
100
AcDbText
 10
-6.931514324693087
 20
-0.0000000000000284
 30
0.0
 40
0.6
  1
LW 3801/06-01
 72
     2
 11
-1.200000000000045
 21
-0.0000000000000284
 31
0.0
100
AcDbAttribute
  2
LINKS
 70
     0
  0
ATTRIB
  5
135A
330
1358
100
AcDbEntity
  8
insertpoint_ECKELT
100
AcDbText
 10
1.199999999999931
 20
-0.0000000000000284
 30
0.0
 40
0.6
  1

100
AcDbAttribute
  2
RECHTS
 70
     0
  0
SEQEND
  5
135B
330
1358
100
AcDbEntity
  8
LW 3801-06-01
  0
LINE
  5
135C
330
1311
100
AcDbEntity
  8
LW 3801-06-01
100
AcDbLine
 10
117.0000000643198
 20
54.99999998356653
 30
0.0
 11
117.0000000643198
 21
67.99999998356653
 31
0.0
  0
LINE
  5
135D
330
1311
100
AcDbEntity
  8
LW 3801-06-01
100
AcDbLine
 10
116.0000000643198
 20
68.99999998356652
 30
0.0
 11
117.0000000643198
 21
67.99999998356653
 31
0.0
  0
LINE
  5
135E
330
1311
100
AcDbEntity
  8
LW 3801-06-01
100
AcDbLine
 10
116.0000000643198
 20
68.99999998356652
 30
0.0
 11
104.0000000643198
 21
68.99999998356652
 31
0.0
  0
LINE
  5
135F
330
1311
100
AcDbEntity
  8
LW 3801-06-01
100
AcDbLine
 10
103.0000000643198
 20
67.99999998356653
 30
0.0
 11
104.0000000643198
 21
68.99999998356652
 31
0.0
  0
LINE
  5
1360
330
1311
100
AcDbEntity
  8
LW 3801-06-01
100
AcDbLine
 10
103.0000000643198
 20
67.99999998356653
 30
0.0
 11
103.0000000643198
 21
54.99999998356653
 31
0.0
  0
LINE
  5
1361
330
1311
100
AcDbEntity
  8
LW 3801-06-01
100
AcDbLine
 10
103.0000000643198
 20
67.99999998356653
 30
0.0
 11
117.0000000643198
 21
67.99999998356653
 31
0.0
  0
LINE
  5
1362
330
1311
100
AcDbEntity
  8
LW 3801-06-01
 62
     3
100
AcDbLine
 10
104.0000000643198
 20
68.99999998356652
 30
0.0
 11
104.0000000643198
 21
54.99999998356653
 31
0.0
  0
LINE
  5
1363
330
1311
100
AcDbEntity
  8
LW 3801-06-01
 62
     3
100
AcDbLine
 10
116.0000000643198
 20
68.99999998356652
 30
0.0
 11
116.0000000643198
 21
54.99999998356653
 31
0.0
  0
LINE
  5
1364
330
1311
100
AcDbEntity
  8
LW 3801-06-01
100
AcDbLine
 10
-102.9999999356842
 20
54.99999998356653
 30
0.0
 11
-102.9999999356842
 21
67.99999998356653
 31
0.0
  0
LINE
  5
1365
330
1311
100
AcDbEntity
  8
LW 3801-06-01
100
AcDbLine
 10
-103.9999999356842
 20
68.99999998356652
 30
0.0
 11
-102.9999999356842
 21
67.99999998356653
 31
0.0
  0
LINE
  5
1366
330
1311
100
AcDbEntity
  8
LW 3801-06-01
100
AcDbLine
 10
-103.9999999356842
 20
68.99999998356652
 30
0.0
 11
-115.9999999356841
 21
68.99999998356652
 31
0.0
  0
LINE
  5
1367
330
1311
100
AcDbEntity
  8
LW 3801-06-01
100
AcDbLine
 10
-116.9999999356841
 20
67.99999998356653
 30
0.0
 11
-115.9999999356841
 21
68.99999998356652
 31
0.0
  0
LINE
  5
1368
330
1311
100
AcDbEntity
  8
LW 3801-06-01
100
AcDbLine
 10
-116.9999999356841
 20
67.99999998356653
 30
0.0
 11
-116.9999999356841
 21
54.99999998356653
 31
0.0
  0
LINE
  5
1369
330
1311
100
AcDbEntity
  8
LW 3801-06-01
100
AcDbLine
 10
-116.9999999356841
 20
67.99999998356653
 30
0.0
 11
-102.9999999356842
 21
67.99999998356653
 31
0.0
  0
LINE
  5
136A
330
1311
100
AcDbEntity
  8
LW 3801-06-01
 62
     3
100
AcDbLine
 10
-115.9999999356841
 20
68.99999998356652
 30
0.0
 11
-115.9999999356841
 21
54.99999998356653
 31
0.0
  0
LINE
  5
136B
330
1311
100
AcDbEntity
  8
LW 3801-06-01
 62
     3
100
AcDbLine
 10
-103.9999999356842
 20
68.99999998356652
 30
0.0
 11
-103.9999999356842
 21
54.99999998356653
 31
0.0
  0
ENDBLK
  5
1313
330
1311
100
AcDbEntity
  8
0
100
AcDbBlockEnd
  0
BLOCK
  5
136E
330
136D
100
AcDbEntity
  8
0
100
AcDbBlockBegin
  2
LW 3801-06-01_c
 70
     0
 10
0.0
 20
0.0
 30
0.0
  3
LW 3801-06-01_c
  1

  0
LINE
  5
1370
330
136D
100
AcDbEntity
  8
LW 3801-06-01
100
AcDbLine
 10
-25.0
 20
-29.99999999999997
 30
0.0
 11
-24.99999999999284
 21
-17.99969620430883
 31
0.0
  0
LINE
  5
1371
330
136D
100
AcDbEntity
  8
LW 3801-06-01
100
AcDbLine
 10
-24.99999999999284
 20
17.99969620430895
 30
0.0
 11
-25.0
 21
30.00000000000003
 31
0.0
  0
LINE
  5
1372
330
136D
100
AcDbEntity
  8
LW 3801-06-01
100
AcDbLine
 10
0.0
 20
30.00000000000003
 30
0.0
 11
0.0
 21
-29.99999999999997
 31
0.0
  0
LINE
  5
1373
330
136D
100
AcDbEntity
  8
LW 3801-06-01
100
AcDbLine
 10
-24.99999999999284
 20
-17.99999952316281
 30
0.0
 11
-26.56249855220415
 21
-17.50000000000131
 31
0.0
  0
POLYLINE
  5
1374
330
136D
100
AcDbEntity
  8
LW 3801-06-01
100
AcDb2dPolyline
 66
     1
 10
0.0
 20
0.0
 30
0.0
  0
VERTEX
  5
1375
330
1374
100
AcDbEntity
  8
LW 3801-06-01
100
AcDbVertex
100
AcDb2dVertex
 10
-23.526650857422
 20
-17.50000000000128
 30
0.0
  0
VERTEX
  5
1376
330
1374
100
AcDbEntity
  8
LW 3801-06-01
100
AcDbVertex
100
AcDb2dVertex
 10
-24.06048297881358
 20
-17.68039464950559
 30
0.0
  0
VERTEX
  5
1377
330
1374
100
AcDbEntity
  8
LW 3801-06-01
100
AcDbVertex
100
AcDb2dVertex
 10
-24.99999999999284
 20
-17.99969673156735
 30
0.0
  0
SEQEND
  5
1378
330
1374
100
AcDbEntity
  8
LW 3801-06-01
  0
POLYLINE
  5
1379
330
136D
100
AcDbEntity
  8
LW 3801-06-01
100
AcDb2dPolyline
 66
     1
 10
0.0
 20
0.0
 30
0.0
  0
VERTEX
  5
137A
330
1379
100
AcDbEntity
  8
LW 3801-06-01
100
AcDbVertex
100
AcDb2dVertex
 10
-0.0006818771278176
 20
-9.999905228614778
 30
0.0
  0
VERTEX
  5
137B
330
1379
100
AcDbEntity
  8
LW 3801-06-01
100
AcDbVertex
100
AcDb2dVertex
 10
-0.9700298309242043
 20
-10.29371738433835
 30
0.0
  0
VERTEX
  5
137C
330
1379
100
AcDbEntity
  8
LW 3801-06-01
100
AcDbVertex
100
AcDb2dVertex
 10
-1.939835548392579
 20
-10.58882594108578
 30
0.0
  0
VERTEX
  5
137D
330
1379
100
AcDbEntity
  8
LW 3801-06-01
100
AcDbVertex
100
AcDb2dVertex
 10
-2.909860610953614
 20
-10.88517785072323
 30
0.0
  0
VERTEX
  5
137E
330
1379
100
AcDbEntity
  8
LW 3801-06-01
100
AcDbVertex
100
AcDb2dVertex
 10
-3.879876136771486
 20
-11.18271708488461
 30
0.0
  0
VERTEX
  5
137F
330
1379
100
AcDbEntity
  8
LW 3801-06-01
100
AcDbVertex
100
AcDb2dVertex
 10
-4.849653244010255
 20
-11.48139238357541
 30
0.0
  0
VERTEX
  5
1380
330
1379
100
AcDbEntity
  8
LW 3801-06-01
100
AcDbVertex
100
AcDb2dVertex
 10
-5.818963050834099
 20
-11.78114891052243
 30
0.0
  0
VERTEX
  5
1381
330
1379
100
AcDbEntity
  8
LW 3801-06-01
100
AcDbVertex
100
AcDb2dVertex
 10
-6.787571907035271
 20
-12.08193302154538
 30
0.0
  0
VERTEX
  5
1382
330
1379
100
AcDbEntity
  8
LW 3801-06-01
100
AcDbVertex
100
AcDb2dVertex
 10
-7.755250930777947
 20
-12.38369226455686
 30
0.0
  0
VERTEX
  5
1383
330
1379
100
AcDbEntity
  8
LW 3801-06-01
100
AcDbVertex
100
AcDb2dVertex
 10
-7.999999999967258
 20
-12.46033928389346
 30
0.0
  0
SEQEND
  5
1384
330
1379
100
AcDbEntity
  8
LW 3801-06-01
  0
LINE
  5
1385
330
136D
100
AcDbEntity
  8
LW 3801-06-01
100
AcDbLine
 10
-0.0006818771278176
 20
-9.999905228614778
 30
0.0
 11
-7.999999999967258
 21
-8.888888844738701
 31
0.0
  0
LINE
  5
1386
330
136D
100
AcDbEntity
  8
LW 3801-06-01
100
AcDbLine
 10
-0.0006818771278176
 20
9.999905228614835
 30
0.0
 11
-7.999999999967258
 21
8.888888844738772
 31
0.0
  0
LINE
  5
1387
330
136D
100
AcDbEntity
  8
LW 3801-06-01
100
AcDbLine
 10
-26.56249855221256
 20
17.49999999999869
 30
0.0
 11
-24.99999999999284
 21
17.99999952316287
 31
0.0
  0
POLYLINE
  5
1388
330
136D
100
AcDbEntity
  8
LW 3801-06-01
100
AcDb2dPolyline
 66
     1
 10
0.0
 20
0.0
 30
0.0
  0
VERTEX
  5
1389
330
1388
100
AcDbEntity
  8
LW 3801-06-01
100
AcDbVertex
100
AcDb2dVertex
 10
-7.999999999967371
 20
12.46034138854811
 30
0.0
  0
VERTEX
  5
138A
330
1388
100
AcDbEntity
  8
LW 3801-06-01
100
AcDbVertex
100
AcDb2dVertex
 10
-7.755327224723259
 20
12.38371849060061
 30
0.0
  0
VERTEX
  5
138B
330
1388
100
AcDbEntity
  8
LW 3801-06-01
100
AcDbVertex
100
AcDb2dVertex
 10
-6.78763866423742
 20
12.08195567131045
 30
0.0
  0
VERTEX
  5
138C
330
1388
100
AcDbEntity
  8
LW 3801-06-01
100
AcDbVertex
100
AcDb2dVertex
 10
-5.819020271293084
 20
11.78116798400882
 30
0.0
  0
VERTEX
  5
138D
330
1388
100
AcDbEntity
  8
LW 3801-06-01
100
AcDbVertex
100
AcDb2dVertex
 10
-4.849700927726075
 20
11.48140788078311
 30
0.0
  0
VERTEX
  5
138E
330
1388
100
AcDbEntity
  8
LW 3801-06-01
100
AcDbVertex
100
AcDb2dVertex
 10
-3.879914283744142
 20
11.18273019790652
 30
0.0
  0
VERTEX
  5
138F
330
1388
100
AcDbEntity
  8
LW 3801-06-01
100
AcDbVertex
100
AcDb2dVertex
 10
-2.909889221183107
 20
10.88518619537356
 30
0.0
  0
VERTEX
  5
1390
330
1388
100
AcDbEntity
  8
LW 3801-06-01
100
AcDbVertex
100
AcDb2dVertex
 10
-1.939854621878907
 20
10.58883190155032
 30
0.0
  0
VERTEX
  5
1391
330
1388
100
AcDbEntity
  8
LW 3801-06-01
100
AcDbVertex
100
AcDb2dVertex
 10
-0.9700393676673684
 20
10.29372096061709
 30
0.0
  0
VERTEX
  5
1392
330
1388
100
AcDbEntity
  8
LW 3801-06-01
100
AcDbVertex
100
AcDb2dVertex
 10
-0.0006818771278176
 20
9.999905228614835
 30
0.0
  0
SEQEND
  5
1393
330
1388
100
AcDbEntity
  8
LW 3801-06-01
  0
POLYLINE
  5
1394
330
136D
100
AcDbEntity
  8
LW 3801-06-01
100
AcDb2dPolyline
 66
     1
 10
0.0
 20
0.0
 30
0.0
  0
VERTEX
  5
1395
330
1394
100
AcDbEntity
  8
LW 3801-06-01
100
AcDbVertex
100
AcDb2dVertex
 10
-24.99999999999284
 20
17.99969673156741
 30
0.0
  0
VERTEX
  5
1396
330
1394
100
AcDbEntity
  8
LW 3801-06-01
100
AcDbVertex
100
AcDb2dVertex
 10
-24.06047344207042
 20
17.68039107322695
 30
0.0
  0
VERTEX
  5
1397
330
1394
100
AcDbEntity
  8
LW 3801-06-01
100
AcDbVertex
100
AcDb2dVertex
 10
-23.52665050140644
 20
17.49999999999868
 30
0.0
  0
SEQEND
  5
1398
330
1394
100
AcDbEntity
  8
LW 3801-06-01
  0
LINE
  5
1399
330
136D
100
AcDbEntity
  8
LW 3801-06-01
100
AcDbLine
 10
-49.99999999996735
 20
-27.50100000000006
 30
0.0
 11
-49.99999999996735
 21
27.50100000000001
 31
0.0
  0
LINE
  5
139A
330
136D
100
AcDbEntity
  8
LW 3801-06-01
100
AcDbLine
 10
-35.99999999996732
 20
27.50100000000001
 30
0.0
 11
-35.99999999996732
 21
-27.50100000000006
 31
0.0
  0
LINE
  5
139B
330
136D
100
AcDbEntity
  8
LW 3801-06-01
100
AcDbLine
 10
-25.0
 20
30.00000000000003
 30
0.0
 11
0.0
 21
30.00000000000003
 31
0.0
  0
LINE
  5
139C
330
136D
100
AcDbEntity
  8
LW 3801-06-01
100
AcDbLine
 10
-25.0
 20
-29.99999999999997
 30
0.0
 11
0.0
 21
-29.99999999999997
 31
0.0
  0
LINE
  5
139D
330
136D
100
AcDbEntity
  8
LW 3801-06-01
100
AcDbLine
 10
-49.99999999996735
 20
27.50100000000001
 30
0.0
 11
-35.99999999996732
 21
27.50100000000001
 31
0.0
  0
LINE
  5
139E
330
136D
100
AcDbEntity
  8
LW 3801-06-01
100
AcDbLine
 10
-49.99999999996735
 20
-27.50099999999995
 30
0.0
 11
-35.99999999996732
 21
-27.50099999999995
 31
0.0
  0
LINE
  5
139F
330
136D
100
AcDbEntity
  8
LW 3801-06-01
100
AcDbLine
 10
-54.99999999996735
 20
22.49999999999827
 30
0.0
 11
-54.99999999996735
 21
-22.50000000000174
 31
0.0
  0
LINE
  5
13A0
330
136D
100
AcDbEntity
  8
LW 3801-06-01
100
AcDbLine
 10
-30.99999999996749
 20
22.49999999999866
 30
0.0
 11
-30.99999999996715
 21
-22.50000000000134
 31
0.0
  0
LWPOLYLINE
  5
13A1
330
136D
100
AcDbEntity
  8
LW 3801-06-01
100
AcDbPolyline
 90
       25
 70
     0
 43
0.0
 10
-13.00000047680896
 20
-8.750000000001222
 10
-13.01681613919299
 20
-8.52777421474579
 10
-13.06749200818103
 20
-8.301455974580079
 10
-13.15236783024841
 20
-8.078528046609193
 10
-13.27067708966308
 20
-7.866197824479371
 10
-13.41724133488708
 20
-7.670383453370362
 10
-13.58578896519714
 20
-7.496634125710755
 10
-13.77805209157054
 20
-7.343416213990479
 10
-13.99613595006053
 20
-7.209523916245728
 10
-14.23433041569774
 20
-7.10099756717804
 10
-14.48646640774791
 20
-7.022901177407533
 10
-14.74452114102428
 20
-6.97616219520691
 10
-14.99999976155345
 20
-6.960618495942384
 10
-15.25547957417552
 20
-6.97616219520691
 10
-15.51353311535899
 20
-7.022901177407533
 10
-15.76566910740917
 20
-7.10099756717804
 10
-16.00386357304637
 20
-7.209523916245728
 10
-16.22194862362926
 20
-7.343416213990479
 10
-16.41421055790954
 20
-7.496634125710755
 10
-16.5827581882196
 20
-7.670383453370362
 10
-16.72932362553649
 20
-7.866197824479371
 10
-16.84763169285827
 20
-8.078528046609193
 10
-16.93250751492542
 20
-8.301455974580079
 10
-16.98318338391345
 20
-8.52777421474579
 10
-17.00000023839038
 20
-8.750000000001222
  0
LINE
  5
13A2
330
136D
100
AcDbEntity
  8
LW 3801-06-01
100
AcDbLine
 10
-10.99999999996748
 20
17.49999999999878
 30
0.0
 11
-10.99999999996714
 21
-17.50000000000122
 31
0.0
  0
LINE
  5
13A3
330
136D
100
AcDbEntity
  8
LW 3801-06-01
100
AcDbLine
 10
-7.999999999967371
 20
14.49999999999883
 30
0.0
 11
-7.999999999967258
 21
-14.50000000000116
 31
0.0
  0
LINE
  5
13A4
330
136D
100
AcDbEntity
  8
LW 3801-06-01
  6
MITTE2
 62
     3
100
AcDbLine
 10
-85.49999999997423
 20
-0.0000000000013358
 30
0.0
 11
6.464546775196936
 21
0.0000000000017337
 31
0.0
  0
LINE
  5
13A5
330
136D
100
AcDbEntity
  8
LW 3801-06-01
100
AcDbLine
 10
-49.99999999996735
 20
22.49999999999827
 30
0.0
 11
-54.99999999996735
 21
22.49999999999827
 31
0.0
  0
LINE
  5
13A6
330
136D
100
AcDbEntity
  8
LW 3801-06-01
100
AcDbLine
 10
-30.99999999996749
 20
22.49999999999866
 30
0.0
 11
-35.99999999996752
 21
22.49999999999861
 31
0.0
  0
LWPOLYLINE
  5
13A7
330
136D
100
AcDbEntity
  8
LW 3801-06-01
100
AcDbPolyline
 90
       25
 70
     0
 43
0.0
 10
-17.00000023838606
 20
17.49999999999878
 10
-16.98318338390913
 20
17.49805331230041
 10
-16.93250751492121
 20
17.49238133430359
 10
-16.84763169285406
 20
17.48324155807373
 10
-16.72932362553229
 20
17.4711489677417
 10
-16.5827581882155
 20
17.45725393295166
 10
-16.41421055790545
 20
17.44276285171386
 10
-16.22194862362517
 20
17.42825865745422
 10
-16.00386357304228
 20
17.41433024406311
 10
-15.76566910740519
 20
17.40219116210815
 10
-15.51353311535502
 20
17.39300489425537
 10
-15.25547957417154
 20
17.38729953765747
 10
-14.99999976154947
 20
17.38533854484436
 10
-14.7445211410203
 20
17.38729953765747
 10
-14.48646640774393
 20
17.39300489425537
 10
-14.23433041569376
 20
17.40219116210815
 10
-13.99613595005644
 20
17.41433024406311
 10
-13.77805209156645
 20
17.42825865745422
 10
-13.58578896519304
 20
17.44276285171386
 10
-13.41724133488298
 20
17.45725393295166
 10
-13.27067708965887
 20
17.4711489677417
 10
-13.1523678302442
 20
17.48324155807373
 10
-13.06749200817683
 20
17.49238133430359
 10
-13.01681613918868
 20
17.49805331230041
 10
-13.00000047680464
 20
17.49999999999878
  0
LINE
  5
13A8
330
136D
100
AcDbEntity
  8
LW 3801-06-01
100
AcDbLine
 10
-30.99999999996749
 20
17.49999999999866
 30
0.0
 11
-16.99999999996748
 21
17.49999999999878
 31
0.0
  0
LINE
  5
13A9
330
136D
100
AcDbEntity
  8
LW 3801-06-01
100
AcDbLine
 10
-12.99999999996748
 20
17.49999999999878
 30
0.0
 11
-10.99999999996748
 21
17.49999999999878
 31
0.0
  0
LINE
  5
13AA
330
136D
100
AcDbEntity
  8
LW 3801-06-01
100
AcDbLine
 10
-7.999999999967371
 20
14.49999999999883
 30
0.0
 11
-10.99999999996748
 21
17.49999999999883
 31
0.0
  0
LINE
  5
13AB
330
136D
100
AcDbEntity
  8
LW 3801-06-01
100
AcDbLine
 10
-49.99999999996735
 20
-22.50000000000174
 30
0.0
 11
-54.99999999996735
 21
-22.50000000000174
 31
0.0
  0
LINE
  5
13AC
330
136D
100
AcDbEntity
  8
LW 3801-06-01
100
AcDbLine
 10
-30.99999999996715
 20
-22.50000000000134
 30
0.0
 11
-35.99999999996717
 21
-22.50000000000139
 31
0.0
  0
ELLIPSE
  5
13AD
330
136D
100
AcDbEntity
  8
LW 3801-06-01
100
AcDbEllipse
 10
-14.99999999997044
 20
-6.250000000001222
 30
0.0
 11
1.999999999999999
 21
-0.0000000000008314
 31
0.0
210
0.0
220
0.0
230
-1.0
 40
0.866025403784438
 41
0.7941688477848424
 42
2.347423805805178
  0
LWPOLYLINE
  5
13AE
330
136D
100
AcDbEntity
  8
LW 3801-06-01
100
AcDbPolyline
 90
       25
 70
     0
 43
0.0
 10
-17.00000023839038
 20
-8.750000000001222
 10
-16.98318338391334
 20
-8.970278501511842
 10
-16.9325075149253
 20
-9.190925955773622
 10
-16.84763169285793
 20
-9.404713511468202
 10
-16.72932362553615
 20
-9.60495173931244
 10
-16.58275818821926
 20
-9.78687107563141
 10
-16.4142105579092
 20
-9.946129322053224
 10
-16.22194862362869
 20
-10.08484244346741
 10
-16.0038635730458
 20
-10.20480632782104
 10
-15.7656691074086
 20
-10.30119299888733
 10
-15.51353311535843
 20
-10.37010312080505
 10
-15.25547957417495
 20
-10.41113734245422
 10
-14.99999976155288
 20
-10.42472004890564
 10
-14.74452114102371
 20
-10.41113734245422
 10
-14.48646640774734
 20
-10.37010312080505
 10
-14.23433041569717
 20
-10.30119299888733
 10
-13.99613595005996
 20
-10.20480632782104
 10
-13.77805209156997
 20
-10.08484244346741
 10
-13.5857889651968
 20
-9.946129322053224
 10
-13.41724133488674
 20
-9.78687107563141
 10
-13.27067708966274
 20
-9.60495173931244
 10
-13.15236783024807
 20
-9.404713511468202
 10
-13.06749200818092
 20
-9.190925955773622
 10
-13.01681613919288
 20
-8.970278501511842
 10
-13.00000047680896
 20
-8.750000000001222
  0
LINE
  5
13AF
330
136D
100
AcDbEntity
  8
LW 3801-06-01
100
AcDbLine
 10
-30.99999999996715
 20
-17.50000000000133
 30
0.0
 11
-10.99999999996714
 21
-17.50000000000122
 31
0.0
  0
LINE
  5
13B0
330
136D
100
AcDbEntity
  8
LW 3801-06-01
100
AcDbLine
 10
-7.999999999967258
 20
-14.50000000000116
 30
0.0
 11
-10.99999999996714
 21
-17.50000000000122
 31
0.0
  0
LINE
  5
13B1
330
136D
100
AcDbEntity
  8
LW 3801-06-01
100
AcDbLine
 10
-54.99999999996735
 20
6.999999999998834
 30
0.0
 11
-67.99999999996734
 21
6.999999999998834
 31
0.0
  0
LINE
  5
13B2
330
136D
100
AcDbEntity
  8
LW 3801-06-01
100
AcDbLine
 10
-68.99999999996734
 20
5.999999999998834
 30
0.0
 11
-67.99999999996734
 21
6.999999999998834
 31
0.0
  0
LINE
  5
13B3
330
136D
100
AcDbEntity
  8
LW 3801-06-01
100
AcDbLine
 10
-68.99999999996734
 20
5.999999999998834
 30
0.0
 11
-68.99999999996734
 21
-6.000000000001165
 31
0.0
  0
LINE
  5
13B4
330
136D
100
AcDbEntity
  8
LW 3801-06-01
100
AcDbLine
 10
-67.99999999996734
 20
-7.000000000001165
 30
0.0
 11
-68.99999999996734
 21
-6.000000000001165
 31
0.0
  0
LINE
  5
13B5
330
136D
100
AcDbEntity
  8
LW 3801-06-01
100
AcDbLine
 10
-67.99999999996734
 20
-7.000000000001165
 30
0.0
 11
-54.99999999996735
 21
-7.000000000001165
 31
0.0
  0
LINE
  5
13B6
330
136D
100
AcDbEntity
  8
LW 3801-06-01
100
AcDbLine
 10
-67.99999999996734
 20
-7.000000000001165
 30
0.0
 11
-67.99999999996734
 21
6.999999999998834
 31
0.0
  0
LINE
  5
13B7
330
136D
100
AcDbEntity
  8
LW 3801-06-01
 62
     3
100
AcDbLine
 10
-68.99999999996734
 20
-6.000000000001165
 30
0.0
 11
-54.99999999996735
 21
-6.000000000001165
 31
0.0
  0
LINE
  5
13B8
330
136D
100
AcDbEntity
  8
LW 3801-06-01
 62
     3
100
AcDbLine
 10
-68.99999999996734
 20
5.999999999998834
 30
0.0
 11
-54.99999999996735
 21
5.999999999998834
 31
0.0
  0
INSERT
  5
13B9
330
136D
100
AcDbEntity
  8
LW 3801-06-01
100
AcDbBlockReference
 66
     1
  2
insertpoint-ECKELT
 10
0.0
 20
0.0
 30
0.0
 50
90.0
  0
ATTRIB
  5
13BA
330
13B9
100
AcDbEntity
  8
insertpoint_ECKELT
100
AcDbText
 10
-0.0000000000000004
 20
-6.931514324693087
 30
0.0
 40
0.6
  1
LW 3801/06-01
 50
90.0
 72
     2
 11
0.0
 21
-1.200000000000045
 31
0.0
100
AcDbAttribute
  2
LINKS
 70
     0
  0
ATTRIB
  5
13BB
330
13B9
100
AcDbEntity
  8
insertpoint_ECKELT
100
AcDbText
 10
0.0
 20
1.199999999999931
 30
0.0
 40
0.6
  1

 50
90.0
100
AcDbAttribute
  2
RECHTS
 70
     0
  0
SEQEND
  5
13BC
330
13B9
100
AcDbEntity
  8
LW 3801-06-01
  0
ENDBLK
  5
136F
330
136D
100
AcDbEntity
  8
0
100
AcDbBlockEnd
  0
ENDSEC
  0
SECTION
  2
ENTITIES
  0
INSERT
  5
1310
330
1F
100
AcDbEntity
  8
0
100
AcDbBlockReference
  2
LW 3801-06-01_a
 10
-0.0000000000011084
 20
103.1263632900689
 30
0.0
  0
INSERT
  5
136C
330
1F
100
AcDbEntity
  8
0
100
AcDbBlockReference
  2
LW 3801-06-01_b
 10
-0.0000000643199201
 20
-54.99999998356646
 30
0.0
  0
INSERT
  5
13BD
330
1F
100
AcDbEntity
  8
0
100
AcDbBlockReference
  2
LW 3801-06-01_c
 10
288.1860732880234
 20
103.1263632900703
 30
0.0
  0
VIEWPORT
  5
66C
330
1B
100
AcDbEntity
 67
     1
  8
0
100
AcDbViewport
 10
144.2296600341797
 20
98.97533035278321
 30
0.0
 40
355.5619652597054
 41
222.1517806396485
 68
     1
 69
     1
 12
144.2296600341797
 22
98.97533035278321
 13
0.0
 23
0.0
 14
10.0
 24
10.0
 15
10.0
 25
10.0
 16
0.0
 26
0.0
 36
1.0
 17
0.0
 27
0.0
 37
0.0
 42
50.0
 43
0.0
 44
0.0
 45
222.1517806396485
 50
0.0
 51
0.0
 72
   100
 90
    32800
  1

281
     0
 71
     1
 74
     0
110
0.0
120
0.0
130
0.0
111
1.0
121
0.0
131
0.0
112
0.0
122
1.0
132
0.0
 79
     0
146
0.0
170
     0
  0
ENDSEC
  0
SECTION
  2
OBJECTS
  0
DICTIONARY
  5
C
330
0
100
AcDbDictionary
281
     1
  3
ACAD_COLOR
350
B86
  3
ACAD_GROUP
350
D
  3
ACAD_LAYOUT
350
1A
  3
ACAD_MATERIAL
350
B85
  3
ACAD_MLINESTYLE
350
17
  3
ACAD_PLOTSETTINGS
350
19
  3
ACAD_PLOTSTYLENAME
350
E
  3
ACAD_TABLESTYLE
350
C27
  3
AcDbVariableDictionary
350
65E
  0
DICTIONARY
  5
C2B
330
2
100
AcDbDictionary
280
     1
281
     1
  3
ACAD_LAYERFILTERS
360
E4A
  3
ACLYDICTIONARY
360
E49
  0
DICTIONARY
  5
56F
330
1F
100
AcDbDictionary
280
     1
281
     1
  3
ACAD_LAYOUTSELFREF
360
B80
  3
ACAD_SORTENTS
360
D9C
  0
DICTIONARY
  5
571
330
1B
100
AcDbDictionary
280
     1
281
     1
  3
ACAD_LAYOUTSELFREF
360
B7F
  0
DICTIONARY
  5
573
330
23
100
AcDbDictionary
280
     1
281
     1
  3
ACAD_LAYOUTSELFREF
360
B81
  0
DICTIONARY
  5
B86
102
{ACAD_REACTORS
330
C
102
}
330
C
100
AcDbDictionary
281
     1
  0
DICTIONARY
  5
D
102
{ACAD_REACTORS
330
C
102
}
330
C
100
AcDbDictionary
281
     1
  0
DICTIONARY
  5
1A
102
{ACAD_REACTORS
330
C
102
}
330
C
100
AcDbDictionary
281
     1
  3
Layout1
350
1E
  3
Layout2
350
26
  3
Model
350
22
  0
DICTIONARY
  5
B85
102
{ACAD_REACTORS
330
C
102
}
330
C
100
AcDbDictionary
281
     1
  0
DICTIONARY
  5
17
102
{ACAD_REACTORS
330
C
102
}
330
C
100
AcDbDictionary
281
     1
  3
Standard
350
18
  0
DICTIONARY
  5
19
102
{ACAD_REACTORS
330
C
102
}
330
C
100
AcDbDictionary
281
     1
  0
ACDBDICTIONARYWDFLT
  5
E
102
{ACAD_REACTORS
330
C
102
}
330
C
100
AcDbDictionary
281
     1
  3
Normal
350
F
100
AcDbDictionaryWithDefault
340
F
  0
DICTIONARY
  5
C27
102
{ACAD_REACTORS
330
C
102
}
330
C
100
AcDbDictionary
281
     1
  3
Standard
350
C28
  0
DICTIONARY
  5
65E
102
{ACAD_REACTORS
330
C
102
}
330
C
100
AcDbDictionary
281
     1
  3
CTABLESTYLE
350
C3A
  3
DIMASSOC
350
660
  3
HIDETEXT
350
65F
  3
PROJECTNAME
350
C25
  0
DICTIONARY
  5
E4A
102
{ACAD_REACTORS
330
C2B
102
}
330
C2B
100
AcDbDictionary
281
     1
  0
DICTIONARY
  5
E49
102
{ACAD_REACTORS
330
C2B
102
}
330
C2B
100
AcDbDictionary
281
     1
1001
ACAD
1000
<All
  0
XRECORD
  5
B80
102
{ACAD_REACTORS
330
56F
102
}
330
56F
100
AcDbXrecord
280
     1
340
1F
  0
SORTENTSTABLE
  5
D9C
102
{ACAD_REACTORS
330
56F
102
}
330
56F
100
AcDbSortentsTable
330
1F
  0
XRECORD
  5
B7F
102
{ACAD_REACTORS
330
571
102
}
330
571
100
AcDbXrecord
280
     1
340
1B
  0
XRECORD
  5
B81
102
{ACAD_REACTORS
330
573
102
}
330
573
100
AcDbXrecord
280
     1
340
23
  0
LAYOUT
  5
1E
102
{ACAD_REACTORS
330
1A
102
}
330
1A
100
AcDbPlotSettings
  1

  2
\\A-SERVER\HP LaserJet 5N - AWT
  4
A4
  6

 40
6.011333465576171
 41
4.233341693878173
 42
6.011322021484375
 43
4.23333740234375
 44
209.9733276367187
 45
296.9259948730469
 46
0.0
 47
0.0
 48
0.0
 49
0.0
140
0.0
141
0.0
142
1.0
143
1.0
 70
   688
 72
     1
 73
     1
 74
     5
  7

 75
    16
147
1.0
 76
     0
 77
     2
 78
   300
148
0.0
149
0.0
100
AcDbLayout
  1
Layout1
 70
     1
 71
     1
 10
-4.23333740234375
 20
-6.011333465576171
 11
292.6926574707031
 21
203.9619941711426
 12
0.0
 22
0.0
 32
0.0
 14
1.000000000000000E+20
 24
1.000000000000000E+20
 34
1.000000000000000E+20
 15
-1.000000000000000E+20
 25
-1.000000000000000E+20
 35
-1.000000000000000E+20
146
0.0
 13
0.0
 23
0.0
 33
0.0
 16
1.0
 26
0.0
 36
0.0
 17
0.0
 27
1.0
 37
0.0
 76
     0
330
1B
331
66C
  0
LAYOUT
  5
26
102
{ACAD_REACTORS
330
1A
102
}
330
1A
100
AcDbPlotSettings
  1

  2

  4

  6

 40
0.0
 41
0.0
 42
0.0
 43
0.0
 44
0.0
 45
0.0
 46
0.0
 47
0.0
 48
0.0
 49
0.0
140
0.0
141
0.0
142
1.0
143
1.0
 70
   688
 72
     0
 73
     0
 74
     5
  7

 75
    16
147
1.0
 76
     0
 77
     2
 78
   300
148
0.0
149
0.0
100
AcDbLayout
  1
Layout2
 70
     1
 71
     2
 10
0.0
 20
0.0
 11
12.0
 21
9.0
 12
0.0
 22
0.0
 32
0.0
 14
0.0
 24
0.0
 34
0.0
 15
0.0
 25
0.0
 35
0.0
146
0.0
 13
0.0
 23
0.0
 33
0.0
 16
1.0
 26
0.0
 36
0.0
 17
0.0
 27
1.0
 37
0.0
 76
     0
330
23
  0
LAYOUT
  5
22
102
{ACAD_REACTORS
330
1A
102
}
330
1A
100
AcDbPlotSettings
  1

  2

  4

  6

 40
0.0
 41
0.0
 42
0.0
 43
0.0
 44
0.0
 45
0.0
 46
0.0
 47
0.0
 48
0.0
 49
0.0
140
0.0
141
0.0
142
1.0
143
1.0
 70
  1712
 72
     0
 73
     0
 74
     0
  7

 75
     0
147
1.0
 76
     0
 77
     2
 78
   300
148
0.0
149
0.0
100
AcDbLayout
  1
Model
 70
     1
 71
     0
 10
0.0
 20
0.0
 11
12.0
 21
9.0
 12
0.0
 22
0.0
 32
0.0
 14
0.0
 24
0.0
 34
0.0
 15
0.0
 25
0.0
 35
0.0
146
0.0
 13
0.0
 23
0.0
 33
0.0
 16
1.0
 26
0.0
 36
0.0
 17
0.0
 27
1.0
 37
0.0
 76
     0
330
1F
  0
MLINESTYLE
  5
18
102
{ACAD_REACTORS
330
17
102
}
330
17
100
AcDbMlineStyle
  2
STANDARD
 70
     0
  3

 62
   256
 51
90.0
 52
90.0
 71
     2
 49
0.5
 62
   256
  6
BYLAYER
 49
-0.5
 62
   256
  6
BYLAYER
  0
ACDBPLACEHOLDER
  5
F
102
{ACAD_REACTORS
330
E
102
}
330
E
  0
TABLESTYLE
  5
C28
102
{ACAD_REACTORS
330
C27
102
}
330
C27
100
AcDbTableStyle
  3
Standard
 70
     0
 71
     0
 40
1.5
 41
1.5
280
     0
281
     0
  7
Standard
140
4.5
170
     2
 62
     0
 63
     7
283
     0
274
    -2
284
     1
 64
     0
275
    -2
285
     1
 65
     0
276
    -2
286
     1
 66
     0
277
    -2
287
     1
 67
     0
278
    -2
288
     1
 68
     0
279
    -2
289
     1
 69
     0
  7
Standard
140
6.0
170
     5
 62
     0
 63
     7
283
     0
274
    -2
284
     1
 64
     0
275
    -2
285
     1
 65
     0
276
    -2
286
     1
 66
     0
277
    -2
287
     1
 67
     0
278
    -2
288
     1
 68
     0
279
    -2
289
     1
 69
     0
  7
Standard
140
4.5
170
     5
 62
     0
 63
     7
283
     0
274
    -2
284
     1
 64
     0
275
    -2
285
     1
 65
     0
276
    -2
286
     1
 66
     0
277
    -2
287
     1
 67
     0
278
    -2
288
     1
 68
     0
279
    -2
289
     1
 69
     0
  0
DICTIONARYVAR
  5
C3A
102
{ACAD_REACTORS
330
65E
102
}
330
65E
100
DictionaryVariables
280
     0
  1
STANDARD
  0
DICTIONARYVAR
  5
660
102
{ACAD_REACTORS
330
65E
102
}
330
65E
100
DictionaryVariables
280
     0
  1
2
  0
DICTIONARYVAR
  5
65F
102
{ACAD_REACTORS
330
65E
102
}
330
65E
100
DictionaryVariables
280
     0
  1
1
  0
DICTIONARYVAR
  5
C25
102
{ACAD_REACTORS
330
65E
102
}
330
65E
100
DictionaryVariables
280
     0
  1

  0
ENDSEC
  0
EOF
