  0
SECTION
  2
HEADER
  9
$ACADVER
  1
AC1018
  9
$ACADMAINTVER
 70
    76
  9
$DWGCODEPAGE
  3
ANSI_1252
  9
$AUTHOR
  1
Grandl
  9
$INSBASE
 10
0.0
 20
0.0
 30
0.0
  9
$EXTMIN
 10
325.3858819357265
 20
-74.07596076793925
 30
-0.0000000000112498
  9
$EXTMAX
 10
559.1795752123943
 20
153.5625166025056
 30
0.0000000000002956
  9
$LIMMIN
 10
0.0
 20
0.0
  9
$LIMMAX
 10
18025.7704
 20
13929.0044
  9
$ORTHOMODE
 70
     1
  9
$REGENMODE
 70
     1
  9
$FILLMODE
 70
     1
  9
$QTEXTMODE
 70
     0
  9
$MIRRTEXT
 70
     1
  9
$LTSCALE
 40
0.4
  9
$ATTMODE
 70
     1
  9
$TEXTSIZE
 40
0.2
  9
$TRACEWID
 40
0.05
  9
$TEXTSTYLE
  7
Standard
  9
$CLAYER
  8
0
  9
$CELTYPE
  6
ByLayer
  9
$CECOLOR
 62
   256
  9
$CELTSCALE
 40
1.0
  9
$DISPSILH
 70
     0
  9
$DIMSCALE
 40
1.0
  9
$DIMASZ
 40
0.18
  9
$DIMEXO
 40
0.0625
  9
$DIMDLI
 40
0.38
  9
$DIMRND
 40
0.0
  9
$DIMDLE
 40
0.0
  9
$DIMEXE
 40
0.18
  9
$DIMTP
 40
0.0
  9
$DIMTM
 40
0.0
  9
$DIMTXT
 40
0.18
  9
$DIMCEN
 40
0.09
  9
$DIMTSZ
 40
0.0
  9
$DIMTOL
 70
     0
  9
$DIMLIM
 70
     0
  9
$DIMTIH
 70
     1
  9
$DIMTOH
 70
     1
  9
$DIMSE1
 70
     0
  9
$DIMSE2
 70
     0
  9
$DIMTAD
 70
     0
  9
$DIMZIN
 70
     0
  9
$DIMBLK
  1

  9
$DIMASO
 70
     1
  9
$DIMSHO
 70
     1
  9
$DIMPOST
  1

  9
$DIMAPOST
  1

  9
$DIMALT
 70
     0
  9
$DIMALTD
 70
     2
  9
$DIMALTF
 40
25.4
  9
$DIMLFAC
 40
1.0
  9
$DIMTOFL
 70
     0
  9
$DIMTVP
 40
0.0
  9
$DIMTIX
 70
     0
  9
$DIMSOXD
 70
     0
  9
$DIMSAH
 70
     0
  9
$DIMBLK1
  1

  9
$DIMBLK2
  1

  9
$DIMSTYLE
  2
Standard
  9
$DIMCLRD
 70
     0
  9
$DIMCLRE
 70
     0
  9
$DIMCLRT
 70
     0
  9
$DIMTFAC
 40
1.0
  9
$DIMGAP
 40
0.09
  9
$DIMJUST
 70
     0
  9
$DIMSD1
 70
     0
  9
$DIMSD2
 70
     0
  9
$DIMTOLJ
 70
     1
  9
$DIMTZIN
 70
     0
  9
$DIMALTZ
 70
     0
  9
$DIMALTTZ
 70
     0
  9
$DIMUPT
 70
     0
  9
$DIMDEC
 70
     4
  9
$DIMTDEC
 70
     4
  9
$DIMALTU
 70
     2
  9
$DIMALTTD
 70
     2
  9
$DIMTXSTY
  7
Standard
  9
$DIMAUNIT
 70
     0
  9
$DIMADEC
 70
     0
  9
$DIMALTRND
 40
0.0
  9
$DIMAZIN
 70
     0
  9
$DIMDSEP
 70
    46
  9
$DIMATFIT
 70
     3
  9
$DIMFRAC
 70
     0
  9
$DIMLDRBLK
  1

  9
$DIMLUNIT
 70
     2
  9
$DIMLWD
 70
    -2
  9
$DIMLWE
 70
    -2
  9
$DIMTMOVE
 70
     0
  9
$LUNITS
 70
     2
  9
$LUPREC
 70
     4
  9
$SKETCHINC
 40
0.1
  9
$FILLETRAD
 40
0.0
  9
$AUNITS
 70
     0
  9
$AUPREC
 70
     0
  9
$MENU
  1
.
  9
$ELEVATION
 40
0.0
  9
$PELEVATION
 40
0.0
  9
$THICKNESS
 40
0.0
  9
$LIMCHECK
 70
     0
  9
$CHAMFERA
 40
1.0
  9
$CHAMFERB
 40
1.0
  9
$CHAMFERC
 40
0.0
  9
$CHAMFERD
 40
0.0
  9
$SKPOLY
 70
     0
  9
$TDCREATE
 40
2452780.580131598
  9
$TDUCREATE
 40
2452780.538464931
  9
$TDUPDATE
 40
2453704.481531204
  9
$TDUUPDATE
 40
2453704.439864537
  9
$TDINDWG
 40
0.0695536458
  9
$TDUSRTIMER
 40
0.0695536458
  9
$USRTIMER
 70
     1
  9
$ANGBASE
 50
0.0
  9
$ANGDIR
 70
     0
  9
$PDMODE
 70
     0
  9
$PDSIZE
 40
0.0
  9
$PLINEWID
 40
0.0
  9
$SPLFRAME
 70
     0
  9
$SPLINETYPE
 70
     6
  9
$SPLINESEGS
 70
     8
  9
$HANDSEED
  5
1885
  9
$SURFTAB1
 70
     6
  9
$SURFTAB2
 70
     6
  9
$SURFTYPE
 70
     6
  9
$SURFU
 70
     6
  9
$SURFV
 70
     6
  9
$UCSBASE
  2

  9
$UCSNAME
  2

  9
$UCSORG
 10
0.0
 20
0.0
 30
0.0
  9
$UCSXDIR
 10
1.0
 20
0.0
 30
0.0
  9
$UCSYDIR
 10
0.0
 20
1.0
 30
0.0
  9
$UCSORTHOREF
  2

  9
$UCSORTHOVIEW
 70
     0
  9
$UCSORGTOP
 10
0.0
 20
0.0
 30
0.0
  9
$UCSORGBOTTOM
 10
0.0
 20
0.0
 30
0.0
  9
$UCSORGLEFT
 10
0.0
 20
0.0
 30
0.0
  9
$UCSORGRIGHT
 10
0.0
 20
0.0
 30
0.0
  9
$UCSORGFRONT
 10
0.0
 20
0.0
 30
0.0
  9
$UCSORGBACK
 10
0.0
 20
0.0
 30
0.0
  9
$PUCSBASE
  2

  9
$PUCSNAME
  2

  9
$PUCSORG
 10
0.0
 20
0.0
 30
0.0
  9
$PUCSXDIR
 10
1.0
 20
0.0
 30
0.0
  9
$PUCSYDIR
 10
0.0
 20
1.0
 30
0.0
  9
$PUCSORTHOREF
  2

  9
$PUCSORTHOVIEW
 70
     0
  9
$PUCSORGTOP
 10
0.0
 20
0.0
 30
0.0
  9
$PUCSORGBOTTOM
 10
0.0
 20
0.0
 30
0.0
  9
$PUCSORGLEFT
 10
0.0
 20
0.0
 30
0.0
  9
$PUCSORGRIGHT
 10
0.0
 20
0.0
 30
0.0
  9
$PUCSORGFRONT
 10
0.0
 20
0.0
 30
0.0
  9
$PUCSORGBACK
 10
0.0
 20
0.0
 30
0.0
  9
$USERI1
 70
     0
  9
$USERI2
 70
     0
  9
$USERI3
 70
     0
  9
$USERI4
 70
     0
  9
$USERI5
 70
     0
  9
$USERR1
 40
0.0
  9
$USERR2
 40
0.0
  9
$USERR3
 40
0.0
  9
$USERR4
 40
0.0
  9
$USERR5
 40
0.0
  9
$WORLDVIEW
 70
     1
  9
$SHADEDGE
 70
     3
  9
$SHADEDIF
 70
    70
  9
$TILEMODE
 70
     1
  9
$MAXACTVP
 70
    48
  9
$PINSBASE
 10
0.0
 20
0.0
 30
0.0
  9
$PLIMCHECK
 70
     0
  9
$PEXTMIN
 10
1.000000000000000E+20
 20
1.000000000000000E+20
 30
1.000000000000000E+20
  9
$PEXTMAX
 10
-1.000000000000000E+20
 20
-1.000000000000000E+20
 30
-1.000000000000000E+20
  9
$PLIMMIN
 10
-4.23333740234375
 20
-6.011333465576171
  9
$PLIMMAX
 10
292.6926574707031
 20
203.9619941711426
  9
$UNITMODE
 70
     0
  9
$VISRETAIN
 70
     1
  9
$PLINEGEN
 70
     0
  9
$PSLTSCALE
 70
     1
  9
$TREEDEPTH
 70
  3020
  9
$CMLSTYLE
  2
Standard
  9
$CMLJUST
 70
     0
  9
$CMLSCALE
 40
1.0
  9
$PROXYGRAPHICS
 70
     1
  9
$MEASUREMENT
 70
     1
  9
$CELWEIGHT
370
    -1
  9
$ENDCAPS
280
     0
  9
$JOINSTYLE
280
     0
  9
$LWDISPLAY
290
     0
  9
$INSUNITS
 70
     0
  9
$HYPERLINKBASE
  1

  9
$STYLESHEET
  1

  9
$XEDIT
290
     1
  9
$CEPSNTYPE
380
     0
  9
$PSTYLEMODE
290
     1
  9
$FINGERPRINTGUID
  2
{F36C13FC-8D9A-44FA-8B69-496B089EBC04}
  9
$VERSIONGUID
  2
{2A0B3D43-B56A-412A-A729-DF23A9D2588D}
  9
$EXTNAMES
290
     1
  9
$PSVPSCALE
 40
0.0
  9
$OLESTARTUP
290
     0
  9
$SORTENTS
280
   127
  9
$INDEXCTL
280
     0
  9
$HIDETEXT
280
     1
  9
$XCLIPFRAME
290
     0
  9
$HALOGAP
280
     0
  9
$OBSCOLOR
 70
   257
  9
$OBSLTYPE
280
     0
  9
$INTERSECTIONDISPLAY
280
     0
  9
$INTERSECTIONCOLOR
 70
   257
  9
$DIMASSOC
280
     2
  9
$PROJECTNAME
  1

  0
ENDSEC
  0
SECTION
  2
CLASSES
  0
CLASS
  1
ACDBDICTIONARYWDFLT
  2
AcDbDictionaryWithDefault
  3
ObjectDBX Classes
 90
        0
 91
        1
280
     0
281
     0
  0
CLASS
  1
DICTIONARYVAR
  2
AcDbDictionaryVar
  3
ObjectDBX Classes
 90
        0
 91
        4
280
     0
281
     0
  0
CLASS
  1
TABLESTYLE
  2
AcDbTableStyle
  3
ObjectDBX Classes
 90
     2047
 91
        1
280
     0
281
     0
  0
CLASS
  1
SORTENTSTABLE
  2
AcDbSortentsTable
  3
ObjectDBX Classes
 90
        0
 91
        2
280
     0
281
     0
  0
ENDSEC
  0
SECTION
  2
TABLES
  0
TABLE
  2
VPORT
  5
8
330
0
100
AcDbSymbolTable
 70
     4
  0
VPORT
  5
1884
330
8
100
AcDbSymbolTableRecord
100
AcDbViewportTableRecord
  2
*Active
 70
     0
 10
0.0
 20
0.0
 11
1.0
 21
1.0
 12
442.2827285740604
 22
39.74327791728319
 13
0.0
 23
0.0
 14
1.0
 24
1.0
 15
0.0
 25
0.0
 16
0.0
 26
0.0
 36
1.0
 17
0.0
 27
0.0
 37
0.0
 40
229.6589372287625
 41
1.773333333333333
 42
50.0
 43
0.0
 44
0.0
 50
0.0
 51
0.0
 71
     0
 72
   100
 73
     1
 74
     1
 75
     0
 76
     0
 77
     0
 78
     0
281
     0
 65
     1
110
0.0
120
0.0
130
0.0
111
1.0
121
0.0
131
0.0
112
0.0
122
1.0
132
0.0
 79
     0
146
0.0
  0
ENDTAB
  0
TABLE
  2
LTYPE
  5
5
330
0
100
AcDbSymbolTable
 70
     3
  0
LTYPE
  5
14
330
5
100
AcDbSymbolTableRecord
100
AcDbLinetypeTableRecord
  2
ByBlock
 70
     0
  3

 72
    65
 73
     0
 40
0.0
  0
LTYPE
  5
15
330
5
100
AcDbSymbolTableRecord
100
AcDbLinetypeTableRecord
  2
ByLayer
 70
     0
  3

 72
    65
 73
     0
 40
0.0
  0
LTYPE
  5
16
330
5
100
AcDbSymbolTableRecord
100
AcDbLinetypeTableRecord
  2
Continuous
 70
     0
  3
Solid line
 72
    65
 73
     0
 40
0.0
  0
LTYPE
  5
62F
330
5
100
AcDbSymbolTableRecord
100
AcDbLinetypeTableRecord
  2
MITTE2
 70
     0
  3
Mitte (.5x) ___ _ ___ _ ___ _ ___ _ ___ _ ___
 72
    65
 73
     4
 40
28.575
 49
19.05
 74
     0
 49
-3.174999999999999
 74
     0
 49
3.174999999999999
 74
     0
 49
-3.174999999999999
 74
     0
  0
LTYPE
  5
1282
330
5
100
AcDbSymbolTableRecord
100
AcDbLinetypeTableRecord
  2
VERDECKT
 70
     0
  3
Verdeckt __ __ __ __ __ __ __ __ __ __ __ __ __
 72
    65
 73
     2
 40
9.524999999999998
 49
6.349999999999999
 74
     0
 49
-3.174999999999999
 74
     0
  0
ENDTAB
  0
TABLE
  2
LAYER
  5
2
102
{ACAD_XDICTIONARY
360
843
102
}
330
0
100
AcDbSymbolTable
 70
     3
  0
LAYER
  5
10
330
2
100
AcDbSymbolTableRecord
100
AcDbLayerTableRecord
  2
0
 70
     0
 62
     7
  6
Continuous
370
    -3
390
F
  0
LAYER
  5
630
330
2
100
AcDbSymbolTableRecord
100
AcDbLayerTableRecord
  2
LW 3850-01-01
 70
     0
 62
     7
  6
Continuous
370
    -3
390
F
  0
LAYER
  5
728
330
2
100
AcDbSymbolTableRecord
100
AcDbLayerTableRecord
  2
insertpoint_ECKELT
 70
     0
 62
   141
  6
Continuous
370
    -3
390
F
  0
ENDTAB
  0
TABLE
  2
STYLE
  5
3
330
0
100
AcDbSymbolTable
 70
     1
  0
STYLE
  5
11
330
3
100
AcDbSymbolTableRecord
100
AcDbTextStyleTableRecord
  2
Standard
 70
     0
 40
0.0
 41
1.0
 50
0.0
 71
     0
 42
0.2
  3
ARIAL.TTF
  4

1001
ACAD
1000
Arial
1071
      256
  0
ENDTAB
  0
TABLE
  2
VIEW
  5
6
330
0
100
AcDbSymbolTable
 70
     4
  0
ENDTAB
  0
TABLE
  2
UCS
  5
7
330
0
100
AcDbSymbolTable
 70
     0
  0
ENDTAB
  0
TABLE
  2
APPID
  5
9
330
0
100
AcDbSymbolTable
 70
     2
  0
APPID
  5
12
330
9
100
AcDbSymbolTableRecord
100
AcDbRegAppTableRecord
  2
ACAD
 70
     0
  0
APPID
  5
85A
330
9
100
AcDbSymbolTableRecord
100
AcDbRegAppTableRecord
  2
ACAD_EXEMPT_FROM_CAD_STANDARDS
 70
     0
  0
ENDTAB
  0
TABLE
  2
DIMSTYLE
  5
A
330
0
100
AcDbSymbolTable
 70
     1
100
AcDbDimStyleTable
 71
     1
340
27
  0
DIMSTYLE
105
27
330
A
100
AcDbSymbolTableRecord
100
AcDbDimStyleTableRecord
  2
Standard
 70
     0
340
11
  0
ENDTAB
  0
TABLE
  2
BLOCK_RECORD
  5
1
330
0
100
AcDbSymbolTable
 70
     8
  0
BLOCK_RECORD
  5
1F
102
{ACAD_XDICTIONARY
360
526
102
}
330
1
100
AcDbSymbolTableRecord
100
AcDbBlockTableRecord
  2
*Model_Space
340
22
  0
BLOCK_RECORD
  5
1B
102
{ACAD_XDICTIONARY
360
528
102
}
330
1
100
AcDbSymbolTableRecord
100
AcDbBlockTableRecord
  2
*Paper_Space
340
1E
  0
BLOCK_RECORD
  5
23
102
{ACAD_XDICTIONARY
360
52A
102
}
330
1
100
AcDbSymbolTableRecord
100
AcDbBlockTableRecord
  2
*Paper_Space0
340
26
  0
BLOCK_RECORD
  5
729
102
{ACAD_XDICTIONARY
360
975
102
}
330
1
100
AcDbSymbolTableRecord
100
AcDbBlockTableRecord
  2
insertpoint-ECKELT
340
0
102
{BLKREFS
331
12B7
331
12EF
331
148E
331
169D
331
16D3
331
1873
102
}
  0
BLOCK_RECORD
  5
1685
330
1
100
AcDbSymbolTableRecord
100
AcDbBlockTableRecord
  2
LW 3850-01-01_a
340
0
310
2800000020000000200000000100080000000000000400000000000000000000000000000000000000000000000080000080000000808000800000008000800080800000C0C0C000C0DCC000F0CAA6000020400000206000002080000020A0000020C0000020E00000400000004020000040400000406000004080000040A0
310
000040C0000040E00000600000006020000060400000606000006080000060A0000060C0000060E00000800000008020000080400000806000008080000080A0000080C0000080E00000A0000000A0200000A0400000A0600000A0800000A0A00000A0C00000A0E00000C0000000C0200000C0400000C0600000C0800000C0
310
A00000C0C00000C0E00000E0000000E0200000E0400000E0600000E0800000E0A00000E0C00000E0E00040000000400020004000400040006000400080004000A0004000C0004000E00040200000402020004020400040206000402080004020A0004020C0004020E000404000004040200040404000404060004040800040
310
40A0004040C0004040E00040600000406020004060400040606000406080004060A0004060C0004060E00040800000408020004080400040806000408080004080A0004080C0004080E00040A0000040A0200040A0400040A0600040A0800040A0A00040A0C00040A0E00040C0000040C0200040C0400040C0600040C08000
310
40C0A00040C0C00040C0E00040E0000040E0200040E0400040E0600040E0800040E0A00040E0C00040E0E00080000000800020008000400080006000800080008000A0008000C0008000E00080200000802020008020400080206000802080008020A0008020C0008020E00080400000804020008040400080406000804080
310
008040A0008040C0008040E00080600000806020008060400080606000806080008060A0008060C0008060E00080800000808020008080400080806000808080008080A0008080C0008080E00080A0000080A0200080A0400080A0600080A0800080A0A00080A0C00080A0E00080C0000080C0200080C0400080C0600080C0
310
800080C0A00080C0C00080C0E00080E0000080E0200080E0400080E0600080E0800080E0A00080E0C00080E0E000C0000000C0002000C0004000C0006000C0008000C000A000C000C000C000E000C0200000C0202000C0204000C0206000C0208000C020A000C020C000C020E000C0400000C0402000C0404000C0406000C0
310
408000C040A000C040C000C040E000C0600000C0602000C0604000C0606000C0608000C060A000C060C000C060E000C0800000C0802000C0804000C0806000C0808000C080A000C080C000C080E000C0A00000C0A02000C0A04000C0A06000C0A08000C0A0A000C0A0C000C0A0E000C0C00000C0C02000C0C04000C0C06000
310
C0C08000C0C0A000F0FBFF00A4A0A000808080000000FF0000FF000000FFFF00FF000000FF00FF00FFFF0000FFFFFF00000000000000000000000000000000000000000000000000000000000000000000000000000000000000000000000000FA000000000000000000000000000000000000000000000000000000000000
310
00FA000000000000000000000000000000000000000000000000000000FFFFFFFFFAFFFFFF000000000000000000000000000000000000000000FFFFFFFF000000FA0000FFFFFFFF00000000000000000000000000000000FFFFFFFF0000000000FA00000000FFFFFFFF00000000000000000000000000FF00FF0000000000
310
0000FA000000000000FF00FF000000000000000000000000FFFF0000000000000000FA00000000000000FFFF0000000000000000000000FFFF000000000000000000FA0000000000000000FFFF00000000000000000000FF00000000000000000000FA000000000000000000FF000000000000000000FF0000FA0000000000
310
000000FA00000000000000FA0000FF0000000000000000FF0000FA0000000000000000FA00000000000000FA0000FF00000000000000FFFF00FFFA0000000000000000FA000000000000FFFA0000FFFF000000000000FF00FFFFFAFFFF000000000000FA0000000000FFFFFAFFFFFFFF000000000000FFFFFFFFFAFFFF0000
310
00000000FA00000000FFFFFFFAFFFF00FF0000000000FFFFFF00FFFAFFFFFF0000000000FA00000000FFFFFFFA00FFFFFFFF000000FAFAFAFAFAFAFAFAFAFAFAFA090909FAFAFAFAFAFAFAFAFAFAFAFAFAFAFA000000FFFFFFFFFFFAFFFFFF0000000000FA00000000FFFFFFFAFF00FFFFFF0000000000FF00FFFFFAFFFF00
310
0000000000FA0000000000FFFFFAFFFF00FF000000000000FFFF00FFFA0000000000000000FA000000000000FFFA0000FFFF00000000000000FF0000FA0000000000000000FA00000000000000FA0000FF0000000000000000FF0000FA0000000000000000FA00000000000000FA0000FF000000000000000000FF00000000
310
000000000000FA000000000000000000FF00000000000000000000FFFF000000000000000000FA0000000000000000FFFF0000000000000000000000FFFF0000000000000000FA00000000000000FFFF000000000000000000000000FF00FF00000000000000FA000000000000FF00FF00000000000000000000000000FFFF
310
FFFF0000000000FA00000000FFFFFFFF00000000000000000000000000000000FFFFFFFF000000FA0000FFFFFFFF000000000000000000000000000000000000000000FFFFFFFFFAFFFFFF00000000000000000000000000000000000000000000000000000000FA0000000000000000000000000000000000000000000000
310
0000000000000000FA0000000000000000000000000000000000000000000000000000000000000000000000000000000000000000000000
102
{BLKREFS
331
16A2
102
}
  0
BLOCK_RECORD
  5
16A3
330
1
100
AcDbSymbolTableRecord
100
AcDbBlockTableRecord
  2
LW 3850-01-01_b
340
0
310
2800000020000000200000000100080000000000000400000000000000000000000000000000000000000000000080000080000000808000800000008000800080800000C0C0C000C0DCC000F0CAA6000020400000206000002080000020A0000020C0000020E00000400000004020000040400000406000004080000040A0
310
000040C0000040E00000600000006020000060400000606000006080000060A0000060C0000060E00000800000008020000080400000806000008080000080A0000080C0000080E00000A0000000A0200000A0400000A0600000A0800000A0A00000A0C00000A0E00000C0000000C0200000C0400000C0600000C0800000C0
310
A00000C0C00000C0E00000E0000000E0200000E0400000E0600000E0800000E0A00000E0C00000E0E00040000000400020004000400040006000400080004000A0004000C0004000E00040200000402020004020400040206000402080004020A0004020C0004020E000404000004040200040404000404060004040800040
310
40A0004040C0004040E00040600000406020004060400040606000406080004060A0004060C0004060E00040800000408020004080400040806000408080004080A0004080C0004080E00040A0000040A0200040A0400040A0600040A0800040A0A00040A0C00040A0E00040C0000040C0200040C0400040C0600040C08000
310
40C0A00040C0C00040C0E00040E0000040E0200040E0400040E0600040E0800040E0A00040E0C00040E0E00080000000800020008000400080006000800080008000A0008000C0008000E00080200000802020008020400080206000802080008020A0008020C0008020E00080400000804020008040400080406000804080
310
008040A0008040C0008040E00080600000806020008060400080606000806080008060A0008060C0008060E00080800000808020008080400080806000808080008080A0008080C0008080E00080A0000080A0200080A0400080A0600080A0800080A0A00080A0C00080A0E00080C0000080C0200080C0400080C0600080C0
310
800080C0A00080C0C00080C0E00080E0000080E0200080E0400080E0600080E0800080E0A00080E0C00080E0E000C0000000C0002000C0004000C0006000C0008000C000A000C000C000C000E000C0200000C0202000C0204000C0206000C0208000C020A000C020C000C020E000C0400000C0402000C0404000C0406000C0
310
408000C040A000C040C000C040E000C0600000C0602000C0604000C0606000C0608000C060A000C060C000C060E000C0800000C0802000C0804000C0806000C0808000C080A000C080C000C080E000C0A00000C0A02000C0A04000C0A06000C0A08000C0A0A000C0A0C000C0A0E000C0C00000C0C02000C0C04000C0C06000
310
C0C08000C0C0A000F0FBFF00A4A0A000808080000000FF0000FF000000FFFF00FF000000FF00FF00FFFF0000FFFFFF000000000000000000000000000000000000000000000000000000000000000000000000000000000000000000000000FA00000000000000000000000000000000000000000000000000000000000000
310
FA00000000000000000000000000000000000000000000000000000000000000FA00000000000000000000000000000000000000000000000000000000000000FA00000000000000000000000000000000000000000000000000000000000000FA000000000000000000000000000000000000000000000000FFFFFFFFFFFF
310
FFFAFFFFFFFFFFFFFF0000000000000000000000000000000000FF000000000000FA000000000000FF0000000000000000000000000000000000FF00000000FFA4A4A4FF00000000FF0000000000000000000000000000000000FF00000000A4A4A4A4A4FF000000FF0000000000000000000000000000FAFAFAFAFAFAFAFA
310
A4A4A4A4A4FAFAFAFAFAFAFAFAFA00000000000000000000000000FF00000000A4A4A4A4A4FF000000FF0000000000000000000000000000000000FF00000000FFA4A4A4A400000000FF0000000000000000000000000000000000FF0000000000FFFAFF0000000000FF0000000000000000000000000000000000FF000000
310
000000FA000000000000FF0000000000000000000000000000000000FF000000000000FA000000000000FF0000000000000000000000000000000000FF000000000000FA000000000000FF0000000000000000000000000000000000FF000000000000FA000000000000FF0000000000000000000000000000000000FF0000
310
00000000FA000000000000FF0000000000000000000000000000000000FFFFFDFDFF090909FFFDFFFDFDFFFF00000000000000000000000000000000000000FDFD00FD000900FD00FDFD000000000000000000000000000000000000000000FDFDFDFDFDFAFDFDFDFDFD000000000000000000000000000000000000000000
310
FDFDFD0000FA0000FDFDFD000000000000000000000000000000000000000000FDFDFD0000FA0000FDFDFD000000000000000000000000000000000000000000FDFDFD0000FA0000FDFDFD000000000000000000000000000000000000000000FDFD00FDFDFAFDFD00FDFD0000000000000000000000000000000000000000
310
000000000000FA00000000000000000000000000000000000000000000000000000000000000FA00000000000000000000000000000000000000000000000000000000000000FA00000000000000000000000000000000000000000000000000000000000000FA000000000000000000000000000000000000000000000000
310
00000000000000FA000000000000000000000000000000000000000000000000000000000000000000000000000000000000000000000000
102
{BLKREFS
331
16E6
102
}
  0
BLOCK_RECORD
  5
16E9
330
1
100
AcDbSymbolTableRecord
100
AcDbBlockTableRecord
  2
LW 3850-01-01_c
340
0
310
2800000020000000200000000100080000000000000400000000000000000000000000000000000000000000000080000080000000808000800000008000800080800000C0C0C000C0DCC000F0CAA6000020400000206000002080000020A0000020C0000020E00000400000004020000040400000406000004080000040A0
310
000040C0000040E00000600000006020000060400000606000006080000060A0000060C0000060E00000800000008020000080400000806000008080000080A0000080C0000080E00000A0000000A0200000A0400000A0600000A0800000A0A00000A0C00000A0E00000C0000000C0200000C0400000C0600000C0800000C0
310
A00000C0C00000C0E00000E0000000E0200000E0400000E0600000E0800000E0A00000E0C00000E0E00040000000400020004000400040006000400080004000A0004000C0004000E00040200000402020004020400040206000402080004020A0004020C0004020E000404000004040200040404000404060004040800040
310
40A0004040C0004040E00040600000406020004060400040606000406080004060A0004060C0004060E00040800000408020004080400040806000408080004080A0004080C0004080E00040A0000040A0200040A0400040A0600040A0800040A0A00040A0C00040A0E00040C0000040C0200040C0400040C0600040C08000
310
40C0A00040C0C00040C0E00040E0000040E0200040E0400040E0600040E0800040E0A00040E0C00040E0E00080000000800020008000400080006000800080008000A0008000C0008000E00080200000802020008020400080206000802080008020A0008020C0008020E00080400000804020008040400080406000804080
310
008040A0008040C0008040E00080600000806020008060400080606000806080008060A0008060C0008060E00080800000808020008080400080806000808080008080A0008080C0008080E00080A0000080A0200080A0400080A0600080A0800080A0A00080A0C00080A0E00080C0000080C0200080C0400080C0600080C0
310
800080C0A00080C0C00080C0E00080E0000080E0200080E0400080E0600080E0800080E0A00080E0C00080E0E000C0000000C0002000C0004000C0006000C0008000C000A000C000C000C000E000C0200000C0202000C0204000C0206000C0208000C020A000C020C000C020E000C0400000C0402000C0404000C0406000C0
310
408000C040A000C040C000C040E000C0600000C0602000C0604000C0606000C0608000C060A000C060C000C060E000C0800000C0802000C0804000C0806000C0808000C080A000C080C000C080E000C0A00000C0A02000C0A04000C0A06000C0A08000C0A0A000C0A0C000C0A0E000C0C00000C0C02000C0C04000C0C06000
310
C0C08000C0C0A000F0FBFF00A4A0A000808080000000FF0000FF000000FFFF00FF000000FF00FF00FFFF0000FFFFFF0000000000000000000000000000000000000000000000000000000000000000000000000000000000000000000000000000000000000000000000000000000000000000000000000000000000000000
310
00000000000000000000000000000000000000000000000000000000000000000000000000000000000000000000000000000000000000000000000000000000000000000000000000000000000000000000000000000000000000000000000000000000000000000000000000000000000000000000000000000000000000
310
00000000000000000000000000000000000000000000FFFFFFFF00000000FFFFFFFFFFFFFFFFFF000000000000000000000000000000FF0000FFFFFFFFFFFF00000000000000FF000000000000000000000000000000FF00000000FF00000000000000000000FF000000000000000000000000000000FF00000000FF000000
310
00000000000000FF000000000000000000000000000000FF00000000FF00000000000000000000FF000000000000000000000000000000FF00000000FF00000000000000000000FF00FDFDFDFDFD000000000000000000FF00000000FF00000000000000000000FDFDFD000000FD000000000000000000FF00000000FF0000
310
0000000000000000FF00FD000000FD000000000000FAFAFAFAFAFAFAFAFAFAFAFAFAFAFAFAFA090909FAFAFAFAFAFAFAFAFAFA0000000000FF00000000FF0000000000000000090909FDFDFDFDFDFDFD0000000000000000FF00000000FF00000000000000000000FF00FD000000FD000000000000000000FF00000000FF00
310
000000000000000000FDFDFD000000FD000000000000000000FF00000000FF00000000000000000000FF00FDFDFDFDFD000000000000000000FF00000000FF00000000000000000000FF000000000000000000000000000000FF00000000FF00000000000000000000FF000000000000000000000000000000FF00000000FF
310
00000000000000000000FF000000000000000000000000000000FF0000FFFFFFFFFFFF00000000000000FF000000000000000000000000000000FFFFFFFF00000000FFFFFFFFFFFFFFFFFF00000000000000000000000000000000000000000000000000000000000000000000000000000000000000000000000000000000
310
00000000000000000000000000000000000000000000000000000000000000000000000000000000000000000000000000000000000000000000000000000000000000000000000000000000000000000000000000000000000000000000000000000000000000000000000000000000000000000000000000000000000000
310
0000000000000000000000000000000000000000000000000000000000000000000000000000000000000000000000000000000000000000
102
{BLKREFS
331
1877
102
}
  0
ENDTAB
  0
ENDSEC
  0
SECTION
  2
BLOCKS
  0
BLOCK
  5
20
330
1F
100
AcDbEntity
  8
0
100
AcDbBlockBegin
  2
*Model_Space
 70
     0
 10
0.0
 20
0.0
 30
0.0
  3
*Model_Space
  1

  0
ENDBLK
  5
21
330
1F
100
AcDbEntity
  8
0
100
AcDbBlockEnd
  0
BLOCK
  5
1C
330
1B
100
AcDbEntity
 67
     1
  8
0
100
AcDbBlockBegin
  2
*Paper_Space
 70
     0
 10
0.0
 20
0.0
 30
0.0
  3
*Paper_Space
  1

  0
ENDBLK
  5
1D
330
1B
100
AcDbEntity
 67
     1
  8
0
100
AcDbBlockEnd
  0
BLOCK
  5
24
330
23
100
AcDbEntity
 67
     1
  8
0
100
AcDbBlockBegin
  2
*Paper_Space0
 70
     0
 10
0.0
 20
0.0
 30
0.0
  3
*Paper_Space0
  1

  0
ENDBLK
  5
25
330
23
100
AcDbEntity
 67
     1
  8
0
100
AcDbBlockEnd
  0
BLOCK
  5
730
330
729
100
AcDbEntity
  8
0
100
AcDbBlockBegin
  2
insertpoint-ECKELT
 70
     2
 10
0.0
 20
0.0
 30
0.0
  3
insertpoint-ECKELT
  1

  0
ATTDEF
  5
72A
330
729
100
AcDbEntity
  8
insertpoint_ECKELT
100
AcDbText
 10
-2.457298772169167
 20
-0.0000000000000284
 30
0.0
 40
0.6
  1
LW
 72
     2
 11
-1.199999999999999
 21
-0.0000000000000284
 31
0.0
100
AcDbAttributeDefinition
  3
Nr. links
  2
LINKS
 70
     0
  0
ATTDEF
  5
72B
330
729
100
AcDbEntity
  8
insertpoint_ECKELT
100
AcDbText
 10
1.199999999999999
 20
-0.0000000000000284
 30
0.0
 40
0.6
  1
LW
100
AcDbAttributeDefinition
  3
Nr. rechts
  2
RECHTS
 70
     0
  0
LINE
  5
72C
102
{ACAD_REACTORS
330
72F
102
}
330
729
100
AcDbEntity
  8
insertpoint_ECKELT
100
AcDbLine
 10
0.0
 20
1.799999999999997
 30
0.0
 11
0.0
 21
-1.799999999999997
 31
0.0
  0
LINE
  5
72D
102
{ACAD_REACTORS
330
72F
102
}
330
729
100
AcDbEntity
  8
insertpoint_ECKELT
100
AcDbLine
 10
-1.8
 20
-0.0000000000000284
 30
0.0
 11
1.8
 21
-0.0000000000000284
 31
0.0
  0
CIRCLE
  5
72E
102
{ACAD_REACTORS
330
72F
102
}
330
729
100
AcDbEntity
  8
insertpoint_ECKELT
100
AcDbCircle
 10
0.0
 20
0.0
 30
0.0
 40
1.199999999999999
  0
HATCH
  5
72F
330
729
100
AcDbEntity
  8
insertpoint_ECKELT
100
AcDbHatch
 10
0.0
 20
0.0
 30
0.0
210
0.0
220
0.0
230
1.0
  2
SOLID
 70
     1
 71
     1
 91
        2
 92
        7
 72
     1
 73
     1
 93
        3
 10
0.0
 20
-0.0000000000000284
 42
0.0
 10
0.0
 20
1.200000000000002
 42
0.4142135623731013
 10
-1.199999999999999
 20
-0.0000000000000284
 42
0.0
 97
        3
330
72E
330
72D
330
72C
 92
        7
 72
     1
 73
     1
 93
        3
 10
1.199999999999999
 20
-0.0000000000000284
 42
0.0
 10
0.0
 20
-0.0000000000000284
 42
0.0
 10
0.0
 20
-1.200000000000002
 42
0.4142135623730888
 97
        3
330
72D
330
72C
330
72E
 75
     0
 76
     1
 47
0.0223086566480813
 98
        2
 10
-0.3163651093721391
 20
0.271413292077348
 10
0.7415965996738798
 20
-0.4513871917946233
450
        0
451
        0
460
0.0
461
0.0
452
        0
462
0.0
453
        0
470

  0
ENDBLK
  5
731
330
729
100
AcDbEntity
  8
0
100
AcDbBlockEnd
  0
BLOCK
  5
1686
330
1685
100
AcDbEntity
  8
0
100
AcDbBlockBegin
  2
LW 3850-01-01_a
 70
     0
 10
0.0
 20
0.0
 30
0.0
  3
LW 3850-01-01_a
  1

  0
CIRCLE
  5
1688
330
1685
100
AcDbEntity
  8
LW 3850-01-01
100
AcDbCircle
 10
0.0
 20
0.0000000000003411
 30
0.0
 40
29.99999999999999
  0
CIRCLE
  5
1689
330
1685
100
AcDbEntity
  8
LW 3850-01-01
100
AcDbCircle
 10
0.0
 20
0.0
 30
0.0
 40
28.99999999999998
  0
CIRCLE
  5
168A
330
1685
100
AcDbEntity
  8
LW 3850-01-01
100
AcDbCircle
 10
-20.0
 20
0.0
 30
0.0
 40
7.499999999999996
  0
CIRCLE
  5
168B
330
1685
100
AcDbEntity
  8
LW 3850-01-01
100
AcDbCircle
 10
20.0
 20
0.0
 30
0.0
 40
7.499999999999996
  0
CIRCLE
  5
168C
330
1685
100
AcDbEntity
  8
LW 3850-01-01
100
AcDbCircle
 10
20.0
 20
0.0000000000005684
 30
0.0
 40
6.500000000000001
  0
LINE
  5
168D
330
1685
100
AcDbEntity
  8
LW 3850-01-01
100
AcDbLine
 10
18.26794919243116
 20
3.000000000000341
 30
0.0
 11
21.73205080756884
 21
3.000000000000341
 31
0.0
  0
LINE
  5
168E
330
1685
100
AcDbEntity
  8
LW 3850-01-01
100
AcDbLine
 10
21.73205080756884
 20
3.000000000000341
 30
0.0
 11
23.46410161513768
 21
0.0000000000003979
 31
0.0
  0
LINE
  5
168F
330
1685
100
AcDbEntity
  8
LW 3850-01-01
100
AcDbLine
 10
23.46410161513768
 20
0.0000000000003979
 30
0.0
 11
21.73205080756884
 21
-2.999999999999658
 31
0.0
  0
LINE
  5
1690
330
1685
100
AcDbEntity
  8
LW 3850-01-01
100
AcDbLine
 10
21.73205080756884
 20
-2.999999999999658
 30
0.0
 11
18.26794919243116
 21
-2.999999999999658
 31
0.0
  0
LINE
  5
1691
330
1685
100
AcDbEntity
  8
LW 3850-01-01
100
AcDbLine
 10
18.26794919243116
 20
-2.999999999999658
 30
0.0
 11
16.53589838486232
 21
0.0000000000003979
 31
0.0
  0
LINE
  5
1692
330
1685
100
AcDbEntity
  8
LW 3850-01-01
100
AcDbLine
 10
16.53589838486232
 20
0.0000000000003979
 30
0.0
 11
18.26794919243116
 21
3.000000000000341
 31
0.0
  0
CIRCLE
  5
1693
330
1685
100
AcDbEntity
  8
LW 3850-01-01
100
AcDbCircle
 10
-20.0
 20
0.0000000000005684
 30
0.0
 40
6.500000000000001
  0
LINE
  5
1694
330
1685
100
AcDbEntity
  8
LW 3850-01-01
100
AcDbLine
 10
-21.73205080756884
 20
3.000000000000341
 30
0.0
 11
-18.2679491924311
 21
3.000000000000341
 31
0.0
  0
LINE
  5
1695
330
1685
100
AcDbEntity
  8
LW 3850-01-01
100
AcDbLine
 10
-18.2679491924311
 20
3.000000000000341
 30
0.0
 11
-16.53589838486221
 21
0.0000000000003979
 31
0.0
  0
LINE
  5
1696
330
1685
100
AcDbEntity
  8
LW 3850-01-01
100
AcDbLine
 10
-16.53589838486221
 20
0.0000000000003979
 30
0.0
 11
-18.2679491924311
 21
-2.999999999999658
 31
0.0
  0
LINE
  5
1697
330
1685
100
AcDbEntity
  8
LW 3850-01-01
100
AcDbLine
 10
-18.2679491924311
 20
-2.999999999999658
 30
0.0
 11
-21.73205080756884
 21
-2.999999999999658
 31
0.0
  0
LINE
  5
1698
330
1685
100
AcDbEntity
  8
LW 3850-01-01
100
AcDbLine
 10
-21.73205080756884
 20
-2.999999999999658
 30
0.0
 11
-23.46410161513779
 21
0.0000000000003979
 31
0.0
  0
LINE
  5
1699
330
1685
100
AcDbEntity
  8
LW 3850-01-01
100
AcDbLine
 10
-23.46410161513779
 20
0.0000000000003979
 30
0.0
 11
-21.73205080756884
 21
3.000000000000341
 31
0.0
  0
LINE
  5
169A
330
1685
100
AcDbEntity
  8
LW 3850-01-01
  6
MITTE2
 62
     3
100
AcDbLine
 10
32.5
 20
0.0
 30
0.0
 11
-32.5
 21
0.0
 31
0.0
  0
LINE
  5
169B
330
1685
100
AcDbEntity
  8
LW 3850-01-01
  6
MITTE2
 62
     3
100
AcDbLine
 10
-20.0
 20
12.5
 30
0.0
 11
-20.0
 21
-12.5
 31
0.0
  0
LINE
  5
169C
330
1685
100
AcDbEntity
  8
LW 3850-01-01
  6
MITTE2
 62
     3
100
AcDbLine
 10
20.0
 20
12.5
 30
0.0
 11
20.0
 21
-12.5
 31
0.0
  0
INSERT
  5
169D
330
1685
100
AcDbEntity
  8
LW 3850-01-01
100
AcDbBlockReference
 66
     1
  2
insertpoint-ECKELT
 10
0.0
 20
0.0
 30
0.0
  0
ATTRIB
  5
169E
330
169D
100
AcDbEntity
  8
insertpoint_ECKELT
100
AcDbText
 10
-6.65238744884037
 20
0.0
 30
0.0
 40
0.6
  1
LW 3850/0101
 72
     2
 11
-1.199999999999988
 21
0.0
 31
0.0
100
AcDbAttribute
  2
LINKS
 70
     0
  0
ATTRIB
  5
169F
330
169D
100
AcDbEntity
  8
insertpoint_ECKELT
100
AcDbText
 10
1.200000000000045
 20
0.0
 30
0.0
 40
0.6
  1

100
AcDbAttribute
  2
RECHTS
 70
     0
  0
SEQEND
  5
16A0
330
169D
100
AcDbEntity
  8
LW 3850-01-01
  0
LINE
  5
16A1
330
1685
100
AcDbEntity
  8
LW 3850-01-01
  6
MITTE2
 62
     3
100
AcDbLine
 10
0.0
 20
32.49999999999995
 30
0.0
 11
0.0
 21
-32.50000000000006
 31
0.0
  0
ENDBLK
  5
1687
330
1685
100
AcDbEntity
  8
0
100
AcDbBlockEnd
  0
BLOCK
  5
16A4
330
16A3
100
AcDbEntity
  8
0
100
AcDbBlockBegin
  2
LW 3850-01-01_b
 70
     0
 10
0.0
 20
0.0
 30
0.0
  3
LW 3850-01-01_b
  1

  0
LINE
  5
16A6
330
16A3
100
AcDbEntity
  8
LW 3850-01-01
100
AcDbLine
 10
-11.99641267163872
 20
-40.0
 30
0.0
 11
-30.00000000000006
 21
-40.0
 31
0.0
  0
LINE
  5
16A7
330
16A3
100
AcDbEntity
  8
LW 3850-01-01
100
AcDbLine
 10
29.99999999999995
 20
-40.0
 30
0.0
 11
11.99641267163855
 21
-40.0
 31
0.0
  0
LINE
  5
16A8
330
16A3
100
AcDbEntity
  8
LW 3850-01-01
100
AcDbLine
 10
30.00000000000006
 20
0.0
 30
0.0
 11
-30.00000000000006
 21
0.0
 31
0.0
  0
LINE
  5
16A9
330
16A3
100
AcDbEntity
  8
LW 3850-01-01
100
AcDbLine
 10
30.00000000000006
 20
0.0
 30
0.0
 11
30.00000000000006
 21
-40.0
 31
0.0
  0
LINE
  5
16AA
330
16A3
100
AcDbEntity
  8
LW 3850-01-01
100
AcDbLine
 10
-30.00000000000006
 20
0.0
 30
0.0
 11
-30.00000000000006
 21
-40.0
 31
0.0
  0
CIRCLE
  5
16AB
330
16A3
100
AcDbEntity
  8
LW 3850-01-01
100
AcDbCircle
 10
-0.0000000000001137
 20
-40.00000000000002
 30
0.0
 40
10.9964126716386
  0
CIRCLE
  5
16AC
330
16A3
100
AcDbEntity
  8
LW 3850-01-01
100
AcDbCircle
 10
-0.0000000000001137
 20
-40.00000000000002
 30
0.0
 40
11.9964126716386
  0
LINE
  5
16AD
330
16A3
100
AcDbEntity
  8
LW 3850-01-01
  6
VERDECKT
 62
     6
100
AcDbLine
 10
21.33570040491105
 20
24.99999999999995
 30
0.0
 11
21.37599995906538
 21
23.79999999999995
 31
0.0
  0
LINE
  5
16AE
330
16A3
100
AcDbEntity
  8
LW 3850-01-01
  6
VERDECKT
 62
     6
100
AcDbLine
 10
21.37599995906538
 20
23.79999999999995
 30
0.0
 11
21.37599995906538
 21
0.0
 31
0.0
  0
LINE
  5
16AF
330
16A3
100
AcDbEntity
  8
LW 3850-01-01
  6
VERDECKT
 62
     6
100
AcDbLine
 10
20.62400004093462
 20
23.79999999999995
 30
0.0
 11
20.66429959508884
 21
24.99999999999995
 31
0.0
  0
LINE
  5
16B0
330
16A3
100
AcDbEntity
  8
LW 3850-01-01
  6
VERDECKT
 62
     6
100
AcDbLine
 10
20.62400004093462
 20
0.0
 30
0.0
 11
20.62400004093462
 21
23.79999999999995
 31
0.0
  0
LINE
  5
16B1
330
16A3
100
AcDbEntity
  8
LW 3850-01-01
  6
VERDECKT
 62
     6
100
AcDbLine
 10
24.00000000000006
 20
23.79999999999995
 30
0.0
 11
21.37599995906538
 21
23.79999999999995
 31
0.0
  0
LINE
  5
16B2
330
16A3
100
AcDbEntity
  8
LW 3850-01-01
  6
VERDECKT
 62
     6
100
AcDbLine
 10
20.62400004093462
 20
23.79999999999995
 30
0.0
 11
18.00000000000006
 21
23.79999999999995
 31
0.0
  0
LINE
  5
16B3
330
16A3
100
AcDbEntity
  8
LW 3850-01-01
  6
VERDECKT
 62
     6
100
AcDbLine
 10
23.67846096908266
 20
24.99999999999995
 30
0.0
 11
18.32153903091733
 21
24.99999999999995
 31
0.0
  0
LINE
  5
16B4
330
16A3
100
AcDbEntity
  8
LW 3850-01-01
  6
VERDECKT
 62
     6
100
AcDbLine
 10
23.67846096908266
 20
24.99999999999995
 30
0.0
 11
24.00000000000006
 21
23.79999999999995
 31
0.0
  0
LINE
  5
16B5
330
16A3
100
AcDbEntity
  8
LW 3850-01-01
  6
VERDECKT
 62
     6
100
AcDbLine
 10
18.32153903091733
 20
24.99999999999995
 30
0.0
 11
18.00000000000006
 21
23.79999999999995
 31
0.0
  0
LINE
  5
16B6
330
16A3
100
AcDbEntity
  8
LW 3850-01-01
  6
VERDECKT
 62
     6
100
AcDbLine
 10
18.00000000000006
 20
0.0
 30
0.0
 11
18.00000000000006
 21
23.79999999999995
 31
0.0
  0
LINE
  5
16B7
330
16A3
100
AcDbEntity
  8
LW 3850-01-01
  6
VERDECKT
 62
     6
100
AcDbLine
 10
24.00000000000006
 20
0.0
 30
0.0
 11
24.00000000000006
 21
23.79999999999995
 31
0.0
  0
LINE
  5
16B8
330
16A3
100
AcDbEntity
  8
LW 3850-01-01
  6
VERDECKT
 62
     6
100
AcDbLine
 10
-20.66429959508884
 20
25.0
 30
0.0
 11
-20.62400004093462
 21
23.80000000000001
 31
0.0
  0
LINE
  5
16B9
330
16A3
100
AcDbEntity
  8
LW 3850-01-01
  6
VERDECKT
 62
     6
100
AcDbLine
 10
-20.62400004093462
 20
23.80000000000001
 30
0.0
 11
-20.62400004093462
 21
0.0
 31
0.0
  0
LINE
  5
16BA
330
16A3
100
AcDbEntity
  8
LW 3850-01-01
  6
VERDECKT
 62
     6
100
AcDbLine
 10
-21.37599995906538
 20
23.80000000000001
 30
0.0
 11
-21.33570040491111
 21
25.0
 31
0.0
  0
LINE
  5
16BB
330
16A3
100
AcDbEntity
  8
LW 3850-01-01
  6
VERDECKT
 62
     6
100
AcDbLine
 10
-21.37599995906538
 20
0.0
 30
0.0
 11
-21.37599995906538
 21
23.80000000000001
 31
0.0
  0
LINE
  5
16BC
330
16A3
100
AcDbEntity
  8
LW 3850-01-01
  6
VERDECKT
 62
     6
100
AcDbLine
 10
-18.0
 20
23.80000000000001
 30
0.0
 11
-20.62400004093462
 21
23.80000000000001
 31
0.0
  0
LINE
  5
16BD
330
16A3
100
AcDbEntity
  8
LW 3850-01-01
  6
VERDECKT
 62
     6
100
AcDbLine
 10
-21.37599995906538
 20
23.80000000000001
 30
0.0
 11
-24.0
 21
23.80000000000001
 31
0.0
  0
LINE
  5
16BE
330
16A3
100
AcDbEntity
  8
LW 3850-01-01
  6
VERDECKT
 62
     6
100
AcDbLine
 10
-18.32153903091733
 20
25.0
 30
0.0
 11
-23.67846096908266
 21
25.0
 31
0.0
  0
LINE
  5
16BF
330
16A3
100
AcDbEntity
  8
LW 3850-01-01
  6
VERDECKT
 62
     6
100
AcDbLine
 10
-18.32153903091733
 20
25.0
 30
0.0
 11
-18.0
 21
23.80000000000001
 31
0.0
  0
LINE
  5
16C0
330
16A3
100
AcDbEntity
  8
LW 3850-01-01
  6
VERDECKT
 62
     6
100
AcDbLine
 10
-23.67846096908266
 20
25.0
 30
0.0
 11
-23.99999999999995
 21
23.80000000000001
 31
0.0
  0
LINE
  5
16C1
330
16A3
100
AcDbEntity
  8
LW 3850-01-01
  6
VERDECKT
 62
     6
100
AcDbLine
 10
-24.0
 20
0.0
 30
0.0
 11
-24.0
 21
23.80000000000001
 31
0.0
  0
LINE
  5
16C2
330
16A3
100
AcDbEntity
  8
LW 3850-01-01
  6
VERDECKT
 62
     6
100
AcDbLine
 10
-18.0
 20
0.0
 30
0.0
 11
-18.0
 21
23.80000000000001
 31
0.0
  0
LINE
  5
16C3
330
16A3
100
AcDbEntity
  8
LW 3850-01-01
100
AcDbLine
 10
-30.00000000000006
 20
-58.99999999999997
 30
0.0
 11
30.00000000000006
 21
-58.99999999999997
 31
0.0
  0
LINE
  5
16C4
330
16A3
100
AcDbEntity
  8
LW 3850-01-01
100
AcDbLine
 10
28.99999999999995
 20
-60.0
 30
0.0
 11
-29.0
 21
-60.0
 31
0.0
  0
LINE
  5
16C5
330
16A3
100
AcDbEntity
  8
LW 3850-01-01
100
AcDbLine
 10
-29.0
 20
-60.0
 30
0.0
 11
-30.0
 21
-59.0
 31
0.0
  0
LINE
  5
16C6
330
16A3
100
AcDbEntity
  8
LW 3850-01-01
100
AcDbLine
 10
28.99999999999995
 20
-60.0
 30
0.0
 11
29.99999999999995
 21
-59.0
 31
0.0
  0
LINE
  5
16C7
330
16A3
100
AcDbEntity
  8
LW 3850-01-01
100
AcDbLine
 10
-30.00000000000006
 20
-58.99999999999997
 30
0.0
 11
-30.00000000000006
 21
-40.0
 31
0.0
  0
LINE
  5
16C8
330
16A3
100
AcDbEntity
  8
LW 3850-01-01
100
AcDbLine
 10
30.00000000000006
 20
-59.0
 30
0.0
 11
30.00000000000006
 21
-40.0
 31
0.0
  0
LINE
  5
16C9
330
16A3
100
AcDbEntity
  8
LW 3850-01-01
  6
VERDECKT
 62
     6
100
AcDbLine
 10
-10.40000000000003
 20
24.00000000000006
 30
0.0
 11
10.39999999999992
 21
24.00000000000006
 31
0.0
  0
ARC
  5
16CA
330
16A3
100
AcDbEntity
  8
LW 3850-01-01
  6
VERDECKT
 62
     6
100
AcDbCircle
 10
-10.40000000000003
 20
22.40000000000003
 30
0.0
 40
1.6
100
AcDbArc
 50
90.0
 51
180.0
  0
ARC
  5
16CB
330
16A3
100
AcDbEntity
  8
LW 3850-01-01
  6
VERDECKT
 62
     6
100
AcDbCircle
 10
10.39999999999992
 20
22.40000000000003
 30
0.0
 40
1.6
100
AcDbArc
 50
0.0
 51
90.0
  0
LINE
  5
16CC
330
16A3
100
AcDbEntity
  8
LW 3850-01-01
  6
VERDECKT
 62
     6
100
AcDbLine
 10
-12.0
 20
8.0
 30
0.0
 11
11.99999999999994
 21
8.0
 31
0.0
  0
LINE
  5
16CD
330
16A3
100
AcDbEntity
  8
LW 3850-01-01
  6
VERDECKT
 62
     6
100
AcDbLine
 10
8.000000000000056
 20
8.0
 30
0.0
 11
8.000000000000056
 21
0.0
 31
0.0
  0
LINE
  5
16CE
330
16A3
100
AcDbEntity
  8
LW 3850-01-01
  6
VERDECKT
 62
     6
100
AcDbLine
 10
-8.000000000000056
 20
8.0
 30
0.0
 11
-8.000000000000056
 21
0.0
 31
0.0
  0
LINE
  5
16CF
330
16A3
100
AcDbEntity
  8
LW 3850-01-01
  6
VERDECKT
 62
     6
100
AcDbLine
 10
11.99999999999994
 20
22.40000000000003
 30
0.0
 11
11.99999999999994
 21
8.0
 31
0.0
  0
LINE
  5
16D0
330
16A3
100
AcDbEntity
  8
LW 3850-01-01
  6
VERDECKT
 62
     6
100
AcDbLine
 10
-12.0
 20
22.40000000000003
 30
0.0
 11
-12.0
 21
8.0
 31
0.0
  0
LINE
  5
16D1
330
16A3
100
AcDbEntity
  8
LW 3850-01-01
  6
MITTE2
 62
     3
100
AcDbLine
 10
47.49030863590365
 20
-40.00000000000002
 30
0.0
 11
-43.18430243684434
 21
-40.00000000000002
 31
0.0
  0
LINE
  5
16D2
330
16A3
100
AcDbEntity
  8
LW 3850-01-01
  6
MITTE2
 62
     3
100
AcDbLine
 10
0.0
 20
46.06341507334121
 30
0.0
 11
0.0
 21
-79.0981954076874
 31
0.0
  0
INSERT
  5
16D3
330
16A3
100
AcDbEntity
  8
LW 3850-01-01
100
AcDbBlockReference
 66
     1
  2
insertpoint-ECKELT
 10
0.0
 20
0.0
 30
0.0
  0
ATTRIB
  5
16D4
330
16D3
100
AcDbEntity
  8
insertpoint_ECKELT
100
AcDbText
 10
-6.93151432469303
 20
0.0
 30
0.0
 40
0.6
  1
LW 3850/01-01
 72
     2
 11
-1.199999999999988
 21
0.0
 31
0.0
100
AcDbAttribute
  2
LINKS
 70
     0
  0
ATTRIB
  5
16D5
330
16D3
100
AcDbEntity
  8
insertpoint_ECKELT
100
AcDbText
 10
1.199999999999988
 20
0.0
 30
0.0
 40
0.6
  1

100
AcDbAttribute
  2
RECHTS
 70
     0
  0
SEQEND
  5
16D6
330
16D3
100
AcDbEntity
  8
LW 3850-01-01
  0
HATCH
  5
16D7
330
16A3
100
AcDbEntity
  8
LW 3850-01-01
 62
     8
100
AcDbHatch
 10
0.0
 20
0.0
 30
0.0
210
0.0
220
0.0
230
1.0
  2
HONEY
 70
     0
 71
     0
 91
        1
 92
        1
 93
        1
 72
     2
 10
3.478053205322851
 20
-34.33205099697062
 40
3.349999999999996
 50
0.0
 51
360.0
 73
     1
 97
        0
 75
     0
 76
     1
 52
0.0
 41
0.25
 77
     0
 78
     3
 53
0.0
 43
-511.496215491169
 44
34.20495435675747
 45
1.190625
 46
0.6874075
 79
     2
 49
0.79375
 49
-1.587499999999999
 53
120.0
 43
-511.496215491169
 44
34.20495435675747
 45
-1.190624857751951
 46
0.6874077463808477
 79
     2
 49
0.7937499999999995
 49
-1.587499999999999
 53
60.0
 43
-511.496215491169
 44
34.20495435675747
 45
0.0000001422480487
 46
1.374815246380847
 79
     2
 49
-1.587499999999999
 49
0.79375
 98
        1
 10
-511.496215491169
 20
34.20495435675747
1001
ACAD
1010
0.0
1020
0.0
1030
0.0
  0
CIRCLE
  5
16D8
330
16A3
100
AcDbEntity
  8
LW 3850-01-01
 62
     8
100
AcDbCircle
 10
3.478053205322851
 20
-34.33205099697062
 30
0.0
 40
3.349999999999996
  0
CIRCLE
  5
16D9
330
16A3
100
AcDbEntity
  8
LW 3850-01-01
 62
     8
100
AcDbCircle
 10
-0.0000000000001137
 20
-40.00000000000002
 30
0.0
 40
9.996412671638614
  0
HATCH
  5
16DA
330
16A3
100
AcDbEntity
  8
LW 3850-01-01
 62
     8
100
AcDbHatch
 10
0.0
 20
0.0
 30
0.0
210
0.0
220
0.0
230
1.0
  2
HONEY
 70
     0
 71
     0
 91
        1
 92
        1
 93
        1
 72
     2
 10
-3.169561221316826
 20
-34.15394306696169
 40
3.349999999999996
 50
60.0
 51
420.0
 73
     1
 97
        0
 75
     0
 76
     1
 52
60.0
 41
0.25
 77
     0
 78
     3
 53
60.0
 43
-320.0114833052014
 44
-445.8662393765729
 45
0.0000001422480487
 46
1.374815246380847
 79
     2
 49
0.79375
 49
-1.587499999999999
 53
180.0
 43
-320.0114833052014
 44
-445.8662393765729
 45
-1.190625
 46
-0.6874074999999998
 79
     2
 49
0.79375
 49
-1.587499999999999
 53
120.0
 43
-320.0114833052014
 44
-445.8662393765729
 45
-1.190624857751951
 46
0.6874077463808474
 79
     2
 49
-1.587499999999999
 49
0.7937499999999995
 98
        1
 10
-320.0114833052014
 20
-445.8662393765729
1001
ACAD
1010
0.0
1020
0.0
1030
0.0
  0
CIRCLE
  5
16DB
330
16A3
100
AcDbEntity
  8
LW 3850-01-01
 62
     8
100
AcDbCircle
 10
-3.169561221316826
 20
-34.15394306696169
 30
0.0
 40
3.349999999999996
  0
HATCH
  5
16DC
330
16A3
100
AcDbEntity
  8
LW 3850-01-01
 62
     8
100
AcDbHatch
 10
0.0
 20
0.0
 30
0.0
210
0.0
220
0.0
230
1.0
  2
HONEY
 70
     0
 71
     0
 91
        1
 92
        1
 93
        1
 72
     2
 10
-6.64761442663979
 20
-39.82189206999118
 40
3.349999999999995
 50
120.0
 51
479.9999999999999
 73
     1
 97
        0
 75
     0
 76
     1
 52
120.0
 41
0.25
 77
     0
 78
     3
 53
120.0
 43
191.4847321859674
 44
-520.0711937333306
 45
-1.190624857751951
 46
0.6874077463808477
 79
     2
 49
0.7937499999999994
 49
-1.587499999999998
 53
240.0
 43
191.4847321859674
 44
-520.0711937333306
 45
-0.0000001422480492
 46
-1.374815246380847
 79
     2
 49
0.7937499999999999
 49
-1.587499999999999
 53
180.0
 43
191.4847321859674
 44
-520.0711937333306
 45
-1.190625
 46
-0.6874074999999995
 79
     2
 49
-1.587499999999999
 49
0.79375
 98
        1
 10
191.4847321859674
 20
-520.0711937333306
1001
ACAD
1010
0.0
1020
0.0
1030
0.0
  0
CIRCLE
  5
16DD
330
16A3
100
AcDbEntity
  8
LW 3850-01-01
 62
     8
100
AcDbCircle
 10
-6.64761442663979
 20
-39.82189206999118
 30
0.0
 40
3.349999999999995
  0
HATCH
  5
16DE
330
16A3
100
AcDbEntity
  8
LW 3850-01-01
 62
     8
100
AcDbHatch
 10
0.0
 20
0.0
 30
0.0
210
0.0
220
0.0
230
1.0
  2
HONEY
 70
     0
 71
     0
 91
        1
 92
        1
 93
        1
 72
     2
 10
-3.478053205323192
 20
-45.66794900302943
 40
3.349999999999996
 50
180.0
 51
540.0
 73
     1
 97
        0
 75
     0
 76
     1
 52
180.0
 41
0.25
 77
     0
 78
     3
 53
180.0
 43
511.4962154911687
 44
-114.2049543567576
 45
-1.190625
 46
-0.6874074999999999
 79
     2
 49
0.79375
 49
-1.587499999999999
 53
300.0
 43
511.4962154911687
 44
-114.2049543567576
 45
1.190624857751951
 46
-0.6874077463808478
 79
     2
 49
0.79375
 49
-1.587499999999999
 53
240.0
 43
511.4962154911687
 44
-114.2049543567576
 45
-0.0000001422480488
 46
-1.374815246380847
 79
     2
 49
-1.587499999999999
 49
0.7937499999999999
 98
        1
 10
511.4962154911687
 20
-114.2049543567576
1001
ACAD
1010
0.0
1020
0.0
1030
0.0
  0
CIRCLE
  5
16DF
330
16A3
100
AcDbEntity
  8
LW 3850-01-01
 62
     8
100
AcDbCircle
 10
-3.478053205323192
 20
-45.66794900302943
 30
0.0
 40
3.349999999999996
  0
HATCH
  5
16E0
330
16A3
100
AcDbEntity
  8
LW 3850-01-01
 62
     8
100
AcDbHatch
 10
0.0
 20
0.0
 30
0.0
210
0.0
220
0.0
230
1.0
  2
HONEY
 70
     0
 71
     0
 91
        1
 92
        1
 93
        1
 72
     2
 10
3.169561221316428
 20
-45.84605693303825
 40
3.349999999999996
 50
-120.0
 51
240.0
 73
     1
 97
        0
 75
     0
 76
     1
 52
-120.0
 41
0.25
 77
     0
 78
     3
 53
240.0
 43
320.0114833052012
 44
365.8662393765729
 45
-0.0000001422480493
 46
-1.374815246380847
 79
     2
 49
0.79375
 49
-1.587499999999999
 53
360.0
 43
320.0114833052012
 44
365.8662393765729
 45
1.190625
 46
0.6874074999999991
 79
     2
 49
0.7937499999999999
 49
-1.587499999999999
 53
300.0
 43
320.0114833052012
 44
365.8662393765729
 45
1.19062485775195
 46
-0.687407746380848
 79
     2
 49
-1.587499999999999
 49
0.79375
 98
        1
 10
320.0114833052012
 20
365.8662393765729
1001
ACAD
1010
0.0
1020
0.0
1030
0.0
  0
CIRCLE
  5
16E1
330
16A3
100
AcDbEntity
  8
LW 3850-01-01
 62
     8
100
AcDbCircle
 10
3.169561221316428
 20
-45.84605693303825
 30
0.0
 40
3.349999999999996
  0
HATCH
  5
16E2
330
16A3
100
AcDbEntity
  8
LW 3850-01-01
 62
     8
100
AcDbHatch
 10
0.0
 20
0.0
 30
0.0
210
0.0
220
0.0
230
1.0
  2
HONEY
 70
     0
 71
     0
 91
        1
 92
        1
 93
        1
 72
     2
 10
6.647614426639449
 20
-40.17810793000893
 40
3.349999999999996
 50
-60.00000000000005
 51
300.0
 73
     1
 97
        0
 75
     0
 76
     1
 52
-60.00000000000005
 41
0.25
 77
     0
 78
     3
 53
300.0
 43
-191.4847321859675
 44
440.0711937333306
 45
1.19062485775195
 46
-0.6874077463808483
 79
     2
 49
0.79375
 49
-1.587499999999999
 53
59.99999999999994
 43
-191.4847321859675
 44
440.0711937333306
 45
0.00000014224805
 46
1.374815246380847
 79
     2
 49
0.79375
 49
-1.587499999999999
 53
360.0
 43
-191.4847321859675
 44
440.0711937333306
 45
1.190625
 46
0.687407499999999
 79
     2
 49
-1.587499999999999
 49
0.79375
 98
        1
 10
-191.4847321859675
 20
440.0711937333306
1001
ACAD
1010
0.0
1020
0.0
1030
0.0
  0
CIRCLE
  5
16E3
330
16A3
100
AcDbEntity
  8
LW 3850-01-01
 62
     8
100
AcDbCircle
 10
6.647614426639449
 20
-40.17810793000893
 30
0.0
 40
3.349999999999996
  0
HATCH
  5
16E4
330
16A3
100
AcDbEntity
  8
LW 3850-01-01
 62
     8
100
AcDbHatch
 10
0.0
 20
0.0
 30
0.0
210
0.0
220
0.0
230
1.0
  2
HONEY
 70
     0
 71
     0
 91
        1
 92
        1
 93
        1
 72
     2
 10
0.0
 20
-40.00000000000002
 40
3.349999999999996
 50
0.0
 51
360.0
 73
     1
 97
        0
 75
     0
 76
     1
 52
0.0
 41
0.25
 77
     0
 78
     3
 53
0.0
 43
-514.9742686964919
 44
28.53700535372806
 45
1.190625
 46
0.6874075
 79
     2
 49
0.79375
 49
-1.587499999999999
 53
120.0
 43
-514.9742686964919
 44
28.53700535372806
 45
-1.190624857751951
 46
0.6874077463808477
 79
     2
 49
0.7937499999999994
 49
-1.587499999999998
 53
60.0
 43
-514.9742686964919
 44
28.53700535372806
 45
0.0000001422480487
 46
1.374815246380847
 79
     2
 49
-1.587499999999999
 49
0.79375
 98
        1
 10
-514.9742686964919
 20
28.53700535372806
1001
ACAD
1010
0.0
1020
0.0
1030
0.0
  0
CIRCLE
  5
16E5
330
16A3
100
AcDbEntity
  8
LW 3850-01-01
 62
     8
100
AcDbCircle
 10
0.0
 20
-40.00000000000002
 30
0.0
 40
3.349999999999996
  0
ENDBLK
  5
16A5
330
16A3
100
AcDbEntity
  8
0
100
AcDbBlockEnd
  0
BLOCK
  5
16EA
330
16E9
100
AcDbEntity
  8
0
100
AcDbBlockBegin
  2
LW 3850-01-01_c
 70
     0
 10
0.0
 20
0.0
 30
0.0
  3
LW 3850-01-01_c
  1

  0
POLYLINE
  5
16EC
330
16E9
100
AcDbEntity
  8
LW 3850-01-01
100
AcDb2dPolyline
 66
     1
 10
0.0
 20
0.0
 30
0.0
 70
   128
  0
VERTEX
  5
16ED
330
16EC
100
AcDbEntity
  8
LW 3850-01-01
100
AcDbVertex
100
AcDb2dVertex
 10
-39.92200374603749
 20
27.73959755861118
 30
0.0
  0
VERTEX
  5
16EE
330
16EC
100
AcDbEntity
  8
LW 3850-01-01
100
AcDbVertex
100
AcDb2dVertex
 10
-39.92758750916005
 20
27.73931145631626
 30
0.0
  0
VERTEX
  5
16EF
330
16EC
100
AcDbEntity
  8
LW 3850-01-01
100
AcDbVertex
100
AcDb2dVertex
 10
-39.93297338486195
 20
27.73871064149692
 30
0.0
  0
VERTEX
  5
16F0
330
16EC
100
AcDbEntity
  8
LW 3850-01-01
100
AcDbVertex
100
AcDb2dVertex
 10
-39.93815660477162
 20
27.73779511415317
 30
0.0
  0
VERTEX
  5
16F1
330
16EC
100
AcDbEntity
  8
LW 3850-01-01
100
AcDbVertex
100
AcDb2dVertex
 10
-39.94313478470326
 20
27.73656249009922
 30
0.0
  0
VERTEX
  5
16F2
330
16EC
100
AcDbEntity
  8
LW 3850-01-01
100
AcDbVertex
100
AcDb2dVertex
 10
-39.94788885117049
 20
27.73501038514927
 30
0.0
  0
VERTEX
  5
16F3
330
16EC
100
AcDbEntity
  8
LW 3850-01-01
100
AcDbVertex
100
AcDb2dVertex
 10
-39.952423572545
 20
27.73313879930332
 30
0.0
  0
VERTEX
  5
16F4
330
16EC
100
AcDbEntity
  8
LW 3850-01-01
100
AcDbVertex
100
AcDb2dVertex
 10
-39.95673894882674
 20
27.73094773256138
 30
0.0
  0
VERTEX
  5
16F5
330
16EC
100
AcDbEntity
  8
LW 3850-01-01
100
AcDbVertex
100
AcDb2dVertex
 10
-39.96083498001571
 20
27.72843480073765
 30
0.0
  0
VERTEX
  5
16F6
330
16EC
100
AcDbEntity
  8
LW 3850-01-01
100
AcDbVertex
100
AcDb2dVertex
 10
-39.96471643448348
 20
27.72560000383213
 30
0.0
  0
VERTEX
  5
16F7
330
16EC
100
AcDbEntity
  8
LW 3850-01-01
100
AcDbVertex
100
AcDb2dVertex
 10
-39.96838569641585
 20
27.72244095765903
 30
0.0
  0
VERTEX
  5
16F8
330
16EC
100
AcDbEntity
  8
LW 3850-01-01
100
AcDbVertex
100
AcDb2dVertex
 10
-39.97184276581277
 20
27.71895527803257
 30
0.0
  0
VERTEX
  5
16F9
330
16EC
100
AcDbEntity
  8
LW 3850-01-01
100
AcDbVertex
100
AcDb2dVertex
 10
-39.97508764267434
 20
27.71514296495273
 30
0.0
  0
VERTEX
  5
16FA
330
16EC
100
AcDbEntity
  8
LW 3850-01-01
100
AcDbVertex
100
AcDb2dVertex
 10
-39.97812509537209
 20
27.71100401841953
 30
0.0
  0
VERTEX
  5
16FB
330
16EC
100
AcDbEntity
  8
LW 3850-01-01
100
AcDbVertex
100
AcDb2dVertex
 10
-39.98095750809182
 20
27.70653367006138
 30
0.0
  0
VERTEX
  5
16FC
330
16EC
100
AcDbEntity
  8
LW 3850-01-01
100
AcDbVertex
100
AcDb2dVertex
 10
-39.98358488083352
 20
27.70173430406406
 30
0.0
  0
VERTEX
  5
16FD
330
16EC
100
AcDbEntity
  8
LW 3850-01-01
100
AcDbVertex
100
AcDb2dVertex
 10
-39.98600959778298
 20
27.69660592042759
 30
0.0
  0
VERTEX
  5
16FE
330
16EC
100
AcDbEntity
  8
LW 3850-01-01
100
AcDbVertex
100
AcDb2dVertex
 10
-39.98823165894021
 20
27.69114136659458
 30
0.0
  0
VERTEX
  5
16FF
330
16EC
100
AcDbEntity
  8
LW 3850-01-01
100
AcDbVertex
100
AcDb2dVertex
 10
-39.99025821686257
 20
27.68534541093662
 30
0.0
  0
VERTEX
  5
1700
330
16EC
100
AcDbEntity
  8
LW 3850-01-01
100
AcDbVertex
100
AcDb2dVertex
 10
-39.99208450317849
 20
27.67921090089634
 30
0.0
  0
VERTEX
  5
1701
330
16EC
100
AcDbEntity
  8
LW 3850-01-01
100
AcDbVertex
100
AcDb2dVertex
 10
-39.99371767044534
 20
27.67274260484531
 30
0.0
  0
VERTEX
  5
1702
330
16EC
100
AcDbEntity
  8
LW 3850-01-01
100
AcDbVertex
100
AcDb2dVertex
 10
-39.99515533447726
 20
27.66593575441196
 30
0.0
  0
VERTEX
  5
1703
330
16EC
100
AcDbEntity
  8
LW 3850-01-01
100
AcDbVertex
100
AcDb2dVertex
 10
-39.99640226364596
 20
27.65879034959629
 30
0.0
  0
VERTEX
  5
1704
330
16EC
100
AcDbEntity
  8
LW 3850-01-01
100
AcDbVertex
100
AcDb2dVertex
 10
-39.99746084213717
 20
27.65130639039829
 30
0.0
  0
VERTEX
  5
1705
330
16EC
100
AcDbEntity
  8
LW 3850-01-01
100
AcDbVertex
100
AcDb2dVertex
 10
-39.9983286857651
 20
27.64347910844639
 30
0.0
  0
SEQEND
  5
1706
330
16EC
100
AcDbEntity
  8
LW 3850-01-01
  0
POLYLINE
  5
1707
330
16E9
100
AcDbEntity
  8
LW 3850-01-01
100
AcDb2dPolyline
 66
     1
 10
0.0
 20
0.0
 30
0.0
 70
   128
  0
VERTEX
  5
1708
330
1707
100
AcDbEntity
  8
LW 3850-01-01
100
AcDbVertex
100
AcDb2dVertex
 10
-39.99832868574868
 20
-27.64347910917447
 30
0.0
  0
VERTEX
  5
1709
330
1707
100
AcDbEntity
  8
LW 3850-01-01
100
AcDbVertex
100
AcDb2dVertex
 10
-39.99746084212075
 20
-27.65130877531216
 30
0.0
  0
VERTEX
  5
170A
330
1707
100
AcDbEntity
  8
LW 3850-01-01
100
AcDbVertex
100
AcDb2dVertex
 10
-39.99640226362954
 20
-27.65879035032437
 30
0.0
  0
VERTEX
  5
170B
330
1707
100
AcDbEntity
  8
LW 3850-01-01
100
AcDbVertex
100
AcDb2dVertex
 10
-39.99515533446083
 20
-27.66593813932583
 30
0.0
  0
VERTEX
  5
170C
330
1707
100
AcDbEntity
  8
LW 3850-01-01
100
AcDbVertex
100
AcDb2dVertex
 10
-39.99371767042885
 20
-27.67274260557339
 30
0.0
  0
VERTEX
  5
170D
330
1707
100
AcDbEntity
  8
LW 3850-01-01
100
AcDbVertex
100
AcDb2dVertex
 10
-39.99208450316201
 20
-27.67921328581021
 30
0.0
  0
VERTEX
  5
170E
330
1707
100
AcDbEntity
  8
LW 3850-01-01
100
AcDbVertex
100
AcDb2dVertex
 10
-39.99025821684615
 20
-27.6853454116647
 30
0.0
  0
VERTEX
  5
170F
330
1707
100
AcDbEntity
  8
LW 3850-01-01
100
AcDbVertex
100
AcDb2dVertex
 10
-39.98823165892378
 20
-27.69114375150845
 30
0.0
  0
VERTEX
  5
1710
330
1707
100
AcDbEntity
  8
LW 3850-01-01
100
AcDbVertex
100
AcDb2dVertex
 10
-39.98600959776656
 20
-27.69660830534146
 30
0.0
  0
VERTEX
  5
1711
330
1707
100
AcDbEntity
  8
LW 3850-01-01
100
AcDbVertex
100
AcDb2dVertex
 10
-39.98358488081709
 20
-27.70173430479214
 30
0.0
  0
VERTEX
  5
1712
330
1707
100
AcDbEntity
  8
LW 3850-01-01
100
AcDbVertex
100
AcDb2dVertex
 10
-39.98095750807539
 20
-27.70653605497525
 30
0.0
  0
VERTEX
  5
1713
330
1707
100
AcDbEntity
  8
LW 3850-01-01
100
AcDbVertex
100
AcDb2dVertex
 10
-39.97812509535567
 20
-27.71100401914761
 30
0.0
  0
VERTEX
  5
1714
330
1707
100
AcDbEntity
  8
LW 3850-01-01
100
AcDbVertex
100
AcDb2dVertex
 10
-39.97508764265791
 20
-27.71514296568081
 30
0.0
  0
VERTEX
  5
1715
330
1707
100
AcDbEntity
  8
LW 3850-01-01
100
AcDbVertex
100
AcDb2dVertex
 10
-39.97184276579634
 20
-27.71895766294644
 30
0.0
  0
VERTEX
  5
1716
330
1707
100
AcDbEntity
  8
LW 3850-01-01
100
AcDbVertex
100
AcDb2dVertex
 10
-39.96838569639943
 20
-27.7224433425729
 30
0.0
  0
VERTEX
  5
1717
330
1707
100
AcDbEntity
  8
LW 3850-01-01
100
AcDbVertex
100
AcDb2dVertex
 10
-39.96471643446705
 20
-27.72560000456021
 30
0.0
  0
VERTEX
  5
1718
330
1707
100
AcDbEntity
  8
LW 3850-01-01
100
AcDbVertex
100
AcDb2dVertex
 10
-39.96083497999928
 20
-27.72843718565152
 30
0.0
  0
VERTEX
  5
1719
330
1707
100
AcDbEntity
  8
LW 3850-01-01
100
AcDbVertex
100
AcDb2dVertex
 10
-39.95673894881031
 20
-27.73095011747525
 30
0.0
  0
VERTEX
  5
171A
330
1707
100
AcDbEntity
  8
LW 3850-01-01
100
AcDbVertex
100
AcDb2dVertex
 10
-39.95242357252858
 20
-27.7331388000314
 30
0.0
  0
VERTEX
  5
171B
330
1707
100
AcDbEntity
  8
LW 3850-01-01
100
AcDbVertex
100
AcDb2dVertex
 10
-39.94788885115406
 20
-27.73501277006314
 30
0.0
  0
VERTEX
  5
171C
330
1707
100
AcDbEntity
  8
LW 3850-01-01
100
AcDbVertex
100
AcDb2dVertex
 10
-39.94313478468678
 20
-27.7365624908273
 30
0.0
  0
VERTEX
  5
171D
330
1707
100
AcDbEntity
  8
LW 3850-01-01
100
AcDbVertex
100
AcDb2dVertex
 10
-39.93815660475514
 20
-27.73779749906704
 30
0.0
  0
VERTEX
  5
171E
330
1707
100
AcDbEntity
  8
LW 3850-01-01
100
AcDbVertex
100
AcDb2dVertex
 10
-39.93297338484547
 20
-27.73871302641079
 30
0.0
  0
VERTEX
  5
171F
330
1707
100
AcDbEntity
  8
LW 3850-01-01
100
AcDbVertex
100
AcDb2dVertex
 10
-39.92758750914357
 20
-27.73931384123013
 30
0.0
  0
VERTEX
  5
1720
330
1707
100
AcDbEntity
  8
LW 3850-01-01
100
AcDbVertex
100
AcDb2dVertex
 10
-39.92200374602101
 20
-27.73959994352505
 30
0.0
  0
SEQEND
  5
1721
330
1707
100
AcDbEntity
  8
LW 3850-01-01
  0
POLYLINE
  5
1722
330
16E9
100
AcDbEntity
  8
LW 3850-01-01
100
AcDb2dPolyline
 66
     1
 10
0.0
 20
0.0
 30
0.0
 70
   128
  0
VERTEX
  5
1723
330
1722
100
AcDbEntity
  8
LW 3850-01-01
100
AcDbVertex
100
AcDb2dVertex
 10
-29.7349357605068
 20
29.91840481722015
 30
0.0
  0
VERTEX
  5
1724
330
1722
100
AcDbEntity
  8
LW 3850-01-01
100
AcDbVertex
100
AcDb2dVertex
 10
-29.52124595642965
 20
29.97942566835546
 30
0.0
  0
VERTEX
  5
1725
330
1722
100
AcDbEntity
  8
LW 3850-01-01
100
AcDbVertex
100
AcDb2dVertex
 10
-29.30000066758078
 20
29.99999880754625
 30
0.0
  0
SEQEND
  5
1726
330
1722
100
AcDbEntity
  8
LW 3850-01-01
  0
POLYLINE
  5
1727
330
16E9
100
AcDbEntity
  8
LW 3850-01-01
100
AcDb2dPolyline
 66
     1
 10
0.0
 20
0.0
 30
0.0
 70
   128
  0
VERTEX
  5
1728
330
1727
100
AcDbEntity
  8
LW 3850-01-01
100
AcDbVertex
100
AcDb2dVertex
 10
-39.92200851440907
 20
27.73959040605381
 30
0.0
  0
VERTEX
  5
1729
330
1727
100
AcDbEntity
  8
LW 3850-01-01
100
AcDbVertex
100
AcDb2dVertex
 10
-39.3989825248766
 20
27.75708794557419
 30
0.0
  0
VERTEX
  5
172A
330
1727
100
AcDbEntity
  8
LW 3850-01-01
100
AcDbVertex
100
AcDb2dVertex
 10
-38.87792348862172
 20
27.78531193696846
 30
0.0
  0
VERTEX
  5
172B
330
1727
100
AcDbEntity
  8
LW 3850-01-01
100
AcDbVertex
100
AcDb2dVertex
 10
-38.36097240448481
 20
27.82366871797443
 30
0.0
  0
VERTEX
  5
172C
330
1727
100
AcDbEntity
  8
LW 3850-01-01
100
AcDbVertex
100
AcDb2dVertex
 10
-37.85027742386353
 20
27.87156462633031
 30
0.0
  0
VERTEX
  5
172D
330
1727
100
AcDbEntity
  8
LW 3850-01-01
100
AcDbVertex
100
AcDb2dVertex
 10
-37.34798431396979
 20
27.92840123140245
 30
0.0
  0
VERTEX
  5
172E
330
1727
100
AcDbEntity
  8
LW 3850-01-01
100
AcDbVertex
100
AcDb2dVertex
 10
-36.85620546341443
 20
27.99358963930057
 30
0.0
  0
VERTEX
  5
172F
330
1727
100
AcDbEntity
  8
LW 3850-01-01
100
AcDbVertex
100
AcDb2dVertex
 10
-36.37454986572777
 20
28.06660056077895
 30
0.0
  0
VERTEX
  5
1730
330
1727
100
AcDbEntity
  8
LW 3850-01-01
100
AcDbVertex
100
AcDb2dVertex
 10
-35.90305566788243
 20
28.14658760988191
 30
0.0
  0
VERTEX
  5
1731
330
1727
100
AcDbEntity
  8
LW 3850-01-01
100
AcDbVertex
100
AcDb2dVertex
 10
-35.44311761856608
 20
28.23256134950604
 30
0.0
  0
VERTEX
  5
1732
330
1727
100
AcDbEntity
  8
LW 3850-01-01
100
AcDbVertex
100
AcDb2dVertex
 10
-34.99613285065237
 20
28.323534726734
 30
0.0
  0
VERTEX
  5
1733
330
1727
100
AcDbEntity
  8
LW 3850-01-01
100
AcDbVertex
100
AcDb2dVertex
 10
-34.56349372864321
 20
28.41851115190501
 30
0.0
  0
VERTEX
  5
1734
330
1727
100
AcDbEntity
  8
LW 3850-01-01
100
AcDbVertex
100
AcDb2dVertex
 10
-34.14653539658156
 20
28.51652026140219
 30
0.0
  0
VERTEX
  5
1735
330
1727
100
AcDbEntity
  8
LW 3850-01-01
100
AcDbVertex
100
AcDb2dVertex
 10
-33.74455451965906
 20
28.61694693529147
 30
0.0
  0
VERTEX
  5
1736
330
1727
100
AcDbEntity
  8
LW 3850-01-01
100
AcDbVertex
100
AcDb2dVertex
 10
-33.35762023926373
 20
28.71900677644759
 30
0.0
  0
VERTEX
  5
1737
330
1727
100
AcDbEntity
  8
LW 3850-01-01
100
AcDbVertex
100
AcDb2dVertex
 10
-32.98668861389763
 20
28.82174134218256
 30
0.0
  0
VERTEX
  5
1738
330
1727
100
AcDbEntity
  8
LW 3850-01-01
100
AcDbVertex
100
AcDb2dVertex
 10
-32.63272523880619
 20
28.92419218980841
 30
0.0
  0
VERTEX
  5
1739
330
1727
100
AcDbEntity
  8
LW 3850-01-01
100
AcDbVertex
100
AcDb2dVertex
 10
-32.29668855667745
 20
29.02540087663714
 30
0.0
  0
VERTEX
  5
173A
330
1727
100
AcDbEntity
  8
LW 3850-01-01
100
AcDbVertex
100
AcDb2dVertex
 10
-31.97953701019935
 20
29.12441134416649
 30
0.0
  0
VERTEX
  5
173B
330
1727
100
AcDbEntity
  8
LW 3850-01-01
100
AcDbVertex
100
AcDb2dVertex
 10
-31.68173074722949
 20
29.22041296922764
 30
0.0
  0
VERTEX
  5
173C
330
1727
100
AcDbEntity
  8
LW 3850-01-01
100
AcDbVertex
100
AcDb2dVertex
 10
-31.40262126923284
 20
29.31298375093546
 30
0.0
  0
VERTEX
  5
173D
330
1727
100
AcDbEntity
  8
LW 3850-01-01
100
AcDbVertex
100
AcDb2dVertex
 10
-31.14286899567344
 20
29.40141320192434
 30
0.0
  0
VERTEX
  5
173E
330
1727
100
AcDbEntity
  8
LW 3850-01-01
100
AcDbVertex
100
AcDb2dVertex
 10
-30.90323448181863
 20
29.48495507204159
 30
0.0
  0
VERTEX
  5
173F
330
1727
100
AcDbEntity
  8
LW 3850-01-01
100
AcDbVertex
100
AcDb2dVertex
 10
-30.68447828293574
 20
29.56287026369203
 30
0.0
  0
VERTEX
  5
1740
330
1727
100
AcDbEntity
  8
LW 3850-01-01
100
AcDbVertex
100
AcDb2dVertex
 10
-30.48735857010627
 20
29.63441491090895
 30
0.0
  0
VERTEX
  5
1741
330
1727
100
AcDbEntity
  8
LW 3850-01-01
100
AcDbVertex
100
AcDb2dVertex
 10
-30.31263351441192
 20
29.69884514772535
 30
0.0
  0
VERTEX
  5
1742
330
1727
100
AcDbEntity
  8
LW 3850-01-01
100
AcDbVertex
100
AcDb2dVertex
 10
-30.16073703766642
 20
29.75557684862263
 30
0.0
  0
VERTEX
  5
1743
330
1727
100
AcDbEntity
  8
LW 3850-01-01
100
AcDbVertex
100
AcDb2dVertex
 10
-30.03138303757504
 20
29.80444312059534
 30
0.0
  0
VERTEX
  5
1744
330
1727
100
AcDbEntity
  8
LW 3850-01-01
100
AcDbVertex
100
AcDb2dVertex
 10
-29.9249982833943
 20
29.84503626787317
 30
0.0
  0
VERTEX
  5
1745
330
1727
100
AcDbEntity
  8
LW 3850-01-01
100
AcDbVertex
100
AcDb2dVertex
 10
-29.84202384949555
 20
29.87693190538538
 30
0.0
  0
VERTEX
  5
1746
330
1727
100
AcDbEntity
  8
LW 3850-01-01
100
AcDbVertex
100
AcDb2dVertex
 10
-29.78258848191149
 20
29.89990591966766
 30
0.0
  0
VERTEX
  5
1747
330
1727
100
AcDbEntity
  8
LW 3850-01-01
100
AcDbVertex
100
AcDb2dVertex
 10
-29.7349357605068
 20
29.91840481722015
 30
0.0
  0
SEQEND
  5
1748
330
1727
100
AcDbEntity
  8
LW 3850-01-01
  0
POLYLINE
  5
1749
330
16E9
100
AcDbEntity
  8
LW 3850-01-01
100
AcDb2dPolyline
 66
     1
 10
0.0
 20
0.0
 30
0.0
 70
   128
  0
VERTEX
  5
174A
330
1749
100
AcDbEntity
  8
LW 3850-01-01
100
AcDbVertex
100
AcDb2dVertex
 10
-29.73499774931958
 20
-29.91838336027008
 30
0.0
  0
VERTEX
  5
174B
330
1749
100
AcDbEntity
  8
LW 3850-01-01
100
AcDbVertex
100
AcDb2dVertex
 10
-29.78259325026534
 20
-29.89990592038971
 30
0.0
  0
VERTEX
  5
174C
330
1749
100
AcDbEntity
  8
LW 3850-01-01
100
AcDbVertex
100
AcDb2dVertex
 10
-29.84203100203524
 20
-29.87693190610754
 30
0.0
  0
VERTEX
  5
174D
330
1749
100
AcDbEntity
  8
LW 3850-01-01
100
AcDbVertex
100
AcDb2dVertex
 10
-29.92500782011979
 20
-29.84503150022375
 30
0.0
  0
VERTEX
  5
174E
330
1749
100
AcDbEntity
  8
LW 3850-01-01
100
AcDbVertex
100
AcDb2dVertex
 10
-30.03139257430053
 20
-29.8044431213175
 30
0.0
  0
VERTEX
  5
174F
330
1749
100
AcDbEntity
  8
LW 3850-01-01
100
AcDbVertex
100
AcDb2dVertex
 10
-30.16074657439197
 20
-29.75557208097333
 30
0.0
  0
VERTEX
  5
1750
330
1749
100
AcDbEntity
  8
LW 3850-01-01
100
AcDbVertex
100
AcDb2dVertex
 10
-30.31264543532325
 20
-29.69884276426196
 30
0.0
  0
VERTEX
  5
1751
330
1749
100
AcDbEntity
  8
LW 3850-01-01
100
AcDbVertex
100
AcDb2dVertex
 10
-30.48737049101772
 20
-29.63440775907397
 30
0.0
  0
VERTEX
  5
1752
330
1749
100
AcDbEntity
  8
LW 3850-01-01
100
AcDbVertex
100
AcDb2dVertex
 10
-30.68449258803293
 20
-29.56286788022886
 30
0.0
  0
VERTEX
  5
1753
330
1749
100
AcDbEntity
  8
LW 3850-01-01
100
AcDbVertex
100
AcDb2dVertex
 10
-30.90324878691587
 20
-29.48495268857853
 30
0.0
  0
VERTEX
  5
1754
330
1749
100
AcDbEntity
  8
LW 3850-01-01
100
AcDbVertex
100
AcDb2dVertex
 10
-31.14288330077073
 20
-29.4014108184614
 30
0.0
  0
VERTEX
  5
1755
330
1749
100
AcDbEntity
  8
LW 3850-01-01
100
AcDbVertex
100
AcDb2dVertex
 10
-31.40263557433025
 20
-29.31298136747275
 30
0.0
  0
VERTEX
  5
1756
330
1749
100
AcDbEntity
  8
LW 3850-01-01
100
AcDbVertex
100
AcDb2dVertex
 10
-31.68174743651275
 20
-29.22040820157925
 30
0.0
  0
VERTEX
  5
1757
330
1749
100
AcDbEntity
  8
LW 3850-01-01
100
AcDbVertex
100
AcDb2dVertex
 10
-31.97955369948261
 20
-29.12440657651827
 30
0.0
  0
VERTEX
  5
1758
330
1749
100
AcDbEntity
  8
LW 3850-01-01
100
AcDbVertex
100
AcDb2dVertex
 10
-32.29670286177498
 20
-29.02539610898909
 30
0.0
  0
VERTEX
  5
1759
330
1749
100
AcDbEntity
  8
LW 3850-01-01
100
AcDbVertex
100
AcDb2dVertex
 10
-32.63274192808956
 20
-28.92418742216058
 30
0.0
  0
VERTEX
  5
175A
330
1749
100
AcDbEntity
  8
LW 3850-01-01
100
AcDbVertex
100
AcDb2dVertex
 10
-32.98670530318105
 20
-28.82173895872076
 30
0.0
  0
VERTEX
  5
175B
330
1749
100
AcDbEntity
  8
LW 3850-01-01
100
AcDbVertex
100
AcDb2dVertex
 10
-33.35763454436142
 20
-28.71900439298601
 30
0.0
  0
VERTEX
  5
175C
330
1749
100
AcDbEntity
  8
LW 3850-01-01
100
AcDbVertex
100
AcDb2dVertex
 10
-33.74457120894266
 20
-28.61694216764433
 30
0.0
  0
VERTEX
  5
175D
330
1749
100
AcDbEntity
  8
LW 3850-01-01
100
AcDbVertex
100
AcDb2dVertex
 10
-34.14654970167942
 20
-28.51651549375528
 30
0.0
  0
VERTEX
  5
175E
330
1749
100
AcDbEntity
  8
LW 3850-01-01
100
AcDbVertex
100
AcDb2dVertex
 10
-34.56350803374107
 20
-28.4185111526299
 30
0.0
  0
VERTEX
  5
175F
330
1749
100
AcDbEntity
  8
LW 3850-01-01
100
AcDbVertex
100
AcDb2dVertex
 10
-34.99614477156451
 20
-28.32352995908754
 30
0.0
  0
VERTEX
  5
1760
330
1749
100
AcDbEntity
  8
LW 3850-01-01
100
AcDbVertex
100
AcDb2dVertex
 10
-35.44312953947827
 20
-28.23255896604571
 30
0.0
  0
VERTEX
  5
1761
330
1749
100
AcDbEntity
  8
LW 3850-01-01
100
AcDbVertex
100
AcDb2dVertex
 10
-35.90306758879467
 20
-28.14658522642181
 30
0.0
  0
VERTEX
  5
1762
330
1749
100
AcDbEntity
  8
LW 3850-01-01
100
AcDbVertex
100
AcDb2dVertex
 10
-36.37455940245428
 20
-28.06660056150498
 30
0.0
  0
VERTEX
  5
1763
330
1749
100
AcDbEntity
  8
LW 3850-01-01
100
AcDbVertex
100
AcDb2dVertex
 10
-36.85621500014099
 20
-27.99358725584104
 30
0.0
  0
VERTEX
  5
1764
330
1749
100
AcDbEntity
  8
LW 3850-01-01
100
AcDbVertex
100
AcDb2dVertex
 10
-37.34799146651062
 20
-27.92839884794326
 30
0.0
  0
VERTEX
  5
1765
330
1749
100
AcDbEntity
  8
LW 3850-01-01
100
AcDbVertex
100
AcDb2dVertex
 10
-37.85028457640436
 20
-27.87156462705714
 30
0.0
  0
VERTEX
  5
1766
330
1749
100
AcDbEntity
  8
LW 3850-01-01
100
AcDbVertex
100
AcDb2dVertex
 10
-38.36097717283991
 20
-27.82367110288739
 30
0.0
  0
VERTEX
  5
1767
330
1749
100
AcDbEntity
  8
LW 3850-01-01
100
AcDbVertex
100
AcDb2dVertex
 10
-38.87792587279103
 20
-27.78531432188164
 30
0.0
  0
VERTEX
  5
1768
330
1749
100
AcDbEntity
  8
LW 3850-01-01
100
AcDbVertex
100
AcDb2dVertex
 10
-39.39898490904591
 20
-27.75709033048777
 30
0.0
  0
VERTEX
  5
1769
330
1749
100
AcDbEntity
  8
LW 3850-01-01
100
AcDbVertex
100
AcDb2dVertex
 10
-39.92200851439259
 20
-27.73959040678189
 30
0.0
  0
SEQEND
  5
176A
330
1749
100
AcDbEntity
  8
LW 3850-01-01
  0
ARC
  5
176B
330
16E9
100
AcDbEntity
  8
LW 3850-01-01
100
AcDbCircle
 10
-29.29999999999143
 20
-28.79999999999144
 30
0.0
 40
1.200000000000208
100
AcDbArc
 50
248.7463494903595
 51
270.0000000000163
  0
POLYLINE
  5
176C
330
16E9
100
AcDbEntity
  8
LW 3850-01-01
100
AcDb2dPolyline
 66
     1
 10
0.0
 20
0.0
 30
0.0
 70
   128
  0
VERTEX
  5
176D
330
176C
100
AcDbEntity
  8
LW 3850-01-01
100
AcDbVertex
100
AcDb2dVertex
 10
-39.99999999998818
 20
-27.60887503660367
 30
0.0
  0
VERTEX
  5
176E
330
176C
100
AcDbEntity
  8
LW 3850-01-01
100
AcDbVertex
100
AcDb2dVertex
 10
-39.99999761580239
 20
-27.61031031644986
 30
0.0
  0
VERTEX
  5
176F
330
176C
100
AcDbEntity
  8
LW 3850-01-01
100
AcDbVertex
100
AcDb2dVertex
 10
-39.99998807905922
 20
-27.61175036466763
 30
0.0
  0
VERTEX
  5
1770
330
176C
100
AcDbEntity
  8
LW 3850-01-01
100
AcDbVertex
100
AcDb2dVertex
 10
-39.99997377394448
 20
-27.61318564451382
 30
0.0
  0
VERTEX
  5
1771
330
176C
100
AcDbEntity
  8
LW 3850-01-01
100
AcDbVertex
100
AcDb2dVertex
 10
-39.99995470045815
 20
-27.6146256927316
 30
0.0
  0
VERTEX
  5
1772
330
176C
100
AcDbEntity
  8
LW 3850-01-01
100
AcDbVertex
100
AcDb2dVertex
 10
-39.99992847441445
 20
-27.61606574094937
 30
0.0
  0
VERTEX
  5
1773
330
176C
100
AcDbEntity
  8
LW 3850-01-01
100
AcDbVertex
100
AcDb2dVertex
 10
-39.99989747999917
 20
-27.61750102079556
 30
0.0
  0
VERTEX
  5
1774
330
176C
100
AcDbEntity
  8
LW 3850-01-01
100
AcDbVertex
100
AcDb2dVertex
 10
-39.99985933302651
 20
-27.61894106901333
 30
0.0
  0
VERTEX
  5
1775
330
176C
100
AcDbEntity
  8
LW 3850-01-01
100
AcDbVertex
100
AcDb2dVertex
 10
-39.99981641768227
 20
-27.62038111723111
 30
0.0
  0
VERTEX
  5
1776
330
176C
100
AcDbEntity
  8
LW 3850-01-01
100
AcDbVertex
100
AcDb2dVertex
 10
-39.99976634978066
 20
-27.62182116544888
 30
0.0
  0
VERTEX
  5
1777
330
176C
100
AcDbEntity
  8
LW 3850-01-01
100
AcDbVertex
100
AcDb2dVertex
 10
-39.99971151350747
 20
-27.62326598203824
 30
0.0
  0
VERTEX
  5
1778
330
176C
100
AcDbEntity
  8
LW 3850-01-01
100
AcDbVertex
100
AcDb2dVertex
 10
-39.99965190886269
 20
-27.62470603025601
 30
0.0
  0
VERTEX
  5
1779
330
176C
100
AcDbEntity
  8
LW 3850-01-01
100
AcDbVertex
100
AcDb2dVertex
 10
-39.99958515166054
 20
-27.62614607847378
 30
0.0
  0
VERTEX
  5
177A
330
176C
100
AcDbEntity
  8
LW 3850-01-01
100
AcDbVertex
100
AcDb2dVertex
 10
-39.99951362608681
 20
-27.62759089506314
 30
0.0
  0
VERTEX
  5
177B
330
176C
100
AcDbEntity
  8
LW 3850-01-01
100
AcDbVertex
100
AcDb2dVertex
 10
-39.99943494795571
 20
-27.62903094328091
 30
0.0
  0
VERTEX
  5
177C
330
176C
100
AcDbEntity
  8
LW 3850-01-01
100
AcDbVertex
100
AcDb2dVertex
 10
-39.99935150145302
 20
-27.63047575987027
 30
0.0
  0
VERTEX
  5
177D
330
176C
100
AcDbEntity
  8
LW 3850-01-01
100
AcDbVertex
100
AcDb2dVertex
 10
-39.99926090239296
 20
-27.63192057645962
 30
0.0
  0
VERTEX
  5
177E
330
176C
100
AcDbEntity
  8
LW 3850-01-01
100
AcDbVertex
100
AcDb2dVertex
 10
-39.99916553496132
 20
-27.63336539304898
 30
0.0
  0
VERTEX
  5
177F
330
176C
100
AcDbEntity
  8
LW 3850-01-01
100
AcDbVertex
100
AcDb2dVertex
 10
-39.99906301497231
 20
-27.63480544126675
 30
0.0
  0
VERTEX
  5
1780
330
176C
100
AcDbEntity
  8
LW 3850-01-01
100
AcDbVertex
100
AcDb2dVertex
 10
-39.99895572661171
 20
-27.63625025785611
 30
0.0
  0
VERTEX
  5
1781
330
176C
100
AcDbEntity
  8
LW 3850-01-01
100
AcDbVertex
100
AcDb2dVertex
 10
-39.99884366987954
 20
-27.63769507444546
 30
0.0
  0
VERTEX
  5
1782
330
176C
100
AcDbEntity
  8
LW 3850-01-01
100
AcDbVertex
100
AcDb2dVertex
 10
-39.99872207640419
 20
-27.63913989103482
 30
0.0
  0
VERTEX
  5
1783
330
176C
100
AcDbEntity
  8
LW 3850-01-01
100
AcDbVertex
100
AcDb2dVertex
 10
-39.99859809874306
 20
-27.64058947599576
 30
0.0
  0
VERTEX
  5
1784
330
176C
100
AcDbEntity
  8
LW 3850-01-01
100
AcDbVertex
100
AcDb2dVertex
 10
-39.99846696852456
 20
-27.64203429258511
 30
0.0
  0
VERTEX
  5
1785
330
176C
100
AcDbEntity
  8
LW 3850-01-01
100
AcDbVertex
100
AcDb2dVertex
 10
-39.99832868574868
 20
-27.64347910917447
 30
0.0
  0
SEQEND
  5
1786
330
176C
100
AcDbEntity
  8
LW 3850-01-01
  0
POLYLINE
  5
1787
330
16E9
100
AcDbEntity
  8
LW 3850-01-01
100
AcDb2dPolyline
 66
     1
 10
0.0
 20
0.0
 30
0.0
 70
   128
  0
VERTEX
  5
1788
330
1787
100
AcDbEntity
  8
LW 3850-01-01
100
AcDbVertex
100
AcDb2dVertex
 10
-39.9983286857651
 20
27.64347910844639
 30
0.0
  0
VERTEX
  5
1789
330
1787
100
AcDbEntity
  8
LW 3850-01-01
100
AcDbVertex
100
AcDb2dVertex
 10
-39.99846696854098
 20
27.64203190767124
 30
0.0
  0
VERTEX
  5
178A
330
1787
100
AcDbEntity
  8
LW 3850-01-01
100
AcDbVertex
100
AcDb2dVertex
 10
-39.99859809875949
 20
27.64058709108188
 30
0.0
  0
VERTEX
  5
178B
330
1787
100
AcDbEntity
  8
LW 3850-01-01
100
AcDbVertex
100
AcDb2dVertex
 10
-39.99872207642062
 20
27.63913989030674
 30
0.0
  0
VERTEX
  5
178C
330
1787
100
AcDbEntity
  8
LW 3850-01-01
100
AcDbVertex
100
AcDb2dVertex
 10
-39.99884366989596
 20
27.63769507371738
 30
0.0
  0
VERTEX
  5
178D
330
1787
100
AcDbEntity
  8
LW 3850-01-01
100
AcDbVertex
100
AcDb2dVertex
 10
-39.99895572662808
 20
27.63625025712803
 30
0.0
  0
VERTEX
  5
178E
330
1787
100
AcDbEntity
  8
LW 3850-01-01
100
AcDbVertex
100
AcDb2dVertex
 10
-39.99906301498868
 20
27.63480544053867
 30
0.0
  0
VERTEX
  5
178F
330
1787
100
AcDbEntity
  8
LW 3850-01-01
100
AcDbVertex
100
AcDb2dVertex
 10
-39.99916553497769
 20
27.63336300813511
 30
0.0
  0
VERTEX
  5
1790
330
1787
100
AcDbEntity
  8
LW 3850-01-01
100
AcDbVertex
100
AcDb2dVertex
 10
-39.99926090240933
 20
27.63191819154575
 30
0.0
  0
VERTEX
  5
1791
330
1787
100
AcDbEntity
  8
LW 3850-01-01
100
AcDbVertex
100
AcDb2dVertex
 10
-39.99935150146939
 20
27.63047575914219
 30
0.0
  0
VERTEX
  5
1792
330
1787
100
AcDbEntity
  8
LW 3850-01-01
100
AcDbVertex
100
AcDb2dVertex
 10
-39.99943494797208
 20
27.62903094255283
 30
0.0
  0
VERTEX
  5
1793
330
1787
100
AcDbEntity
  8
LW 3850-01-01
100
AcDbVertex
100
AcDb2dVertex
 10
-39.99951362610318
 20
27.62758851014927
 30
0.0
  0
VERTEX
  5
1794
330
1787
100
AcDbEntity
  8
LW 3850-01-01
100
AcDbVertex
100
AcDb2dVertex
 10
-39.99958515167691
 20
27.6261460777457
 30
0.0
  0
VERTEX
  5
1795
330
1787
100
AcDbEntity
  8
LW 3850-01-01
100
AcDbVertex
100
AcDb2dVertex
 10
-39.99965190887906
 20
27.62470364534214
 30
0.0
  0
VERTEX
  5
1796
330
1787
100
AcDbEntity
  8
LW 3850-01-01
100
AcDbVertex
100
AcDb2dVertex
 10
-39.99971151352383
 20
27.62326359712437
 30
0.0
  0
VERTEX
  5
1797
330
1787
100
AcDbEntity
  8
LW 3850-01-01
100
AcDbVertex
100
AcDb2dVertex
 10
-39.99976634979703
 20
27.6218211647208
 30
0.0
  0
VERTEX
  5
1798
330
1787
100
AcDbEntity
  8
LW 3850-01-01
100
AcDbVertex
100
AcDb2dVertex
 10
-39.99981641769864
 20
27.62038111650303
 30
0.0
  0
VERTEX
  5
1799
330
1787
100
AcDbEntity
  8
LW 3850-01-01
100
AcDbVertex
100
AcDb2dVertex
 10
-39.99985933304288
 20
27.61894106828525
 30
0.0
  0
VERTEX
  5
179A
330
1787
100
AcDbEntity
  8
LW 3850-01-01
100
AcDbVertex
100
AcDb2dVertex
 10
-39.99989748001553
 20
27.61750102006748
 30
0.0
  0
VERTEX
  5
179B
330
1787
100
AcDbEntity
  8
LW 3850-01-01
100
AcDbVertex
100
AcDb2dVertex
 10
-39.99992847443082
 20
27.6160633560355
 30
0.0
  0
VERTEX
  5
179C
330
1787
100
AcDbEntity
  8
LW 3850-01-01
100
AcDbVertex
100
AcDb2dVertex
 10
-39.99995470047452
 20
27.61462330781772
 30
0.0
  0
VERTEX
  5
179D
330
1787
100
AcDbEntity
  8
LW 3850-01-01
100
AcDbVertex
100
AcDb2dVertex
 10
-39.99997377396084
 20
27.61318564378574
 30
0.0
  0
VERTEX
  5
179E
330
1787
100
AcDbEntity
  8
LW 3850-01-01
100
AcDbVertex
100
AcDb2dVertex
 10
-39.99998807907559
 20
27.61174797975376
 30
0.0
  0
VERTEX
  5
179F
330
1787
100
AcDbEntity
  8
LW 3850-01-01
100
AcDbVertex
100
AcDb2dVertex
 10
-39.99999761581876
 20
27.61031031572178
 30
0.0
  0
VERTEX
  5
17A0
330
1787
100
AcDbEntity
  8
LW 3850-01-01
100
AcDbVertex
100
AcDb2dVertex
 10
-40.00000000000454
 20
27.60887503587559
 30
0.0
  0
SEQEND
  5
17A1
330
1787
100
AcDbEntity
  8
LW 3850-01-01
  0
LINE
  5
17A2
330
16E9
100
AcDbEntity
  8
LW 3850-01-01
100
AcDbLine
 10
-39.99999999998835
 20
-27.60887538455184
 30
0.0
 11
-40.00000000000471
 21
27.60887538456227
 31
0.0
  0
LINE
  5
17A3
330
16E9
100
AcDbEntity
  8
LW 3850-01-01
100
AcDbLine
 10
0.0000000000088676
 20
-29.99999999998296
 30
0.0
 11
-0.0000000000089244
 21
30.00000000001704
 31
0.0
  0
LINE
  5
17A4
330
16E9
100
AcDbEntity
  8
LW 3850-01-01
100
AcDbLine
 10
0.0000000000088676
 20
-29.99999999998296
 30
0.0
 11
-29.29999999999109
 21
-29.9999999999916
 31
0.0
  0
LINE
  5
17A5
330
16E9
100
AcDbEntity
  8
LW 3850-01-01
100
AcDbLine
 10
-0.0000000000089244
 20
30.00000000001704
 30
0.0
 11
-29.30000000000894
 21
30.00000000000834
 31
0.0
  0
LINE
  5
17A6
330
16E9
100
AcDbEntity
  8
LW 3850-01-01
  6
VERDECKT
 62
     6
100
AcDbLine
 10
25.00000000000546
 20
2.65734047520668
 30
0.0
 11
23.80000000000541
 21
2.976344071327488
 31
0.0
  0
LINE
  5
17A7
330
16E9
100
AcDbEntity
  8
LW 3850-01-01
  6
VERDECKT
 62
     6
100
AcDbLine
 10
23.80000000000541
 20
2.976344071327488
 30
0.0
 11
0.000000000005457
 21
2.97634407132044
 31
0.0
  0
LINE
  5
17A8
330
16E9
100
AcDbEntity
  8
LW 3850-01-01
  6
VERDECKT
 62
     6
100
AcDbLine
 10
23.80000000000706
 20
-2.999999999975855
 30
0.0
 11
23.80000000000541
 21
2.976344071327488
 31
0.0
  0
LINE
  5
17A9
330
16E9
100
AcDbEntity
  8
LW 3850-01-01
  6
VERDECKT
 62
     6
100
AcDbLine
 10
25.00000000000694
 20
-2.678460969058178
 30
0.0
 11
25.00000000000546
 21
2.65734047520668
 31
0.0
  0
LINE
  5
17AA
330
16E9
100
AcDbEntity
  8
LW 3850-01-01
  6
VERDECKT
 62
     6
100
AcDbLine
 10
25.00000000000699
 20
-2.678460969058178
 30
0.0
 11
23.80000000000706
 21
-2.999999999975855
 31
0.0
  0
LINE
  5
17AB
330
16E9
100
AcDbEntity
  8
LW 3850-01-01
  6
VERDECKT
 62
     6
100
AcDbLine
 10
0.0000000000071054
 20
-2.999999999982961
 30
0.0
 11
23.80000000000706
 21
-2.999999999975855
 31
0.0
  0
LINE
  5
17AC
330
16E9
100
AcDbEntity
  8
LW 3850-01-01
100
AcDbLine
 10
-59.00000000000892
 20
29.99999999999953
 30
0.0
 11
-58.99999999999113
 21
-30.00000000000047
 31
0.0
  0
LINE
  5
17AD
330
16E9
100
AcDbEntity
  8
LW 3850-01-01
100
AcDbLine
 10
-59.99999999999142
 20
-29.00000000000075
 30
0.0
 11
-60.00000000000864
 21
28.99999999999919
 31
0.0
  0
LINE
  5
17AE
330
16E9
100
AcDbEntity
  8
LW 3850-01-01
100
AcDbLine
 10
-60.00000000000864
 20
28.99999999999919
 30
0.0
 11
-59.00000000000892
 21
29.99999999999953
 31
0.0
  0
LINE
  5
17AF
330
16E9
100
AcDbEntity
  8
LW 3850-01-01
100
AcDbLine
 10
-59.99999999999142
 20
-29.00000000000075
 30
0.0
 11
-58.99999999999113
 21
-30.00000000000047
 31
0.0
  0
POLYLINE
  5
17B0
330
16E9
100
AcDbEntity
  8
LW 3850-01-01
100
AcDb2dPolyline
 66
     1
 10
0.0
 20
0.0
 30
0.0
 70
   128
  0
VERTEX
  5
17B1
330
17B0
100
AcDbEntity
  8
LW 3850-01-01
100
AcDbVertex
100
AcDb2dVertex
 10
-40.00167131422768
 20
-27.64347910917447
 30
0.0
  0
VERTEX
  5
17B2
330
17B0
100
AcDbEntity
  8
LW 3850-01-01
100
AcDbVertex
100
AcDb2dVertex
 10
-40.0015330314518
 20
-27.64203429258511
 30
0.0
  0
VERTEX
  5
17B3
330
17B0
100
AcDbEntity
  8
LW 3850-01-01
100
AcDbVertex
100
AcDb2dVertex
 10
-40.00140190123329
 20
-27.64058947599576
 30
0.0
  0
VERTEX
  5
17B4
330
17B0
100
AcDbEntity
  8
LW 3850-01-01
100
AcDbVertex
100
AcDb2dVertex
 10
-40.00127673147926
 20
-27.63913989103482
 30
0.0
  0
VERTEX
  5
17B5
330
17B0
100
AcDbEntity
  8
LW 3850-01-01
100
AcDbVertex
100
AcDb2dVertex
 10
-40.00115752218971
 20
-27.63769507444546
 30
0.0
  0
VERTEX
  5
17B6
330
17B0
100
AcDbEntity
  8
LW 3850-01-01
100
AcDbVertex
100
AcDb2dVertex
 10
-40.00104427336464
 20
-27.63625025785611
 30
0.0
  0
VERTEX
  5
17B7
330
17B0
100
AcDbEntity
  8
LW 3850-01-01
100
AcDbVertex
100
AcDb2dVertex
 10
-40.00093579291115
 20
-27.63480544126675
 30
0.0
  0
VERTEX
  5
17B8
330
17B0
100
AcDbEntity
  8
LW 3850-01-01
100
AcDbVertex
100
AcDb2dVertex
 10
-40.00083446501503
 20
-27.63336539304898
 30
0.0
  0
VERTEX
  5
17B9
330
17B0
100
AcDbEntity
  8
LW 3850-01-01
100
AcDbVertex
100
AcDb2dVertex
 10
-40.00073909758339
 20
-27.63192057645962
 30
0.0
  0
VERTEX
  5
17BA
330
17B0
100
AcDbEntity
  8
LW 3850-01-01
100
AcDbVertex
100
AcDb2dVertex
 10
-40.00064849852333
 20
-27.63047575987027
 30
0.0
  0
VERTEX
  5
17BB
330
17B0
100
AcDbEntity
  8
LW 3850-01-01
100
AcDbVertex
100
AcDb2dVertex
 10
-40.00056505202064
 20
-27.62903094328091
 30
0.0
  0
VERTEX
  5
17BC
330
17B0
100
AcDbEntity
  8
LW 3850-01-01
100
AcDbVertex
100
AcDb2dVertex
 10
-40.00048637388954
 20
-27.62759089506314
 30
0.0
  0
VERTEX
  5
17BD
330
17B0
100
AcDbEntity
  8
LW 3850-01-01
100
AcDbVertex
100
AcDb2dVertex
 10
-40.00041484831581
 20
-27.62614607847378
 30
0.0
  0
VERTEX
  5
17BE
330
17B0
100
AcDbEntity
  8
LW 3850-01-01
100
AcDbVertex
100
AcDb2dVertex
 10
-40.00034809111366
 20
-27.62470603025601
 30
0.0
  0
VERTEX
  5
17BF
330
17B0
100
AcDbEntity
  8
LW 3850-01-01
100
AcDbVertex
100
AcDb2dVertex
 10
-40.00028729437599
 20
-27.62326598203824
 30
0.0
  0
VERTEX
  5
17C0
330
17B0
100
AcDbEntity
  8
LW 3850-01-01
100
AcDbVertex
100
AcDb2dVertex
 10
-40.0002324581028
 20
-27.62182116544888
 30
0.0
  0
VERTEX
  5
17C1
330
17B0
100
AcDbEntity
  8
LW 3850-01-01
100
AcDbVertex
100
AcDb2dVertex
 10
-40.00018358229408
 20
-27.62038111723111
 30
0.0
  0
VERTEX
  5
17C2
330
17B0
100
AcDbEntity
  8
LW 3850-01-01
100
AcDbVertex
100
AcDb2dVertex
 10
-40.00014066694984
 20
-27.61894106901333
 30
0.0
  0
VERTEX
  5
17C3
330
17B0
100
AcDbEntity
  8
LW 3850-01-01
100
AcDbVertex
100
AcDb2dVertex
 10
-40.00010371207008
 20
-27.61750102079556
 30
0.0
  0
VERTEX
  5
17C4
330
17B0
100
AcDbEntity
  8
LW 3850-01-01
100
AcDbVertex
100
AcDb2dVertex
 10
-40.0000715255619
 20
-27.61606574094937
 30
0.0
  0
VERTEX
  5
17C5
330
17B0
100
AcDbEntity
  8
LW 3850-01-01
100
AcDbVertex
100
AcDb2dVertex
 10
-40.0000452995182
 20
-27.6146256927316
 30
0.0
  0
VERTEX
  5
17C6
330
17B0
100
AcDbEntity
  8
LW 3850-01-01
100
AcDbVertex
100
AcDb2dVertex
 10
-40.00002622603187
 20
-27.61318564451382
 30
0.0
  0
VERTEX
  5
17C7
330
17B0
100
AcDbEntity
  8
LW 3850-01-01
100
AcDbVertex
100
AcDb2dVertex
 10
-40.00001192091713
 20
-27.61175036466763
 30
0.0
  0
VERTEX
  5
17C8
330
17B0
100
AcDbEntity
  8
LW 3850-01-01
100
AcDbVertex
100
AcDb2dVertex
 10
-40.00000238417396
 20
-27.61031031644986
 30
0.0
  0
VERTEX
  5
17C9
330
17B0
100
AcDbEntity
  8
LW 3850-01-01
100
AcDbVertex
100
AcDb2dVertex
 10
-39.99999999998818
 20
-27.60887503660367
 30
0.0
  0
SEQEND
  5
17CA
330
17B0
100
AcDbEntity
  8
LW 3850-01-01
  0
POLYLINE
  5
17CB
330
16E9
100
AcDbEntity
  8
LW 3850-01-01
100
AcDb2dPolyline
 66
     1
 10
0.0
 20
0.0
 30
0.0
 70
   128
  0
VERTEX
  5
17CC
330
17CB
100
AcDbEntity
  8
LW 3850-01-01
100
AcDbVertex
100
AcDb2dVertex
 10
-40.00000000000454
 20
27.60887503587547
 30
0.0
  0
VERTEX
  5
17CD
330
17CB
100
AcDbEntity
  8
LW 3850-01-01
100
AcDbVertex
100
AcDb2dVertex
 10
-40.00000238419033
 20
27.61031031572166
 30
0.0
  0
VERTEX
  5
17CE
330
17CB
100
AcDbEntity
  8
LW 3850-01-01
100
AcDbVertex
100
AcDb2dVertex
 10
-40.0000119209335
 20
27.61174797975364
 30
0.0
  0
VERTEX
  5
17CF
330
17CB
100
AcDbEntity
  8
LW 3850-01-01
100
AcDbVertex
100
AcDb2dVertex
 10
-40.00002622604824
 20
27.61318564378563
 30
0.0
  0
VERTEX
  5
17D0
330
17CB
100
AcDbEntity
  8
LW 3850-01-01
100
AcDbVertex
100
AcDb2dVertex
 10
-40.00004529953457
 20
27.61462330781761
 30
0.0
  0
VERTEX
  5
17D1
330
17CB
100
AcDbEntity
  8
LW 3850-01-01
100
AcDbVertex
100
AcDb2dVertex
 10
-40.00007152557827
 20
27.61606335603538
 30
0.0
  0
VERTEX
  5
17D2
330
17CB
100
AcDbEntity
  8
LW 3850-01-01
100
AcDbVertex
100
AcDb2dVertex
 10
-40.00010371208645
 20
27.61750102006736
 30
0.0
  0
VERTEX
  5
17D3
330
17CB
100
AcDbEntity
  8
LW 3850-01-01
100
AcDbVertex
100
AcDb2dVertex
 10
-40.00014066696621
 20
27.61894106828514
 30
0.0
  0
VERTEX
  5
17D4
330
17CB
100
AcDbEntity
  8
LW 3850-01-01
100
AcDbVertex
100
AcDb2dVertex
 10
-40.00018358231045
 20
27.62038111650291
 30
0.0
  0
VERTEX
  5
17D5
330
17CB
100
AcDbEntity
  8
LW 3850-01-01
100
AcDbVertex
100
AcDb2dVertex
 10
-40.00023245811917
 20
27.62182116472069
 30
0.0
  0
VERTEX
  5
17D6
330
17CB
100
AcDbEntity
  8
LW 3850-01-01
100
AcDbVertex
100
AcDb2dVertex
 10
-40.00028729439236
 20
27.62326359712425
 30
0.0
  0
VERTEX
  5
17D7
330
17CB
100
AcDbEntity
  8
LW 3850-01-01
100
AcDbVertex
100
AcDb2dVertex
 10
-40.00034809113003
 20
27.62470364534202
 30
0.0
  0
VERTEX
  5
17D8
330
17CB
100
AcDbEntity
  8
LW 3850-01-01
100
AcDbVertex
100
AcDb2dVertex
 10
-40.00041484833218
 20
27.62614607774559
 30
0.0
  0
VERTEX
  5
17D9
330
17CB
100
AcDbEntity
  8
LW 3850-01-01
100
AcDbVertex
100
AcDb2dVertex
 10
-40.00048637390591
 20
27.62758851014915
 30
0.0
  0
VERTEX
  5
17DA
330
17CB
100
AcDbEntity
  8
LW 3850-01-01
100
AcDbVertex
100
AcDb2dVertex
 10
-40.00056505203701
 20
27.62903094255272
 30
0.0
  0
VERTEX
  5
17DB
330
17CB
100
AcDbEntity
  8
LW 3850-01-01
100
AcDbVertex
100
AcDb2dVertex
 10
-40.0006484985397
 20
27.63047575914207
 30
0.0
  0
VERTEX
  5
17DC
330
17CB
100
AcDbEntity
  8
LW 3850-01-01
100
AcDbVertex
100
AcDb2dVertex
 10
-40.00073909759976
 20
27.63191819154564
 30
0.0
  0
VERTEX
  5
17DD
330
17CB
100
AcDbEntity
  8
LW 3850-01-01
100
AcDbVertex
100
AcDb2dVertex
 10
-40.0008344650314
 20
27.63336300813499
 30
0.0
  0
VERTEX
  5
17DE
330
17CB
100
AcDbEntity
  8
LW 3850-01-01
100
AcDbVertex
100
AcDb2dVertex
 10
-40.00093579292752
 20
27.63480544053856
 30
0.0
  0
VERTEX
  5
17DF
330
17CB
100
AcDbEntity
  8
LW 3850-01-01
100
AcDbVertex
100
AcDb2dVertex
 10
-40.00104427338101
 20
27.63625025712791
 30
0.0
  0
VERTEX
  5
17E0
330
17CB
100
AcDbEntity
  8
LW 3850-01-01
100
AcDbVertex
100
AcDb2dVertex
 10
-40.00115752220608
 20
27.63769507371727
 30
0.0
  0
VERTEX
  5
17E1
330
17CB
100
AcDbEntity
  8
LW 3850-01-01
100
AcDbVertex
100
AcDb2dVertex
 10
-40.00127673149563
 20
27.63913989030662
 30
0.0
  0
VERTEX
  5
17E2
330
17CB
100
AcDbEntity
  8
LW 3850-01-01
100
AcDbVertex
100
AcDb2dVertex
 10
-40.00140190124972
 20
27.64058709108177
 30
0.0
  0
VERTEX
  5
17E3
330
17CB
100
AcDbEntity
  8
LW 3850-01-01
100
AcDbVertex
100
AcDb2dVertex
 10
-40.00153303146823
 20
27.64203190767112
 30
0.0
  0
VERTEX
  5
17E4
330
17CB
100
AcDbEntity
  8
LW 3850-01-01
100
AcDbVertex
100
AcDb2dVertex
 10
-40.00167131424411
 20
27.64347910844627
 30
0.0
  0
SEQEND
  5
17E5
330
17CB
100
AcDbEntity
  8
LW 3850-01-01
  0
LINE
  5
17E6
330
16E9
100
AcDbEntity
  8
LW 3850-01-01
100
AcDbLine
 10
-59.00000000000892
 20
29.99999999999953
 30
0.0
 11
-50.70000000000892
 21
30.00000000000203
 31
0.0
  0
LINE
  5
17E7
330
16E9
100
AcDbEntity
  8
LW 3850-01-01
100
AcDbLine
 10
-58.99999999999113
 20
-30.00000000000047
 30
0.0
 11
-50.69999999999112
 21
-29.99999999999797
 31
0.0
  0
POLYLINE
  5
17E8
330
16E9
100
AcDbEntity
  8
LW 3850-01-01
100
AcDb2dPolyline
 66
     1
 10
0.0
 20
0.0
 30
0.0
 70
   128
  0
VERTEX
  5
17E9
330
17E8
100
AcDbEntity
  8
LW 3850-01-01
100
AcDbVertex
100
AcDb2dVertex
 10
-40.07799744604847
 20
-27.73959994352516
 30
0.0
  0
VERTEX
  5
17EA
330
17E8
100
AcDbEntity
  8
LW 3850-01-01
100
AcDbVertex
100
AcDb2dVertex
 10
-40.07241249083302
 20
-27.73931384123024
 30
0.0
  0
VERTEX
  5
17EB
330
17E8
100
AcDbEntity
  8
LW 3850-01-01
100
AcDbVertex
100
AcDb2dVertex
 10
-40.06702780722401
 20
-27.73871302641091
 30
0.0
  0
VERTEX
  5
17EC
330
17E8
100
AcDbEntity
  8
LW 3850-01-01
100
AcDbVertex
100
AcDb2dVertex
 10
-40.06184339522144
 20
-27.73779749906716
 30
0.0
  0
VERTEX
  5
17ED
330
17E8
100
AcDbEntity
  8
LW 3850-01-01
100
AcDbVertex
100
AcDb2dVertex
 10
-40.0568664073827
 20
-27.73656249082741
 30
0.0
  0
VERTEX
  5
17EE
330
17E8
100
AcDbEntity
  8
LW 3850-01-01
100
AcDbVertex
100
AcDb2dVertex
 10
-40.05211114882252
 20
-27.73501277006325
 30
0.0
  0
VERTEX
  5
17EF
330
17E8
100
AcDbEntity
  8
LW 3850-01-01
100
AcDbVertex
100
AcDb2dVertex
 10
-40.04757642744801
 20
-27.7331388000314
 30
0.0
  0
VERTEX
  5
17F0
330
17E8
100
AcDbEntity
  8
LW 3850-01-01
100
AcDbVertex
100
AcDb2dVertex
 10
-40.04326224325916
 20
-27.73095011747525
 30
0.0
  0
VERTEX
  5
17F1
330
17E8
100
AcDbEntity
  8
LW 3850-01-01
100
AcDbVertex
100
AcDb2dVertex
 10
-40.03916382788441
 20
-27.72843718565152
 30
0.0
  0
VERTEX
  5
17F2
330
17E8
100
AcDbEntity
  8
LW 3850-01-01
100
AcDbVertex
100
AcDb2dVertex
 10
-40.03528237341663
 20
-27.72560000456021
 30
0.0
  0
VERTEX
  5
17F3
330
17E8
100
AcDbEntity
  8
LW 3850-01-01
100
AcDbVertex
100
AcDb2dVertex
 10
-40.03161430357716
 20
-27.7224433425729
 30
0.0
  0
VERTEX
  5
17F4
330
17E8
100
AcDbEntity
  8
LW 3850-01-01
100
AcDbVertex
100
AcDb2dVertex
 10
-40.02815842627302
 20
-27.71895766294644
 30
0.0
  0
VERTEX
  5
17F5
330
17E8
100
AcDbEntity
  8
LW 3850-01-01
100
AcDbVertex
100
AcDb2dVertex
 10
-40.02491235731855
 20
-27.71514296568081
 30
0.0
  0
VERTEX
  5
17F6
330
17E8
100
AcDbEntity
  8
LW 3850-01-01
100
AcDbVertex
100
AcDb2dVertex
 10
-40.0218737125279
 20
-27.71100401914761
 30
0.0
  0
VERTEX
  5
17F7
330
17E8
100
AcDbEntity
  8
LW 3850-01-01
100
AcDbVertex
100
AcDb2dVertex
 10
-40.01904249190107
 20
-27.70653605497525
 30
0.0
  0
VERTEX
  5
17F8
330
17E8
100
AcDbEntity
  8
LW 3850-01-01
100
AcDbVertex
100
AcDb2dVertex
 10
-40.01641511915937
 20
-27.70173430479214
 30
0.0
  0
VERTEX
  5
17F9
330
17E8
100
AcDbEntity
  8
LW 3850-01-01
100
AcDbVertex
100
AcDb2dVertex
 10
-40.01399040220991
 20
-27.69660830534146
 30
0.0
  0
VERTEX
  5
17FA
330
17E8
100
AcDbEntity
  8
LW 3850-01-01
100
AcDbVertex
100
AcDb2dVertex
 10
-40.01176714895978
 20
-27.69114375150845
 30
0.0
  0
VERTEX
  5
17FB
330
17E8
100
AcDbEntity
  8
LW 3850-01-01
100
AcDbVertex
100
AcDb2dVertex
 10
-40.00974297522321
 20
-27.6853454116647
 30
0.0
  0
VERTEX
  5
17FC
330
17E8
100
AcDbEntity
  8
LW 3850-01-01
100
AcDbVertex
100
AcDb2dVertex
 10
-40.00791549681435
 20
-27.67921328581021
 30
0.0
  0
VERTEX
  5
17FD
330
17E8
100
AcDbEntity
  8
LW 3850-01-01
100
AcDbVertex
100
AcDb2dVertex
 10
-40.0062835216404
 20
-27.67274260557339
 30
0.0
  0
VERTEX
  5
17FE
330
17E8
100
AcDbEntity
  8
LW 3850-01-01
100
AcDbVertex
100
AcDb2dVertex
 10
-40.00484466551552
 20
-27.66593813932583
 30
0.0
  0
VERTEX
  5
17FF
330
17E8
100
AcDbEntity
  8
LW 3850-01-01
100
AcDbVertex
100
AcDb2dVertex
 10
-40.00359773634682
 20
-27.65879035032437
 30
0.0
  0
VERTEX
  5
1800
330
17E8
100
AcDbEntity
  8
LW 3850-01-01
100
AcDbVertex
100
AcDb2dVertex
 10
-40.0025403499485
 20
-27.65130877531216
 30
0.0
  0
VERTEX
  5
1801
330
17E8
100
AcDbEntity
  8
LW 3850-01-01
100
AcDbVertex
100
AcDb2dVertex
 10
-40.00167131422768
 20
-27.64347910917447
 30
0.0
  0
SEQEND
  5
1802
330
17E8
100
AcDbEntity
  8
LW 3850-01-01
  0
POLYLINE
  5
1803
330
16E9
100
AcDbEntity
  8
LW 3850-01-01
100
AcDb2dPolyline
 66
     1
 10
0.0
 20
0.0
 30
0.0
 70
   128
  0
VERTEX
  5
1804
330
1803
100
AcDbEntity
  8
LW 3850-01-01
100
AcDbVertex
100
AcDb2dVertex
 10
-40.00167131424411
 20
27.64347910844627
 30
0.0
  0
VERTEX
  5
1805
330
1803
100
AcDbEntity
  8
LW 3850-01-01
100
AcDbVertex
100
AcDb2dVertex
 10
-40.00254034996493
 20
27.65130639039818
 30
0.0
  0
VERTEX
  5
1806
330
1803
100
AcDbEntity
  8
LW 3850-01-01
100
AcDbVertex
100
AcDb2dVertex
 10
-40.00359773636325
 20
27.65879034959617
 30
0.0
  0
VERTEX
  5
1807
330
1803
100
AcDbEntity
  8
LW 3850-01-01
100
AcDbVertex
100
AcDb2dVertex
 10
-40.00484466553195
 20
27.66593575441185
 30
0.0
  0
VERTEX
  5
1808
330
1803
100
AcDbEntity
  8
LW 3850-01-01
100
AcDbVertex
100
AcDb2dVertex
 10
-40.00628352165683
 20
27.6727426048452
 30
0.0
  0
VERTEX
  5
1809
330
1803
100
AcDbEntity
  8
LW 3850-01-01
100
AcDbVertex
100
AcDb2dVertex
 10
-40.00791549683083
 20
27.67921090089622
 30
0.0
  0
VERTEX
  5
180A
330
1803
100
AcDbEntity
  8
LW 3850-01-01
100
AcDbVertex
100
AcDb2dVertex
 10
-40.00974297523964
 20
27.68534541093651
 30
0.0
  0
VERTEX
  5
180B
330
1803
100
AcDbEntity
  8
LW 3850-01-01
100
AcDbVertex
100
AcDb2dVertex
 10
-40.01176714897622
 20
27.69114136659446
 30
0.0
  0
VERTEX
  5
180C
330
1803
100
AcDbEntity
  8
LW 3850-01-01
100
AcDbVertex
100
AcDb2dVertex
 10
-40.01399040222634
 20
27.69660592042747
 30
0.0
  0
VERTEX
  5
180D
330
1803
100
AcDbEntity
  8
LW 3850-01-01
100
AcDbVertex
100
AcDb2dVertex
 10
-40.0164151191758
 20
27.70173430406395
 30
0.0
  0
VERTEX
  5
180E
330
1803
100
AcDbEntity
  8
LW 3850-01-01
100
AcDbVertex
100
AcDb2dVertex
 10
-40.0190424919175
 20
27.70653367006126
 30
0.0
  0
VERTEX
  5
180F
330
1803
100
AcDbEntity
  8
LW 3850-01-01
100
AcDbVertex
100
AcDb2dVertex
 10
-40.02187371254433
 20
27.71100401841942
 30
0.0
  0
VERTEX
  5
1810
330
1803
100
AcDbEntity
  8
LW 3850-01-01
100
AcDbVertex
100
AcDb2dVertex
 10
-40.02491235733498
 20
27.71514296495262
 30
0.0
  0
VERTEX
  5
1811
330
1803
100
AcDbEntity
  8
LW 3850-01-01
100
AcDbVertex
100
AcDb2dVertex
 10
-40.02815842628945
 20
27.71895527803245
 30
0.0
  0
VERTEX
  5
1812
330
1803
100
AcDbEntity
  8
LW 3850-01-01
100
AcDbVertex
100
AcDb2dVertex
 10
-40.03161430359353
 20
27.72244095765892
 30
0.0
  0
VERTEX
  5
1813
330
1803
100
AcDbEntity
  8
LW 3850-01-01
100
AcDbVertex
100
AcDb2dVertex
 10
-40.03528237343306
 20
27.72560000383201
 30
0.0
  0
VERTEX
  5
1814
330
1803
100
AcDbEntity
  8
LW 3850-01-01
100
AcDbVertex
100
AcDb2dVertex
 10
-40.03916382790083
 20
27.72843480073753
 30
0.0
  0
VERTEX
  5
1815
330
1803
100
AcDbEntity
  8
LW 3850-01-01
100
AcDbVertex
100
AcDb2dVertex
 10
-40.04326224327559
 20
27.73094773256126
 30
0.0
  0
VERTEX
  5
1816
330
1803
100
AcDbEntity
  8
LW 3850-01-01
100
AcDbVertex
100
AcDb2dVertex
 10
-40.04757642746443
 20
27.7331387993032
 30
0.0
  0
VERTEX
  5
1817
330
1803
100
AcDbEntity
  8
LW 3850-01-01
100
AcDbVertex
100
AcDb2dVertex
 10
-40.05211114883894
 20
27.73501038514915
 30
0.0
  0
VERTEX
  5
1818
330
1803
100
AcDbEntity
  8
LW 3850-01-01
100
AcDbVertex
100
AcDb2dVertex
 10
-40.05686640739918
 20
27.7365624900991
 30
0.0
  0
VERTEX
  5
1819
330
1803
100
AcDbEntity
  8
LW 3850-01-01
100
AcDbVertex
100
AcDb2dVertex
 10
-40.06184339523793
 20
27.73779511415306
 30
0.0
  0
VERTEX
  5
181A
330
1803
100
AcDbEntity
  8
LW 3850-01-01
100
AcDbVertex
100
AcDb2dVertex
 10
-40.06702780724049
 20
27.73871064149681
 30
0.0
  0
VERTEX
  5
181B
330
1803
100
AcDbEntity
  8
LW 3850-01-01
100
AcDbVertex
100
AcDb2dVertex
 10
-40.0724124908495
 20
27.73931145631614
 30
0.0
  0
VERTEX
  5
181C
330
1803
100
AcDbEntity
  8
LW 3850-01-01
100
AcDbVertex
100
AcDb2dVertex
 10
-40.07799744606495
 20
27.73959755861107
 30
0.0
  0
SEQEND
  5
181D
330
1803
100
AcDbEntity
  8
LW 3850-01-01
  0
POLYLINE
  5
181E
330
16E9
100
AcDbEntity
  8
LW 3850-01-01
100
AcDb2dPolyline
 66
     1
 10
0.0
 20
0.0
 30
0.0
 70
   128
  0
VERTEX
  5
181F
330
181E
100
AcDbEntity
  8
LW 3850-01-01
100
AcDbVertex
100
AcDb2dVertex
 10
-50.26506423949292
 20
-29.91840720213408
 30
0.0
  0
VERTEX
  5
1820
330
181E
100
AcDbEntity
  8
LW 3850-01-01
100
AcDbVertex
100
AcDb2dVertex
 10
-50.47875404357006
 20
-29.97942805326945
 30
0.0
  0
VERTEX
  5
1821
330
181E
100
AcDbEntity
  8
LW 3850-01-01
100
AcDbVertex
100
AcDb2dVertex
 10
-50.69999992846539
 20
-29.99999880827438
 30
0.0
  0
SEQEND
  5
1822
330
181E
100
AcDbEntity
  8
LW 3850-01-01
  0
POLYLINE
  5
1823
330
16E9
100
AcDbEntity
  8
LW 3850-01-01
100
AcDb2dPolyline
 66
     1
 10
0.0
 20
0.0
 30
0.0
 70
   128
  0
VERTEX
  5
1824
330
1823
100
AcDbEntity
  8
LW 3850-01-01
100
AcDbVertex
100
AcDb2dVertex
 10
-40.07799148558399
 20
-27.739590406782
 30
0.0
  0
VERTEX
  5
1825
330
1823
100
AcDbEntity
  8
LW 3850-01-01
100
AcDbVertex
100
AcDb2dVertex
 10
-40.60101628302357
 20
-27.75709033048817
 30
0.0
  0
VERTEX
  5
1826
330
1823
100
AcDbEntity
  8
LW 3850-01-01
100
AcDbVertex
100
AcDb2dVertex
 10
-41.12207770346424
 20
-27.78531432188238
 30
0.0
  0
VERTEX
  5
1827
330
1823
100
AcDbEntity
  8
LW 3850-01-01
100
AcDbVertex
100
AcDb2dVertex
 10
-41.63902759550836
 20
-27.82367110288836
 30
0.0
  0
VERTEX
  5
1828
330
1823
100
AcDbEntity
  8
LW 3850-01-01
100
AcDbVertex
100
AcDb2dVertex
 10
-42.1497225761297
 20
-27.87156462705845
 30
0.0
  0
VERTEX
  5
1829
330
1823
100
AcDbEntity
  8
LW 3850-01-01
100
AcDbVertex
100
AcDb2dVertex
 10
-42.65201568602356
 20
-27.92840361631637
 30
0.0
  0
VERTEX
  5
182A
330
1823
100
AcDbEntity
  8
LW 3850-01-01
100
AcDbVertex
100
AcDb2dVertex
 10
-43.14379572867188
 20
-27.99359202421449
 30
0.0
  0
VERTEX
  5
182B
330
1823
100
AcDbEntity
  8
LW 3850-01-01
100
AcDbVertex
100
AcDb2dVertex
 10
-43.6254501342658
 20
-28.06660056150709
 30
0.0
  0
VERTEX
  5
182C
330
1823
100
AcDbEntity
  8
LW 3850-01-01
100
AcDbVertex
100
AcDb2dVertex
 10
-44.09694552420421
 20
-28.14658999479583
 30
0.0
  0
VERTEX
  5
182D
330
1823
100
AcDbEntity
  8
LW 3850-01-01
100
AcDbVertex
100
AcDb2dVertex
 10
-44.55688238142772
 20
-28.23256373441997
 30
0.0
  0
VERTEX
  5
182E
330
1823
100
AcDbEntity
  8
LW 3850-01-01
100
AcDbVertex
100
AcDb2dVertex
 10
-45.0038683414345
 20
-28.32353472746213
 30
0.0
  0
VERTEX
  5
182F
330
1823
100
AcDbEntity
  8
LW 3850-01-01
100
AcDbVertex
100
AcDb2dVertex
 10
-45.43650627135093
 20
-28.41851592100473
 30
0.0
  0
VERTEX
  5
1830
330
1823
100
AcDbEntity
  8
LW 3850-01-01
100
AcDbVertex
100
AcDb2dVertex
 10
-45.85346579550571
 20
-28.51652026213038
 30
0.0
  0
VERTEX
  5
1831
330
1823
100
AcDbEntity
  8
LW 3850-01-01
100
AcDbVertex
100
AcDb2dVertex
 10
-46.25544548033547
 20
-28.6169469360196
 30
0.0
  0
VERTEX
  5
1832
330
1823
100
AcDbEntity
  8
LW 3850-01-01
100
AcDbVertex
100
AcDb2dVertex
 10
-46.64238095282394
 20
-28.71900916136157
 30
0.0
  0
VERTEX
  5
1833
330
1823
100
AcDbEntity
  8
LW 3850-01-01
100
AcDbVertex
100
AcDb2dVertex
 10
-47.01331138609731
 20
-28.82174372709655
 30
0.0
  0
VERTEX
  5
1834
330
1823
100
AcDbEntity
  8
LW 3850-01-01
100
AcDbVertex
100
AcDb2dVertex
 10
-47.36727476118892
 20
-28.92419219053655
 30
0.0
  0
VERTEX
  5
1835
330
1823
100
AcDbEntity
  8
LW 3850-01-01
100
AcDbVertex
100
AcDb2dVertex
 10
-47.70331263541083
 20
-29.02540087736522
 30
0.0
  0
VERTEX
  5
1836
330
1823
100
AcDbEntity
  8
LW 3850-01-01
100
AcDbVertex
100
AcDb2dVertex
 10
-48.02046298979632
 20
-29.12441611326626
 30
0.0
  0
VERTEX
  5
1837
330
1823
100
AcDbEntity
  8
LW 3850-01-01
100
AcDbVertex
100
AcDb2dVertex
 10
-48.31826925276641
 20
-29.22041296995578
 30
0.0
  0
VERTEX
  5
1838
330
1823
100
AcDbEntity
  8
LW 3850-01-01
100
AcDbVertex
100
AcDb2dVertex
 10
-48.59737992285625
 20
-29.31298613584944
 30
0.0
  0
VERTEX
  5
1839
330
1823
100
AcDbEntity
  8
LW 3850-01-01
100
AcDbVertex
100
AcDb2dVertex
 10
-48.85713100432298
 20
-29.40141558683827
 30
0.0
  0
VERTEX
  5
183A
330
1823
100
AcDbEntity
  8
LW 3850-01-01
100
AcDbVertex
100
AcDb2dVertex
 10
-49.09676432608518
 20
-29.48495745695551
 30
0.0
  0
VERTEX
  5
183B
330
1823
100
AcDbEntity
  8
LW 3850-01-01
100
AcDbVertex
100
AcDb2dVertex
 10
-49.31552171706124
 20
-29.56287264860596
 30
0.0
  0
VERTEX
  5
183C
330
1823
100
AcDbEntity
  8
LW 3850-01-01
100
AcDbVertex
100
AcDb2dVertex
 10
-49.51264142989095
 20
-29.63441252745123
 30
0.0
  0
VERTEX
  5
183D
330
1823
100
AcDbEntity
  8
LW 3850-01-01
100
AcDbVertex
100
AcDb2dVertex
 10
-49.6873664855857
 20
-29.69884753263933
 30
0.0
  0
VERTEX
  5
183E
330
1823
100
AcDbEntity
  8
LW 3850-01-01
100
AcDbVertex
100
AcDb2dVertex
 10
-49.83926415442431
 20
-29.75557684935076
 30
0.0
  0
VERTEX
  5
183F
330
1823
100
AcDbEntity
  8
LW 3850-01-01
100
AcDbVertex
100
AcDb2dVertex
 10
-49.96861577033019
 20
-29.80444312132347
 30
0.0
  0
VERTEX
  5
1840
330
1823
100
AcDbEntity
  8
LW 3850-01-01
100
AcDbVertex
100
AcDb2dVertex
 10
-50.07500112055765
 20
-29.84503626860131
 30
0.0
  0
VERTEX
  5
1841
330
1823
100
AcDbEntity
  8
LW 3850-01-01
100
AcDbVertex
100
AcDb2dVertex
 10
-50.15797555445676
 20
-29.87693190611357
 30
0.0
  0
VERTEX
  5
1842
330
1823
100
AcDbEntity
  8
LW 3850-01-01
100
AcDbVertex
100
AcDb2dVertex
 10
-50.21741211413405
 20
-29.8999059203958
 30
0.0
  0
VERTEX
  5
1843
330
1823
100
AcDbEntity
  8
LW 3850-01-01
100
AcDbVertex
100
AcDb2dVertex
 10
-50.26506423949292
 20
-29.91840720213408
 30
0.0
  0
SEQEND
  5
1844
330
1823
100
AcDbEntity
  8
LW 3850-01-01
  0
POLYLINE
  5
1845
330
16E9
100
AcDbEntity
  8
LW 3850-01-01
100
AcDb2dPolyline
 66
     1
 10
0.0
 20
0.0
 30
0.0
 70
   128
  0
VERTEX
  5
1846
330
1845
100
AcDbEntity
  8
LW 3850-01-01
100
AcDbVertex
100
AcDb2dVertex
 10
-50.26500284672659
 20
29.91838097535604
 30
0.0
  0
VERTEX
  5
1847
330
1845
100
AcDbEntity
  8
LW 3850-01-01
100
AcDbVertex
100
AcDb2dVertex
 10
-50.21741032601244
 20
29.89990591966158
 30
0.0
  0
VERTEX
  5
1848
330
1845
100
AcDbEntity
  8
LW 3850-01-01
100
AcDbVertex
100
AcDb2dVertex
 10
-50.15797317028869
 20
29.87693190537935
 30
0.0
  0
VERTEX
  5
1849
330
1845
100
AcDbEntity
  8
LW 3850-01-01
100
AcDbVertex
100
AcDb2dVertex
 10
-50.07499814034315
 20
29.84503388368136
 30
0.0
  0
VERTEX
  5
184A
330
1845
100
AcDbEntity
  8
LW 3850-01-01
100
AcDbVertex
100
AcDb2dVertex
 10
-49.96861219406918
 20
29.80444312058937
 30
0.0
  0
VERTEX
  5
184B
330
1845
100
AcDbEntity
  8
LW 3850-01-01
100
AcDbVertex
100
AcDb2dVertex
 10
-49.83925938607035
 20
29.75557446443092
 30
0.0
  0
VERTEX
  5
184C
330
1845
100
AcDbEntity
  8
LW 3850-01-01
100
AcDbVertex
100
AcDb2dVertex
 10
-49.68736171723174
 20
29.69884276353376
 30
0.0
  0
VERTEX
  5
184D
330
1845
100
AcDbEntity
  8
LW 3850-01-01
100
AcDbVertex
100
AcDb2dVertex
 10
-49.51263666153693
 20
29.63441252671747
 30
0.0
  0
VERTEX
  5
184E
330
1845
100
AcDbEntity
  8
LW 3850-01-01
100
AcDbVertex
100
AcDb2dVertex
 10
-49.31551694870723
 20
29.56286787950067
 30
0.0
  0
VERTEX
  5
184F
330
1845
100
AcDbEntity
  8
LW 3850-01-01
100
AcDbVertex
100
AcDb2dVertex
 10
-49.0967595577311
 20
29.48495268785034
 30
0.0
  0
VERTEX
  5
1850
330
1845
100
AcDbEntity
  8
LW 3850-01-01
100
AcDbVertex
100
AcDb2dVertex
 10
-48.85712504387595
 20
29.40141081773321
 30
0.0
  0
VERTEX
  5
1851
330
1845
100
AcDbEntity
  8
LW 3850-01-01
100
AcDbVertex
100
AcDb2dVertex
 10
-48.59737277031621
 20
29.31298136674449
 30
0.0
  0
VERTEX
  5
1852
330
1845
100
AcDbEntity
  8
LW 3850-01-01
100
AcDbVertex
100
AcDb2dVertex
 10
-48.31826210022632
 20
29.2204105850369
 30
0.0
  0
VERTEX
  5
1853
330
1845
100
AcDbEntity
  8
LW 3850-01-01
100
AcDbVertex
100
AcDb2dVertex
 10
-48.02045583725623
 20
29.12441134416172
 30
0.0
  0
VERTEX
  5
1854
330
1845
100
AcDbEntity
  8
LW 3850-01-01
100
AcDbVertex
100
AcDb2dVertex
 10
-47.70330548287069
 20
29.02540087663247
 30
0.0
  0
VERTEX
  5
1855
330
1845
100
AcDbEntity
  8
LW 3850-01-01
100
AcDbVertex
100
AcDb2dVertex
 10
-47.36726880074161
 20
28.92418980561824
 30
0.0
  0
VERTEX
  5
1856
330
1845
100
AcDbEntity
  8
LW 3850-01-01
100
AcDbVertex
100
AcDb2dVertex
 10
-47.01330423355705
 20
28.82173895799257
 30
0.0
  0
VERTEX
  5
1857
330
1845
100
AcDbEntity
  8
LW 3850-01-01
100
AcDbVertex
100
AcDb2dVertex
 10
-46.64237380028362
 20
28.71900439225782
 30
0.0
  0
VERTEX
  5
1858
330
1845
100
AcDbEntity
  8
LW 3850-01-01
100
AcDbVertex
100
AcDb2dVertex
 10
-46.25543832779505
 20
28.61694455110193
 30
0.0
  0
VERTEX
  5
1859
330
1845
100
AcDbEntity
  8
LW 3850-01-01
100
AcDbVertex
100
AcDb2dVertex
 10
-45.85345745087233
 20
28.51651787721288
 30
0.0
  0
VERTEX
  5
185A
330
1845
100
AcDbEntity
  8
LW 3850-01-01
100
AcDbVertex
100
AcDb2dVertex
 10
-45.43650031090334
 20
28.41851115190177
 30
0.0
  0
VERTEX
  5
185B
330
1845
100
AcDbEntity
  8
LW 3850-01-01
100
AcDbVertex
100
AcDb2dVertex
 10
-45.00386238098684
 20
28.32353234254514
 30
0.0
  0
VERTEX
  5
185C
330
1845
100
AcDbEntity
  8
LW 3850-01-01
100
AcDbVertex
100
AcDb2dVertex
 10
-44.55687761307291
 20
28.23256134950326
 30
0.0
  0
VERTEX
  5
185D
330
1845
100
AcDbEntity
  8
LW 3850-01-01
100
AcDbVertex
100
AcDb2dVertex
 10
-44.09693956375645
 20
28.14658760987941
 30
0.0
  0
VERTEX
  5
185E
330
1845
100
AcDbEntity
  8
LW 3850-01-01
100
AcDbVertex
100
AcDb2dVertex
 10
-43.62544536591087
 20
28.066598176591
 30
0.0
  0
VERTEX
  5
185F
330
1845
100
AcDbEntity
  8
LW 3850-01-01
100
AcDbVertex
100
AcDb2dVertex
 10
-43.14378976822399
 20
27.99358725511285
 30
0.0
  0
VERTEX
  5
1860
330
1845
100
AcDbEntity
  8
LW 3850-01-01
100
AcDbVertex
100
AcDb2dVertex
 10
-42.65201091766852
 20
27.9284012314008
 30
0.0
  0
VERTEX
  5
1861
330
1845
100
AcDbEntity
  8
LW 3850-01-01
100
AcDbVertex
100
AcDb2dVertex
 10
-42.14971899986756
 20
27.87156224214316
 30
0.0
  0
VERTEX
  5
1862
330
1845
100
AcDbEntity
  8
LW 3850-01-01
100
AcDbVertex
100
AcDb2dVertex
 10
-41.63902640343195
 20
27.82366871797341
 30
0.0
  0
VERTEX
  5
1863
330
1845
100
AcDbEntity
  8
LW 3850-01-01
100
AcDbVertex
100
AcDb2dVertex
 10
-41.12207651138783
 20
27.78531193696772
 30
0.0
  0
VERTEX
  5
1864
330
1845
100
AcDbEntity
  8
LW 3850-01-01
100
AcDbVertex
100
AcDb2dVertex
 10
-40.60101628304005
 20
27.75708794557385
 30
0.0
  0
VERTEX
  5
1865
330
1845
100
AcDbEntity
  8
LW 3850-01-01
100
AcDbVertex
100
AcDb2dVertex
 10
-40.07799148560048
 20
27.73959040605369
 30
0.0
  0
SEQEND
  5
1866
330
1845
100
AcDbEntity
  8
LW 3850-01-01
  0
ARC
  5
1867
330
16E9
100
AcDbEntity
  8
LW 3850-01-01
100
AcDbCircle
 10
-50.70000000000852
 20
28.8000000000021
 30
0.0
 40
1.199999999999859
100
AcDbArc
 50
68.7463494903526
 51
90.00000000001953
  0
LINE
  5
1868
330
16E9
100
AcDbEntity
  8
LW 3850-01-01
  6
VERDECKT
 62
     6
100
AcDbLine
 10
24.00000000000381
 20
-2.946410161489623
 30
0.0
 11
24.00000000000307
 21
-10.39999999997583
 31
0.0
  0
LINE
  5
1869
330
16E9
100
AcDbEntity
  8
LW 3850-01-01
  6
VERDECKT
 62
     6
100
AcDbLine
 10
23.99999999999687
 20
10.40000000002418
 30
0.0
 11
24.00000000000205
 21
2.923176805307363
 31
0.0
  0
ARC
  5
186A
330
16E9
100
AcDbEntity
  8
LW 3850-01-01
  6
VERDECKT
 62
     6
100
AcDbCircle
 10
22.39999999999691
 20
10.40000000002367
 30
0.0
 40
1.6
100
AcDbArc
 50
0.0
 51
90.00000000001628
  0
ARC
  5
186B
330
16E9
100
AcDbEntity
  8
LW 3850-01-01
  6
VERDECKT
 62
     6
100
AcDbCircle
 10
22.40000000000305
 20
-10.39999999997634
 30
0.0
 40
1.6
100
AcDbArc
 50
270.0000000000163
 51
0.0
  0
LINE
  5
186C
330
16E9
100
AcDbEntity
  8
LW 3850-01-01
  6
VERDECKT
 62
     6
100
AcDbLine
 10
8.00000000000432
 20
-2.999999999980573
 30
0.0
 11
8.000000000003524
 21
-11.99999999998063
 31
0.0
  0
LINE
  5
186D
330
16E9
100
AcDbEntity
  8
LW 3850-01-01
  6
VERDECKT
 62
     6
100
AcDbLine
 10
7.999999999996418
 20
12.00000000001942
 30
0.0
 11
8.000000000002501
 21
2.976344071322827
 31
0.0
  0
LINE
  5
186E
330
16E9
100
AcDbEntity
  8
LW 3850-01-01
  6
VERDECKT
 62
     6
100
AcDbLine
 10
8.00000000000233
 20
-7.99999999998063
 30
0.0
 11
0.0000000000023874
 21
-7.999999999982961
 31
0.0
  0
LINE
  5
186F
330
16E9
100
AcDbEntity
  8
LW 3850-01-01
  6
VERDECKT
 62
     6
100
AcDbLine
 10
7.999999999997612
 20
8.000000000019369
 30
0.0
 11
-0.0000000000023874
 21
8.000000000017038
 31
0.0
  0
LINE
  5
1870
330
16E9
100
AcDbEntity
  8
LW 3850-01-01
  6
VERDECKT
 62
     6
100
AcDbLine
 10
22.4000000000035
 20
-11.99999999997636
 30
0.0
 11
8.000000000003524
 21
-11.99999999998063
 31
0.0
  0
LINE
  5
1871
330
16E9
100
AcDbEntity
  8
LW 3850-01-01
  6
VERDECKT
 62
     6
100
AcDbLine
 10
22.39999999999645
 20
12.00000000002369
 30
0.0
 11
7.999999999996418
 21
12.00000000001942
 31
0.0
  0
LINE
  5
1872
330
16E9
100
AcDbEntity
  8
LW 3850-01-01
  6
MITTE2
 62
     3
100
AcDbLine
 10
35.90849679105452
 20
0.0
 30
0.0
 11
-69.11693401122159
 21
0.0
 31
0.0
  0
INSERT
  5
1873
330
16E9
100
AcDbEntity
  8
LW 3850-01-01
100
AcDbBlockReference
 66
     1
  2
insertpoint-ECKELT
 10
0.0
 20
0.0
 30
0.0
  0
ATTRIB
  5
1874
330
1873
100
AcDbEntity
  8
insertpoint_ECKELT
100
AcDbText
 10
-6.93151432469303
 20
0.0
 30
0.0
 40
0.6
  1
LW 3850/01-01
 72
     2
 11
-1.199999999999988
 21
0.0
 31
0.0
100
AcDbAttribute
  2
LINKS
 70
     0
  0
ATTRIB
  5
1875
330
1873
100
AcDbEntity
  8
insertpoint_ECKELT
100
AcDbText
 10
1.199999999999988
 20
0.0
 30
0.0
 40
0.6
  1

100
AcDbAttribute
  2
RECHTS
 70
     0
  0
SEQEND
  5
1876
330
1873
100
AcDbEntity
  8
LW 3850-01-01
  0
ENDBLK
  5
16EB
330
16E9
100
AcDbEntity
  8
0
100
AcDbBlockEnd
  0
ENDSEC
  0
SECTION
  2
ENTITIES
  0
INSERT
  5
16A2
330
1F
100
AcDbEntity
  8
0
100
AcDbBlockReference
  2
LW 3850-01-01_a
 10
511.4962154913705
 20
120.2582061110572
 30
0.0
  0
INSERT
  5
16E6
330
1F
100
AcDbEntity
  8
0
100
AcDbBlockReference
  2
LW 3850-01-01_b
 10
511.496215491169
 20
5.965750148412496
 30
0.0
  0
INSERT
  5
1877
330
1F
100
AcDbEntity
  8
0
100
AcDbBlockReference
  2
LW 3850-01-01_c
 10
394.9184400859295
 20
120.2582061110572
 30
0.0
  0
VIEWPORT
  5
623
330
1B
100
AcDbEntity
 67
     1
  8
0
100
AcDbViewport
 10
144.2296600341797
 20
98.97533035278321
 30
0.0
 40
338.7692671638768
 41
211.6598603888209
 68
     1
 69
     1
 12
144.2296600341797
 22
98.97533035278321
 13
0.0
 23
0.0
 14
10.0
 24
10.0
 15
10.0
 25
10.0
 16
0.0
 26
0.0
 36
1.0
 17
0.0
 27
0.0
 37
0.0
 42
50.0
 43
0.0
 44
0.0
 45
211.6598603888209
 50
0.0
 51
0.0
 72
   100
 90
    32800
  1

281
     0
 71
     1
 74
     0
110
0.0
120
0.0
130
0.0
111
1.0
121
0.0
131
0.0
112
0.0
122
1.0
132
0.0
 79
     0
146
0.0
170
     0
  0
ENDSEC
  0
SECTION
  2
OBJECTS
  0
DICTIONARY
  5
C
330
0
100
AcDbDictionary
281
     1
  3
ACAD_COLOR
350
7C7
  3
ACAD_GROUP
350
D
  3
ACAD_LAYOUT
350
1A
  3
ACAD_MATERIAL
350
7C6
  3
ACAD_MLINESTYLE
350
17
  3
ACAD_PLOTSETTINGS
350
19
  3
ACAD_PLOTSTYLENAME
350
E
  3
ACAD_TABLESTYLE
350
83F
  3
AcDbVariableDictionary
350
615
  0
DICTIONARY
  5
843
330
2
100
AcDbDictionary
280
     1
281
     1
  3
ACAD_LAYERFILTERS
360
1299
  3
ACLYDICTIONARY
360
1298
  0
DICTIONARY
  5
526
330
1F
100
AcDbDictionary
280
     1
281
     1
  3
ACAD_LAYOUTSELFREF
360
7C1
  3
ACAD_SORTENTS
360
865
  0
DICTIONARY
  5
528
330
1B
100
AcDbDictionary
280
     1
281
     1
  3
ACAD_LAYOUTSELFREF
360
7C0
  0
DICTIONARY
  5
52A
330
23
100
AcDbDictionary
280
     1
281
     1
  3
ACAD_LAYOUTSELFREF
360
7C2
  0
DICTIONARY
  5
975
330
729
100
AcDbDictionary
280
     1
281
     1
  3
ACAD_SORTENTS
360
976
  0
DICTIONARY
  5
7C7
102
{ACAD_REACTORS
330
C
102
}
330
C
100
AcDbDictionary
281
     1
  0
DICTIONARY
  5
D
102
{ACAD_REACTORS
330
C
102
}
330
C
100
AcDbDictionary
281
     1
  0
DICTIONARY
  5
1A
102
{ACAD_REACTORS
330
C
102
}
330
C
100
AcDbDictionary
281
     1
  3
Layout1
350
1E
  3
Layout2
350
26
  3
Model
350
22
  0
DICTIONARY
  5
7C6
102
{ACAD_REACTORS
330
C
102
}
330
C
100
AcDbDictionary
281
     1
  0
DICTIONARY
  5
17
102
{ACAD_REACTORS
330
C
102
}
330
C
100
AcDbDictionary
281
     1
  3
Standard
350
18
  0
DICTIONARY
  5
19
102
{ACAD_REACTORS
330
C
102
}
330
C
100
AcDbDictionary
281
     1
  0
ACDBDICTIONARYWDFLT
  5
E
102
{ACAD_REACTORS
330
C
102
}
330
C
100
AcDbDictionary
281
     1
  3
Normal
350
F
100
AcDbDictionaryWithDefault
340
F
  0
DICTIONARY
  5
83F
102
{ACAD_REACTORS
330
C
102
}
330
C
100
AcDbDictionary
281
     1
  3
Standard
350
840
  0
DICTIONARY
  5
615
102
{ACAD_REACTORS
330
C
102
}
330
C
100
AcDbDictionary
281
     1
  3
CTABLESTYLE
350
852
  3
DIMASSOC
350
617
  3
HIDETEXT
350
616
  3
PROJECTNAME
350
83D
  0
DICTIONARY
  5
1299
102
{ACAD_REACTORS
330
843
102
}
330
843
100
AcDbDictionary
281
     1
  0
DICTIONARY
  5
1298
102
{ACAD_REACTORS
330
843
102
}
330
843
100
AcDbDictionary
281
     1
1001
ACAD
1000
<All
  0
XRECORD
  5
7C1
102
{ACAD_REACTORS
330
526
102
}
330
526
100
AcDbXrecord
280
     1
340
1F
  0
SORTENTSTABLE
  5
865
102
{ACAD_REACTORS
330
526
102
}
330
526
100
AcDbSortentsTable
330
1F
  0
XRECORD
  5
7C0
102
{ACAD_REACTORS
330
528
102
}
330
528
100
AcDbXrecord
280
     1
340
1B
  0
XRECORD
  5
7C2
102
{ACAD_REACTORS
330
52A
102
}
330
52A
100
AcDbXrecord
280
     1
340
23
  0
SORTENTSTABLE
  5
976
102
{ACAD_REACTORS
330
975
102
}
330
975
100
AcDbSortentsTable
330
729
  0
LAYOUT
  5
1E
102
{ACAD_REACTORS
330
1A
102
}
330
1A
100
AcDbPlotSettings
  1

  2
\\A-SERVER\HP LaserJet 5N - AWT
  4
A4
  6

 40
6.011333465576171
 41
4.233341693878173
 42
6.011322021484375
 43
4.23333740234375
 44
209.9733276367187
 45
296.9259948730469
 46
0.0
 47
0.0
 48
0.0
 49
0.0
140
0.0
141
0.0
142
1.0
143
1.0
 70
   688
 72
     1
 73
     1
 74
     5
  7

 75
    16
147
1.0
 76
     0
 77
     2
 78
   300
148
0.0
149
0.0
100
AcDbLayout
  1
Layout1
 70
     1
 71
     1
 10
-4.23333740234375
 20
-6.011333465576171
 11
292.6926574707031
 21
203.9619941711426
 12
0.0
 22
0.0
 32
0.0
 14
1.000000000000000E+20
 24
1.000000000000000E+20
 34
1.000000000000000E+20
 15
-1.000000000000000E+20
 25
-1.000000000000000E+20
 35
-1.000000000000000E+20
146
0.0
 13
0.0
 23
0.0
 33
0.0
 16
1.0
 26
0.0
 36
0.0
 17
0.0
 27
1.0
 37
0.0
 76
     0
330
1B
331
623
  0
LAYOUT
  5
26
102
{ACAD_REACTORS
330
1A
102
}
330
1A
100
AcDbPlotSettings
  1

  2

  4

  6

 40
0.0
 41
0.0
 42
0.0
 43
0.0
 44
0.0
 45
0.0
 46
0.0
 47
0.0
 48
0.0
 49
0.0
140
0.0
141
0.0
142
1.0
143
1.0
 70
   688
 72
     0
 73
     0
 74
     5
  7

 75
    16
147
1.0
 76
     0
 77
     2
 78
   300
148
0.0
149
0.0
100
AcDbLayout
  1
Layout2
 70
     1
 71
     2
 10
0.0
 20
0.0
 11
12.0
 21
9.0
 12
0.0
 22
0.0
 32
0.0
 14
0.0
 24
0.0
 34
0.0
 15
0.0
 25
0.0
 35
0.0
146
0.0
 13
0.0
 23
0.0
 33
0.0
 16
1.0
 26
0.0
 36
0.0
 17
0.0
 27
1.0
 37
0.0
 76
     0
330
23
  0
LAYOUT
  5
22
102
{ACAD_REACTORS
330
1A
102
}
330
1A
100
AcDbPlotSettings
  1

  2

  4

  6

 40
0.0
 41
0.0
 42
0.0
 43
0.0
 44
0.0
 45
0.0
 46
0.0
 47
0.0
 48
0.0
 49
0.0
140
0.0
141
0.0
142
1.0
143
1.0
 70
  1712
 72
     0
 73
     0
 74
     0
  7

 75
     0
147
1.0
 76
     0
 77
     2
 78
   300
148
0.0
149
0.0
100
AcDbLayout
  1
Model
 70
     1
 71
     0
 10
0.0
 20
0.0
 11
12.0
 21
9.0
 12
0.0
 22
0.0
 32
0.0
 14
0.0
 24
0.0
 34
0.0
 15
0.0
 25
0.0
 35
0.0
146
0.0
 13
0.0
 23
0.0
 33
0.0
 16
1.0
 26
0.0
 36
0.0
 17
0.0
 27
1.0
 37
0.0
 76
     0
330
1F
  0
MLINESTYLE
  5
18
102
{ACAD_REACTORS
330
17
102
}
330
17
100
AcDbMlineStyle
  2
STANDARD
 70
     0
  3

 62
   256
 51
90.0
 52
90.0
 71
     2
 49
0.5
 62
   256
  6
BYLAYER
 49
-0.5
 62
   256
  6
BYLAYER
  0
ACDBPLACEHOLDER
  5
F
102
{ACAD_REACTORS
330
E
102
}
330
E
  0
TABLESTYLE
  5
840
102
{ACAD_REACTORS
330
83F
102
}
330
83F
100
AcDbTableStyle
  3
Standard
 70
     0
 71
     0
 40
1.5
 41
1.5
280
     0
281
     0
  7
Standard
140
4.5
170
     2
 62
     0
 63
     7
283
     0
274
    -2
284
     1
 64
     0
275
    -2
285
     1
 65
     0
276
    -2
286
     1
 66
     0
277
    -2
287
     1
 67
     0
278
    -2
288
     1
 68
     0
279
    -2
289
     1
 69
     0
  7
Standard
140
6.0
170
     5
 62
     0
 63
     7
283
     0
274
    -2
284
     1
 64
     0
275
    -2
285
     1
 65
     0
276
    -2
286
     1
 66
     0
277
    -2
287
     1
 67
     0
278
    -2
288
     1
 68
     0
279
    -2
289
     1
 69
     0
  7
Standard
140
4.5
170
     5
 62
     0
 63
     7
283
     0
274
    -2
284
     1
 64
     0
275
    -2
285
     1
 65
     0
276
    -2
286
     1
 66
     0
277
    -2
287
     1
 67
     0
278
    -2
288
     1
 68
     0
279
    -2
289
     1
 69
     0
  0
DICTIONARYVAR
  5
852
102
{ACAD_REACTORS
330
615
102
}
330
615
100
DictionaryVariables
280
     0
  1
STANDARD
  0
DICTIONARYVAR
  5
617
102
{ACAD_REACTORS
330
615
102
}
330
615
100
DictionaryVariables
280
     0
  1
2
  0
DICTIONARYVAR
  5
616
102
{ACAD_REACTORS
330
615
102
}
330
615
100
DictionaryVariables
280
     0
  1
1
  0
DICTIONARYVAR
  5
83D
102
{ACAD_REACTORS
330
615
102
}
330
615
100
DictionaryVariables
280
     0
  1

  0
ENDSEC
  0
EOF
