  0
SECTION
  2
HEADER
  9
$ACADVER
  1
AC1018
  9
$ACADMAINTVER
 70
    76
  9
$DWGCODEPAGE
  3
ANSI_1252
  9
$AUTHOR
  1
Grandl
  9
$INSBASE
 10
0.0
 20
0.0
 30
0.0
  9
$EXTMIN
 10
952.503139013439
 20
-185.5893371462262
 30
-0.0000000000112498
  9
$EXTMAX
 10
1264.686489424828
 20
105.3186280370391
 30
0.0000000000002956
  9
$LIMMIN
 10
0.0
 20
0.0
  9
$LIMMAX
 10
18025.7704
 20
13929.0044
  9
$ORTHOMODE
 70
     1
  9
$REGENMODE
 70
     1
  9
$FILLMODE
 70
     1
  9
$QTEXTMODE
 70
     0
  9
$MIRRTEXT
 70
     1
  9
$LTSCALE
 40
0.4
  9
$ATTMODE
 70
     1
  9
$TEXTSIZE
 40
0.2
  9
$TRACEWID
 40
0.05
  9
$TEXTSTYLE
  7
Standard
  9
$CLAYER
  8
0
  9
$CELTYPE
  6
ByLayer
  9
$CECOLOR
 62
   256
  9
$CELTSCALE
 40
1.0
  9
$DISPSILH
 70
     0
  9
$DIMSCALE
 40
1.0
  9
$DIMASZ
 40
0.18
  9
$DIMEXO
 40
0.0625
  9
$DIMDLI
 40
0.38
  9
$DIMRND
 40
0.0
  9
$DIMDLE
 40
0.0
  9
$DIMEXE
 40
0.18
  9
$DIMTP
 40
0.0
  9
$DIMTM
 40
0.0
  9
$DIMTXT
 40
0.18
  9
$DIMCEN
 40
0.09
  9
$DIMTSZ
 40
0.0
  9
$DIMTOL
 70
     0
  9
$DIMLIM
 70
     0
  9
$DIMTIH
 70
     1
  9
$DIMTOH
 70
     1
  9
$DIMSE1
 70
     0
  9
$DIMSE2
 70
     0
  9
$DIMTAD
 70
     0
  9
$DIMZIN
 70
     0
  9
$DIMBLK
  1

  9
$DIMASO
 70
     1
  9
$DIMSHO
 70
     1
  9
$DIMPOST
  1

  9
$DIMAPOST
  1

  9
$DIMALT
 70
     0
  9
$DIMALTD
 70
     2
  9
$DIMALTF
 40
25.4
  9
$DIMLFAC
 40
1.0
  9
$DIMTOFL
 70
     0
  9
$DIMTVP
 40
0.0
  9
$DIMTIX
 70
     0
  9
$DIMSOXD
 70
     0
  9
$DIMSAH
 70
     0
  9
$DIMBLK1
  1

  9
$DIMBLK2
  1

  9
$DIMSTYLE
  2
Standard
  9
$DIMCLRD
 70
     0
  9
$DIMCLRE
 70
     0
  9
$DIMCLRT
 70
     0
  9
$DIMTFAC
 40
1.0
  9
$DIMGAP
 40
0.09
  9
$DIMJUST
 70
     0
  9
$DIMSD1
 70
     0
  9
$DIMSD2
 70
     0
  9
$DIMTOLJ
 70
     1
  9
$DIMTZIN
 70
     0
  9
$DIMALTZ
 70
     0
  9
$DIMALTTZ
 70
     0
  9
$DIMUPT
 70
     0
  9
$DIMDEC
 70
     4
  9
$DIMTDEC
 70
     4
  9
$DIMALTU
 70
     2
  9
$DIMALTTD
 70
     2
  9
$DIMTXSTY
  7
Standard
  9
$DIMAUNIT
 70
     0
  9
$DIMADEC
 70
     0
  9
$DIMALTRND
 40
0.0
  9
$DIMAZIN
 70
     0
  9
$DIMDSEP
 70
    46
  9
$DIMATFIT
 70
     3
  9
$DIMFRAC
 70
     0
  9
$DIMLDRBLK
  1

  9
$DIMLUNIT
 70
     2
  9
$DIMLWD
 70
    -2
  9
$DIMLWE
 70
    -2
  9
$DIMTMOVE
 70
     0
  9
$LUNITS
 70
     2
  9
$LUPREC
 70
     4
  9
$SKETCHINC
 40
0.1
  9
$FILLETRAD
 40
0.0
  9
$AUNITS
 70
     0
  9
$AUPREC
 70
     0
  9
$MENU
  1
.
  9
$ELEVATION
 40
0.0
  9
$PELEVATION
 40
0.0
  9
$THICKNESS
 40
0.0
  9
$LIMCHECK
 70
     0
  9
$CHAMFERA
 40
1.0
  9
$CHAMFERB
 40
1.0
  9
$CHAMFERC
 40
0.0
  9
$CHAMFERD
 40
0.0
  9
$SKPOLY
 70
     0
  9
$TDCREATE
 40
2452780.580131598
  9
$TDUCREATE
 40
2452780.538464931
  9
$TDUPDATE
 40
2453704.481738449
  9
$TDUUPDATE
 40
2453704.440071783
  9
$TDINDWG
 40
0.0755600231
  9
$TDUSRTIMER
 40
0.0755600231
  9
$USRTIMER
 70
     1
  9
$ANGBASE
 50
0.0
  9
$ANGDIR
 70
     0
  9
$PDMODE
 70
     0
  9
$PDSIZE
 40
0.0
  9
$PLINEWID
 40
0.0
  9
$SPLFRAME
 70
     0
  9
$SPLINETYPE
 70
     6
  9
$SPLINESEGS
 70
     8
  9
$HANDSEED
  5
2B4B
  9
$SURFTAB1
 70
     6
  9
$SURFTAB2
 70
     6
  9
$SURFTYPE
 70
     6
  9
$SURFU
 70
     6
  9
$SURFV
 70
     6
  9
$UCSBASE
  2

  9
$UCSNAME
  2

  9
$UCSORG
 10
0.0
 20
0.0
 30
0.0
  9
$UCSXDIR
 10
1.0
 20
0.0
 30
0.0
  9
$UCSYDIR
 10
0.0
 20
1.0
 30
0.0
  9
$UCSORTHOREF
  2

  9
$UCSORTHOVIEW
 70
     0
  9
$UCSORGTOP
 10
0.0
 20
0.0
 30
0.0
  9
$UCSORGBOTTOM
 10
0.0
 20
0.0
 30
0.0
  9
$UCSORGLEFT
 10
0.0
 20
0.0
 30
0.0
  9
$UCSORGRIGHT
 10
0.0
 20
0.0
 30
0.0
  9
$UCSORGFRONT
 10
0.0
 20
0.0
 30
0.0
  9
$UCSORGBACK
 10
0.0
 20
0.0
 30
0.0
  9
$PUCSBASE
  2

  9
$PUCSNAME
  2

  9
$PUCSORG
 10
0.0
 20
0.0
 30
0.0
  9
$PUCSXDIR
 10
1.0
 20
0.0
 30
0.0
  9
$PUCSYDIR
 10
0.0
 20
1.0
 30
0.0
  9
$PUCSORTHOREF
  2

  9
$PUCSORTHOVIEW
 70
     0
  9
$PUCSORGTOP
 10
0.0
 20
0.0
 30
0.0
  9
$PUCSORGBOTTOM
 10
0.0
 20
0.0
 30
0.0
  9
$PUCSORGLEFT
 10
0.0
 20
0.0
 30
0.0
  9
$PUCSORGRIGHT
 10
0.0
 20
0.0
 30
0.0
  9
$PUCSORGFRONT
 10
0.0
 20
0.0
 30
0.0
  9
$PUCSORGBACK
 10
0.0
 20
0.0
 30
0.0
  9
$USERI1
 70
     0
  9
$USERI2
 70
     0
  9
$USERI3
 70
     0
  9
$USERI4
 70
     0
  9
$USERI5
 70
     0
  9
$USERR1
 40
0.0
  9
$USERR2
 40
0.0
  9
$USERR3
 40
0.0
  9
$USERR4
 40
0.0
  9
$USERR5
 40
0.0
  9
$WORLDVIEW
 70
     1
  9
$SHADEDGE
 70
     3
  9
$SHADEDIF
 70
    70
  9
$TILEMODE
 70
     1
  9
$MAXACTVP
 70
    48
  9
$PINSBASE
 10
0.0
 20
0.0
 30
0.0
  9
$PLIMCHECK
 70
     0
  9
$PEXTMIN
 10
1.000000000000000E+20
 20
1.000000000000000E+20
 30
1.000000000000000E+20
  9
$PEXTMAX
 10
-1.000000000000000E+20
 20
-1.000000000000000E+20
 30
-1.000000000000000E+20
  9
$PLIMMIN
 10
-4.23333740234375
 20
-6.011333465576171
  9
$PLIMMAX
 10
292.6926574707031
 20
203.9619941711426
  9
$UNITMODE
 70
     0
  9
$VISRETAIN
 70
     1
  9
$PLINEGEN
 70
     0
  9
$PSLTSCALE
 70
     1
  9
$TREEDEPTH
 70
  3020
  9
$CMLSTYLE
  2
Standard
  9
$CMLJUST
 70
     0
  9
$CMLSCALE
 40
1.0
  9
$PROXYGRAPHICS
 70
     1
  9
$MEASUREMENT
 70
     1
  9
$CELWEIGHT
370
    -1
  9
$ENDCAPS
280
     0
  9
$JOINSTYLE
280
     0
  9
$LWDISPLAY
290
     0
  9
$INSUNITS
 70
     0
  9
$HYPERLINKBASE
  1

  9
$STYLESHEET
  1

  9
$XEDIT
290
     1
  9
$CEPSNTYPE
380
     0
  9
$PSTYLEMODE
290
     1
  9
$FINGERPRINTGUID
  2
{F36C13FC-8D9A-44FA-8B69-496B089EBC04}
  9
$VERSIONGUID
  2
{15453D06-2B40-450C-AED1-B685EE8D91C2}
  9
$EXTNAMES
290
     1
  9
$PSVPSCALE
 40
0.0
  9
$OLESTARTUP
290
     0
  9
$SORTENTS
280
   127
  9
$INDEXCTL
280
     0
  9
$HIDETEXT
280
     1
  9
$XCLIPFRAME
290
     0
  9
$HALOGAP
280
     0
  9
$OBSCOLOR
 70
   257
  9
$OBSLTYPE
280
     0
  9
$INTERSECTIONDISPLAY
280
     0
  9
$INTERSECTIONCOLOR
 70
   257
  9
$DIMASSOC
280
     2
  9
$PROJECTNAME
  1

  0
ENDSEC
  0
SECTION
  2
CLASSES
  0
CLASS
  1
ACDBDICTIONARYWDFLT
  2
AcDbDictionaryWithDefault
  3
ObjectDBX Classes
 90
        0
 91
        1
280
     0
281
     0
  0
CLASS
  1
DICTIONARYVAR
  2
AcDbDictionaryVar
  3
ObjectDBX Classes
 90
        0
 91
        4
280
     0
281
     0
  0
CLASS
  1
TABLESTYLE
  2
AcDbTableStyle
  3
ObjectDBX Classes
 90
     2047
 91
        1
280
     0
281
     0
  0
CLASS
  1
SORTENTSTABLE
  2
AcDbSortentsTable
  3
ObjectDBX Classes
 90
        0
 91
        2
280
     0
281
     0
  0
ENDSEC
  0
SECTION
  2
TABLES
  0
TABLE
  2
VPORT
  5
8
330
0
100
AcDbSymbolTable
 70
    11
  0
VPORT
  5
2B4A
330
8
100
AcDbSymbolTableRecord
100
AcDbViewportTableRecord
  2
*Active
 70
     0
 10
0.0
 20
0.0
 11
1.0
 21
1.0
 12
1108.594814219133
 22
-40.1353545545935
 13
0.0
 23
0.0
 14
1.0
 24
1.0
 15
0.0
 25
0.0
 16
0.0
 26
0.0
 36
1.0
 17
0.0
 27
0.0
 37
0.0
 40
293.5154758714677
 41
1.773333333333333
 42
50.0
 43
0.0
 44
0.0
 50
0.0
 51
0.0
 71
     0
 72
   100
 73
     1
 74
     1
 75
     0
 76
     0
 77
     0
 78
     0
281
     0
 65
     1
110
0.0
120
0.0
130
0.0
111
1.0
121
0.0
131
0.0
112
0.0
122
1.0
132
0.0
 79
     0
146
0.0
  0
ENDTAB
  0
TABLE
  2
LTYPE
  5
5
330
0
100
AcDbSymbolTable
 70
   121
  0
LTYPE
  5
14
330
5
100
AcDbSymbolTableRecord
100
AcDbLinetypeTableRecord
  2
ByBlock
 70
     0
  3

 72
    65
 73
     0
 40
0.0
  0
LTYPE
  5
15
330
5
100
AcDbSymbolTableRecord
100
AcDbLinetypeTableRecord
  2
ByLayer
 70
     0
  3

 72
    65
 73
     0
 40
0.0
  0
LTYPE
  5
16
330
5
100
AcDbSymbolTableRecord
100
AcDbLinetypeTableRecord
  2
Continuous
 70
     0
  3
Solid line
 72
    65
 73
     0
 40
0.0
  0
LTYPE
  5
62F
330
5
100
AcDbSymbolTableRecord
100
AcDbLinetypeTableRecord
  2
MITTE2
 70
     0
  3
Mitte (.5x) ___ _ ___ _ ___ _ ___ _ ___ _ ___
 72
    65
 73
     4
 40
28.575
 49
19.05
 74
     0
 49
-3.174999999999999
 74
     0
 49
3.174999999999999
 74
     0
 49
-3.174999999999999
 74
     0
  0
LTYPE
  5
1282
330
5
100
AcDbSymbolTableRecord
100
AcDbLinetypeTableRecord
  2
VERDECKT
 70
     0
  3
Verdeckt __ __ __ __ __ __ __ __ __ __ __ __ __
 72
    65
 73
     2
 40
9.524999999999998
 49
6.349999999999999
 74
     0
 49
-3.174999999999999
 74
     0
  0
ENDTAB
  0
TABLE
  2
LAYER
  5
2
102
{ACAD_XDICTIONARY
360
843
102
}
330
0
100
AcDbSymbolTable
 70
    15
  0
LAYER
  5
10
330
2
100
AcDbSymbolTableRecord
100
AcDbLayerTableRecord
  2
0
 70
     0
 62
     7
  6
Continuous
370
    -3
390
F
  0
LAYER
  5
630
330
2
100
AcDbSymbolTableRecord
100
AcDbLayerTableRecord
  2
LW 3850-02-01
 70
     0
 62
     7
  6
Continuous
370
    -3
390
F
  0
LAYER
  5
728
330
2
100
AcDbSymbolTableRecord
100
AcDbLayerTableRecord
  2
insertpoint_ECKELT
 70
     0
 62
   141
  6
Continuous
370
    -3
390
F
  0
LAYER
  5
1558
330
2
100
AcDbSymbolTableRecord
100
AcDbLayerTableRecord
  2
Defpoints
 70
     0
 62
     7
  6
Continuous
290
     0
370
    -3
390
F
  0
ENDTAB
  0
TABLE
  2
STYLE
  5
3
330
0
100
AcDbSymbolTable
 70
   105
  0
STYLE
  5
11
330
3
100
AcDbSymbolTableRecord
100
AcDbTextStyleTableRecord
  2
Standard
 70
     0
 40
0.0
 41
1.0
 50
0.0
 71
     0
 42
0.2
  3
ARIAL.TTF
  4

1001
ACAD
1000
Arial
1071
      256
  0
ENDTAB
  0
TABLE
  2
VIEW
  5
6
330
0
100
AcDbSymbolTable
 70
    19
  0
ENDTAB
  0
TABLE
  2
UCS
  5
7
330
0
100
AcDbSymbolTable
 70
     0
  0
ENDTAB
  0
TABLE
  2
APPID
  5
9
330
0
100
AcDbSymbolTable
 70
     2
  0
APPID
  5
12
330
9
100
AcDbSymbolTableRecord
100
AcDbRegAppTableRecord
  2
ACAD
 70
     0
  0
APPID
  5
85A
330
9
100
AcDbSymbolTableRecord
100
AcDbRegAppTableRecord
  2
ACAD_EXEMPT_FROM_CAD_STANDARDS
 70
     0
  0
ENDTAB
  0
TABLE
  2
DIMSTYLE
  5
A
330
0
100
AcDbSymbolTable
 70
   207
100
AcDbDimStyleTable
 71
     1
340
27
  0
DIMSTYLE
105
27
330
A
100
AcDbSymbolTableRecord
100
AcDbDimStyleTableRecord
  2
Standard
 70
     0
340
11
  0
ENDTAB
  0
TABLE
  2
BLOCK_RECORD
  5
1
330
0
100
AcDbSymbolTable
 70
    32
  0
BLOCK_RECORD
  5
1F
102
{ACAD_XDICTIONARY
360
526
102
}
330
1
100
AcDbSymbolTableRecord
100
AcDbBlockTableRecord
  2
*Model_Space
340
22
  0
BLOCK_RECORD
  5
1B
102
{ACAD_XDICTIONARY
360
528
102
}
330
1
100
AcDbSymbolTableRecord
100
AcDbBlockTableRecord
  2
*Paper_Space
340
1E
  0
BLOCK_RECORD
  5
23
102
{ACAD_XDICTIONARY
360
52A
102
}
330
1
100
AcDbSymbolTableRecord
100
AcDbBlockTableRecord
  2
*Paper_Space0
340
26
  0
BLOCK_RECORD
  5
729
102
{ACAD_XDICTIONARY
360
975
102
}
330
1
100
AcDbSymbolTableRecord
100
AcDbBlockTableRecord
  2
insertpoint-ECKELT
340
0
102
{BLKREFS
331
9EB
331
A43
331
12B7
331
12EF
331
148E
331
2437
331
25F3
331
2962
331
2B0C
102
}
  0
BLOCK_RECORD
  5
241F
330
1
100
AcDbSymbolTableRecord
100
AcDbBlockTableRecord
  2
LW 3850-02-01_a
340
0
310
2800000020000000200000000100080000000000000400000000000000000000000000000000000000000000000080000080000000808000800000008000800080800000C0C0C000C0DCC000F0CAA6000020400000206000002080000020A0000020C0000020E00000400000004020000040400000406000004080000040A0
310
000040C0000040E00000600000006020000060400000606000006080000060A0000060C0000060E00000800000008020000080400000806000008080000080A0000080C0000080E00000A0000000A0200000A0400000A0600000A0800000A0A00000A0C00000A0E00000C0000000C0200000C0400000C0600000C0800000C0
310
A00000C0C00000C0E00000E0000000E0200000E0400000E0600000E0800000E0A00000E0C00000E0E00040000000400020004000400040006000400080004000A0004000C0004000E00040200000402020004020400040206000402080004020A0004020C0004020E000404000004040200040404000404060004040800040
310
40A0004040C0004040E00040600000406020004060400040606000406080004060A0004060C0004060E00040800000408020004080400040806000408080004080A0004080C0004080E00040A0000040A0200040A0400040A0600040A0800040A0A00040A0C00040A0E00040C0000040C0200040C0400040C0600040C08000
310
40C0A00040C0C00040C0E00040E0000040E0200040E0400040E0600040E0800040E0A00040E0C00040E0E00080000000800020008000400080006000800080008000A0008000C0008000E00080200000802020008020400080206000802080008020A0008020C0008020E00080400000804020008040400080406000804080
310
008040A0008040C0008040E00080600000806020008060400080606000806080008060A0008060C0008060E00080800000808020008080400080806000808080008080A0008080C0008080E00080A0000080A0200080A0400080A0600080A0800080A0A00080A0C00080A0E00080C0000080C0200080C0400080C0600080C0
310
800080C0A00080C0C00080C0E00080E0000080E0200080E0400080E0600080E0800080E0A00080E0C00080E0E000C0000000C0002000C0004000C0006000C0008000C000A000C000C000C000E000C0200000C0202000C0204000C0206000C0208000C020A000C020C000C020E000C0400000C0402000C0404000C0406000C0
310
408000C040A000C040C000C040E000C0600000C0602000C0604000C0606000C0608000C060A000C060C000C060E000C0800000C0802000C0804000C0806000C0808000C080A000C080C000C080E000C0A00000C0A02000C0A04000C0A06000C0A08000C0A0A000C0A0C000C0A0E000C0C00000C0C02000C0C04000C0C06000
310
C0C08000C0C0A000F0FBFF00A4A0A000808080000000FF0000FF000000FFFF00FF000000FF00FF00FFFF0000FFFFFF00000000000000000000000000000000000000000000000000000000000000000000000000000000000000000000000000FA000000000000000000000000000000000000000000000000000000000000
310
00FA000000000000000000000000000000000000000000000000000000FFFFFFFFFAFFFFFF000000000000000000000000000000000000000000FFFFFFFF00FFFFFAFFFFFFFFFFFF00000000000000000000000000000000FFFFFFFF0000FFFF00FAFFFF0000FFFFFFFF00000000000000000000000000FF00FF00000000FF
310
00FFFA00FFFF000000FF00FF000000000000000000000000FFFF0000FAFAFAFAFAFAFAFAFAFAFAFA0000FFFF0000000000000000000000FFFF000000000000FFFFFFFA00FFFF0000000000FFFF00000000000000000000FF0000000000000000FFFFFAFFFF00000000000000FF000000000000000000FF0000000000000000
310
0000FFFA00000000000000000000FF0000000000000000FF0000000000000000000000FA00000000000000000000FF00000000000000FFFF0000000000000000000000FA00000000000000000000FFFF000000000000FF000000000000000000000000FA00000000000000000000FFFF000000000000FF0000000000000000
310
00000000FA0000000000000000000000FF0000000000FFFF000000000000000000000000FA0000000000000000000000FFFF000000FAFAFAFAFAFAFAFAFAFAFA09090909FAFAFAFAFAFAFAFAFAFAFAFAFAFAFA000000FFFF000000000000000000000000FA0000000000000000000000FFFF0000000000FF00000000000000
310
0000000000FA0000000000000000000000FF000000000000FFFF0000000000000000000000FA00000000000000000000FFFF00000000000000FF0000000000000000000000FA00000000000000000000FF0000000000000000FF00000000000000000000FFFA00000000000000000000FF000000000000000000FF00000000
310
00000000FFFFFAFFFF00000000000000FF00000000000000000000FFFF000000000000FFFFFFFA00FFFF0000000000FFFF0000000000000000000000FFFF0000FAFAFAFAFAFAFAFAFAFAFAFA0000FFFF000000000000000000000000FF00FF00000000FF00FFFA00FFFF000000FF00FF00000000000000000000000000FFFF
310
FFFF0000FFFF00FAFFFF0000FFFFFFFF00000000000000000000000000000000FFFFFFFF00FFFFFAFFFFFFFFFFFF000000000000000000000000000000000000000000FFFFFFFFFAFFFFFF00000000000000000000000000000000000000000000000000000000FA0000000000000000000000000000000000000000000000
310
0000000000000000FA0000000000000000000000000000000000000000000000000000000000000000000000000000000000000000000000
102
{BLKREFS
331
243C
102
}
  0
BLOCK_RECORD
  5
27B0
330
1
100
AcDbSymbolTableRecord
100
AcDbBlockTableRecord
  2
LW 3850-02-01_b
340
0
310
2800000020000000200000000100080000000000000400000000000000000000000000000000000000000000000080000080000000808000800000008000800080800000C0C0C000C0DCC000F0CAA6000020400000206000002080000020A0000020C0000020E00000400000004020000040400000406000004080000040A0
310
000040C0000040E00000600000006020000060400000606000006080000060A0000060C0000060E00000800000008020000080400000806000008080000080A0000080C0000080E00000A0000000A0200000A0400000A0600000A0800000A0A00000A0C00000A0E00000C0000000C0200000C0400000C0600000C0800000C0
310
A00000C0C00000C0E00000E0000000E0200000E0400000E0600000E0800000E0A00000E0C00000E0E00040000000400020004000400040006000400080004000A0004000C0004000E00040200000402020004020400040206000402080004020A0004020C0004020E000404000004040200040404000404060004040800040
310
40A0004040C0004040E00040600000406020004060400040606000406080004060A0004060C0004060E00040800000408020004080400040806000408080004080A0004080C0004080E00040A0000040A0200040A0400040A0600040A0800040A0A00040A0C00040A0E00040C0000040C0200040C0400040C0600040C08000
310
40C0A00040C0C00040C0E00040E0000040E0200040E0400040E0600040E0800040E0A00040E0C00040E0E00080000000800020008000400080006000800080008000A0008000C0008000E00080200000802020008020400080206000802080008020A0008020C0008020E00080400000804020008040400080406000804080
310
008040A0008040C0008040E00080600000806020008060400080606000806080008060A0008060C0008060E00080800000808020008080400080806000808080008080A0008080C0008080E00080A0000080A0200080A0400080A0600080A0800080A0A00080A0C00080A0E00080C0000080C0200080C0400080C0600080C0
310
800080C0A00080C0C00080C0E00080E0000080E0200080E0400080E0600080E0800080E0A00080E0C00080E0E000C0000000C0002000C0004000C0006000C0008000C000A000C000C000C000E000C0200000C0202000C0204000C0206000C0208000C020A000C020C000C020E000C0400000C0402000C0404000C0406000C0
310
408000C040A000C040C000C040E000C0600000C0602000C0604000C0606000C0608000C060A000C060C000C060E000C0800000C0802000C0804000C0806000C0808000C080A000C080C000C080E000C0A00000C0A02000C0A04000C0A06000C0A08000C0A0A000C0A0C000C0A0E000C0C00000C0C02000C0C04000C0C06000
310
C0C08000C0C0A000F0FBFF00A4A0A000808080000000FF0000FF000000FFFF00FF000000FF00FF00FFFF0000FFFFFF000000000000000000000000000000000000000000000000000000000000000000000000000000000000000000000000FA000000000000000000000000000000000000000000000000000000FFFFFFFF
310
FAFFFFFFFFFF00000000000000000000000000000000000000000000FF000000FA00000000FF00000000000000000000000000000000000000000000FF000000FA00000000FF00000000000000000000000000000000000000FAFAFAFAFAFAFAFAFAFAFAFAFAFAFAFA00000000000000000000000000000000000000FF0000
310
00FA00000000FF00000000000000000000000000000000000000000000FF000000FA00000000FF00000000000000000000000000000000000000000000FFFFFFFFFAFFFFFFFFFF00000000000000000000000000000000000000000000FF000000FA00000000FF00000000000000000000000000000000000000000000FF00
310
0000FA00000000FF00000000000000000000000000000000000000000000FF000000FA00000000FF00000000000000000000000000000000000000000000FF000000FA00000000FF00000000000000000000000000000000000000000000FF000000FA00000000FF00000000000000000000000000000000000000000000FF
310
000000FA00000000FF00000000000000000000000000000000000000000000FF000000FA00000000FF00000000000000000000000000000000000000000000FF000000A4A4FF0000FF00000000000000000000000000000000000000000000FF0000A4A4A4A40000FF0000000000000000000000000000000000000000FAFA
310
FAFAFAA4A4A4A4FAFAFAFAFAFA00000000000000000000000000000000000000FF0000A4A4A4A40000FF00000000000000000000000000000000000000000000FF000000FA00000000FF00000000000000000000000000000000000000000000FF000000FA00000000FF000000000000000000000000000000000000000000
310
00FF000000FA00000000FF00000000000000000000000000000000000000000000FF000000FA00000000FF00000000000000000000000000000000000000000000FFFDFD090909FDFDFDFF0000000000000000000000000000000000000000000000FDFDFDFAFDFDFDFD000000000000000000000000000000000000000000
310
000000FDFDFDFA00FDFDFD000000000000000000000000000000000000000000000000FDFDFDFAFDFDFDFD000000000000000000000000000000000000000000000000FDFD00FA0000FDFD000000000000000000000000000000000000000000000000000000FA000000000000000000000000000000000000000000000000
310
00000000000000FA000000000000000000000000000000000000000000000000000000000000000000000000000000000000000000000000
102
{BLKREFS
331
2966
102
}
  0
BLOCK_RECORD
  5
2967
330
1
100
AcDbSymbolTableRecord
100
AcDbBlockTableRecord
  2
LW 3850-02-01_c
340
0
310
2800000020000000200000000100080000000000000400000000000000000000000000000000000000000000000080000080000000808000800000008000800080800000C0C0C000C0DCC000F0CAA6000020400000206000002080000020A0000020C0000020E00000400000004020000040400000406000004080000040A0
310
000040C0000040E00000600000006020000060400000606000006080000060A0000060C0000060E00000800000008020000080400000806000008080000080A0000080C0000080E00000A0000000A0200000A0400000A0600000A0800000A0A00000A0C00000A0E00000C0000000C0200000C0400000C0600000C0800000C0
310
A00000C0C00000C0E00000E0000000E0200000E0400000E0600000E0800000E0A00000E0C00000E0E00040000000400020004000400040006000400080004000A0004000C0004000E00040200000402020004020400040206000402080004020A0004020C0004020E000404000004040200040404000404060004040800040
310
40A0004040C0004040E00040600000406020004060400040606000406080004060A0004060C0004060E00040800000408020004080400040806000408080004080A0004080C0004080E00040A0000040A0200040A0400040A0600040A0800040A0A00040A0C00040A0E00040C0000040C0200040C0400040C0600040C08000
310
40C0A00040C0C00040C0E00040E0000040E0200040E0400040E0600040E0800040E0A00040E0C00040E0E00080000000800020008000400080006000800080008000A0008000C0008000E00080200000802020008020400080206000802080008020A0008020C0008020E00080400000804020008040400080406000804080
310
008040A0008040C0008040E00080600000806020008060400080606000806080008060A0008060C0008060E00080800000808020008080400080806000808080008080A0008080C0008080E00080A0000080A0200080A0400080A0600080A0800080A0A00080A0C00080A0E00080C0000080C0200080C0400080C0600080C0
310
800080C0A00080C0C00080C0E00080E0000080E0200080E0400080E0600080E0800080E0A00080E0C00080E0E000C0000000C0002000C0004000C0006000C0008000C000A000C000C000C000E000C0200000C0202000C0204000C0206000C0208000C020A000C020C000C020E000C0400000C0402000C0404000C0406000C0
310
408000C040A000C040C000C040E000C0600000C0602000C0604000C0606000C0608000C060A000C060C000C060E000C0800000C0802000C0804000C0806000C0808000C080A000C080C000C080E000C0A00000C0A02000C0A04000C0A06000C0A08000C0A0A000C0A0C000C0A0E000C0C00000C0C02000C0C04000C0C06000
310
C0C08000C0C0A000F0FBFF00A4A0A000808080000000FF0000FF000000FFFF00FF000000FF00FF00FFFF0000FFFFFF0000000000000000000000000000000000000000000000000000000000000000000000000000000000000000000000000000000000000000000000000000000000000000000000000000000000000000
310
00000000000000000000000000000000000000000000000000000000000000000000000000000000000000000000000000000000000000000000000000000000000000000000000000000000000000000000000000000000000000000000000000000000000000000000000000000000000000000000000000000000000000
310
0000000000000000000000000000000000000000000000000000000000000000000000000000000000000000000000000000000000000000000000000000000000000000000000000000000000000000000000000000000000000000000000000000000000000000000000000000000000000000000000FA00000000000000
310
000000000000000000000000000000000000000000FFFFFFFAFFFFFFFFFFFFFFFFFFFFFFFFFFFFFFFFFFFFFF000000000000000000FF0000FA000000FF0000000000000000FF0000000000FF000000000000000000FF0000FA000000FF0000000000000000FF0000000000FF000000000000000000FF00A4A4A4FF00FF0000
310
000000000000FF0000000000FDFDFDFDFD00000000FAFAFAA4A4A4A4FAFAFAFAFAFAFAFA0000FF00000000000909FDFDFD0000000000FF00A4A4A4A400FF000000000000FAFAFAFAFAFAFA090909FAFAFAFAFA000000FF00A4A4A4FF00FF0000000000000000FF0000000000FDFDFDFDFD0000000000FF0000FA000000FF00
310
00000000000000FF0000000000FF000000000000000000FF0000FA000000FF0000000000000000FF0000000000FF000000000000000000FFFFFFFAFFFFFFFFFFFFFFFFFFFFFFFFFFFFFFFFFFFFFF000000000000000000000000FA000000000000000000000000000000000000000000000000000000000000000000000000
310
00000000000000000000000000000000000000000000000000000000000000000000000000000000000000000000000000000000000000000000000000000000000000000000000000000000000000000000000000000000000000000000000000000000000000000000000000000000000000000000000000000000000000
310
00000000000000000000000000000000000000000000000000000000000000000000000000000000000000000000000000000000000000000000000000000000000000000000000000000000000000000000000000000000000000000000000000000000000000000000000000000000000000000000000000000000000000
310
0000000000000000000000000000000000000000000000000000000000000000000000000000000000000000000000000000000000000000
102
{BLKREFS
331
2B10
102
}
  0
ENDTAB
  0
ENDSEC
  0
SECTION
  2
BLOCKS
  0
BLOCK
  5
20
330
1F
100
AcDbEntity
  8
0
100
AcDbBlockBegin
  2
*Model_Space
 70
     0
 10
0.0
 20
0.0
 30
0.0
  3
*Model_Space
  1

  0
ENDBLK
  5
21
330
1F
100
AcDbEntity
  8
0
100
AcDbBlockEnd
  0
BLOCK
  5
1C
330
1B
100
AcDbEntity
 67
     1
  8
0
100
AcDbBlockBegin
  2
*Paper_Space
 70
     0
 10
0.0
 20
0.0
 30
0.0
  3
*Paper_Space
  1

  0
ENDBLK
  5
1D
330
1B
100
AcDbEntity
 67
     1
  8
0
100
AcDbBlockEnd
  0
BLOCK
  5
24
330
23
100
AcDbEntity
 67
     1
  8
0
100
AcDbBlockBegin
  2
*Paper_Space0
 70
     0
 10
0.0
 20
0.0
 30
0.0
  3
*Paper_Space0
  1

  0
ENDBLK
  5
25
330
23
100
AcDbEntity
 67
     1
  8
0
100
AcDbBlockEnd
  0
BLOCK
  5
730
330
729
100
AcDbEntity
  8
0
100
AcDbBlockBegin
  2
insertpoint-ECKELT
 70
     2
 10
0.0
 20
0.0
 30
0.0
  3
insertpoint-ECKELT
  1

  0
ATTDEF
  5
72A
330
729
100
AcDbEntity
  8
insertpoint_ECKELT
100
AcDbText
 10
-2.457298772169167
 20
-0.0000000000000284
 30
0.0
 40
0.6
  1
LW
 72
     2
 11
-1.199999999999999
 21
-0.0000000000000284
 31
0.0
100
AcDbAttributeDefinition
  3
Nr. links
  2
LINKS
 70
     0
  0
ATTDEF
  5
72B
330
729
100
AcDbEntity
  8
insertpoint_ECKELT
100
AcDbText
 10
1.199999999999999
 20
-0.0000000000000284
 30
0.0
 40
0.6
  1
LW
100
AcDbAttributeDefinition
  3
Nr. rechts
  2
RECHTS
 70
     0
  0
LINE
  5
72C
102
{ACAD_REACTORS
330
72F
102
}
330
729
100
AcDbEntity
  8
insertpoint_ECKELT
100
AcDbLine
 10
0.0
 20
1.799999999999997
 30
0.0
 11
0.0
 21
-1.799999999999997
 31
0.0
  0
LINE
  5
72D
102
{ACAD_REACTORS
330
72F
102
}
330
729
100
AcDbEntity
  8
insertpoint_ECKELT
100
AcDbLine
 10
-1.8
 20
-0.0000000000000284
 30
0.0
 11
1.8
 21
-0.0000000000000284
 31
0.0
  0
CIRCLE
  5
72E
102
{ACAD_REACTORS
330
72F
102
}
330
729
100
AcDbEntity
  8
insertpoint_ECKELT
100
AcDbCircle
 10
0.0
 20
0.0
 30
0.0
 40
1.199999999999999
  0
HATCH
  5
72F
330
729
100
AcDbEntity
  8
insertpoint_ECKELT
100
AcDbHatch
 10
0.0
 20
0.0
 30
0.0
210
0.0
220
0.0
230
1.0
  2
SOLID
 70
     1
 71
     1
 91
        2
 92
        7
 72
     1
 73
     1
 93
        3
 10
0.0
 20
-0.0000000000000284
 42
0.0
 10
0.0
 20
1.200000000000002
 42
0.4142135623731013
 10
-1.199999999999999
 20
-0.0000000000000284
 42
0.0
 97
        3
330
72E
330
72D
330
72C
 92
        7
 72
     1
 73
     1
 93
        3
 10
1.199999999999999
 20
-0.0000000000000284
 42
0.0
 10
0.0
 20
-0.0000000000000284
 42
0.0
 10
0.0
 20
-1.200000000000002
 42
0.4142135623730888
 97
        3
330
72D
330
72C
330
72E
 75
     0
 76
     1
 47
0.0223086566480813
 98
        2
 10
-0.3163651093721391
 20
0.271413292077348
 10
0.7415965996738798
 20
-0.4513871917946233
450
        0
451
        0
460
0.0
461
0.0
452
        0
462
0.0
453
        0
470

  0
ENDBLK
  5
731
330
729
100
AcDbEntity
  8
0
100
AcDbBlockEnd
  0
BLOCK
  5
2420
330
241F
100
AcDbEntity
  8
0
100
AcDbBlockBegin
  2
LW 3850-02-01_a
 70
     0
 10
0.0
 20
0.0
 30
0.0
  3
LW 3850-02-01_a
  1

  0
CIRCLE
  5
2422
330
241F
100
AcDbEntity
  8
LW 3850-02-01
100
AcDbCircle
 10
0.0
 20
0.0000000000002274
 30
0.0
 40
30.0
  0
CIRCLE
  5
2423
330
241F
100
AcDbEntity
  8
LW 3850-02-01
100
AcDbCircle
 10
0.0
 20
0.0
 30
0.0
 40
29.0
  0
CIRCLE
  5
2424
330
241F
100
AcDbEntity
  8
LW 3850-02-01
100
AcDbCircle
 10
0.0
 20
20.0
 30
0.0
 40
7.5
  0
CIRCLE
  5
2425
330
241F
100
AcDbEntity
  8
LW 3850-02-01
100
AcDbCircle
 10
0.0
 20
-20.0
 30
0.0
 40
7.5
  0
CIRCLE
  5
2426
330
241F
100
AcDbEntity
  8
LW 3850-02-01
100
AcDbCircle
 10
0.0
 20
-19.99999999999954
 30
0.0
 40
6.500000000000001
  0
LINE
  5
2427
330
241F
100
AcDbEntity
  8
LW 3850-02-01
100
AcDbLine
 10
-1.732050807568839
 20
-16.99999999999977
 30
0.0
 11
1.732050807568839
 21
-16.99999999999977
 31
0.0
  0
LINE
  5
2428
330
241F
100
AcDbEntity
  8
LW 3850-02-01
100
AcDbLine
 10
1.732050807568839
 20
-16.99999999999977
 30
0.0
 11
3.464101615137678
 21
-19.99999999999977
 31
0.0
  0
LINE
  5
2429
330
241F
100
AcDbEntity
  8
LW 3850-02-01
100
AcDbLine
 10
3.464101615137678
 20
-19.99999999999977
 30
0.0
 11
1.732050807568839
 21
-22.99999999999977
 31
0.0
  0
LINE
  5
242A
330
241F
100
AcDbEntity
  8
LW 3850-02-01
100
AcDbLine
 10
1.732050807568839
 20
-22.99999999999977
 30
0.0
 11
-1.732050807568839
 21
-22.99999999999977
 31
0.0
  0
LINE
  5
242B
330
241F
100
AcDbEntity
  8
LW 3850-02-01
100
AcDbLine
 10
-1.732050807568839
 20
-22.99999999999977
 30
0.0
 11
-3.464101615137678
 21
-19.99999999999977
 31
0.0
  0
LINE
  5
242C
330
241F
100
AcDbEntity
  8
LW 3850-02-01
100
AcDbLine
 10
-3.464101615137678
 20
-19.99999999999977
 30
0.0
 11
-1.732050807568839
 21
-16.99999999999977
 31
0.0
  0
CIRCLE
  5
242D
330
241F
100
AcDbEntity
  8
LW 3850-02-01
100
AcDbCircle
 10
0.0
 20
20.00000000000046
 30
0.0
 40
6.500000000000001
  0
LINE
  5
242E
330
241F
100
AcDbEntity
  8
LW 3850-02-01
100
AcDbLine
 10
-1.732050807568839
 20
23.00000000000023
 30
0.0
 11
1.732050807568839
 21
23.00000000000023
 31
0.0
  0
LINE
  5
242F
330
241F
100
AcDbEntity
  8
LW 3850-02-01
100
AcDbLine
 10
1.732050807568839
 20
23.00000000000023
 30
0.0
 11
3.464101615137678
 21
20.00000000000023
 31
0.0
  0
LINE
  5
2430
330
241F
100
AcDbEntity
  8
LW 3850-02-01
100
AcDbLine
 10
3.464101615137678
 20
20.00000000000023
 30
0.0
 11
1.732050807568839
 21
17.00000000000023
 31
0.0
  0
LINE
  5
2431
330
241F
100
AcDbEntity
  8
LW 3850-02-01
100
AcDbLine
 10
1.732050807568839
 20
17.00000000000023
 30
0.0
 11
-1.732050807568839
 21
17.00000000000023
 31
0.0
  0
LINE
  5
2432
330
241F
100
AcDbEntity
  8
LW 3850-02-01
100
AcDbLine
 10
-1.732050807568839
 20
17.00000000000023
 30
0.0
 11
-3.464101615137678
 21
20.00000000000023
 31
0.0
  0
LINE
  5
2433
330
241F
100
AcDbEntity
  8
LW 3850-02-01
100
AcDbLine
 10
-3.464101615137678
 20
20.00000000000023
 30
0.0
 11
-1.732050807568839
 21
23.00000000000023
 31
0.0
  0
LINE
  5
2434
330
241F
100
AcDbEntity
  8
LW 3850-02-01
  6
MITTE2
 62
     3
100
AcDbLine
 10
12.5
 20
20.0
 30
0.0
 11
-12.5
 21
20.0
 31
0.0
  0
LINE
  5
2435
330
241F
100
AcDbEntity
  8
LW 3850-02-01
  6
MITTE2
 62
     3
100
AcDbLine
 10
12.5
 20
-20.0
 30
0.0
 11
-12.5
 21
-20.0
 31
0.0
  0
LINE
  5
2436
330
241F
100
AcDbEntity
  8
LW 3850-02-01
  6
MITTE2
 62
     3
100
AcDbLine
 10
32.5
 20
-0.0000000000001137
 30
0.0
 11
-32.5
 21
-0.0000000000001137
 31
0.0
  0
INSERT
  5
2437
330
241F
100
AcDbEntity
  8
LW 3850-02-01
100
AcDbBlockReference
 66
     1
  2
insertpoint-ECKELT
 10
0.0
 20
-0.0000000000001137
 30
0.0
  0
ATTRIB
  5
2438
330
2437
100
AcDbEntity
  8
insertpoint_ECKELT
100
AcDbText
 10
-6.931514324693087
 20
-0.0000000000001137
 30
0.0
 40
0.6
  1
LW 3850/02-01
 72
     2
 11
-1.200000000000045
 21
-0.0000000000001137
 31
0.0
100
AcDbAttribute
  2
LINKS
 70
     0
  0
ATTRIB
  5
2439
330
2437
100
AcDbEntity
  8
insertpoint_ECKELT
100
AcDbText
 10
1.200000000000045
 20
-0.0000000000001137
 30
0.0
 40
0.6
  1

100
AcDbAttribute
  2
RECHTS
 70
     0
  0
SEQEND
  5
243A
330
2437
100
AcDbEntity
  8
LW 3850-02-01
  0
LINE
  5
243B
330
241F
100
AcDbEntity
  8
LW 3850-02-01
  6
MITTE2
 62
     3
100
AcDbLine
 10
0.0
 20
32.49999999999983
 30
0.0
 11
0.0
 21
-32.50000000000017
 31
0.0
  0
ENDBLK
  5
2421
330
241F
100
AcDbEntity
  8
0
100
AcDbBlockEnd
  0
BLOCK
  5
27B1
330
27B0
100
AcDbEntity
  8
0
100
AcDbBlockBegin
  2
LW 3850-02-01_b
 70
     0
 10
0.0
 20
0.0
 30
0.0
  3
LW 3850-02-01_b
  1

  0
LINE
  5
27B3
330
27B0
100
AcDbEntity
  8
LW 3850-02-01
100
AcDbLine
 10
-11.99641267163861
 20
-40.0
 30
0.0
 11
-30.0
 21
-40.0
 31
0.0
  0
LINE
  5
27B4
330
27B0
100
AcDbEntity
  8
LW 3850-02-01
100
AcDbLine
 10
30.0
 20
-40.0
 30
0.0
 11
11.99641267163861
 21
-40.0
 31
0.0
  0
LINE
  5
27B5
330
27B0
100
AcDbEntity
  8
LW 3850-02-01
100
AcDbLine
 10
30.0
 20
0.0
 30
0.0
 11
-30.0
 21
0.0
 31
0.0
  0
LINE
  5
27B6
330
27B0
100
AcDbEntity
  8
LW 3850-02-01
100
AcDbLine
 10
30.0
 20
0.0
 30
0.0
 11
30.0
 21
-40.0
 31
0.0
  0
LINE
  5
27B7
330
27B0
100
AcDbEntity
  8
LW 3850-02-01
100
AcDbLine
 10
-29.99999999999977
 20
0.0
 30
0.0
 11
-29.99999999999977
 21
-40.0
 31
0.0
  0
LINE
  5
27B8
330
27B0
100
AcDbEntity
  8
LW 3850-02-01
100
AcDbLine
 10
-29.99999999999977
 20
-100.0
 30
0.0
 11
30.0
 21
-100.0
 31
0.0
  0
LINE
  5
27B9
330
27B0
100
AcDbEntity
  8
LW 3850-02-01
100
AcDbLine
 10
-29.99999999999977
 20
-100.0
 30
0.0
 11
-29.99999999999977
 21
-40.0
 31
0.0
  0
LINE
  5
27BA
330
27B0
100
AcDbEntity
  8
LW 3850-02-01
100
AcDbLine
 10
30.0
 20
-100.0
 30
0.0
 11
30.0
 21
-40.0
 31
0.0
  0
LINE
  5
27BB
330
27B0
100
AcDbEntity
  8
LW 3850-02-01
  6
VERDECKT
 62
     6
100
AcDbLine
 10
21.33570040491122
 20
25.0
 30
0.0
 11
21.37599995906567
 21
23.79999999999995
 31
0.0
  0
LINE
  5
27BC
330
27B0
100
AcDbEntity
  8
LW 3850-02-01
  6
VERDECKT
 62
     6
100
AcDbLine
 10
21.37599995906567
 20
23.79999999999995
 30
0.0
 11
21.37599995906567
 21
0.0
 31
0.0
  0
LINE
  5
27BD
330
27B0
100
AcDbEntity
  8
LW 3850-02-01
  6
VERDECKT
 62
     6
100
AcDbLine
 10
20.62400004093479
 20
23.79999999999995
 30
0.0
 11
20.66429959508901
 21
25.0
 31
0.0
  0
LINE
  5
27BE
330
27B0
100
AcDbEntity
  8
LW 3850-02-01
  6
VERDECKT
 62
     6
100
AcDbLine
 10
20.62400004093479
 20
0.0
 30
0.0
 11
20.62400004093479
 21
23.79999999999995
 31
0.0
  0
LINE
  5
27BF
330
27B0
100
AcDbEntity
  8
LW 3850-02-01
  6
VERDECKT
 62
     6
100
AcDbLine
 10
24.0
 20
23.79999999999995
 30
0.0
 11
21.37599995906567
 21
23.79999999999995
 31
0.0
  0
LINE
  5
27C0
330
27B0
100
AcDbEntity
  8
LW 3850-02-01
  6
VERDECKT
 62
     6
100
AcDbLine
 10
20.62400004093479
 20
23.79999999999995
 30
0.0
 11
18.00000000000023
 21
23.79999999999995
 31
0.0
  0
LINE
  5
27C1
330
27B0
100
AcDbEntity
  8
LW 3850-02-01
  6
VERDECKT
 62
     6
100
AcDbLine
 10
23.67846096908284
 20
25.0
 30
0.0
 11
18.32153903091739
 21
25.0
 31
0.0
  0
LINE
  5
27C2
330
27B0
100
AcDbEntity
  8
LW 3850-02-01
  6
VERDECKT
 62
     6
100
AcDbLine
 10
23.67846096908284
 20
25.0
 30
0.0
 11
24.00000000000023
 21
23.79999999999995
 31
0.0
  0
LINE
  5
27C3
330
27B0
100
AcDbEntity
  8
LW 3850-02-01
  6
VERDECKT
 62
     6
100
AcDbLine
 10
18.32153903091739
 20
25.0
 30
0.0
 11
18.00000000000023
 21
23.79999999999995
 31
0.0
  0
LINE
  5
27C4
330
27B0
100
AcDbEntity
  8
LW 3850-02-01
  6
VERDECKT
 62
     6
100
AcDbLine
 10
18.00000000000023
 20
0.0
 30
0.0
 11
18.00000000000023
 21
23.79999999999995
 31
0.0
  0
LINE
  5
27C5
330
27B0
100
AcDbEntity
  8
LW 3850-02-01
  6
VERDECKT
 62
     6
100
AcDbLine
 10
24.0
 20
0.0
 30
0.0
 11
24.00000000000023
 21
23.79999999999995
 31
0.0
  0
LINE
  5
27C6
330
27B0
100
AcDbEntity
  8
LW 3850-02-01
  6
VERDECKT
 62
     6
100
AcDbLine
 10
-20.66429959508878
 20
25.0
 30
0.0
 11
-20.62400004093433
 21
23.80000000000001
 31
0.0
  0
LINE
  5
27C7
330
27B0
100
AcDbEntity
  8
LW 3850-02-01
  6
VERDECKT
 62
     6
100
AcDbLine
 10
-20.62400004093433
 20
23.80000000000001
 30
0.0
 11
-20.62400004093433
 21
0.0
 31
0.0
  0
LINE
  5
27C8
330
27B0
100
AcDbEntity
  8
LW 3850-02-01
  6
VERDECKT
 62
     6
100
AcDbLine
 10
-21.37599995906521
 20
23.80000000000001
 30
0.0
 11
-21.33570040491099
 21
25.0
 31
0.0
  0
LINE
  5
27C9
330
27B0
100
AcDbEntity
  8
LW 3850-02-01
  6
VERDECKT
 62
     6
100
AcDbLine
 10
-21.37599995906521
 20
0.0
 30
0.0
 11
-21.37599995906521
 21
23.80000000000001
 31
0.0
  0
LINE
  5
27CA
330
27B0
100
AcDbEntity
  8
LW 3850-02-01
  6
VERDECKT
 62
     6
100
AcDbLine
 10
-18.0
 20
23.80000000000001
 30
0.0
 11
-20.62400004093433
 21
23.80000000000001
 31
0.0
  0
LINE
  5
27CB
330
27B0
100
AcDbEntity
  8
LW 3850-02-01
  6
VERDECKT
 62
     6
100
AcDbLine
 10
-21.37599995906521
 20
23.80000000000001
 30
0.0
 11
-24.0
 21
23.80000000000001
 31
0.0
  0
LINE
  5
27CC
330
27B0
100
AcDbEntity
  8
LW 3850-02-01
  6
VERDECKT
 62
     6
100
AcDbLine
 10
-18.32153903091716
 20
25.0
 30
0.0
 11
-23.67846096908261
 21
25.0
 31
0.0
  0
LINE
  5
27CD
330
27B0
100
AcDbEntity
  8
LW 3850-02-01
  6
VERDECKT
 62
     6
100
AcDbLine
 10
-18.32153903091716
 20
25.0
 30
0.0
 11
-18.0
 21
23.80000000000001
 31
0.0
  0
LINE
  5
27CE
330
27B0
100
AcDbEntity
  8
LW 3850-02-01
  6
VERDECKT
 62
     6
100
AcDbLine
 10
-23.67846096908261
 20
25.0
 30
0.0
 11
-24.0
 21
23.79999999999995
 31
0.0
  0
LINE
  5
27CF
330
27B0
100
AcDbEntity
  8
LW 3850-02-01
  6
VERDECKT
 62
     6
100
AcDbLine
 10
-24.0
 20
0.0
 30
0.0
 11
-24.0
 21
23.79999999999995
 31
0.0
  0
LINE
  5
27D0
330
27B0
100
AcDbEntity
  8
LW 3850-02-01
  6
VERDECKT
 62
     6
100
AcDbLine
 10
-18.0
 20
0.0
 30
0.0
 11
-18.0
 21
23.80000000000001
 31
0.0
  0
POLYLINE
  5
27D1
330
27B0
100
AcDbEntity
  8
LW 3850-02-01
100
AcDb2dPolyline
 66
     1
 10
0.0
 20
0.0
 30
0.0
 70
   128
  0
VERTEX
  5
27D2
330
27D1
100
AcDbEntity
  8
LW 3850-02-01
100
AcDbVertex
100
AcDb2dVertex
 10
27.64348143965435
 20
-119.9983286857605
 30
0.0
  0
VERTEX
  5
27D3
330
27D1
100
AcDbEntity
  8
LW 3850-02-01
100
AcDbVertex
100
AcDb2dVertex
 10
27.65130872160626
 20
-119.9974596500396
 30
0.0
  0
VERTEX
  5
27D4
330
27D1
100
AcDbEntity
  8
LW 3850-02-01
100
AcDbVertex
100
AcDb2dVertex
 10
27.65879268080425
 20
-119.9964022636413
 30
0.0
  0
VERTEX
  5
27D5
330
27D1
100
AcDbEntity
  8
LW 3850-02-01
100
AcDbVertex
100
AcDb2dVertex
 10
27.66593808561993
 20
-119.9951553344726
 30
0.0
  0
VERTEX
  5
27D6
330
27D1
100
AcDbEntity
  8
LW 3850-02-01
100
AcDbVertex
100
AcDb2dVertex
 10
27.67274493605328
 20
-119.9937164783477
 30
0.0
  0
VERTEX
  5
27D7
330
27D1
100
AcDbEntity
  8
LW 3850-02-01
100
AcDbVertex
100
AcDb2dVertex
 10
27.6792132321043
 20
-119.9920845031738
 30
0.0
  0
VERTEX
  5
27D8
330
27D1
100
AcDbEntity
  8
LW 3850-02-01
100
AcDbVertex
100
AcDb2dVertex
 10
27.68534774214459
 20
-119.990257024765
 30
0.0
  0
VERTEX
  5
27D9
330
27D1
100
AcDbEntity
  8
LW 3850-02-01
100
AcDbVertex
100
AcDb2dVertex
 10
27.69114369780254
 20
-119.9882328510284
 30
0.0
  0
VERTEX
  5
27DA
330
27D1
100
AcDbEntity
  8
LW 3850-02-01
100
AcDbVertex
100
AcDb2dVertex
 10
27.69660825163555
 20
-119.9860095977783
 30
0.0
  0
VERTEX
  5
27DB
330
27D1
100
AcDbEntity
  8
LW 3850-02-01
100
AcDbVertex
100
AcDb2dVertex
 10
27.70173663527203
 20
-119.9835848808288
 30
0.0
  0
VERTEX
  5
27DC
330
27D1
100
AcDbEntity
  8
LW 3850-02-01
100
AcDbVertex
100
AcDb2dVertex
 10
27.70653600126934
 20
-119.9809575080871
 30
0.0
  0
VERTEX
  5
27DD
330
27D1
100
AcDbEntity
  8
LW 3850-02-01
100
AcDbVertex
100
AcDb2dVertex
 10
27.7110063496275
 20
-119.9781262874603
 30
0.0
  0
VERTEX
  5
27DE
330
27D1
100
AcDbEntity
  8
LW 3850-02-01
100
AcDbVertex
100
AcDb2dVertex
 10
27.7151452961607
 20
-119.9750876426697
 30
0.0
  0
VERTEX
  5
27DF
330
27D1
100
AcDbEntity
  8
LW 3850-02-01
100
AcDbVertex
100
AcDb2dVertex
 10
27.71895760924053
 20
-119.9718415737152
 30
0.0
  0
VERTEX
  5
27E0
330
27D1
100
AcDbEntity
  8
LW 3850-02-01
100
AcDbVertex
100
AcDb2dVertex
 10
27.722443288867
 20
-119.9683856964111
 30
0.0
  0
VERTEX
  5
27E1
330
27D1
100
AcDbEntity
  8
LW 3850-02-01
100
AcDbVertex
100
AcDb2dVertex
 10
27.72560233504009
 20
-119.9647176265716
 30
0.0
  0
VERTEX
  5
27E2
330
27D1
100
AcDbEntity
  8
LW 3850-02-01
100
AcDbVertex
100
AcDb2dVertex
 10
27.72843713194561
 20
-119.9608361721039
 30
0.0
  0
VERTEX
  5
27E3
330
27D1
100
AcDbEntity
  8
LW 3850-02-01
100
AcDbVertex
100
AcDb2dVertex
 10
27.73095006376934
 20
-119.9567377567291
 30
0.0
  0
VERTEX
  5
27E4
330
27D1
100
AcDbEntity
  8
LW 3850-02-01
100
AcDbVertex
100
AcDb2dVertex
 10
27.73314113051128
 20
-119.9524235725403
 30
0.0
  0
VERTEX
  5
27E5
330
27D1
100
AcDbEntity
  8
LW 3850-02-01
100
AcDbVertex
100
AcDb2dVertex
 10
27.73501271635723
 20
-119.9478888511658
 30
0.0
  0
VERTEX
  5
27E6
330
27D1
100
AcDbEntity
  8
LW 3850-02-01
100
AcDbVertex
100
AcDb2dVertex
 10
27.73656482130718
 20
-119.9431335926056
 30
0.0
  0
VERTEX
  5
27E7
330
27D1
100
AcDbEntity
  8
LW 3850-02-01
100
AcDbVertex
100
AcDb2dVertex
 10
27.73779744536114
 20
-119.9381566047668
 30
0.0
  0
VERTEX
  5
27E8
330
27D1
100
AcDbEntity
  8
LW 3850-02-01
100
AcDbVertex
100
AcDb2dVertex
 10
27.73871297270489
 20
-119.9329721927643
 30
0.0
  0
VERTEX
  5
27E9
330
27D1
100
AcDbEntity
  8
LW 3850-02-01
100
AcDbVertex
100
AcDb2dVertex
 10
27.73931378752422
 20
-119.9275875091553
 30
0.0
  0
VERTEX
  5
27EA
330
27D1
100
AcDbEntity
  8
LW 3850-02-01
100
AcDbVertex
100
AcDb2dVertex
 10
27.73959988981915
 20
-119.9220025539398
 30
0.0
  0
SEQEND
  5
27EB
330
27D1
100
AcDbEntity
  8
LW 3850-02-01
  0
POLYLINE
  5
27EC
330
27B0
100
AcDbEntity
  8
LW 3850-02-01
100
AcDb2dPolyline
 66
     1
 10
0.0
 20
0.0
 30
0.0
 70
   128
  0
VERTEX
  5
27ED
330
27EC
100
AcDbEntity
  8
LW 3850-02-01
100
AcDbVertex
100
AcDb2dVertex
 10
-27.73959522813129
 20
-119.9220025539398
 30
0.0
  0
VERTEX
  5
27EE
330
27EC
100
AcDbEntity
  8
LW 3850-02-01
100
AcDbVertex
100
AcDb2dVertex
 10
-27.73930912583637
 20
-119.9275875091553
 30
0.0
  0
VERTEX
  5
27EF
330
27EC
100
AcDbEntity
  8
LW 3850-02-01
100
AcDbVertex
100
AcDb2dVertex
 10
-27.73870831101703
 20
-119.9329721927643
 30
0.0
  0
VERTEX
  5
27F0
330
27EC
100
AcDbEntity
  8
LW 3850-02-01
100
AcDbVertex
100
AcDb2dVertex
 10
-27.73779278367328
 20
-119.9381566047668
 30
0.0
  0
VERTEX
  5
27F1
330
27EC
100
AcDbEntity
  8
LW 3850-02-01
100
AcDbVertex
100
AcDb2dVertex
 10
-27.73656254380512
 20
-119.9431335926056
 30
0.0
  0
VERTEX
  5
27F2
330
27EC
100
AcDbEntity
  8
LW 3850-02-01
100
AcDbVertex
100
AcDb2dVertex
 10
-27.73500805466938
 20
-119.9478888511658
 30
0.0
  0
VERTEX
  5
27F3
330
27EC
100
AcDbEntity
  8
LW 3850-02-01
100
AcDbVertex
100
AcDb2dVertex
 10
-27.73313885300922
 20
-119.9524235725403
 30
0.0
  0
VERTEX
  5
27F4
330
27EC
100
AcDbEntity
  8
LW 3850-02-01
100
AcDbVertex
100
AcDb2dVertex
 10
-27.73094540208149
 20
-119.9567377567291
 30
0.0
  0
VERTEX
  5
27F5
330
27EC
100
AcDbEntity
  8
LW 3850-02-01
100
AcDbVertex
100
AcDb2dVertex
 10
-27.72843723862934
 20
-119.9608361721039
 30
0.0
  0
VERTEX
  5
27F6
330
27EC
100
AcDbEntity
  8
LW 3850-02-01
100
AcDbVertex
100
AcDb2dVertex
 10
-27.72560482590961
 20
-119.9647176265716
 30
0.0
  0
VERTEX
  5
27F7
330
27EC
100
AcDbEntity
  8
LW 3850-02-01
100
AcDbVertex
100
AcDb2dVertex
 10
-27.72243862717914
 20
-119.9683856964111
 30
0.0
  0
VERTEX
  5
27F8
330
27EC
100
AcDbEntity
  8
LW 3850-02-01
100
AcDbVertex
100
AcDb2dVertex
 10
-27.71895771592426
 20
-119.9718415737152
 30
0.0
  0
VERTEX
  5
27F9
330
27EC
100
AcDbEntity
  8
LW 3850-02-01
100
AcDbVertex
100
AcDb2dVertex
 10
-27.71514301865864
 20
-119.9750876426697
 30
0.0
  0
VERTEX
  5
27FA
330
27EC
100
AcDbEntity
  8
LW 3850-02-01
100
AcDbVertex
100
AcDb2dVertex
 10
-27.71100407212543
 20
-119.9781262874603
 30
0.0
  0
VERTEX
  5
27FB
330
27EC
100
AcDbEntity
  8
LW 3850-02-01
100
AcDbVertex
100
AcDb2dVertex
 10
-27.70653133958149
 20
-119.9809575080871
 30
0.0
  0
VERTEX
  5
27FC
330
27EC
100
AcDbEntity
  8
LW 3850-02-01
100
AcDbVertex
100
AcDb2dVertex
 10
-27.70173435776996
 20
-119.9835848808288
 30
0.0
  0
VERTEX
  5
27FD
330
27EC
100
AcDbEntity
  8
LW 3850-02-01
100
AcDbVertex
100
AcDb2dVertex
 10
-27.6966035899477
 20
-119.9860095977783
 30
0.0
  0
VERTEX
  5
27FE
330
27EC
100
AcDbEntity
  8
LW 3850-02-01
100
AcDbVertex
100
AcDb2dVertex
 10
-27.69113903611469
 20
-119.9882328510284
 30
0.0
  0
VERTEX
  5
27FF
330
27EC
100
AcDbEntity
  8
LW 3850-02-01
100
AcDbVertex
100
AcDb2dVertex
 10
-27.6853502330141
 20
-119.990257024765
 30
0.0
  0
VERTEX
  5
2800
330
27EC
100
AcDbEntity
  8
LW 3850-02-01
100
AcDbVertex
100
AcDb2dVertex
 10
-27.67920857041645
 20
-119.9920845031738
 30
0.0
  0
VERTEX
  5
2801
330
27EC
100
AcDbEntity
  8
LW 3850-02-01
100
AcDbVertex
100
AcDb2dVertex
 10
-27.67274265855121
 20
-119.9937164783477
 30
0.0
  0
VERTEX
  5
2802
330
27EC
100
AcDbEntity
  8
LW 3850-02-01
100
AcDbVertex
100
AcDb2dVertex
 10
-27.66593342393207
 20
-119.9951553344726
 30
0.0
  0
VERTEX
  5
2803
330
27EC
100
AcDbEntity
  8
LW 3850-02-01
100
AcDbVertex
100
AcDb2dVertex
 10
-27.65879040330219
 20
-119.9964022636413
 30
0.0
  0
VERTEX
  5
2804
330
27EC
100
AcDbEntity
  8
LW 3850-02-01
100
AcDbVertex
100
AcDb2dVertex
 10
-27.6513040599184
 20
-119.9974596500396
 30
0.0
  0
VERTEX
  5
2805
330
27EC
100
AcDbEntity
  8
LW 3850-02-01
100
AcDbVertex
100
AcDb2dVertex
 10
-27.64348393052387
 20
-119.9983286857605
 30
0.0
  0
SEQEND
  5
2806
330
27EC
100
AcDbEntity
  8
LW 3850-02-01
  0
POLYLINE
  5
2807
330
27B0
100
AcDbEntity
  8
LW 3850-02-01
100
AcDb2dPolyline
 66
     1
 10
0.0
 20
0.0
 30
0.0
 70
   128
  0
VERTEX
  5
2808
330
2807
100
AcDbEntity
  8
LW 3850-02-01
100
AcDbVertex
100
AcDb2dVertex
 10
29.9183821144743
 20
-109.7349977493286
 30
0.0
  0
VERTEX
  5
2809
330
2807
100
AcDbEntity
  8
LW 3850-02-01
100
AcDbVertex
100
AcDb2dVertex
 10
29.89990705877972
 20
-109.7825914621353
 30
0.0
  0
VERTEX
  5
280A
330
2807
100
AcDbEntity
  8
LW 3850-02-01
100
AcDbVertex
100
AcDb2dVertex
 10
29.8769306603117
 20
-109.8420292139053
 30
0.0
  0
VERTEX
  5
280B
330
2807
100
AcDbEntity
  8
LW 3850-02-01
100
AcDbVertex
100
AcDb2dVertex
 10
29.84503502279949
 20
-109.9250048398971
 30
0.0
  0
VERTEX
  5
280C
330
2807
100
AcDbEntity
  8
LW 3850-02-01
100
AcDbVertex
100
AcDb2dVertex
 10
29.80444187552166
 20
-110.0313913822174
 30
0.0
  0
VERTEX
  5
280D
330
2807
100
AcDbEntity
  8
LW 3850-02-01
100
AcDbVertex
100
AcDb2dVertex
 10
29.75557321936321
 20
-110.1607453823089
 30
0.0
  0
VERTEX
  5
280E
330
2807
100
AcDbEntity
  8
LW 3850-02-01
100
AcDbVertex
100
AcDb2dVertex
 10
29.698841518466
 20
-110.3126430511474
 30
0.0
  0
VERTEX
  5
280F
330
2807
100
AcDbEntity
  8
LW 3850-02-01
100
AcDbVertex
100
AcDb2dVertex
 10
29.63441128164959
 20
-110.487368106842
 30
0.0
  0
VERTEX
  5
2810
330
2807
100
AcDbEntity
  8
LW 3850-02-01
100
AcDbVertex
100
AcDb2dVertex
 10
29.56286663443279
 20
-110.6844890117645
 30
0.0
  0
VERTEX
  5
2811
330
2807
100
AcDbEntity
  8
LW 3850-02-01
100
AcDbVertex
100
AcDb2dVertex
 10
29.48495382696819
 20
-110.9032464027404
 30
0.0
  0
VERTEX
  5
2812
330
2807
100
AcDbEntity
  8
LW 3850-02-01
100
AcDbVertex
100
AcDb2dVertex
 10
29.40140957266521
 20
-111.1428809165954
 30
0.0
  0
VERTEX
  5
2813
330
2807
100
AcDbEntity
  8
LW 3850-02-01
100
AcDbVertex
100
AcDb2dVertex
 10
29.31298250586224
 20
-111.402633190155
 30
0.0
  0
VERTEX
  5
2814
330
2807
100
AcDbEntity
  8
LW 3850-02-01
100
AcDbVertex
100
AcDb2dVertex
 10
29.22040933996868
 20
-111.6817438602447
 30
0.0
  0
VERTEX
  5
2815
330
2807
100
AcDbEntity
  8
LW 3850-02-01
100
AcDbVertex
100
AcDb2dVertex
 10
29.12441009909344
 20
-111.9795513153076
 30
0.0
  0
VERTEX
  5
2816
330
2807
100
AcDbEntity
  8
LW 3850-02-01
100
AcDbVertex
100
AcDb2dVertex
 10
29.02539963156414
 20
-112.2967004776001
 30
0.0
  0
VERTEX
  5
2817
330
2807
100
AcDbEntity
  8
LW 3850-02-01
100
AcDbVertex
100
AcDb2dVertex
 10
28.92418975264263
 20
-112.6327383518219
 30
0.0
  0
VERTEX
  5
2818
330
2807
100
AcDbEntity
  8
LW 3850-02-01
100
AcDbVertex
100
AcDb2dVertex
 10
28.8217389050169
 20
-112.9867017269134
 30
0.0
  0
VERTEX
  5
2819
330
2807
100
AcDbEntity
  8
LW 3850-02-01
100
AcDbVertex
100
AcDb2dVertex
 10
28.71900433928204
 20
-113.3576321601867
 30
0.0
  0
VERTEX
  5
281A
330
2807
100
AcDbEntity
  8
LW 3850-02-01
100
AcDbVertex
100
AcDb2dVertex
 10
28.61694688231182
 20
-113.7445676326751
 30
0.0
  0
VERTEX
  5
281B
330
2807
100
AcDbEntity
  8
LW 3850-02-01
100
AcDbVertex
100
AcDb2dVertex
 10
28.51652020842266
 20
-114.1465473175049
 30
0.0
  0
VERTEX
  5
281C
330
2807
100
AcDbEntity
  8
LW 3850-02-01
100
AcDbVertex
100
AcDb2dVertex
 10
28.41851109892559
 20
-114.5635056495666
 30
0.0
  0
VERTEX
  5
281D
330
2807
100
AcDbEntity
  8
LW 3850-02-01
100
AcDbVertex
100
AcDb2dVertex
 10
28.32353467375469
 20
-114.9961423873901
 30
0.0
  0
VERTEX
  5
281E
330
2807
100
AcDbEntity
  8
LW 3850-02-01
100
AcDbVertex
100
AcDb2dVertex
 10
28.2325636807127
 20
-115.4431271553039
 30
0.0
  0
VERTEX
  5
281F
330
2807
100
AcDbEntity
  8
LW 3850-02-01
100
AcDbVertex
100
AcDb2dVertex
 10
28.14658755690289
 20
-115.9030652046203
 30
0.0
  0
VERTEX
  5
2820
330
2807
100
AcDbEntity
  8
LW 3850-02-01
100
AcDbVertex
100
AcDb2dVertex
 10
28.0666005078001
 20
-116.3745594024658
 30
0.0
  0
VERTEX
  5
2821
330
2807
100
AcDbEntity
  8
LW 3850-02-01
100
AcDbVertex
100
AcDb2dVertex
 10
27.99358958632183
 20
-116.8562138080597
 30
0.0
  0
VERTEX
  5
2822
330
2807
100
AcDbEntity
  8
LW 3850-02-01
100
AcDbVertex
100
AcDb2dVertex
 10
27.92840117842388
 20
-117.3479914665222
 30
0.0
  0
VERTEX
  5
2823
330
2807
100
AcDbEntity
  8
LW 3850-02-01
100
AcDbVertex
100
AcDb2dVertex
 10
27.87156457335186
 20
-117.8502833843231
 30
0.0
  0
VERTEX
  5
2824
330
2807
100
AcDbEntity
  8
LW 3850-02-01
100
AcDbVertex
100
AcDb2dVertex
 10
27.82367104918194
 20
-118.3609759807586
 30
0.0
  0
VERTEX
  5
2825
330
2807
100
AcDbEntity
  8
LW 3850-02-01
100
AcDbVertex
100
AcDb2dVertex
 10
27.78531426817608
 20
-118.8779246807098
 30
0.0
  0
VERTEX
  5
2826
330
2807
100
AcDbEntity
  8
LW 3850-02-01
100
AcDbVertex
100
AcDb2dVertex
 10
27.75709027678204
 20
-119.3989849090576
 30
0.0
  0
VERTEX
  5
2827
330
2807
100
AcDbEntity
  8
LW 3850-02-01
100
AcDbVertex
100
AcDb2dVertex
 10
27.73959273726177
 20
-119.9220085144043
 30
0.0
  0
SEQEND
  5
2828
330
2807
100
AcDbEntity
  8
LW 3850-02-01
  0
ARC
  5
2829
330
27B0
100
AcDbEntity
  8
LW 3850-02-01
100
AcDbCircle
 10
28.79999999999995
 20
-109.2999999999999
 30
0.0
 40
1.200000000000269
100
AcDbArc
 50
338.7463494903351
 51
0.0
  0
POLYLINE
  5
282A
330
27B0
100
AcDbEntity
  8
LW 3850-02-01
100
AcDb2dPolyline
 66
     1
 10
0.0
 20
0.0
 30
0.0
 70
   128
  0
VERTEX
  5
282B
330
282A
100
AcDbEntity
  8
LW 3850-02-01
100
AcDbVertex
100
AcDb2dVertex
 10
-29.91840725510883
 20
-109.734935760498
 30
0.0
  0
VERTEX
  5
282C
330
282A
100
AcDbEntity
  8
LW 3850-02-01
100
AcDbVertex
100
AcDb2dVertex
 10
-29.9794233378725
 20
-109.5212459564209
 30
0.0
  0
VERTEX
  5
282D
330
282A
100
AcDbEntity
  8
LW 3850-02-01
100
AcDbVertex
100
AcDb2dVertex
 10
-30.00000362962055
 20
-109.3000000715256
 30
0.0
  0
SEQEND
  5
282E
330
282A
100
AcDbEntity
  8
LW 3850-02-01
  0
POLYLINE
  5
282F
330
27B0
100
AcDbEntity
  8
LW 3850-02-01
100
AcDb2dPolyline
 66
     1
 10
0.0
 20
0.0
 30
0.0
 70
   128
  0
VERTEX
  5
2830
330
282F
100
AcDbEntity
  8
LW 3850-02-01
100
AcDbVertex
100
AcDb2dVertex
 10
-27.73959522813129
 20
-119.9220085144043
 30
0.0
  0
VERTEX
  5
2831
330
282F
100
AcDbEntity
  8
LW 3850-02-01
100
AcDbVertex
100
AcDb2dVertex
 10
-27.75708561509418
 20
-119.3989837169647
 30
0.0
  0
VERTEX
  5
2832
330
282F
100
AcDbEntity
  8
LW 3850-02-01
100
AcDbVertex
100
AcDb2dVertex
 10
-27.78531437485981
 20
-118.877922296524
 30
0.0
  0
VERTEX
  5
2833
330
282F
100
AcDbEntity
  8
LW 3850-02-01
100
AcDbVertex
100
AcDb2dVertex
 10
-27.82367115586567
 20
-118.36097240448
 30
0.0
  0
VERTEX
  5
2834
330
282F
100
AcDbEntity
  8
LW 3850-02-01
100
AcDbVertex
100
AcDb2dVertex
 10
-27.87156468003559
 20
-117.8502774238586
 30
0.0
  0
VERTEX
  5
2835
330
282F
100
AcDbEntity
  8
LW 3850-02-01
100
AcDbVertex
100
AcDb2dVertex
 10
-27.9284036692934
 20
-117.3479843139648
 30
0.0
  0
VERTEX
  5
2836
330
282F
100
AcDbEntity
  8
LW 3850-02-01
100
AcDbVertex
100
AcDb2dVertex
 10
-27.99358730881977
 20
-116.8562042713165
 30
0.0
  0
VERTEX
  5
2837
330
282F
100
AcDbEntity
  8
LW 3850-02-01
100
AcDbVertex
100
AcDb2dVertex
 10
-28.06660061448383
 20
-116.3745498657226
 30
0.0
  0
VERTEX
  5
2838
330
282F
100
AcDbEntity
  8
LW 3850-02-01
100
AcDbVertex
100
AcDb2dVertex
 10
-28.14658527940082
 20
-115.9030544757843
 30
0.0
  0
VERTEX
  5
2839
330
282F
100
AcDbEntity
  8
LW 3850-02-01
100
AcDbVertex
100
AcDb2dVertex
 10
-28.23255901902485
 20
-115.4431176185608
 30
0.0
  0
VERTEX
  5
283A
330
282F
100
AcDbEntity
  8
LW 3850-02-01
100
AcDbVertex
100
AcDb2dVertex
 10
-28.32353954881
 20
-114.9961316585541
 30
0.0
  0
VERTEX
  5
283B
330
282F
100
AcDbEntity
  8
LW 3850-02-01
100
AcDbVertex
100
AcDb2dVertex
 10
-28.4185159739809
 20
-114.5634937286377
 30
0.0
  0
VERTEX
  5
283C
330
282F
100
AcDbEntity
  8
LW 3850-02-01
100
AcDbVertex
100
AcDb2dVertex
 10
-28.51652508347797
 20
-114.146534204483
 30
0.0
  0
VERTEX
  5
283D
330
282F
100
AcDbEntity
  8
LW 3850-02-01
100
AcDbVertex
100
AcDb2dVertex
 10
-28.61694698899555
 20
-113.7445545196533
 30
0.0
  0
VERTEX
  5
283E
330
282F
100
AcDbEntity
  8
LW 3850-02-01
100
AcDbVertex
100
AcDb2dVertex
 10
-28.71900921433735
 20
-113.3576190471649
 30
0.0
  0
VERTEX
  5
283F
330
282F
100
AcDbEntity
  8
LW 3850-02-01
100
AcDbVertex
100
AcDb2dVertex
 10
-28.82173901170063
 20
-112.9866886138916
 30
0.0
  0
VERTEX
  5
2840
330
282F
100
AcDbEntity
  8
LW 3850-02-01
100
AcDbVertex
100
AcDb2dVertex
 10
-28.92419224351215
 20
-112.6327252388
 30
0.0
  0
VERTEX
  5
2841
330
282F
100
AcDbEntity
  8
LW 3850-02-01
100
AcDbVertex
100
AcDb2dVertex
 10
-29.02540569871235
 20
-112.2966873645782
 30
0.0
  0
VERTEX
  5
2842
330
282F
100
AcDbEntity
  8
LW 3850-02-01
100
AcDbVertex
100
AcDb2dVertex
 10
-29.12441616624164
 20
-111.9795370101928
 30
0.0
  0
VERTEX
  5
2843
330
282F
100
AcDbEntity
  8
LW 3850-02-01
100
AcDbVertex
100
AcDb2dVertex
 10
-29.2204130229311
 20
-111.6817307472229
 30
0.0
  0
VERTEX
  5
2844
330
282F
100
AcDbEntity
  8
LW 3850-02-01
100
AcDbVertex
100
AcDb2dVertex
 10
-29.31298618882465
 20
-111.4026200771331
 30
0.0
  0
VERTEX
  5
2845
330
282F
100
AcDbEntity
  8
LW 3850-02-01
100
AcDbVertex
100
AcDb2dVertex
 10
-29.40141087144184
 20
-111.1428689956665
 30
0.0
  0
VERTEX
  5
2846
330
282F
100
AcDbEntity
  8
LW 3850-02-01
100
AcDbVertex
100
AcDb2dVertex
 10
-29.48495274155903
 20
-110.9032356739044
 30
0.0
  0
VERTEX
  5
2847
330
282F
100
AcDbEntity
  8
LW 3850-02-01
100
AcDbVertex
100
AcDb2dVertex
 10
-29.56286793320942
 20
-110.6844782829284
 30
0.0
  0
VERTEX
  5
2848
330
282F
100
AcDbEntity
  8
LW 3850-02-01
100
AcDbVertex
100
AcDb2dVertex
 10
-29.63441258042621
 20
-110.4873585700989
 30
0.0
  0
VERTEX
  5
2849
330
282F
100
AcDbEntity
  8
LW 3850-02-01
100
AcDbVertex
100
AcDb2dVertex
 10
-29.69884281724262
 20
-110.3126335144043
 30
0.0
  0
VERTEX
  5
284A
330
282F
100
AcDbEntity
  8
LW 3850-02-01
100
AcDbVertex
100
AcDb2dVertex
 10
-29.75557690232563
 20
-110.1607358455658
 30
0.0
  0
VERTEX
  5
284B
330
282F
100
AcDbEntity
  8
LW 3850-02-01
100
AcDbVertex
100
AcDb2dVertex
 10
-29.80444317429828
 20
-110.03138422966
 30
0.0
  0
VERTEX
  5
284C
330
282F
100
AcDbEntity
  8
LW 3850-02-01
100
AcDbVertex
100
AcDb2dVertex
 10
-29.8450410899477
 20
-109.9249988794326
 30
0.0
  0
VERTEX
  5
284D
330
282F
100
AcDbEntity
  8
LW 3850-02-01
100
AcDbVertex
100
AcDb2dVertex
 10
-29.87693195908832
 20
-109.8420244455337
 30
0.0
  0
VERTEX
  5
284E
330
282F
100
AcDbEntity
  8
LW 3850-02-01
100
AcDbVertex
100
AcDb2dVertex
 10
-29.89990597337055
 20
-109.7825878858566
 30
0.0
  0
VERTEX
  5
284F
330
282F
100
AcDbEntity
  8
LW 3850-02-01
100
AcDbVertex
100
AcDb2dVertex
 10
-29.91840725510883
 20
-109.734935760498
 30
0.0
  0
SEQEND
  5
2850
330
282F
100
AcDbEntity
  8
LW 3850-02-01
  0
POLYLINE
  5
2851
330
27B0
100
AcDbEntity
  8
LW 3850-02-01
100
AcDb2dPolyline
 66
     1
 10
0.0
 20
0.0
 30
0.0
 70
   128
  0
VERTEX
  5
2852
330
2851
100
AcDbEntity
  8
LW 3850-02-01
100
AcDbVertex
100
AcDb2dVertex
 10
27.60887736708355
 20
-120.0
 30
0.0
  0
VERTEX
  5
2853
330
2851
100
AcDbEntity
  8
LW 3850-02-01
100
AcDbVertex
100
AcDb2dVertex
 10
27.61031264692974
 20
-119.9999976158142
 30
0.0
  0
VERTEX
  5
2854
330
2851
100
AcDbEntity
  8
LW 3850-02-01
100
AcDbVertex
100
AcDb2dVertex
 10
27.61175031096172
 20
-119.999988079071
 30
0.0
  0
VERTEX
  5
2855
330
2851
100
AcDbEntity
  8
LW 3850-02-01
100
AcDbVertex
100
AcDb2dVertex
 10
27.61318797499371
 20
-119.9999737739563
 30
0.0
  0
VERTEX
  5
2856
330
2851
100
AcDbEntity
  8
LW 3850-02-01
100
AcDbVertex
100
AcDb2dVertex
 10
27.61462563902569
 20
-119.99995470047
 30
0.0
  0
VERTEX
  5
2857
330
2851
100
AcDbEntity
  8
LW 3850-02-01
100
AcDbVertex
100
AcDb2dVertex
 10
27.61606568724346
 20
-119.9999284744262
 30
0.0
  0
VERTEX
  5
2858
330
2851
100
AcDbEntity
  8
LW 3850-02-01
100
AcDbVertex
100
AcDb2dVertex
 10
27.61750335127544
 20
-119.9998962879181
 30
0.0
  0
VERTEX
  5
2859
330
2851
100
AcDbEntity
  8
LW 3850-02-01
100
AcDbVertex
100
AcDb2dVertex
 10
27.61894339949322
 20
-119.9998593330383
 30
0.0
  0
VERTEX
  5
285A
330
2851
100
AcDbEntity
  8
LW 3850-02-01
100
AcDbVertex
100
AcDb2dVertex
 10
27.62038344771099
 20
-119.9998164176941
 30
0.0
  0
VERTEX
  5
285B
330
2851
100
AcDbEntity
  8
LW 3850-02-01
100
AcDbVertex
100
AcDb2dVertex
 10
27.62182349592877
 20
-119.9997675418853
 30
0.0
  0
VERTEX
  5
285C
330
2851
100
AcDbEntity
  8
LW 3850-02-01
100
AcDbVertex
100
AcDb2dVertex
 10
27.62326592833233
 20
-119.9997127056122
 30
0.0
  0
VERTEX
  5
285D
330
2851
100
AcDbEntity
  8
LW 3850-02-01
100
AcDbVertex
100
AcDb2dVertex
 10
27.6247059765501
 20
-119.9996519088745
 30
0.0
  0
VERTEX
  5
285E
330
2851
100
AcDbEntity
  8
LW 3850-02-01
100
AcDbVertex
100
AcDb2dVertex
 10
27.62614840895367
 20
-119.9995851516723
 30
0.0
  0
VERTEX
  5
285F
330
2851
100
AcDbEntity
  8
LW 3850-02-01
100
AcDbVertex
100
AcDb2dVertex
 10
27.62759084135723
 20
-119.9995136260986
 30
0.0
  0
VERTEX
  5
2860
330
2851
100
AcDbEntity
  8
LW 3850-02-01
100
AcDbVertex
100
AcDb2dVertex
 10
27.6290332737608
 20
-119.9994349479675
 30
0.0
  0
VERTEX
  5
2861
330
2851
100
AcDbEntity
  8
LW 3850-02-01
100
AcDbVertex
100
AcDb2dVertex
 10
27.63047809035015
 20
-119.9993515014648
 30
0.0
  0
VERTEX
  5
2862
330
2851
100
AcDbEntity
  8
LW 3850-02-01
100
AcDbVertex
100
AcDb2dVertex
 10
27.63192052275372
 20
-119.9992609024048
 30
0.0
  0
VERTEX
  5
2863
330
2851
100
AcDbEntity
  8
LW 3850-02-01
100
AcDbVertex
100
AcDb2dVertex
 10
27.63336533934307
 20
-119.9991655349731
 30
0.0
  0
VERTEX
  5
2864
330
2851
100
AcDbEntity
  8
LW 3850-02-01
100
AcDbVertex
100
AcDb2dVertex
 10
27.63480777174664
 20
-119.999064207077
 30
0.0
  0
VERTEX
  5
2865
330
2851
100
AcDbEntity
  8
LW 3850-02-01
100
AcDbVertex
100
AcDb2dVertex
 10
27.63625258833599
 20
-119.9989557266235
 30
0.0
  0
VERTEX
  5
2866
330
2851
100
AcDbEntity
  8
LW 3850-02-01
100
AcDbVertex
100
AcDb2dVertex
 10
27.63769740492535
 20
-119.9988424777984
 30
0.0
  0
VERTEX
  5
2867
330
2851
100
AcDbEntity
  8
LW 3850-02-01
100
AcDbVertex
100
AcDb2dVertex
 10
27.6391422215147
 20
-119.9987232685089
 30
0.0
  0
VERTEX
  5
2868
330
2851
100
AcDbEntity
  8
LW 3850-02-01
100
AcDbVertex
100
AcDb2dVertex
 10
27.64058942228985
 20
-119.9985980987549
 30
0.0
  0
VERTEX
  5
2869
330
2851
100
AcDbEntity
  8
LW 3850-02-01
100
AcDbVertex
100
AcDb2dVertex
 10
27.6420342388792
 20
-119.9984669685363
 30
0.0
  0
VERTEX
  5
286A
330
2851
100
AcDbEntity
  8
LW 3850-02-01
100
AcDbVertex
100
AcDb2dVertex
 10
27.64348143965435
 20
-119.9983286857605
 30
0.0
  0
SEQEND
  5
286B
330
2851
100
AcDbEntity
  8
LW 3850-02-01
  0
POLYLINE
  5
286C
330
27B0
100
AcDbEntity
  8
LW 3850-02-01
100
AcDb2dPolyline
 66
     1
 10
0.0
 20
0.0
 30
0.0
 70
   128
  0
VERTEX
  5
286D
330
286C
100
AcDbEntity
  8
LW 3850-02-01
100
AcDbVertex
100
AcDb2dVertex
 10
-27.64348393052387
 20
-119.9983286857605
 30
0.0
  0
VERTEX
  5
286E
330
286C
100
AcDbEntity
  8
LW 3850-02-01
100
AcDbVertex
100
AcDb2dVertex
 10
-27.64203434556293
 20
-119.9984669685363
 30
0.0
  0
VERTEX
  5
286F
330
286C
100
AcDbEntity
  8
LW 3850-02-01
100
AcDbVertex
100
AcDb2dVertex
 10
-27.640584760602
 20
-119.9985980987549
 30
0.0
  0
VERTEX
  5
2870
330
286C
100
AcDbEntity
  8
LW 3850-02-01
100
AcDbVertex
100
AcDb2dVertex
 10
-27.63914471238422
 20
-119.9987232685089
 30
0.0
  0
VERTEX
  5
2871
330
286C
100
AcDbEntity
  8
LW 3850-02-01
100
AcDbVertex
100
AcDb2dVertex
 10
-27.63769512742328
 20
-119.9988424777984
 30
0.0
  0
VERTEX
  5
2872
330
286C
100
AcDbEntity
  8
LW 3850-02-01
100
AcDbVertex
100
AcDb2dVertex
 10
-27.63625507920551
 20
-119.9989557266235
 30
0.0
  0
VERTEX
  5
2873
330
286C
100
AcDbEntity
  8
LW 3850-02-01
100
AcDbVertex
100
AcDb2dVertex
 10
-27.63480549424457
 20
-119.999064207077
 30
0.0
  0
VERTEX
  5
2874
330
286C
100
AcDbEntity
  8
LW 3850-02-01
100
AcDbVertex
100
AcDb2dVertex
 10
-27.6333654460268
 20
-119.9991655349731
 30
0.0
  0
VERTEX
  5
2875
330
286C
100
AcDbEntity
  8
LW 3850-02-01
100
AcDbVertex
100
AcDb2dVertex
 10
-27.63191586106586
 20
-119.9992609024048
 30
0.0
  0
VERTEX
  5
2876
330
286C
100
AcDbEntity
  8
LW 3850-02-01
100
AcDbVertex
100
AcDb2dVertex
 10
-27.63047581284809
 20
-119.9993515014648
 30
0.0
  0
VERTEX
  5
2877
330
286C
100
AcDbEntity
  8
LW 3850-02-01
100
AcDbVertex
100
AcDb2dVertex
 10
-27.62903576463032
 20
-119.9994349479675
 30
0.0
  0
VERTEX
  5
2878
330
286C
100
AcDbEntity
  8
LW 3850-02-01
100
AcDbVertex
100
AcDb2dVertex
 10
-27.62758617966938
 20
-119.9995136260986
 30
0.0
  0
VERTEX
  5
2879
330
286C
100
AcDbEntity
  8
LW 3850-02-01
100
AcDbVertex
100
AcDb2dVertex
 10
-27.6261461314516
 20
-119.9995851516723
 30
0.0
  0
VERTEX
  5
287A
330
286C
100
AcDbEntity
  8
LW 3850-02-01
100
AcDbVertex
100
AcDb2dVertex
 10
-27.62470608323383
 20
-119.9996519088745
 30
0.0
  0
VERTEX
  5
287B
330
286C
100
AcDbEntity
  8
LW 3850-02-01
100
AcDbVertex
100
AcDb2dVertex
 10
-27.62326603501606
 20
-119.9997127056122
 30
0.0
  0
VERTEX
  5
287C
330
286C
100
AcDbEntity
  8
LW 3850-02-01
100
AcDbVertex
100
AcDb2dVertex
 10
-27.62182598679828
 20
-119.9997675418853
 30
0.0
  0
VERTEX
  5
287D
330
286C
100
AcDbEntity
  8
LW 3850-02-01
100
AcDbVertex
100
AcDb2dVertex
 10
-27.62038593858051
 20
-119.9998164176941
 30
0.0
  0
VERTEX
  5
287E
330
286C
100
AcDbEntity
  8
LW 3850-02-01
100
AcDbVertex
100
AcDb2dVertex
 10
-27.61894589036274
 20
-119.9998593330383
 30
0.0
  0
VERTEX
  5
287F
330
286C
100
AcDbEntity
  8
LW 3850-02-01
100
AcDbVertex
100
AcDb2dVertex
 10
-27.61750584214496
 20
-119.9998962879181
 30
0.0
  0
VERTEX
  5
2880
330
286C
100
AcDbEntity
  8
LW 3850-02-01
100
AcDbVertex
100
AcDb2dVertex
 10
-27.61606579392719
 20
-119.9999284744262
 30
0.0
  0
VERTEX
  5
2881
330
286C
100
AcDbEntity
  8
LW 3850-02-01
100
AcDbVertex
100
AcDb2dVertex
 10
-27.61462574570942
 20
-119.99995470047
 30
0.0
  0
VERTEX
  5
2882
330
286C
100
AcDbEntity
  8
LW 3850-02-01
100
AcDbVertex
100
AcDb2dVertex
 10
-27.61318569749164
 20
-119.9999737739563
 30
0.0
  0
VERTEX
  5
2883
330
286C
100
AcDbEntity
  8
LW 3850-02-01
100
AcDbVertex
100
AcDb2dVertex
 10
-27.61174564927387
 20
-119.999988079071
 30
0.0
  0
VERTEX
  5
2884
330
286C
100
AcDbEntity
  8
LW 3850-02-01
100
AcDbVertex
100
AcDb2dVertex
 10
-27.61031513779926
 20
-119.9999976158142
 30
0.0
  0
VERTEX
  5
2885
330
286C
100
AcDbEntity
  8
LW 3850-02-01
100
AcDbVertex
100
AcDb2dVertex
 10
-27.60887508958149
 20
-120.0
 30
0.0
  0
SEQEND
  5
2886
330
286C
100
AcDbEntity
  8
LW 3850-02-01
  0
LINE
  5
2887
330
27B0
100
AcDbEntity
  8
LW 3850-02-01
100
AcDbLine
 10
27.60887538455722
 20
-120.0
 30
0.0
 11
-27.608875384557
 21
-120.0
 31
0.0
  0
LINE
  5
2888
330
27B0
100
AcDbEntity
  8
LW 3850-02-01
100
AcDbLine
 10
30.0
 20
-100.0
 30
0.0
 11
30.0
 21
-109.3
 31
0.0
  0
LINE
  5
2889
330
27B0
100
AcDbEntity
  8
LW 3850-02-01
100
AcDbLine
 10
-30.0
 20
-100.0
 30
0.0
 11
-30.0
 21
-109.3
 31
0.0
  0
LINE
  5
288A
330
27B0
100
AcDbEntity
  8
LW 3850-02-01
100
AcDbLine
 10
-30.0
 20
-139.0
 30
0.0
 11
30.0
 21
-139.0
 31
0.0
  0
LINE
  5
288B
330
27B0
100
AcDbEntity
  8
LW 3850-02-01
100
AcDbLine
 10
29.0
 20
-140.0
 30
0.0
 11
-28.99999999999977
 21
-140.0
 31
0.0
  0
LINE
  5
288C
330
27B0
100
AcDbEntity
  8
LW 3850-02-01
100
AcDbLine
 10
-28.99999999999977
 20
-140.0
 30
0.0
 11
-30.0
 21
-139.0
 31
0.0
  0
LINE
  5
288D
330
27B0
100
AcDbEntity
  8
LW 3850-02-01
100
AcDbLine
 10
29.0
 20
-140.0
 30
0.0
 11
30.0
 21
-139.0
 31
0.0
  0
POLYLINE
  5
288E
330
27B0
100
AcDbEntity
  8
LW 3850-02-01
100
AcDb2dPolyline
 66
     1
 10
0.0
 20
0.0
 30
0.0
 70
   128
  0
VERTEX
  5
288F
330
288E
100
AcDbEntity
  8
LW 3850-02-01
100
AcDbVertex
100
AcDb2dVertex
 10
27.64348143965435
 20
-120.0016713142395
 30
0.0
  0
VERTEX
  5
2890
330
288E
100
AcDbEntity
  8
LW 3850-02-01
100
AcDbVertex
100
AcDb2dVertex
 10
27.6420342388792
 20
-120.0015330314636
 30
0.0
  0
VERTEX
  5
2891
330
288E
100
AcDbEntity
  8
LW 3850-02-01
100
AcDbVertex
100
AcDb2dVertex
 10
27.64058942228985
 20
-120.0014019012451
 30
0.0
  0
VERTEX
  5
2892
330
288E
100
AcDbEntity
  8
LW 3850-02-01
100
AcDbVertex
100
AcDb2dVertex
 10
27.6391422215147
 20
-120.0012767314911
 30
0.0
  0
VERTEX
  5
2893
330
288E
100
AcDbEntity
  8
LW 3850-02-01
100
AcDbVertex
100
AcDb2dVertex
 10
27.63769740492535
 20
-120.0011575222015
 30
0.0
  0
VERTEX
  5
2894
330
288E
100
AcDbEntity
  8
LW 3850-02-01
100
AcDbVertex
100
AcDb2dVertex
 10
27.63625258833599
 20
-120.0010442733765
 30
0.0
  0
VERTEX
  5
2895
330
288E
100
AcDbEntity
  8
LW 3850-02-01
100
AcDbVertex
100
AcDb2dVertex
 10
27.63480777174664
 20
-120.0009357929229
 30
0.0
  0
VERTEX
  5
2896
330
288E
100
AcDbEntity
  8
LW 3850-02-01
100
AcDbVertex
100
AcDb2dVertex
 10
27.63336533934307
 20
-120.0008344650268
 30
0.0
  0
VERTEX
  5
2897
330
288E
100
AcDbEntity
  8
LW 3850-02-01
100
AcDbVertex
100
AcDb2dVertex
 10
27.63192052275372
 20
-120.0007390975952
 30
0.0
  0
VERTEX
  5
2898
330
288E
100
AcDbEntity
  8
LW 3850-02-01
100
AcDbVertex
100
AcDb2dVertex
 10
27.63047809035015
 20
-120.0006484985351
 30
0.0
  0
VERTEX
  5
2899
330
288E
100
AcDbEntity
  8
LW 3850-02-01
100
AcDbVertex
100
AcDb2dVertex
 10
27.6290332737608
 20
-120.0005650520324
 30
0.0
  0
VERTEX
  5
289A
330
288E
100
AcDbEntity
  8
LW 3850-02-01
100
AcDbVertex
100
AcDb2dVertex
 10
27.62759084135723
 20
-120.0004863739013
 30
0.0
  0
VERTEX
  5
289B
330
288E
100
AcDbEntity
  8
LW 3850-02-01
100
AcDbVertex
100
AcDb2dVertex
 10
27.62614840895367
 20
-120.0004148483276
 30
0.0
  0
VERTEX
  5
289C
330
288E
100
AcDbEntity
  8
LW 3850-02-01
100
AcDbVertex
100
AcDb2dVertex
 10
27.6247059765501
 20
-120.0003480911255
 30
0.0
  0
VERTEX
  5
289D
330
288E
100
AcDbEntity
  8
LW 3850-02-01
100
AcDbVertex
100
AcDb2dVertex
 10
27.62326592833233
 20
-120.0002872943878
 30
0.0
  0
VERTEX
  5
289E
330
288E
100
AcDbEntity
  8
LW 3850-02-01
100
AcDbVertex
100
AcDb2dVertex
 10
27.62182349592877
 20
-120.0002324581146
 30
0.0
  0
VERTEX
  5
289F
330
288E
100
AcDbEntity
  8
LW 3850-02-01
100
AcDbVertex
100
AcDb2dVertex
 10
27.62038344771099
 20
-120.0001835823059
 30
0.0
  0
VERTEX
  5
28A0
330
288E
100
AcDbEntity
  8
LW 3850-02-01
100
AcDbVertex
100
AcDb2dVertex
 10
27.61894339949322
 20
-120.0001406669616
 30
0.0
  0
VERTEX
  5
28A1
330
288E
100
AcDbEntity
  8
LW 3850-02-01
100
AcDbVertex
100
AcDb2dVertex
 10
27.61750335127544
 20
-120.0001037120819
 30
0.0
  0
VERTEX
  5
28A2
330
288E
100
AcDbEntity
  8
LW 3850-02-01
100
AcDbVertex
100
AcDb2dVertex
 10
27.61606568724346
 20
-120.0000715255737
 30
0.0
  0
VERTEX
  5
28A3
330
288E
100
AcDbEntity
  8
LW 3850-02-01
100
AcDbVertex
100
AcDb2dVertex
 10
27.61462563902569
 20
-120.00004529953
 30
0.0
  0
VERTEX
  5
28A4
330
288E
100
AcDbEntity
  8
LW 3850-02-01
100
AcDbVertex
100
AcDb2dVertex
 10
27.61318797499371
 20
-120.0000262260437
 30
0.0
  0
VERTEX
  5
28A5
330
288E
100
AcDbEntity
  8
LW 3850-02-01
100
AcDbVertex
100
AcDb2dVertex
 10
27.61175031096172
 20
-120.0000119209289
 30
0.0
  0
VERTEX
  5
28A6
330
288E
100
AcDbEntity
  8
LW 3850-02-01
100
AcDbVertex
100
AcDb2dVertex
 10
27.61031264692974
 20
-120.0000023841858
 30
0.0
  0
VERTEX
  5
28A7
330
288E
100
AcDbEntity
  8
LW 3850-02-01
100
AcDbVertex
100
AcDb2dVertex
 10
27.60887736708355
 20
-120.0
 30
0.0
  0
SEQEND
  5
28A8
330
288E
100
AcDbEntity
  8
LW 3850-02-01
  0
POLYLINE
  5
28A9
330
27B0
100
AcDbEntity
  8
LW 3850-02-01
100
AcDb2dPolyline
 66
     1
 10
0.0
 20
0.0
 30
0.0
 70
   128
  0
VERTEX
  5
28AA
330
28A9
100
AcDbEntity
  8
LW 3850-02-01
100
AcDbVertex
100
AcDb2dVertex
 10
-27.60887508958149
 20
-120.0
 30
0.0
  0
VERTEX
  5
28AB
330
28A9
100
AcDbEntity
  8
LW 3850-02-01
100
AcDbVertex
100
AcDb2dVertex
 10
-27.61031513779926
 20
-120.0000023841858
 30
0.0
  0
VERTEX
  5
28AC
330
28A9
100
AcDbEntity
  8
LW 3850-02-01
100
AcDbVertex
100
AcDb2dVertex
 10
-27.61174564927387
 20
-120.0000119209289
 30
0.0
  0
VERTEX
  5
28AD
330
28A9
100
AcDbEntity
  8
LW 3850-02-01
100
AcDbVertex
100
AcDb2dVertex
 10
-27.61318569749164
 20
-120.0000262260437
 30
0.0
  0
VERTEX
  5
28AE
330
28A9
100
AcDbEntity
  8
LW 3850-02-01
100
AcDbVertex
100
AcDb2dVertex
 10
-27.61462574570942
 20
-120.00004529953
 30
0.0
  0
VERTEX
  5
28AF
330
28A9
100
AcDbEntity
  8
LW 3850-02-01
100
AcDbVertex
100
AcDb2dVertex
 10
-27.61606579392719
 20
-120.0000715255737
 30
0.0
  0
VERTEX
  5
28B0
330
28A9
100
AcDbEntity
  8
LW 3850-02-01
100
AcDbVertex
100
AcDb2dVertex
 10
-27.61750584214496
 20
-120.0001037120819
 30
0.0
  0
VERTEX
  5
28B1
330
28A9
100
AcDbEntity
  8
LW 3850-02-01
100
AcDbVertex
100
AcDb2dVertex
 10
-27.61894589036274
 20
-120.0001406669616
 30
0.0
  0
VERTEX
  5
28B2
330
28A9
100
AcDbEntity
  8
LW 3850-02-01
100
AcDbVertex
100
AcDb2dVertex
 10
-27.62038593858051
 20
-120.0001835823059
 30
0.0
  0
VERTEX
  5
28B3
330
28A9
100
AcDbEntity
  8
LW 3850-02-01
100
AcDbVertex
100
AcDb2dVertex
 10
-27.62182598679828
 20
-120.0002324581146
 30
0.0
  0
VERTEX
  5
28B4
330
28A9
100
AcDbEntity
  8
LW 3850-02-01
100
AcDbVertex
100
AcDb2dVertex
 10
-27.62326603501606
 20
-120.0002872943878
 30
0.0
  0
VERTEX
  5
28B5
330
28A9
100
AcDbEntity
  8
LW 3850-02-01
100
AcDbVertex
100
AcDb2dVertex
 10
-27.62470608323383
 20
-120.0003480911255
 30
0.0
  0
VERTEX
  5
28B6
330
28A9
100
AcDbEntity
  8
LW 3850-02-01
100
AcDbVertex
100
AcDb2dVertex
 10
-27.6261461314516
 20
-120.0004148483276
 30
0.0
  0
VERTEX
  5
28B7
330
28A9
100
AcDbEntity
  8
LW 3850-02-01
100
AcDbVertex
100
AcDb2dVertex
 10
-27.62758617966938
 20
-120.0004863739013
 30
0.0
  0
VERTEX
  5
28B8
330
28A9
100
AcDbEntity
  8
LW 3850-02-01
100
AcDbVertex
100
AcDb2dVertex
 10
-27.62903576463032
 20
-120.0005650520324
 30
0.0
  0
VERTEX
  5
28B9
330
28A9
100
AcDbEntity
  8
LW 3850-02-01
100
AcDbVertex
100
AcDb2dVertex
 10
-27.63047581284809
 20
-120.0006484985351
 30
0.0
  0
VERTEX
  5
28BA
330
28A9
100
AcDbEntity
  8
LW 3850-02-01
100
AcDbVertex
100
AcDb2dVertex
 10
-27.63191586106586
 20
-120.0007390975952
 30
0.0
  0
VERTEX
  5
28BB
330
28A9
100
AcDbEntity
  8
LW 3850-02-01
100
AcDbVertex
100
AcDb2dVertex
 10
-27.6333654460268
 20
-120.0008344650268
 30
0.0
  0
VERTEX
  5
28BC
330
28A9
100
AcDbEntity
  8
LW 3850-02-01
100
AcDbVertex
100
AcDb2dVertex
 10
-27.63480549424457
 20
-120.0009357929229
 30
0.0
  0
VERTEX
  5
28BD
330
28A9
100
AcDbEntity
  8
LW 3850-02-01
100
AcDbVertex
100
AcDb2dVertex
 10
-27.63625507920551
 20
-120.0010442733765
 30
0.0
  0
VERTEX
  5
28BE
330
28A9
100
AcDbEntity
  8
LW 3850-02-01
100
AcDbVertex
100
AcDb2dVertex
 10
-27.63769512742328
 20
-120.0011575222015
 30
0.0
  0
VERTEX
  5
28BF
330
28A9
100
AcDbEntity
  8
LW 3850-02-01
100
AcDbVertex
100
AcDb2dVertex
 10
-27.63914471238422
 20
-120.0012767314911
 30
0.0
  0
VERTEX
  5
28C0
330
28A9
100
AcDbEntity
  8
LW 3850-02-01
100
AcDbVertex
100
AcDb2dVertex
 10
-27.640584760602
 20
-120.0014019012451
 30
0.0
  0
VERTEX
  5
28C1
330
28A9
100
AcDbEntity
  8
LW 3850-02-01
100
AcDbVertex
100
AcDb2dVertex
 10
-27.64203434556293
 20
-120.0015330314636
 30
0.0
  0
VERTEX
  5
28C2
330
28A9
100
AcDbEntity
  8
LW 3850-02-01
100
AcDbVertex
100
AcDb2dVertex
 10
-27.64348393052387
 20
-120.0016713142395
 30
0.0
  0
SEQEND
  5
28C3
330
28A9
100
AcDbEntity
  8
LW 3850-02-01
  0
LINE
  5
28C4
330
27B0
100
AcDbEntity
  8
LW 3850-02-01
100
AcDbLine
 10
-30.0
 20
-139.0
 30
0.0
 11
-30.0
 21
-130.7
 31
0.0
  0
LINE
  5
28C5
330
27B0
100
AcDbEntity
  8
LW 3850-02-01
100
AcDbLine
 10
30.0
 20
-139.0
 30
0.0
 11
30.0
 21
-130.7
 31
0.0
  0
POLYLINE
  5
28C6
330
27B0
100
AcDbEntity
  8
LW 3850-02-01
100
AcDb2dPolyline
 66
     1
 10
0.0
 20
0.0
 30
0.0
 70
   128
  0
VERTEX
  5
28C7
330
28C6
100
AcDbEntity
  8
LW 3850-02-01
100
AcDbVertex
100
AcDb2dVertex
 10
-27.64348393052387
 20
-120.0016713142395
 30
0.0
  0
VERTEX
  5
28C8
330
28C6
100
AcDbEntity
  8
LW 3850-02-01
100
AcDbVertex
100
AcDb2dVertex
 10
-27.6513040599184
 20
-120.0025403499603
 30
0.0
  0
VERTEX
  5
28C9
330
28C6
100
AcDbEntity
  8
LW 3850-02-01
100
AcDbVertex
100
AcDb2dVertex
 10
-27.65879040330219
 20
-120.0035977363586
 30
0.0
  0
VERTEX
  5
28CA
330
28C6
100
AcDbEntity
  8
LW 3850-02-01
100
AcDbVertex
100
AcDb2dVertex
 10
-27.66593342393207
 20
-120.0048446655273
 30
0.0
  0
VERTEX
  5
28CB
330
28C6
100
AcDbEntity
  8
LW 3850-02-01
100
AcDbVertex
100
AcDb2dVertex
 10
-27.67274265855121
 20
-120.0062835216522
 30
0.0
  0
VERTEX
  5
28CC
330
28C6
100
AcDbEntity
  8
LW 3850-02-01
100
AcDbVertex
100
AcDb2dVertex
 10
-27.67920857041645
 20
-120.0079154968261
 30
0.0
  0
VERTEX
  5
28CD
330
28C6
100
AcDbEntity
  8
LW 3850-02-01
100
AcDbVertex
100
AcDb2dVertex
 10
-27.6853502330141
 20
-120.009742975235
 30
0.0
  0
VERTEX
  5
28CE
330
28C6
100
AcDbEntity
  8
LW 3850-02-01
100
AcDbVertex
100
AcDb2dVertex
 10
-27.69113903611469
 20
-120.0117671489715
 30
0.0
  0
VERTEX
  5
28CF
330
28C6
100
AcDbEntity
  8
LW 3850-02-01
100
AcDbVertex
100
AcDb2dVertex
 10
-27.6966035899477
 20
-120.0139904022217
 30
0.0
  0
VERTEX
  5
28D0
330
28C6
100
AcDbEntity
  8
LW 3850-02-01
100
AcDbVertex
100
AcDb2dVertex
 10
-27.70173435776996
 20
-120.0164151191711
 30
0.0
  0
VERTEX
  5
28D1
330
28C6
100
AcDbEntity
  8
LW 3850-02-01
100
AcDbVertex
100
AcDb2dVertex
 10
-27.70653133958149
 20
-120.0190424919128
 30
0.0
  0
VERTEX
  5
28D2
330
28C6
100
AcDbEntity
  8
LW 3850-02-01
100
AcDbVertex
100
AcDb2dVertex
 10
-27.71100407212543
 20
-120.0218737125396
 30
0.0
  0
VERTEX
  5
28D3
330
28C6
100
AcDbEntity
  8
LW 3850-02-01
100
AcDbVertex
100
AcDb2dVertex
 10
-27.71514301865864
 20
-120.0249123573303
 30
0.0
  0
VERTEX
  5
28D4
330
28C6
100
AcDbEntity
  8
LW 3850-02-01
100
AcDbVertex
100
AcDb2dVertex
 10
-27.71895771592426
 20
-120.0281584262848
 30
0.0
  0
VERTEX
  5
28D5
330
28C6
100
AcDbEntity
  8
LW 3850-02-01
100
AcDbVertex
100
AcDb2dVertex
 10
-27.72243862717914
 20
-120.0316143035888
 30
0.0
  0
VERTEX
  5
28D6
330
28C6
100
AcDbEntity
  8
LW 3850-02-01
100
AcDbVertex
100
AcDb2dVertex
 10
-27.72560482590961
 20
-120.0352823734283
 30
0.0
  0
VERTEX
  5
28D7
330
28C6
100
AcDbEntity
  8
LW 3850-02-01
100
AcDbVertex
100
AcDb2dVertex
 10
-27.72843723862934
 20
-120.0391638278961
 30
0.0
  0
VERTEX
  5
28D8
330
28C6
100
AcDbEntity
  8
LW 3850-02-01
100
AcDbVertex
100
AcDb2dVertex
 10
-27.73094540208149
 20
-120.0432622432709
 30
0.0
  0
VERTEX
  5
28D9
330
28C6
100
AcDbEntity
  8
LW 3850-02-01
100
AcDbVertex
100
AcDb2dVertex
 10
-27.73313885300922
 20
-120.0475764274597
 30
0.0
  0
VERTEX
  5
28DA
330
28C6
100
AcDbEntity
  8
LW 3850-02-01
100
AcDbVertex
100
AcDb2dVertex
 10
-27.73500805466938
 20
-120.0521111488342
 30
0.0
  0
VERTEX
  5
28DB
330
28C6
100
AcDbEntity
  8
LW 3850-02-01
100
AcDbVertex
100
AcDb2dVertex
 10
-27.73656254380512
 20
-120.0568664073944
 30
0.0
  0
VERTEX
  5
28DC
330
28C6
100
AcDbEntity
  8
LW 3850-02-01
100
AcDbVertex
100
AcDb2dVertex
 10
-27.73779278367328
 20
-120.0618433952331
 30
0.0
  0
VERTEX
  5
28DD
330
28C6
100
AcDbEntity
  8
LW 3850-02-01
100
AcDbVertex
100
AcDb2dVertex
 10
-27.73870831101703
 20
-120.0670278072357
 30
0.0
  0
VERTEX
  5
28DE
330
28C6
100
AcDbEntity
  8
LW 3850-02-01
100
AcDbVertex
100
AcDb2dVertex
 10
-27.73930912583637
 20
-120.0724124908447
 30
0.0
  0
VERTEX
  5
28DF
330
28C6
100
AcDbEntity
  8
LW 3850-02-01
100
AcDbVertex
100
AcDb2dVertex
 10
-27.73959522813129
 20
-120.0779974460602
 30
0.0
  0
SEQEND
  5
28E0
330
28C6
100
AcDbEntity
  8
LW 3850-02-01
  0
POLYLINE
  5
28E1
330
27B0
100
AcDbEntity
  8
LW 3850-02-01
100
AcDb2dPolyline
 66
     1
 10
0.0
 20
0.0
 30
0.0
 70
   128
  0
VERTEX
  5
28E2
330
28E1
100
AcDbEntity
  8
LW 3850-02-01
100
AcDbVertex
100
AcDb2dVertex
 10
27.73959988981915
 20
-120.0779974460602
 30
0.0
  0
VERTEX
  5
28E3
330
28E1
100
AcDbEntity
  8
LW 3850-02-01
100
AcDbVertex
100
AcDb2dVertex
 10
27.73931378752422
 20
-120.0724124908447
 30
0.0
  0
VERTEX
  5
28E4
330
28E1
100
AcDbEntity
  8
LW 3850-02-01
100
AcDbVertex
100
AcDb2dVertex
 10
27.73871297270489
 20
-120.0670278072357
 30
0.0
  0
VERTEX
  5
28E5
330
28E1
100
AcDbEntity
  8
LW 3850-02-01
100
AcDbVertex
100
AcDb2dVertex
 10
27.73779744536114
 20
-120.0618433952331
 30
0.0
  0
VERTEX
  5
28E6
330
28E1
100
AcDbEntity
  8
LW 3850-02-01
100
AcDbVertex
100
AcDb2dVertex
 10
27.73656482130718
 20
-120.0568664073944
 30
0.0
  0
VERTEX
  5
28E7
330
28E1
100
AcDbEntity
  8
LW 3850-02-01
100
AcDbVertex
100
AcDb2dVertex
 10
27.73501271635723
 20
-120.0521111488342
 30
0.0
  0
VERTEX
  5
28E8
330
28E1
100
AcDbEntity
  8
LW 3850-02-01
100
AcDbVertex
100
AcDb2dVertex
 10
27.73314113051128
 20
-120.0475764274597
 30
0.0
  0
VERTEX
  5
28E9
330
28E1
100
AcDbEntity
  8
LW 3850-02-01
100
AcDbVertex
100
AcDb2dVertex
 10
27.73095006376934
 20
-120.0432622432709
 30
0.0
  0
VERTEX
  5
28EA
330
28E1
100
AcDbEntity
  8
LW 3850-02-01
100
AcDbVertex
100
AcDb2dVertex
 10
27.72843713194561
 20
-120.0391638278961
 30
0.0
  0
VERTEX
  5
28EB
330
28E1
100
AcDbEntity
  8
LW 3850-02-01
100
AcDbVertex
100
AcDb2dVertex
 10
27.72560233504009
 20
-120.0352823734283
 30
0.0
  0
VERTEX
  5
28EC
330
28E1
100
AcDbEntity
  8
LW 3850-02-01
100
AcDbVertex
100
AcDb2dVertex
 10
27.722443288867
 20
-120.0316143035888
 30
0.0
  0
VERTEX
  5
28ED
330
28E1
100
AcDbEntity
  8
LW 3850-02-01
100
AcDbVertex
100
AcDb2dVertex
 10
27.71895760924053
 20
-120.0281584262848
 30
0.0
  0
VERTEX
  5
28EE
330
28E1
100
AcDbEntity
  8
LW 3850-02-01
100
AcDbVertex
100
AcDb2dVertex
 10
27.7151452961607
 20
-120.0249123573303
 30
0.0
  0
VERTEX
  5
28EF
330
28E1
100
AcDbEntity
  8
LW 3850-02-01
100
AcDbVertex
100
AcDb2dVertex
 10
27.7110063496275
 20
-120.0218737125396
 30
0.0
  0
VERTEX
  5
28F0
330
28E1
100
AcDbEntity
  8
LW 3850-02-01
100
AcDbVertex
100
AcDb2dVertex
 10
27.70653600126934
 20
-120.0190424919128
 30
0.0
  0
VERTEX
  5
28F1
330
28E1
100
AcDbEntity
  8
LW 3850-02-01
100
AcDbVertex
100
AcDb2dVertex
 10
27.70173663527203
 20
-120.0164151191711
 30
0.0
  0
VERTEX
  5
28F2
330
28E1
100
AcDbEntity
  8
LW 3850-02-01
100
AcDbVertex
100
AcDb2dVertex
 10
27.69660825163555
 20
-120.0139904022217
 30
0.0
  0
VERTEX
  5
28F3
330
28E1
100
AcDbEntity
  8
LW 3850-02-01
100
AcDbVertex
100
AcDb2dVertex
 10
27.69114369780254
 20
-120.0117671489715
 30
0.0
  0
VERTEX
  5
28F4
330
28E1
100
AcDbEntity
  8
LW 3850-02-01
100
AcDbVertex
100
AcDb2dVertex
 10
27.68534774214459
 20
-120.009742975235
 30
0.0
  0
VERTEX
  5
28F5
330
28E1
100
AcDbEntity
  8
LW 3850-02-01
100
AcDbVertex
100
AcDb2dVertex
 10
27.6792132321043
 20
-120.0079154968261
 30
0.0
  0
VERTEX
  5
28F6
330
28E1
100
AcDbEntity
  8
LW 3850-02-01
100
AcDbVertex
100
AcDb2dVertex
 10
27.67274493605328
 20
-120.0062835216522
 30
0.0
  0
VERTEX
  5
28F7
330
28E1
100
AcDbEntity
  8
LW 3850-02-01
100
AcDbVertex
100
AcDb2dVertex
 10
27.66593808561993
 20
-120.0048446655273
 30
0.0
  0
VERTEX
  5
28F8
330
28E1
100
AcDbEntity
  8
LW 3850-02-01
100
AcDbVertex
100
AcDb2dVertex
 10
27.65879268080425
 20
-120.0035977363586
 30
0.0
  0
VERTEX
  5
28F9
330
28E1
100
AcDbEntity
  8
LW 3850-02-01
100
AcDbVertex
100
AcDb2dVertex
 10
27.65130872160626
 20
-120.0025403499603
 30
0.0
  0
VERTEX
  5
28FA
330
28E1
100
AcDbEntity
  8
LW 3850-02-01
100
AcDbVertex
100
AcDb2dVertex
 10
27.64348143965435
 20
-120.0016713142395
 30
0.0
  0
SEQEND
  5
28FB
330
28E1
100
AcDbEntity
  8
LW 3850-02-01
  0
POLYLINE
  5
28FC
330
27B0
100
AcDbEntity
  8
LW 3850-02-01
100
AcDb2dPolyline
 66
     1
 10
0.0
 20
0.0
 30
0.0
 70
   128
  0
VERTEX
  5
28FD
330
28FC
100
AcDbEntity
  8
LW 3850-02-01
100
AcDbVertex
100
AcDb2dVertex
 10
-29.91837864487934
 20
-130.2650028467178
 30
0.0
  0
VERTEX
  5
28FE
330
28FC
100
AcDbEntity
  8
LW 3850-02-01
100
AcDbVertex
100
AcDb2dVertex
 10
-29.89990597337055
 20
-130.217410326004
 30
0.0
  0
VERTEX
  5
28FF
330
28FC
100
AcDbEntity
  8
LW 3850-02-01
100
AcDbVertex
100
AcDb2dVertex
 10
-29.87693195908832
 20
-130.1579731702804
 30
0.0
  0
VERTEX
  5
2900
330
28FC
100
AcDbEntity
  8
LW 3850-02-01
100
AcDbVertex
100
AcDb2dVertex
 10
-29.84503155320453
 20
-130.0749981403351
 30
0.0
  0
VERTEX
  5
2901
330
28FC
100
AcDbEntity
  8
LW 3850-02-01
100
AcDbVertex
100
AcDb2dVertex
 10
-29.80444317429828
 20
-129.9686121940613
 30
0.0
  0
VERTEX
  5
2902
330
28FC
100
AcDbEntity
  8
LW 3850-02-01
100
AcDbVertex
100
AcDb2dVertex
 10
-29.75557690232563
 20
-129.8392593860626
 30
0.0
  0
VERTEX
  5
2903
330
28FC
100
AcDbEntity
  8
LW 3850-02-01
100
AcDbVertex
100
AcDb2dVertex
 10
-29.69884281724262
 20
-129.6873617172241
 30
0.0
  0
VERTEX
  5
2904
330
28FC
100
AcDbEntity
  8
LW 3850-02-01
100
AcDbVertex
100
AcDb2dVertex
 10
-29.63441258042621
 20
-129.5126366615295
 30
0.0
  0
VERTEX
  5
2905
330
28FC
100
AcDbEntity
  8
LW 3850-02-01
100
AcDbVertex
100
AcDb2dVertex
 10
-29.56286793320942
 20
-129.3155169486999
 30
0.0
  0
VERTEX
  5
2906
330
28FC
100
AcDbEntity
  8
LW 3850-02-01
100
AcDbVertex
100
AcDb2dVertex
 10
-29.48495274155903
 20
-129.096759557724
 30
0.0
  0
VERTEX
  5
2907
330
28FC
100
AcDbEntity
  8
LW 3850-02-01
100
AcDbVertex
100
AcDb2dVertex
 10
-29.40141087144184
 20
-128.857125043869
 30
0.0
  0
VERTEX
  5
2908
330
28FC
100
AcDbEntity
  8
LW 3850-02-01
100
AcDbVertex
100
AcDb2dVertex
 10
-29.31298618882465
 20
-128.5973727703094
 30
0.0
  0
VERTEX
  5
2909
330
28FC
100
AcDbEntity
  8
LW 3850-02-01
100
AcDbVertex
100
AcDb2dVertex
 10
-29.2204130229311
 20
-128.3182621002197
 30
0.0
  0
VERTEX
  5
290A
330
28FC
100
AcDbEntity
  8
LW 3850-02-01
100
AcDbVertex
100
AcDb2dVertex
 10
-29.12441616624164
 20
-128.0204558372497
 30
0.0
  0
VERTEX
  5
290B
330
28FC
100
AcDbEntity
  8
LW 3850-02-01
100
AcDbVertex
100
AcDb2dVertex
 10
-29.02540569871235
 20
-127.7033054828644
 30
0.0
  0
VERTEX
  5
290C
330
28FC
100
AcDbEntity
  8
LW 3850-02-01
100
AcDbVertex
100
AcDb2dVertex
 10
-28.92419224351215
 20
-127.3672688007355
 30
0.0
  0
VERTEX
  5
290D
330
28FC
100
AcDbEntity
  8
LW 3850-02-01
100
AcDbVertex
100
AcDb2dVertex
 10
-28.82173901170063
 20
-127.013304233551
 30
0.0
  0
VERTEX
  5
290E
330
28FC
100
AcDbEntity
  8
LW 3850-02-01
100
AcDbVertex
100
AcDb2dVertex
 10
-28.71900921433735
 20
-126.6423738002777
 30
0.0
  0
VERTEX
  5
290F
330
28FC
100
AcDbEntity
  8
LW 3850-02-01
100
AcDbVertex
100
AcDb2dVertex
 10
-28.61694698899555
 20
-126.2554383277893
 30
0.0
  0
VERTEX
  5
2910
330
28FC
100
AcDbEntity
  8
LW 3850-02-01
100
AcDbVertex
100
AcDb2dVertex
 10
-28.51651554673481
 20
-125.8534574508667
 30
0.0
  0
VERTEX
  5
2911
330
28FC
100
AcDbEntity
  8
LW 3850-02-01
100
AcDbVertex
100
AcDb2dVertex
 10
-28.4185159739809
 20
-125.4365003108978
 30
0.0
  0
VERTEX
  5
2912
330
28FC
100
AcDbEntity
  8
LW 3850-02-01
100
AcDbVertex
100
AcDb2dVertex
 10
-28.32353001206684
 20
-125.0038623809814
 30
0.0
  0
VERTEX
  5
2913
330
28FC
100
AcDbEntity
  8
LW 3850-02-01
100
AcDbVertex
100
AcDb2dVertex
 10
-28.23255901902485
 20
-124.5568776130676
 30
0.0
  0
VERTEX
  5
2914
330
28FC
100
AcDbEntity
  8
LW 3850-02-01
100
AcDbVertex
100
AcDb2dVertex
 10
-28.14658527940082
 20
-124.0969395637512
 30
0.0
  0
VERTEX
  5
2915
330
28FC
100
AcDbEntity
  8
LW 3850-02-01
100
AcDbVertex
100
AcDb2dVertex
 10
-28.06660061448383
 20
-123.6254453659057
 30
0.0
  0
VERTEX
  5
2916
330
28FC
100
AcDbEntity
  8
LW 3850-02-01
100
AcDbVertex
100
AcDb2dVertex
 10
-27.99358730881977
 20
-123.143789768219
 30
0.0
  0
VERTEX
  5
2917
330
28FC
100
AcDbEntity
  8
LW 3850-02-01
100
AcDbVertex
100
AcDb2dVertex
 10
-27.9284036692934
 20
-122.6520109176636
 30
0.0
  0
VERTEX
  5
2918
330
28FC
100
AcDbEntity
  8
LW 3850-02-01
100
AcDbVertex
100
AcDb2dVertex
 10
-27.87156468003559
 20
-122.1497189998626
 30
0.0
  0
VERTEX
  5
2919
330
28FC
100
AcDbEntity
  8
LW 3850-02-01
100
AcDbVertex
100
AcDb2dVertex
 10
-27.82367115586567
 20
-121.6390264034271
 30
0.0
  0
VERTEX
  5
291A
330
28FC
100
AcDbEntity
  8
LW 3850-02-01
100
AcDbVertex
100
AcDb2dVertex
 10
-27.78531437485981
 20
-121.122076511383
 30
0.0
  0
VERTEX
  5
291B
330
28FC
100
AcDbEntity
  8
LW 3850-02-01
100
AcDbVertex
100
AcDb2dVertex
 10
-27.75708561509418
 20
-120.6010162830353
 30
0.0
  0
VERTEX
  5
291C
330
28FC
100
AcDbEntity
  8
LW 3850-02-01
100
AcDbVertex
100
AcDb2dVertex
 10
-27.73959522813129
 20
-120.0779914855957
 30
0.0
  0
SEQEND
  5
291D
330
28FC
100
AcDbEntity
  8
LW 3850-02-01
  0
ARC
  5
291E
330
27B0
100
AcDbEntity
  8
LW 3850-02-01
100
AcDbCircle
 10
-28.79999999999995
 20
-130.7
 30
0.0
 40
1.199999999999874
100
AcDbArc
 50
158.7463494903332
 51
180.0
  0
POLYLINE
  5
291F
330
27B0
100
AcDbEntity
  8
LW 3850-02-01
100
AcDb2dPolyline
 66
     1
 10
0.0
 20
0.0
 30
0.0
 70
   128
  0
VERTEX
  5
2920
330
291F
100
AcDbEntity
  8
LW 3850-02-01
100
AcDbVertex
100
AcDb2dVertex
 10
29.91840595633221
 20
-130.2650642395019
 30
0.0
  0
VERTEX
  5
2921
330
291F
100
AcDbEntity
  8
LW 3850-02-01
100
AcDbVertex
100
AcDb2dVertex
 10
29.97942680746746
 20
-130.4787540435791
 30
0.0
  0
VERTEX
  5
2922
330
291F
100
AcDbEntity
  8
LW 3850-02-01
100
AcDbVertex
100
AcDb2dVertex
 10
29.99999994665813
 20
-130.6999999284744
 30
0.0
  0
SEQEND
  5
2923
330
291F
100
AcDbEntity
  8
LW 3850-02-01
  0
POLYLINE
  5
2924
330
27B0
100
AcDbEntity
  8
LW 3850-02-01
100
AcDb2dPolyline
 66
     1
 10
0.0
 20
0.0
 30
0.0
 70
   128
  0
VERTEX
  5
2925
330
2924
100
AcDbEntity
  8
LW 3850-02-01
100
AcDbVertex
100
AcDb2dVertex
 10
27.73959273726177
 20
-120.0779914855957
 30
0.0
  0
VERTEX
  5
2926
330
2924
100
AcDbEntity
  8
LW 3850-02-01
100
AcDbVertex
100
AcDb2dVertex
 10
27.75709027678204
 20
-120.6010162830353
 30
0.0
  0
VERTEX
  5
2927
330
2924
100
AcDbEntity
  8
LW 3850-02-01
100
AcDbVertex
100
AcDb2dVertex
 10
27.78531426817608
 20
-121.1220777034759
 30
0.0
  0
VERTEX
  5
2928
330
2924
100
AcDbEntity
  8
LW 3850-02-01
100
AcDbVertex
100
AcDb2dVertex
 10
27.82367104918194
 20
-121.63902759552
 30
0.0
  0
VERTEX
  5
2929
330
2924
100
AcDbEntity
  8
LW 3850-02-01
100
AcDbVertex
100
AcDb2dVertex
 10
27.87156695753765
 20
-122.1497225761413
 30
0.0
  0
VERTEX
  5
292A
330
2924
100
AcDbEntity
  8
LW 3850-02-01
100
AcDbVertex
100
AcDb2dVertex
 10
27.92840356260967
 20
-122.6520156860351
 30
0.0
  0
VERTEX
  5
292B
330
2924
100
AcDbEntity
  8
LW 3850-02-01
100
AcDbVertex
100
AcDb2dVertex
 10
27.99359197050762
 20
-123.1437957286835
 30
0.0
  0
VERTEX
  5
292C
330
2924
100
AcDbEntity
  8
LW 3850-02-01
100
AcDbVertex
100
AcDb2dVertex
 10
28.06660289198589
 20
-123.6254501342773
 30
0.0
  0
VERTEX
  5
292D
330
2924
100
AcDbEntity
  8
LW 3850-02-01
100
AcDbVertex
100
AcDb2dVertex
 10
28.14658994108868
 20
-124.0969455242157
 30
0.0
  0
VERTEX
  5
292E
330
2924
100
AcDbEntity
  8
LW 3850-02-01
100
AcDbVertex
100
AcDb2dVertex
 10
28.2325636807127
 20
-124.5568823814392
 30
0.0
  0
VERTEX
  5
292F
330
2924
100
AcDbEntity
  8
LW 3850-02-01
100
AcDbVertex
100
AcDb2dVertex
 10
28.32353705794048
 20
-125.0038683414459
 30
0.0
  0
VERTEX
  5
2930
330
2924
100
AcDbEntity
  8
LW 3850-02-01
100
AcDbVertex
100
AcDb2dVertex
 10
28.41851586729717
 20
-125.4365062713623
 30
0.0
  0
VERTEX
  5
2931
330
2924
100
AcDbEntity
  8
LW 3850-02-01
100
AcDbVertex
100
AcDb2dVertex
 10
28.51652259260845
 20
-125.8534657955169
 30
0.0
  0
VERTEX
  5
2932
330
2924
100
AcDbEntity
  8
LW 3850-02-01
100
AcDbVertex
100
AcDb2dVertex
 10
28.61694926649761
 20
-126.2554454803467
 30
0.0
  0
VERTEX
  5
2933
330
2924
100
AcDbEntity
  8
LW 3850-02-01
100
AcDbVertex
100
AcDb2dVertex
 10
28.71900910765362
 20
-126.6423809528351
 30
0.0
  0
VERTEX
  5
2934
330
2924
100
AcDbEntity
  8
LW 3850-02-01
100
AcDbVertex
100
AcDb2dVertex
 10
28.82174367338848
 20
-127.0133113861084
 30
0.0
  0
VERTEX
  5
2935
330
2924
100
AcDbEntity
  8
LW 3850-02-01
100
AcDbVertex
100
AcDb2dVertex
 10
28.92419452101421
 20
-127.3672747611999
 30
0.0
  0
VERTEX
  5
2936
330
2924
100
AcDbEntity
  8
LW 3850-02-01
100
AcDbVertex
100
AcDb2dVertex
 10
29.02540201574993
 20
-127.7033126354217
 30
0.0
  0
VERTEX
  5
2937
330
2924
100
AcDbEntity
  8
LW 3850-02-01
100
AcDbVertex
100
AcDb2dVertex
 10
29.12441486746502
 20
-128.0204629898071
 30
0.0
  0
VERTEX
  5
2938
330
2924
100
AcDbEntity
  8
LW 3850-02-01
100
AcDbVertex
100
AcDb2dVertex
 10
29.22041410834026
 20
-128.3182692527771
 30
0.0
  0
VERTEX
  5
2939
330
2924
100
AcDbEntity
  8
LW 3850-02-01
100
AcDbVertex
100
AcDb2dVertex
 10
29.31298489004803
 20
-128.5973799228668
 30
0.0
  0
VERTEX
  5
293A
330
2924
100
AcDbEntity
  8
LW 3850-02-01
100
AcDbVertex
100
AcDb2dVertex
 10
29.4014143410368
 20
-128.8571310043335
 30
0.0
  0
VERTEX
  5
293B
330
2924
100
AcDbEntity
  8
LW 3850-02-01
100
AcDbVertex
100
AcDb2dVertex
 10
29.48495621115398
 20
-129.0967643260956
 30
0.0
  0
VERTEX
  5
293C
330
2924
100
AcDbEntity
  8
LW 3850-02-01
100
AcDbVertex
100
AcDb2dVertex
 10
29.56287140280437
 20
-129.3155217170715
 30
0.0
  0
VERTEX
  5
293D
330
2924
100
AcDbEntity
  8
LW 3850-02-01
100
AcDbVertex
100
AcDb2dVertex
 10
29.63441366583538
 20
-129.5126414299011
 30
0.0
  0
VERTEX
  5
293E
330
2924
100
AcDbEntity
  8
LW 3850-02-01
100
AcDbVertex
100
AcDb2dVertex
 10
29.69884628683758
 20
-129.6873664855957
 30
0.0
  0
VERTEX
  5
293F
330
2924
100
AcDbEntity
  8
LW 3850-02-01
100
AcDbVertex
100
AcDb2dVertex
 10
29.75557798773479
 20
-129.8392641544342
 30
0.0
  0
VERTEX
  5
2940
330
2924
100
AcDbEntity
  8
LW 3850-02-01
100
AcDbVertex
100
AcDb2dVertex
 10
29.80444425970745
 20
-129.96861577034
 30
0.0
  0
VERTEX
  5
2941
330
2924
100
AcDbEntity
  8
LW 3850-02-01
100
AcDbVertex
100
AcDb2dVertex
 10
29.84503740698528
 20
-130.0750011205673
 30
0.0
  0
VERTEX
  5
2942
330
2924
100
AcDbEntity
  8
LW 3850-02-01
100
AcDbVertex
100
AcDb2dVertex
 10
29.87693304449749
 20
-130.1579755544662
 30
0.0
  0
VERTEX
  5
2943
330
2924
100
AcDbEntity
  8
LW 3850-02-01
100
AcDbVertex
100
AcDb2dVertex
 10
29.89990705877972
 20
-130.2174121141433
 30
0.0
  0
VERTEX
  5
2944
330
2924
100
AcDbEntity
  8
LW 3850-02-01
100
AcDbVertex
100
AcDb2dVertex
 10
29.91840595633221
 20
-130.2650642395019
 30
0.0
  0
SEQEND
  5
2945
330
2924
100
AcDbEntity
  8
LW 3850-02-01
  0
LINE
  5
2946
330
27B0
100
AcDbEntity
  8
LW 3850-02-01
  6
VERDECKT
 62
     6
100
AcDbLine
 10
-10.39999999999986
 20
24.0
 30
0.0
 11
10.40000000000009
 21
24.0
 31
0.0
  0
ARC
  5
2947
330
27B0
100
AcDbEntity
  8
LW 3850-02-01
  6
VERDECKT
 62
     6
100
AcDbCircle
 10
-10.39999999999986
 20
22.40000000000003
 30
0.0
 40
1.6
100
AcDbArc
 50
90.0
 51
180.0
  0
ARC
  5
2948
330
27B0
100
AcDbEntity
  8
LW 3850-02-01
  6
VERDECKT
 62
     6
100
AcDbCircle
 10
10.40000000000009
 20
22.40000000000003
 30
0.0
 40
1.6
100
AcDbArc
 50
0.0
 51
90.0
  0
LINE
  5
2949
330
27B0
100
AcDbEntity
  8
LW 3850-02-01
  6
VERDECKT
 62
     6
100
AcDbLine
 10
-11.99999999999977
 20
8.0
 30
0.0
 11
12.00000000000023
 21
8.0
 31
0.0
  0
LINE
  5
294A
330
27B0
100
AcDbEntity
  8
LW 3850-02-01
  6
VERDECKT
 62
     6
100
AcDbLine
 10
8.0
 20
8.0
 30
0.0
 11
8.0
 21
0.0
 31
0.0
  0
LINE
  5
294B
330
27B0
100
AcDbEntity
  8
LW 3850-02-01
  6
VERDECKT
 62
     6
100
AcDbLine
 10
-8.0
 20
8.0
 30
0.0
 11
-8.0
 21
0.0
 31
0.0
  0
LINE
  5
294C
330
27B0
100
AcDbEntity
  8
LW 3850-02-01
  6
VERDECKT
 62
     6
100
AcDbLine
 10
12.00000000000023
 20
22.40000000000003
 30
0.0
 11
12.00000000000023
 21
8.0
 31
0.0
  0
LINE
  5
294D
330
27B0
100
AcDbEntity
  8
LW 3850-02-01
  6
VERDECKT
 62
     6
100
AcDbLine
 10
-11.99999999999977
 20
22.40000000000003
 30
0.0
 11
-11.99999999999977
 21
8.0
 31
0.0
  0
LINE
  5
294E
330
27B0
100
AcDbEntity
  8
LW 3850-02-01
  6
MITTE2
 62
     3
100
AcDbLine
 10
0.0
 20
-145.3818262316298
 30
0.0
 11
0.0
 21
37.74996780497963
 31
0.0
  0
LINE
  5
294F
330
27B0
100
AcDbEntity
  8
LW 3850-02-01
  6
MITTE2
 62
     3
100
AcDbLine
 10
47.49030863590383
 20
-39.99999999999995
 30
0.0
 11
-43.18430243684406
 21
-39.99999999999995
 31
0.0
  0
LINE
  5
2950
330
27B0
100
AcDbEntity
  8
LW 3850-02-01
  6
MITTE2
 62
     3
100
AcDbLine
 10
-48.09640183213264
 20
-120.0
 30
0.0
 11
48.24433016219018
 21
-120.0
 31
0.0
  0
CIRCLE
  5
2951
330
27B0
100
AcDbEntity
  8
LW 3850-02-01
100
AcDbCircle
 10
-0.0000000000002274
 20
-39.99999999999995
 30
0.0
 40
10.9964126716386
  0
CIRCLE
  5
2952
330
27B0
100
AcDbEntity
  8
LW 3850-02-01
100
AcDbCircle
 10
-0.0000000000002274
 20
-39.99999999999995
 30
0.0
 40
11.9964126716386
  0
HATCH
  5
2953
330
27B0
100
AcDbEntity
  8
LW 3850-02-01
 62
     8
100
AcDbHatch
 10
0.0
 20
0.0
 30
0.0
210
0.0
220
0.0
230
1.0
  2
HONEY
 70
     0
 71
     0
 91
        1
 92
        1
 93
        1
 72
     2
 10
3.478053205322794
 20
-34.33205099697054
 40
3.349999999999996
 50
0.0
 51
360.0
 73
     1
 97
        0
 75
     0
 76
     1
 52
0.0
 41
0.25
 77
     0
 78
     3
 53
0.0
 43
-511.496215491169
 44
34.20495435675756
 45
1.190625
 46
0.6874075
 79
     2
 49
0.79375
 49
-1.587499999999999
 53
120.0
 43
-511.496215491169
 44
34.20495435675756
 45
-1.190624857751951
 46
0.6874077463808477
 79
     2
 49
0.7937499999999992
 49
-1.587499999999998
 53
60.0
 43
-511.496215491169
 44
34.20495435675756
 45
0.0000001422480487
 46
1.374815246380847
 79
     2
 49
-1.587499999999999
 49
0.79375
 98
        1
 10
-511.496215491169
 20
34.20495435675756
1001
ACAD
1010
0.0
1020
0.0
1030
0.0
  0
CIRCLE
  5
2954
330
27B0
100
AcDbEntity
  8
LW 3850-02-01
 62
     8
100
AcDbCircle
 10
3.478053205322794
 20
-34.33205099697054
 30
0.0
 40
3.349999999999996
  0
CIRCLE
  5
2955
330
27B0
100
AcDbEntity
  8
LW 3850-02-01
 62
     8
100
AcDbCircle
 10
-0.0000000000002274
 20
-39.99999999999995
 30
0.0
 40
9.996412671638614
  0
HATCH
  5
2956
330
27B0
100
AcDbEntity
  8
LW 3850-02-01
 62
     8
100
AcDbHatch
 10
0.0
 20
0.0
 30
0.0
210
0.0
220
0.0
230
1.0
  2
HONEY
 70
     0
 71
     0
 91
        1
 92
        1
 93
        1
 72
     2
 10
-3.169561221316826
 20
-34.1539430669616
 40
3.349999999999996
 50
60.0
 51
420.0
 73
     1
 97
        0
 75
     0
 76
     1
 52
60.0
 41
0.25
 77
     0
 78
     3
 53
60.0
 43
-320.0114833052014
 44
-445.8662393765729
 45
0.0000001422480487
 46
1.374815246380847
 79
     2
 49
0.79375
 49
-1.587499999999999
 53
180.0
 43
-320.0114833052014
 44
-445.8662393765729
 45
-1.190625
 46
-0.6874074999999998
 79
     2
 49
0.79375
 49
-1.587499999999999
 53
120.0
 43
-320.0114833052014
 44
-445.8662393765729
 45
-1.190624857751951
 46
0.6874077463808474
 79
     2
 49
-1.587499999999998
 49
0.7937499999999992
 98
        1
 10
-320.0114833052014
 20
-445.8662393765729
1001
ACAD
1010
0.0
1020
0.0
1030
0.0
  0
CIRCLE
  5
2957
330
27B0
100
AcDbEntity
  8
LW 3850-02-01
 62
     8
100
AcDbCircle
 10
-3.169561221316826
 20
-34.1539430669616
 30
0.0
 40
3.349999999999996
  0
HATCH
  5
2958
330
27B0
100
AcDbEntity
  8
LW 3850-02-01
 62
     8
100
AcDbHatch
 10
0.0
 20
0.0
 30
0.0
210
0.0
220
0.0
230
1.0
  2
HONEY
 70
     0
 71
     0
 91
        1
 92
        1
 93
        1
 72
     2
 10
-6.647614426639847
 20
-39.82189206999109
 40
3.349999999999995
 50
120.0
 51
479.9999999999999
 73
     1
 97
        0
 75
     0
 76
     1
 52
120.0
 41
0.25
 77
     0
 78
     3
 53
120.0
 43
191.4847321859674
 44
-520.0711937333304
 45
-1.190624857751951
 46
0.6874077463808477
 79
     2
 49
0.7937499999999992
 49
-1.587499999999998
 53
240.0
 43
191.4847321859674
 44
-520.0711937333304
 45
-0.0000001422480492
 46
-1.374815246380847
 79
     2
 49
0.7937499999999999
 49
-1.587499999999999
 53
180.0
 43
191.4847321859674
 44
-520.0711937333304
 45
-1.190625
 46
-0.6874074999999995
 79
     2
 49
-1.587499999999999
 49
0.79375
 98
        1
 10
191.4847321859674
 20
-520.0711937333304
1001
ACAD
1010
0.0
1020
0.0
1030
0.0
  0
CIRCLE
  5
2959
330
27B0
100
AcDbEntity
  8
LW 3850-02-01
 62
     8
100
AcDbCircle
 10
-6.647614426639847
 20
-39.82189206999109
 30
0.0
 40
3.349999999999995
  0
HATCH
  5
295A
330
27B0
100
AcDbEntity
  8
LW 3850-02-01
 62
     8
100
AcDbHatch
 10
0.0
 20
0.0
 30
0.0
210
0.0
220
0.0
230
1.0
  2
HONEY
 70
     0
 71
     0
 91
        1
 92
        1
 93
        1
 72
     2
 10
-3.478053205323249
 20
-45.66794900302935
 40
3.349999999999996
 50
180.0
 51
540.0
 73
     1
 97
        0
 75
     0
 76
     1
 52
180.0
 41
0.25
 77
     0
 78
     3
 53
180.0
 43
511.4962154911686
 44
-114.2049543567575
 45
-1.190625
 46
-0.6874074999999999
 79
     2
 49
0.79375
 49
-1.587499999999999
 53
300.0
 43
511.4962154911686
 44
-114.2049543567575
 45
1.190624857751951
 46
-0.6874077463808478
 79
     2
 49
0.79375
 49
-1.587499999999999
 53
240.0
 43
511.4962154911686
 44
-114.2049543567575
 45
-0.0000001422480488
 46
-1.374815246380847
 79
     2
 49
-1.587499999999999
 49
0.7937499999999999
 98
        1
 10
511.4962154911686
 20
-114.2049543567575
1001
ACAD
1010
0.0
1020
0.0
1030
0.0
  0
CIRCLE
  5
295B
330
27B0
100
AcDbEntity
  8
LW 3850-02-01
 62
     8
100
AcDbCircle
 10
-3.478053205323249
 20
-45.66794900302935
 30
0.0
 40
3.349999999999996
  0
HATCH
  5
295C
330
27B0
100
AcDbEntity
  8
LW 3850-02-01
 62
     8
100
AcDbHatch
 10
0.0
 20
0.0
 30
0.0
210
0.0
220
0.0
230
1.0
  2
HONEY
 70
     0
 71
     0
 91
        1
 92
        1
 93
        1
 72
     2
 10
3.169561221316371
 20
-45.84605693303816
 40
3.349999999999996
 50
-120.0
 51
240.0
 73
     1
 97
        0
 75
     0
 76
     1
 52
-120.0
 41
0.25
 77
     0
 78
     3
 53
240.0
 43
320.0114833052012
 44
365.8662393765729
 45
-0.0000001422480493
 46
-1.374815246380847
 79
     2
 49
0.79375
 49
-1.587499999999999
 53
360.0
 43
320.0114833052012
 44
365.8662393765729
 45
1.190625
 46
0.6874074999999991
 79
     2
 49
0.7937499999999999
 49
-1.587499999999999
 53
300.0
 43
320.0114833052012
 44
365.8662393765729
 45
1.19062485775195
 46
-0.687407746380848
 79
     2
 49
-1.587499999999999
 49
0.79375
 98
        1
 10
320.0114833052012
 20
365.8662393765729
1001
ACAD
1010
0.0
1020
0.0
1030
0.0
  0
CIRCLE
  5
295D
330
27B0
100
AcDbEntity
  8
LW 3850-02-01
 62
     8
100
AcDbCircle
 10
3.169561221316371
 20
-45.84605693303816
 30
0.0
 40
3.349999999999996
  0
HATCH
  5
295E
330
27B0
100
AcDbEntity
  8
LW 3850-02-01
 62
     8
100
AcDbHatch
 10
0.0
 20
0.0
 30
0.0
210
0.0
220
0.0
230
1.0
  2
HONEY
 70
     0
 71
     0
 91
        1
 92
        1
 93
        1
 72
     2
 10
6.647614426639393
 20
-40.17810793000885
 40
3.349999999999996
 50
-60.00000000000005
 51
300.0
 73
     1
 97
        0
 75
     0
 76
     1
 52
-60.00000000000005
 41
0.25
 77
     0
 78
     3
 53
300.0
 43
-191.4847321859674
 44
440.0711937333307
 45
1.19062485775195
 46
-0.6874077463808483
 79
     2
 49
0.79375
 49
-1.587499999999999
 53
59.99999999999994
 43
-191.4847321859674
 44
440.0711937333307
 45
0.00000014224805
 46
1.374815246380847
 79
     2
 49
0.79375
 49
-1.587499999999999
 53
360.0
 43
-191.4847321859674
 44
440.0711937333307
 45
1.190625
 46
0.687407499999999
 79
     2
 49
-1.587499999999999
 49
0.79375
 98
        1
 10
-191.4847321859674
 20
440.0711937333307
1001
ACAD
1010
0.0
1020
0.0
1030
0.0
  0
CIRCLE
  5
295F
330
27B0
100
AcDbEntity
  8
LW 3850-02-01
 62
     8
100
AcDbCircle
 10
6.647614426639393
 20
-40.17810793000885
 30
0.0
 40
3.349999999999996
  0
HATCH
  5
2960
330
27B0
100
AcDbEntity
  8
LW 3850-02-01
 62
     8
100
AcDbHatch
 10
0.0
 20
0.0
 30
0.0
210
0.0
220
0.0
230
1.0
  2
HONEY
 70
     0
 71
     0
 91
        1
 92
        1
 93
        1
 72
     2
 10
0.0
 20
-39.99999999999995
 40
3.349999999999996
 50
0.0
 51
360.0
 73
     1
 97
        0
 75
     0
 76
     1
 52
0.0
 41
0.25
 77
     0
 78
     3
 53
0.0
 43
-514.9742686964919
 44
28.53700535372815
 45
1.190625
 46
0.6874075
 79
     2
 49
0.79375
 49
-1.587499999999999
 53
120.0
 43
-514.9742686964919
 44
28.53700535372815
 45
-1.190624857751951
 46
0.6874077463808477
 79
     2
 49
0.7937499999999992
 49
-1.587499999999998
 53
60.0
 43
-514.9742686964919
 44
28.53700535372815
 45
0.0000001422480487
 46
1.374815246380847
 79
     2
 49
-1.587499999999999
 49
0.79375
 98
        1
 10
-514.9742686964919
 20
28.53700535372815
1001
ACAD
1010
0.0
1020
0.0
1030
0.0
  0
CIRCLE
  5
2961
330
27B0
100
AcDbEntity
  8
LW 3850-02-01
 62
     8
100
AcDbCircle
 10
0.0
 20
-39.99999999999995
 30
0.0
 40
3.349999999999996
  0
INSERT
  5
2962
330
27B0
100
AcDbEntity
  8
LW 3850-02-01
100
AcDbBlockReference
 66
     1
  2
insertpoint-ECKELT
 10
0.0
 20
0.0
 30
0.0
  0
ATTRIB
  5
2963
330
2962
100
AcDbEntity
  8
insertpoint_ECKELT
100
AcDbText
 10
-6.931514324693087
 20
0.0
 30
0.0
 40
0.6
  1
LW 3850/02-01
 72
     2
 11
-1.200000000000045
 21
0.0
 31
0.0
100
AcDbAttribute
  2
LINKS
 70
     0
  0
ATTRIB
  5
2964
330
2962
100
AcDbEntity
  8
insertpoint_ECKELT
100
AcDbText
 10
1.200000000000045
 20
0.0
 30
0.0
 40
0.6
  1

100
AcDbAttribute
  2
RECHTS
 70
     0
  0
SEQEND
  5
2965
330
2962
100
AcDbEntity
  8
LW 3850-02-01
  0
ENDBLK
  5
27B2
330
27B0
100
AcDbEntity
  8
0
100
AcDbBlockEnd
  0
BLOCK
  5
2968
330
2967
100
AcDbEntity
  8
0
100
AcDbBlockBegin
  2
LW 3850-02-01_c
 70
     0
 10
0.0
 20
0.0
 30
0.0
  3
LW 3850-02-01_c
  1

  0
POLYLINE
  5
296A
330
2967
100
AcDbEntity
  8
LW 3850-02-01
100
AcDb2dPolyline
 66
     1
 10
0.0
 20
0.0
 30
0.0
 70
   128
  0
VERTEX
  5
296B
330
296A
100
AcDbEntity
  8
LW 3850-02-01
100
AcDbVertex
100
AcDb2dVertex
 10
-39.92200374603749
 20
27.73959755859403
 30
0.0
  0
VERTEX
  5
296C
330
296A
100
AcDbEntity
  8
LW 3850-02-01
100
AcDbVertex
100
AcDb2dVertex
 10
-39.92758750916005
 20
27.73931145629911
 30
0.0
  0
VERTEX
  5
296D
330
296A
100
AcDbEntity
  8
LW 3850-02-01
100
AcDbVertex
100
AcDb2dVertex
 10
-39.93297338486195
 20
27.73871064147977
 30
0.0
  0
VERTEX
  5
296E
330
296A
100
AcDbEntity
  8
LW 3850-02-01
100
AcDbVertex
100
AcDb2dVertex
 10
-39.93815660477162
 20
27.73779511413602
 30
0.0
  0
VERTEX
  5
296F
330
296A
100
AcDbEntity
  8
LW 3850-02-01
100
AcDbVertex
100
AcDb2dVertex
 10
-39.94313478470326
 20
27.73656249008207
 30
0.0
  0
VERTEX
  5
2970
330
296A
100
AcDbEntity
  8
LW 3850-02-01
100
AcDbVertex
100
AcDb2dVertex
 10
-39.94788885117055
 20
27.73501038513212
 30
0.0
  0
VERTEX
  5
2971
330
296A
100
AcDbEntity
  8
LW 3850-02-01
100
AcDbVertex
100
AcDb2dVertex
 10
-39.95242357254506
 20
27.73313879928617
 30
0.0
  0
VERTEX
  5
2972
330
296A
100
AcDbEntity
  8
LW 3850-02-01
100
AcDbVertex
100
AcDb2dVertex
 10
-39.9567389488268
 20
27.73094773254423
 30
0.0
  0
VERTEX
  5
2973
330
296A
100
AcDbEntity
  8
LW 3850-02-01
100
AcDbVertex
100
AcDb2dVertex
 10
-39.96083498001576
 20
27.7284348007205
 30
0.0
  0
VERTEX
  5
2974
330
296A
100
AcDbEntity
  8
LW 3850-02-01
100
AcDbVertex
100
AcDb2dVertex
 10
-39.96471643448354
 20
27.72560000381498
 30
0.0
  0
VERTEX
  5
2975
330
296A
100
AcDbEntity
  8
LW 3850-02-01
100
AcDbVertex
100
AcDb2dVertex
 10
-39.96838569641591
 20
27.72244095764188
 30
0.0
  0
VERTEX
  5
2976
330
296A
100
AcDbEntity
  8
LW 3850-02-01
100
AcDbVertex
100
AcDb2dVertex
 10
-39.97184276581288
 20
27.71895527801542
 30
0.0
  0
VERTEX
  5
2977
330
296A
100
AcDbEntity
  8
LW 3850-02-01
100
AcDbVertex
100
AcDb2dVertex
 10
-39.97508764267422
 20
27.71514296493558
 30
0.0
  0
VERTEX
  5
2978
330
296A
100
AcDbEntity
  8
LW 3850-02-01
100
AcDbVertex
100
AcDb2dVertex
 10
-39.97812509537198
 20
27.71100401840238
 30
0.0
  0
VERTEX
  5
2979
330
296A
100
AcDbEntity
  8
LW 3850-02-01
100
AcDbVertex
100
AcDb2dVertex
 10
-39.9809575080917
 20
27.70653367004423
 30
0.0
  0
VERTEX
  5
297A
330
296A
100
AcDbEntity
  8
LW 3850-02-01
100
AcDbVertex
100
AcDb2dVertex
 10
-39.9835848808334
 20
27.70173430404691
 30
0.0
  0
VERTEX
  5
297B
330
296A
100
AcDbEntity
  8
LW 3850-02-01
100
AcDbVertex
100
AcDb2dVertex
 10
-39.98600959778287
 20
27.69660592041044
 30
0.0
  0
VERTEX
  5
297C
330
296A
100
AcDbEntity
  8
LW 3850-02-01
100
AcDbVertex
100
AcDb2dVertex
 10
-39.98823165894009
 20
27.69114136657743
 30
0.0
  0
VERTEX
  5
297D
330
296A
100
AcDbEntity
  8
LW 3850-02-01
100
AcDbVertex
100
AcDb2dVertex
 10
-39.99025821686246
 20
27.68534541091947
 30
0.0
  0
VERTEX
  5
297E
330
296A
100
AcDbEntity
  8
LW 3850-02-01
100
AcDbVertex
100
AcDb2dVertex
 10
-39.99208450317837
 20
27.67921090087919
 30
0.0
  0
VERTEX
  5
297F
330
296A
100
AcDbEntity
  8
LW 3850-02-01
100
AcDbVertex
100
AcDb2dVertex
 10
-39.99371767044522
 20
27.67274260482816
 30
0.0
  0
VERTEX
  5
2980
330
296A
100
AcDbEntity
  8
LW 3850-02-01
100
AcDbVertex
100
AcDb2dVertex
 10
-39.9951553344772
 20
27.66593575439481
 30
0.0
  0
VERTEX
  5
2981
330
296A
100
AcDbEntity
  8
LW 3850-02-01
100
AcDbVertex
100
AcDb2dVertex
 10
-39.9964022636459
 20
27.65879034957914
 30
0.0
  0
VERTEX
  5
2982
330
296A
100
AcDbEntity
  8
LW 3850-02-01
100
AcDbVertex
100
AcDb2dVertex
 10
-39.99746084213711
 20
27.65130639038114
 30
0.0
  0
VERTEX
  5
2983
330
296A
100
AcDbEntity
  8
LW 3850-02-01
100
AcDbVertex
100
AcDb2dVertex
 10
-39.99832868576504
 20
27.64347910842924
 30
0.0
  0
SEQEND
  5
2984
330
296A
100
AcDbEntity
  8
LW 3850-02-01
  0
POLYLINE
  5
2985
330
2967
100
AcDbEntity
  8
LW 3850-02-01
100
AcDb2dPolyline
 66
     1
 10
0.0
 20
0.0
 30
0.0
 70
   128
  0
VERTEX
  5
2986
330
2985
100
AcDbEntity
  8
LW 3850-02-01
100
AcDbVertex
100
AcDb2dVertex
 10
-39.99832868574868
 20
-27.64347910919162
 30
0.0
  0
VERTEX
  5
2987
330
2985
100
AcDbEntity
  8
LW 3850-02-01
100
AcDbVertex
100
AcDb2dVertex
 10
-39.99746084212075
 20
-27.65130877532931
 30
0.0
  0
VERTEX
  5
2988
330
2985
100
AcDbEntity
  8
LW 3850-02-01
100
AcDbVertex
100
AcDb2dVertex
 10
-39.99640226362954
 20
-27.65879035034152
 30
0.0
  0
VERTEX
  5
2989
330
2985
100
AcDbEntity
  8
LW 3850-02-01
100
AcDbVertex
100
AcDb2dVertex
 10
-39.99515533446083
 20
-27.66593813934298
 30
0.0
  0
VERTEX
  5
298A
330
2985
100
AcDbEntity
  8
LW 3850-02-01
100
AcDbVertex
100
AcDb2dVertex
 10
-39.99371767042885
 20
-27.67274260559054
 30
0.0
  0
VERTEX
  5
298B
330
2985
100
AcDbEntity
  8
LW 3850-02-01
100
AcDbVertex
100
AcDb2dVertex
 10
-39.99208450316201
 20
-27.67921328582736
 30
0.0
  0
VERTEX
  5
298C
330
2985
100
AcDbEntity
  8
LW 3850-02-01
100
AcDbVertex
100
AcDb2dVertex
 10
-39.99025821684609
 20
-27.68534541168185
 30
0.0
  0
VERTEX
  5
298D
330
2985
100
AcDbEntity
  8
LW 3850-02-01
100
AcDbVertex
100
AcDb2dVertex
 10
-39.98823165892373
 20
-27.6911437515256
 30
0.0
  0
VERTEX
  5
298E
330
2985
100
AcDbEntity
  8
LW 3850-02-01
100
AcDbVertex
100
AcDb2dVertex
 10
-39.9860095977665
 20
-27.69660830535861
 30
0.0
  0
VERTEX
  5
298F
330
2985
100
AcDbEntity
  8
LW 3850-02-01
100
AcDbVertex
100
AcDb2dVertex
 10
-39.98358488081704
 20
-27.70173430480929
 30
0.0
  0
VERTEX
  5
2990
330
2985
100
AcDbEntity
  8
LW 3850-02-01
100
AcDbVertex
100
AcDb2dVertex
 10
-39.98095750807534
 20
-27.7065360549924
 30
0.0
  0
VERTEX
  5
2991
330
2985
100
AcDbEntity
  8
LW 3850-02-01
100
AcDbVertex
100
AcDb2dVertex
 10
-39.97812509535561
 20
-27.71100401916476
 30
0.0
  0
VERTEX
  5
2992
330
2985
100
AcDbEntity
  8
LW 3850-02-01
100
AcDbVertex
100
AcDb2dVertex
 10
-39.97508764265786
 20
-27.71514296569796
 30
0.0
  0
VERTEX
  5
2993
330
2985
100
AcDbEntity
  8
LW 3850-02-01
100
AcDbVertex
100
AcDb2dVertex
 10
-39.97184276579628
 20
-27.71895766296359
 30
0.0
  0
VERTEX
  5
2994
330
2985
100
AcDbEntity
  8
LW 3850-02-01
100
AcDbVertex
100
AcDb2dVertex
 10
-39.96838569639931
 20
-27.72244334259005
 30
0.0
  0
VERTEX
  5
2995
330
2985
100
AcDbEntity
  8
LW 3850-02-01
100
AcDbVertex
100
AcDb2dVertex
 10
-39.96471643446694
 20
-27.72560000457736
 30
0.0
  0
VERTEX
  5
2996
330
2985
100
AcDbEntity
  8
LW 3850-02-01
100
AcDbVertex
100
AcDb2dVertex
 10
-39.96083497999917
 20
-27.72843718566867
 30
0.0
  0
VERTEX
  5
2997
330
2985
100
AcDbEntity
  8
LW 3850-02-01
100
AcDbVertex
100
AcDb2dVertex
 10
-39.9567389488102
 20
-27.7309501174924
 30
0.0
  0
VERTEX
  5
2998
330
2985
100
AcDbEntity
  8
LW 3850-02-01
100
AcDbVertex
100
AcDb2dVertex
 10
-39.95242357252846
 20
-27.73313880004855
 30
0.0
  0
VERTEX
  5
2999
330
2985
100
AcDbEntity
  8
LW 3850-02-01
100
AcDbVertex
100
AcDb2dVertex
 10
-39.94788885115395
 20
-27.73501277008029
 30
0.0
  0
VERTEX
  5
299A
330
2985
100
AcDbEntity
  8
LW 3850-02-01
100
AcDbVertex
100
AcDb2dVertex
 10
-39.94313478468667
 20
-27.73656249084445
 30
0.0
  0
VERTEX
  5
299B
330
2985
100
AcDbEntity
  8
LW 3850-02-01
100
AcDbVertex
100
AcDb2dVertex
 10
-39.93815660475502
 20
-27.7377974990842
 30
0.0
  0
VERTEX
  5
299C
330
2985
100
AcDbEntity
  8
LW 3850-02-01
100
AcDbVertex
100
AcDb2dVertex
 10
-39.93297338484536
 20
-27.73871302642795
 30
0.0
  0
VERTEX
  5
299D
330
2985
100
AcDbEntity
  8
LW 3850-02-01
100
AcDbVertex
100
AcDb2dVertex
 10
-39.92758750914345
 20
-27.73931384124728
 30
0.0
  0
VERTEX
  5
299E
330
2985
100
AcDbEntity
  8
LW 3850-02-01
100
AcDbVertex
100
AcDb2dVertex
 10
-39.92200374602089
 20
-27.7395999435422
 30
0.0
  0
SEQEND
  5
299F
330
2985
100
AcDbEntity
  8
LW 3850-02-01
  0
POLYLINE
  5
29A0
330
2967
100
AcDbEntity
  8
LW 3850-02-01
100
AcDb2dPolyline
 66
     1
 10
0.0
 20
0.0
 30
0.0
 70
   128
  0
VERTEX
  5
29A1
330
29A0
100
AcDbEntity
  8
LW 3850-02-01
100
AcDbVertex
100
AcDb2dVertex
 10
-29.73493576050669
 20
29.91840481720306
 30
0.0
  0
VERTEX
  5
29A2
330
29A0
100
AcDbEntity
  8
LW 3850-02-01
100
AcDbVertex
100
AcDb2dVertex
 10
-29.52124595642954
 20
29.97942566833842
 30
0.0
  0
VERTEX
  5
29A3
330
29A0
100
AcDbEntity
  8
LW 3850-02-01
100
AcDbVertex
100
AcDb2dVertex
 10
-29.30000066758066
 20
29.99999880752915
 30
0.0
  0
SEQEND
  5
29A4
330
29A0
100
AcDbEntity
  8
LW 3850-02-01
  0
POLYLINE
  5
29A5
330
2967
100
AcDbEntity
  8
LW 3850-02-01
100
AcDb2dPolyline
 66
     1
 10
0.0
 20
0.0
 30
0.0
 70
   128
  0
VERTEX
  5
29A6
330
29A5
100
AcDbEntity
  8
LW 3850-02-01
100
AcDbVertex
100
AcDb2dVertex
 10
-39.92200851440907
 20
27.73959040603666
 30
0.0
  0
VERTEX
  5
29A7
330
29A5
100
AcDbEntity
  8
LW 3850-02-01
100
AcDbVertex
100
AcDb2dVertex
 10
-39.3989825248766
 20
27.75708794555709
 30
0.0
  0
VERTEX
  5
29A8
330
29A5
100
AcDbEntity
  8
LW 3850-02-01
100
AcDbVertex
100
AcDb2dVertex
 10
-38.87792348862172
 20
27.78531193695136
 30
0.0
  0
VERTEX
  5
29A9
330
29A5
100
AcDbEntity
  8
LW 3850-02-01
100
AcDbVertex
100
AcDb2dVertex
 10
-38.36097240448476
 20
27.82366871795733
 30
0.0
  0
VERTEX
  5
29AA
330
29A5
100
AcDbEntity
  8
LW 3850-02-01
100
AcDbVertex
100
AcDb2dVertex
 10
-37.85027742386342
 20
27.87156462631322
 30
0.0
  0
VERTEX
  5
29AB
330
29A5
100
AcDbEntity
  8
LW 3850-02-01
100
AcDbVertex
100
AcDb2dVertex
 10
-37.34798431396985
 20
27.92840123138535
 30
0.0
  0
VERTEX
  5
29AC
330
29A5
100
AcDbEntity
  8
LW 3850-02-01
100
AcDbVertex
100
AcDb2dVertex
 10
-36.85620546341443
 20
27.99358963928347
 30
0.0
  0
VERTEX
  5
29AD
330
29A5
100
AcDbEntity
  8
LW 3850-02-01
100
AcDbVertex
100
AcDb2dVertex
 10
-36.37454986572766
 20
28.06660056076186
 30
0.0
  0
VERTEX
  5
29AE
330
29A5
100
AcDbEntity
  8
LW 3850-02-01
100
AcDbVertex
100
AcDb2dVertex
 10
-35.90305566788243
 20
28.14658760986481
 30
0.0
  0
VERTEX
  5
29AF
330
29A5
100
AcDbEntity
  8
LW 3850-02-01
100
AcDbVertex
100
AcDb2dVertex
 10
-35.44311761856602
 20
28.23256134948895
 30
0.0
  0
VERTEX
  5
29B0
330
29A5
100
AcDbEntity
  8
LW 3850-02-01
100
AcDbVertex
100
AcDb2dVertex
 10
-34.99613285065243
 20
28.3235347267169
 30
0.0
  0
VERTEX
  5
29B1
330
29A5
100
AcDbEntity
  8
LW 3850-02-01
100
AcDbVertex
100
AcDb2dVertex
 10
-34.56349372864315
 20
28.41851115188791
 30
0.0
  0
VERTEX
  5
29B2
330
29A5
100
AcDbEntity
  8
LW 3850-02-01
100
AcDbVertex
100
AcDb2dVertex
 10
-34.14653539658161
 20
28.51652026138504
 30
0.0
  0
VERTEX
  5
29B3
330
29A5
100
AcDbEntity
  8
LW 3850-02-01
100
AcDbVertex
100
AcDb2dVertex
 10
-33.744554519659
 20
28.61694693527437
 30
0.0
  0
VERTEX
  5
29B4
330
29A5
100
AcDbEntity
  8
LW 3850-02-01
100
AcDbVertex
100
AcDb2dVertex
 10
-33.35762023926373
 20
28.71900677643055
 30
0.0
  0
VERTEX
  5
29B5
330
29A5
100
AcDbEntity
  8
LW 3850-02-01
100
AcDbVertex
100
AcDb2dVertex
 10
-32.98668861389752
 20
28.82174134216547
 30
0.0
  0
VERTEX
  5
29B6
330
29A5
100
AcDbEntity
  8
LW 3850-02-01
100
AcDbVertex
100
AcDb2dVertex
 10
-32.63272523880619
 20
28.92419218979132
 30
0.0
  0
VERTEX
  5
29B7
330
29A5
100
AcDbEntity
  8
LW 3850-02-01
100
AcDbVertex
100
AcDb2dVertex
 10
-32.29668855667728
 20
29.02540087661999
 30
0.0
  0
VERTEX
  5
29B8
330
29A5
100
AcDbEntity
  8
LW 3850-02-01
100
AcDbVertex
100
AcDb2dVertex
 10
-31.97953701019924
 20
29.12441134414939
 30
0.0
  0
VERTEX
  5
29B9
330
29A5
100
AcDbEntity
  8
LW 3850-02-01
100
AcDbVertex
100
AcDb2dVertex
 10
-31.68173074722949
 20
29.22041296921054
 30
0.0
  0
VERTEX
  5
29BA
330
29A5
100
AcDbEntity
  8
LW 3850-02-01
100
AcDbVertex
100
AcDb2dVertex
 10
-31.40262126923267
 20
29.31298375091842
 30
0.0
  0
VERTEX
  5
29BB
330
29A5
100
AcDbEntity
  8
LW 3850-02-01
100
AcDbVertex
100
AcDb2dVertex
 10
-31.14286899567332
 20
29.40141320190725
 30
0.0
  0
VERTEX
  5
29BC
330
29A5
100
AcDbEntity
  8
LW 3850-02-01
100
AcDbVertex
100
AcDb2dVertex
 10
-30.90323448181858
 20
29.48495507202449
 30
0.0
  0
VERTEX
  5
29BD
330
29A5
100
AcDbEntity
  8
LW 3850-02-01
100
AcDbVertex
100
AcDb2dVertex
 10
-30.68447828293574
 20
29.56287026367494
 30
0.0
  0
VERTEX
  5
29BE
330
29A5
100
AcDbEntity
  8
LW 3850-02-01
100
AcDbVertex
100
AcDb2dVertex
 10
-30.48735857010638
 20
29.63441491089179
 30
0.0
  0
VERTEX
  5
29BF
330
29A5
100
AcDbEntity
  8
LW 3850-02-01
100
AcDbVertex
100
AcDb2dVertex
 10
-30.3126335144118
 20
29.6988451477082
 30
0.0
  0
VERTEX
  5
29C0
330
29A5
100
AcDbEntity
  8
LW 3850-02-01
100
AcDbVertex
100
AcDb2dVertex
 10
-30.16073703766642
 20
29.75557684860553
 30
0.0
  0
VERTEX
  5
29C1
330
29A5
100
AcDbEntity
  8
LW 3850-02-01
100
AcDbVertex
100
AcDb2dVertex
 10
-30.0313830375751
 20
29.80444312057824
 30
0.0
  0
VERTEX
  5
29C2
330
29A5
100
AcDbEntity
  8
LW 3850-02-01
100
AcDbVertex
100
AcDb2dVertex
 10
-29.92499828339419
 20
29.84503626785608
 30
0.0
  0
VERTEX
  5
29C3
330
29A5
100
AcDbEntity
  8
LW 3850-02-01
100
AcDbVertex
100
AcDb2dVertex
 10
-29.84202384949549
 20
29.87693190536828
 30
0.0
  0
VERTEX
  5
29C4
330
29A5
100
AcDbEntity
  8
LW 3850-02-01
100
AcDbVertex
100
AcDb2dVertex
 10
-29.78258848191149
 20
29.89990591965057
 30
0.0
  0
VERTEX
  5
29C5
330
29A5
100
AcDbEntity
  8
LW 3850-02-01
100
AcDbVertex
100
AcDb2dVertex
 10
-29.73493576050669
 20
29.91840481720306
 30
0.0
  0
SEQEND
  5
29C6
330
29A5
100
AcDbEntity
  8
LW 3850-02-01
  0
POLYLINE
  5
29C7
330
2967
100
AcDbEntity
  8
LW 3850-02-01
100
AcDb2dPolyline
 66
     1
 10
0.0
 20
0.0
 30
0.0
 70
   128
  0
VERTEX
  5
29C8
330
29C7
100
AcDbEntity
  8
LW 3850-02-01
100
AcDbVertex
100
AcDb2dVertex
 10
-29.73499774931952
 20
-29.91838336028718
 30
0.0
  0
VERTEX
  5
29C9
330
29C7
100
AcDbEntity
  8
LW 3850-02-01
100
AcDbVertex
100
AcDb2dVertex
 10
-29.78259325026534
 20
-29.89990592040681
 30
0.0
  0
VERTEX
  5
29CA
330
29C7
100
AcDbEntity
  8
LW 3850-02-01
100
AcDbVertex
100
AcDb2dVertex
 10
-29.84203100203513
 20
-29.87693190612464
 30
0.0
  0
VERTEX
  5
29CB
330
29C7
100
AcDbEntity
  8
LW 3850-02-01
100
AcDbVertex
100
AcDb2dVertex
 10
-29.92500782011962
 20
-29.84503150024085
 30
0.0
  0
VERTEX
  5
29CC
330
29C7
100
AcDbEntity
  8
LW 3850-02-01
100
AcDbVertex
100
AcDb2dVertex
 10
-30.03139257430053
 20
-29.8044431213346
 30
0.0
  0
VERTEX
  5
29CD
330
29C7
100
AcDbEntity
  8
LW 3850-02-01
100
AcDbVertex
100
AcDb2dVertex
 10
-30.16074657439185
 20
-29.75557208099042
 30
0.0
  0
VERTEX
  5
29CE
330
29C7
100
AcDbEntity
  8
LW 3850-02-01
100
AcDbVertex
100
AcDb2dVertex
 10
-30.31264543532325
 20
-29.69884276427911
 30
0.0
  0
VERTEX
  5
29CF
330
29C7
100
AcDbEntity
  8
LW 3850-02-01
100
AcDbVertex
100
AcDb2dVertex
 10
-30.4873704910176
 20
-29.63440775909112
 30
0.0
  0
VERTEX
  5
29D0
330
29C7
100
AcDbEntity
  8
LW 3850-02-01
100
AcDbVertex
100
AcDb2dVertex
 10
-30.68449258803298
 20
-29.56286788024596
 30
0.0
  0
VERTEX
  5
29D1
330
29C7
100
AcDbEntity
  8
LW 3850-02-01
100
AcDbVertex
100
AcDb2dVertex
 10
-30.90324878691581
 20
-29.48495268859563
 30
0.0
  0
VERTEX
  5
29D2
330
29C7
100
AcDbEntity
  8
LW 3850-02-01
100
AcDbVertex
100
AcDb2dVertex
 10
-31.14288330077079
 20
-29.4014108184785
 30
0.0
  0
VERTEX
  5
29D3
330
29C7
100
AcDbEntity
  8
LW 3850-02-01
100
AcDbVertex
100
AcDb2dVertex
 10
-31.40263557433013
 20
-29.31298136748978
 30
0.0
  0
VERTEX
  5
29D4
330
29C7
100
AcDbEntity
  8
LW 3850-02-01
100
AcDbVertex
100
AcDb2dVertex
 10
-31.68174743651275
 20
-29.22040820159634
 30
0.0
  0
VERTEX
  5
29D5
330
29C7
100
AcDbEntity
  8
LW 3850-02-01
100
AcDbVertex
100
AcDb2dVertex
 10
-31.9795536994825
 20
-29.12440657653537
 30
0.0
  0
VERTEX
  5
29D6
330
29C7
100
AcDbEntity
  8
LW 3850-02-01
100
AcDbVertex
100
AcDb2dVertex
 10
-32.29670286177498
 20
-29.02539610900624
 30
0.0
  0
VERTEX
  5
29D7
330
29C7
100
AcDbEntity
  8
LW 3850-02-01
100
AcDbVertex
100
AcDb2dVertex
 10
-32.63274192808945
 20
-28.92418742217768
 30
0.0
  0
VERTEX
  5
29D8
330
29C7
100
AcDbEntity
  8
LW 3850-02-01
100
AcDbVertex
100
AcDb2dVertex
 10
-32.986705303181
 20
-28.82173895873786
 30
0.0
  0
VERTEX
  5
29D9
330
29C7
100
AcDbEntity
  8
LW 3850-02-01
100
AcDbVertex
100
AcDb2dVertex
 10
-33.35763454436142
 20
-28.71900439300305
 30
0.0
  0
VERTEX
  5
29DA
330
29C7
100
AcDbEntity
  8
LW 3850-02-01
100
AcDbVertex
100
AcDb2dVertex
 10
-33.74457120894272
 20
-28.61694216766142
 30
0.0
  0
VERTEX
  5
29DB
330
29C7
100
AcDbEntity
  8
LW 3850-02-01
100
AcDbVertex
100
AcDb2dVertex
 10
-34.1465497016793
 20
-28.51651549377243
 30
0.0
  0
VERTEX
  5
29DC
330
29C7
100
AcDbEntity
  8
LW 3850-02-01
100
AcDbVertex
100
AcDb2dVertex
 10
-34.56350803374107
 20
-28.418511152647
 30
0.0
  0
VERTEX
  5
29DD
330
29C7
100
AcDbEntity
  8
LW 3850-02-01
100
AcDbVertex
100
AcDb2dVertex
 10
-34.99614477156433
 20
-28.32352995910463
 30
0.0
  0
VERTEX
  5
29DE
330
29C7
100
AcDbEntity
  8
LW 3850-02-01
100
AcDbVertex
100
AcDb2dVertex
 10
-35.44312953947815
 20
-28.23255896606281
 30
0.0
  0
VERTEX
  5
29DF
330
29C7
100
AcDbEntity
  8
LW 3850-02-01
100
AcDbVertex
100
AcDb2dVertex
 10
-35.90306758879456
 20
-28.1465852264389
 30
0.0
  0
VERTEX
  5
29E0
330
29C7
100
AcDbEntity
  8
LW 3850-02-01
100
AcDbVertex
100
AcDb2dVertex
 10
-36.37455940245422
 20
-28.06660056152208
 30
0.0
  0
VERTEX
  5
29E1
330
29C7
100
AcDbEntity
  8
LW 3850-02-01
100
AcDbVertex
100
AcDb2dVertex
 10
-36.85621500014099
 20
-27.99358725585813
 30
0.0
  0
VERTEX
  5
29E2
330
29C7
100
AcDbEntity
  8
LW 3850-02-01
100
AcDbVertex
100
AcDb2dVertex
 10
-37.34799146651062
 20
-27.92839884796035
 30
0.0
  0
VERTEX
  5
29E3
330
29C7
100
AcDbEntity
  8
LW 3850-02-01
100
AcDbVertex
100
AcDb2dVertex
 10
-37.85028457640442
 20
-27.87156462707424
 30
0.0
  0
VERTEX
  5
29E4
330
29C7
100
AcDbEntity
  8
LW 3850-02-01
100
AcDbVertex
100
AcDb2dVertex
 10
-38.36097717283997
 20
-27.82367110290449
 30
0.0
  0
VERTEX
  5
29E5
330
29C7
100
AcDbEntity
  8
LW 3850-02-01
100
AcDbVertex
100
AcDb2dVertex
 10
-38.87792587279114
 20
-27.78531432189874
 30
0.0
  0
VERTEX
  5
29E6
330
29C7
100
AcDbEntity
  8
LW 3850-02-01
100
AcDbVertex
100
AcDb2dVertex
 10
-39.3989849090458
 20
-27.75709033050487
 30
0.0
  0
VERTEX
  5
29E7
330
29C7
100
AcDbEntity
  8
LW 3850-02-01
100
AcDbVertex
100
AcDb2dVertex
 10
-39.92200851439248
 20
-27.73959040679904
 30
0.0
  0
SEQEND
  5
29E8
330
29C7
100
AcDbEntity
  8
LW 3850-02-01
  0
ARC
  5
29E9
330
2967
100
AcDbEntity
  8
LW 3850-02-01
100
AcDbCircle
 10
-29.29999999999131
 20
-28.80000000000848
 30
0.0
 40
1.200000000000208
100
AcDbArc
 50
248.7463494903595
 51
270.000000000013
  0
POLYLINE
  5
29EA
330
2967
100
AcDbEntity
  8
LW 3850-02-01
100
AcDb2dPolyline
 66
     1
 10
0.0
 20
0.0
 30
0.0
 70
   128
  0
VERTEX
  5
29EB
330
29EA
100
AcDbEntity
  8
LW 3850-02-01
100
AcDbVertex
100
AcDb2dVertex
 10
-39.99999999998818
 20
-27.60887503662082
 30
0.0
  0
VERTEX
  5
29EC
330
29EA
100
AcDbEntity
  8
LW 3850-02-01
100
AcDbVertex
100
AcDb2dVertex
 10
-39.99999761580239
 20
-27.61031031646701
 30
0.0
  0
VERTEX
  5
29ED
330
29EA
100
AcDbEntity
  8
LW 3850-02-01
100
AcDbVertex
100
AcDb2dVertex
 10
-39.99998807905922
 20
-27.61175036468478
 30
0.0
  0
VERTEX
  5
29EE
330
29EA
100
AcDbEntity
  8
LW 3850-02-01
100
AcDbVertex
100
AcDb2dVertex
 10
-39.99997377394448
 20
-27.61318564453097
 30
0.0
  0
VERTEX
  5
29EF
330
29EA
100
AcDbEntity
  8
LW 3850-02-01
100
AcDbVertex
100
AcDb2dVertex
 10
-39.99995470045815
 20
-27.61462569274875
 30
0.0
  0
VERTEX
  5
29F0
330
29EA
100
AcDbEntity
  8
LW 3850-02-01
100
AcDbVertex
100
AcDb2dVertex
 10
-39.99992847441445
 20
-27.61606574096652
 30
0.0
  0
VERTEX
  5
29F1
330
29EA
100
AcDbEntity
  8
LW 3850-02-01
100
AcDbVertex
100
AcDb2dVertex
 10
-39.99989747999917
 20
-27.61750102081271
 30
0.0
  0
VERTEX
  5
29F2
330
29EA
100
AcDbEntity
  8
LW 3850-02-01
100
AcDbVertex
100
AcDb2dVertex
 10
-39.99985933302651
 20
-27.61894106903048
 30
0.0
  0
VERTEX
  5
29F3
330
29EA
100
AcDbEntity
  8
LW 3850-02-01
100
AcDbVertex
100
AcDb2dVertex
 10
-39.99981641768227
 20
-27.62038111724826
 30
0.0
  0
VERTEX
  5
29F4
330
29EA
100
AcDbEntity
  8
LW 3850-02-01
100
AcDbVertex
100
AcDb2dVertex
 10
-39.99976634978066
 20
-27.62182116546603
 30
0.0
  0
VERTEX
  5
29F5
330
29EA
100
AcDbEntity
  8
LW 3850-02-01
100
AcDbVertex
100
AcDb2dVertex
 10
-39.99971151350747
 20
-27.62326598205539
 30
0.0
  0
VERTEX
  5
29F6
330
29EA
100
AcDbEntity
  8
LW 3850-02-01
100
AcDbVertex
100
AcDb2dVertex
 10
-39.99965190886269
 20
-27.62470603027316
 30
0.0
  0
VERTEX
  5
29F7
330
29EA
100
AcDbEntity
  8
LW 3850-02-01
100
AcDbVertex
100
AcDb2dVertex
 10
-39.99958515166054
 20
-27.62614607849093
 30
0.0
  0
VERTEX
  5
29F8
330
29EA
100
AcDbEntity
  8
LW 3850-02-01
100
AcDbVertex
100
AcDb2dVertex
 10
-39.99951362608681
 20
-27.62759089508029
 30
0.0
  0
VERTEX
  5
29F9
330
29EA
100
AcDbEntity
  8
LW 3850-02-01
100
AcDbVertex
100
AcDb2dVertex
 10
-39.99943494795571
 20
-27.62903094329806
 30
0.0
  0
VERTEX
  5
29FA
330
29EA
100
AcDbEntity
  8
LW 3850-02-01
100
AcDbVertex
100
AcDb2dVertex
 10
-39.99935150145302
 20
-27.63047575988742
 30
0.0
  0
VERTEX
  5
29FB
330
29EA
100
AcDbEntity
  8
LW 3850-02-01
100
AcDbVertex
100
AcDb2dVertex
 10
-39.99926090239296
 20
-27.63192057647677
 30
0.0
  0
VERTEX
  5
29FC
330
29EA
100
AcDbEntity
  8
LW 3850-02-01
100
AcDbVertex
100
AcDb2dVertex
 10
-39.99916553496132
 20
-27.63336539306613
 30
0.0
  0
VERTEX
  5
29FD
330
29EA
100
AcDbEntity
  8
LW 3850-02-01
100
AcDbVertex
100
AcDb2dVertex
 10
-39.99906301497231
 20
-27.6348054412839
 30
0.0
  0
VERTEX
  5
29FE
330
29EA
100
AcDbEntity
  8
LW 3850-02-01
100
AcDbVertex
100
AcDb2dVertex
 10
-39.99895572661171
 20
-27.63625025787326
 30
0.0
  0
VERTEX
  5
29FF
330
29EA
100
AcDbEntity
  8
LW 3850-02-01
100
AcDbVertex
100
AcDb2dVertex
 10
-39.99884366987954
 20
-27.63769507446261
 30
0.0
  0
VERTEX
  5
2A00
330
29EA
100
AcDbEntity
  8
LW 3850-02-01
100
AcDbVertex
100
AcDb2dVertex
 10
-39.99872207640419
 20
-27.63913989105197
 30
0.0
  0
VERTEX
  5
2A01
330
29EA
100
AcDbEntity
  8
LW 3850-02-01
100
AcDbVertex
100
AcDb2dVertex
 10
-39.99859809874306
 20
-27.64058947601291
 30
0.0
  0
VERTEX
  5
2A02
330
29EA
100
AcDbEntity
  8
LW 3850-02-01
100
AcDbVertex
100
AcDb2dVertex
 10
-39.99846696852456
 20
-27.64203429260226
 30
0.0
  0
VERTEX
  5
2A03
330
29EA
100
AcDbEntity
  8
LW 3850-02-01
100
AcDbVertex
100
AcDb2dVertex
 10
-39.99832868574868
 20
-27.64347910919162
 30
0.0
  0
SEQEND
  5
2A04
330
29EA
100
AcDbEntity
  8
LW 3850-02-01
  0
POLYLINE
  5
2A05
330
2967
100
AcDbEntity
  8
LW 3850-02-01
100
AcDb2dPolyline
 66
     1
 10
0.0
 20
0.0
 30
0.0
 70
   128
  0
VERTEX
  5
2A06
330
2A05
100
AcDbEntity
  8
LW 3850-02-01
100
AcDbVertex
100
AcDb2dVertex
 10
-39.99832868576504
 20
27.64347910842924
 30
0.0
  0
VERTEX
  5
2A07
330
2A05
100
AcDbEntity
  8
LW 3850-02-01
100
AcDbVertex
100
AcDb2dVertex
 10
-39.99846696854092
 20
27.64203190765409
 30
0.0
  0
VERTEX
  5
2A08
330
2A05
100
AcDbEntity
  8
LW 3850-02-01
100
AcDbVertex
100
AcDb2dVertex
 10
-39.99859809875943
 20
27.64058709106473
 30
0.0
  0
VERTEX
  5
2A09
330
2A05
100
AcDbEntity
  8
LW 3850-02-01
100
AcDbVertex
100
AcDb2dVertex
 10
-39.99872207642056
 20
27.63913989028959
 30
0.0
  0
VERTEX
  5
2A0A
330
2A05
100
AcDbEntity
  8
LW 3850-02-01
100
AcDbVertex
100
AcDb2dVertex
 10
-39.9988436698959
 20
27.63769507370023
 30
0.0
  0
VERTEX
  5
2A0B
330
2A05
100
AcDbEntity
  8
LW 3850-02-01
100
AcDbVertex
100
AcDb2dVertex
 10
-39.99895572662808
 20
27.63625025711088
 30
0.0
  0
VERTEX
  5
2A0C
330
2A05
100
AcDbEntity
  8
LW 3850-02-01
100
AcDbVertex
100
AcDb2dVertex
 10
-39.99906301498868
 20
27.63480544052152
 30
0.0
  0
VERTEX
  5
2A0D
330
2A05
100
AcDbEntity
  8
LW 3850-02-01
100
AcDbVertex
100
AcDb2dVertex
 10
-39.99916553497769
 20
27.63336300811796
 30
0.0
  0
VERTEX
  5
2A0E
330
2A05
100
AcDbEntity
  8
LW 3850-02-01
100
AcDbVertex
100
AcDb2dVertex
 10
-39.99926090240933
 20
27.6319181915286
 30
0.0
  0
VERTEX
  5
2A0F
330
2A05
100
AcDbEntity
  8
LW 3850-02-01
100
AcDbVertex
100
AcDb2dVertex
 10
-39.99935150146939
 20
27.63047575912504
 30
0.0
  0
VERTEX
  5
2A10
330
2A05
100
AcDbEntity
  8
LW 3850-02-01
100
AcDbVertex
100
AcDb2dVertex
 10
-39.99943494797208
 20
27.62903094253568
 30
0.0
  0
VERTEX
  5
2A11
330
2A05
100
AcDbEntity
  8
LW 3850-02-01
100
AcDbVertex
100
AcDb2dVertex
 10
-39.99951362610318
 20
27.62758851013212
 30
0.0
  0
VERTEX
  5
2A12
330
2A05
100
AcDbEntity
  8
LW 3850-02-01
100
AcDbVertex
100
AcDb2dVertex
 10
-39.99958515167691
 20
27.62614607772855
 30
0.0
  0
VERTEX
  5
2A13
330
2A05
100
AcDbEntity
  8
LW 3850-02-01
100
AcDbVertex
100
AcDb2dVertex
 10
-39.99965190887906
 20
27.62470364532499
 30
0.0
  0
VERTEX
  5
2A14
330
2A05
100
AcDbEntity
  8
LW 3850-02-01
100
AcDbVertex
100
AcDb2dVertex
 10
-39.99971151352383
 20
27.62326359710721
 30
0.0
  0
VERTEX
  5
2A15
330
2A05
100
AcDbEntity
  8
LW 3850-02-01
100
AcDbVertex
100
AcDb2dVertex
 10
-39.99976634979703
 20
27.62182116470365
 30
0.0
  0
VERTEX
  5
2A16
330
2A05
100
AcDbEntity
  8
LW 3850-02-01
100
AcDbVertex
100
AcDb2dVertex
 10
-39.99981641769864
 20
27.62038111648588
 30
0.0
  0
VERTEX
  5
2A17
330
2A05
100
AcDbEntity
  8
LW 3850-02-01
100
AcDbVertex
100
AcDb2dVertex
 10
-39.99985933304288
 20
27.6189410682681
 30
0.0
  0
VERTEX
  5
2A18
330
2A05
100
AcDbEntity
  8
LW 3850-02-01
100
AcDbVertex
100
AcDb2dVertex
 10
-39.99989748001553
 20
27.61750102005033
 30
0.0
  0
VERTEX
  5
2A19
330
2A05
100
AcDbEntity
  8
LW 3850-02-01
100
AcDbVertex
100
AcDb2dVertex
 10
-39.99992847443082
 20
27.61606335601835
 30
0.0
  0
VERTEX
  5
2A1A
330
2A05
100
AcDbEntity
  8
LW 3850-02-01
100
AcDbVertex
100
AcDb2dVertex
 10
-39.99995470047452
 20
27.61462330780057
 30
0.0
  0
VERTEX
  5
2A1B
330
2A05
100
AcDbEntity
  8
LW 3850-02-01
100
AcDbVertex
100
AcDb2dVertex
 10
-39.99997377396084
 20
27.61318564376859
 30
0.0
  0
VERTEX
  5
2A1C
330
2A05
100
AcDbEntity
  8
LW 3850-02-01
100
AcDbVertex
100
AcDb2dVertex
 10
-39.99998807907559
 20
27.61174797973661
 30
0.0
  0
VERTEX
  5
2A1D
330
2A05
100
AcDbEntity
  8
LW 3850-02-01
100
AcDbVertex
100
AcDb2dVertex
 10
-39.99999761581876
 20
27.61031031570463
 30
0.0
  0
VERTEX
  5
2A1E
330
2A05
100
AcDbEntity
  8
LW 3850-02-01
100
AcDbVertex
100
AcDb2dVertex
 10
-40.00000000000454
 20
27.60887503585844
 30
0.0
  0
SEQEND
  5
2A1F
330
2A05
100
AcDbEntity
  8
LW 3850-02-01
  0
LINE
  5
2A20
330
2967
100
AcDbEntity
  8
LW 3850-02-01
100
AcDbLine
 10
-39.9999999999884
 20
-27.60887538456894
 30
0.0
 11
-40.00000000000477
 21
27.60887538454517
 31
0.0
  0
LINE
  5
2A21
330
2967
100
AcDbEntity
  8
LW 3850-02-01
100
AcDbLine
 10
0.0000000000088676
 20
-30.0
 30
0.0
 11
-0.0000000000088676
 21
30.0
 31
0.0
  0
LINE
  5
2A22
330
2967
100
AcDbEntity
  8
LW 3850-02-01
100
AcDbLine
 10
0.0000000000088676
 20
-30.0
 30
0.0
 11
-29.29999999999109
 21
-30.0000000000087
 31
0.0
  0
LINE
  5
2A23
330
2967
100
AcDbEntity
  8
LW 3850-02-01
100
AcDbLine
 10
-0.0000000000088676
 20
30.0
 30
0.0
 11
-29.30000000000882
 21
29.99999999999131
 31
0.0
  0
POLYLINE
  5
2A24
330
2967
100
AcDbEntity
  8
LW 3850-02-01
100
AcDb2dPolyline
 66
     1
 10
0.0
 20
0.0
 30
0.0
 70
   128
  0
VERTEX
  5
2A25
330
2A24
100
AcDbEntity
  8
LW 3850-02-01
100
AcDbVertex
100
AcDb2dVertex
 10
-40.07799625395569
 20
-27.7395999435422
 30
0.0
  0
VERTEX
  5
2A26
330
2A24
100
AcDbEntity
  8
LW 3850-02-01
100
AcDbVertex
100
AcDb2dVertex
 10
-40.07241249083313
 20
-27.73931384124728
 30
0.0
  0
VERTEX
  5
2A27
330
2A24
100
AcDbEntity
  8
LW 3850-02-01
100
AcDbVertex
100
AcDb2dVertex
 10
-40.06702899931679
 20
-27.73871302642795
 30
0.0
  0
VERTEX
  5
2A28
330
2A24
100
AcDbEntity
  8
LW 3850-02-01
100
AcDbVertex
100
AcDb2dVertex
 10
-40.06184101103554
 20
-27.7377974990842
 30
0.0
  0
VERTEX
  5
2A29
330
2A24
100
AcDbEntity
  8
LW 3850-02-01
100
AcDbVertex
100
AcDb2dVertex
 10
-40.05686759947548
 20
-27.73656249084445
 30
0.0
  0
VERTEX
  5
2A2A
330
2A24
100
AcDbEntity
  8
LW 3850-02-01
100
AcDbVertex
100
AcDb2dVertex
 10
-40.05210876463661
 20
-27.73501277008029
 30
0.0
  0
VERTEX
  5
2A2B
330
2A24
100
AcDbEntity
  8
LW 3850-02-01
100
AcDbVertex
100
AcDb2dVertex
 10
-40.04757881163368
 20
-27.73313880004855
 30
0.0
  0
VERTEX
  5
2A2C
330
2A24
100
AcDbEntity
  8
LW 3850-02-01
100
AcDbVertex
100
AcDb2dVertex
 10
-40.04326343535194
 20
-27.7309501174924
 30
0.0
  0
VERTEX
  5
2A2D
330
2A24
100
AcDbEntity
  8
LW 3850-02-01
100
AcDbVertex
100
AcDb2dVertex
 10
-40.0391626357914
 20
-27.72843718566867
 30
0.0
  0
VERTEX
  5
2A2E
330
2A24
100
AcDbEntity
  8
LW 3850-02-01
100
AcDbVertex
100
AcDb2dVertex
 10
-40.03528118132362
 20
-27.72560000457736
 30
0.0
  0
VERTEX
  5
2A2F
330
2A24
100
AcDbEntity
  8
LW 3850-02-01
100
AcDbVertex
100
AcDb2dVertex
 10
-40.03161430357704
 20
-27.72244334259005
 30
0.0
  0
VERTEX
  5
2A30
330
2A24
100
AcDbEntity
  8
LW 3850-02-01
100
AcDbVertex
100
AcDb2dVertex
 10
-40.02815723418007
 20
-27.71895766296359
 30
0.0
  0
VERTEX
  5
2A31
330
2A24
100
AcDbEntity
  8
LW 3850-02-01
100
AcDbVertex
100
AcDb2dVertex
 10
-40.0249099731327
 20
-27.71514296569796
 30
0.0
  0
VERTEX
  5
2A32
330
2A24
100
AcDbEntity
  8
LW 3850-02-01
100
AcDbVertex
100
AcDb2dVertex
 10
-40.02187252043495
 20
-27.71100401916476
 30
0.0
  0
VERTEX
  5
2A33
330
2A24
100
AcDbEntity
  8
LW 3850-02-01
100
AcDbVertex
100
AcDb2dVertex
 10
-40.01904010771522
 20
-27.7065360549924
 30
0.0
  0
VERTEX
  5
2A34
330
2A24
100
AcDbEntity
  8
LW 3850-02-01
100
AcDbVertex
100
AcDb2dVertex
 10
-40.01641750334511
 20
-27.70173430480929
 30
0.0
  0
VERTEX
  5
2A35
330
2A24
100
AcDbEntity
  8
LW 3850-02-01
100
AcDbVertex
100
AcDb2dVertex
 10
-40.01399040220985
 20
-27.69660830535861
 30
0.0
  0
VERTEX
  5
2A36
330
2A24
100
AcDbEntity
  8
LW 3850-02-01
100
AcDbVertex
100
AcDb2dVertex
 10
-40.01176834105263
 20
-27.6911437515256
 30
0.0
  0
VERTEX
  5
2A37
330
2A24
100
AcDbEntity
  8
LW 3850-02-01
100
AcDbVertex
100
AcDb2dVertex
 10
-40.00974178313026
 20
-27.68534541168185
 30
0.0
  0
VERTEX
  5
2A38
330
2A24
100
AcDbEntity
  8
LW 3850-02-01
100
AcDbVertex
100
AcDb2dVertex
 10
-40.00791549681435
 20
-27.67921328582736
 30
0.0
  0
VERTEX
  5
2A39
330
2A24
100
AcDbEntity
  8
LW 3850-02-01
100
AcDbVertex
100
AcDb2dVertex
 10
-40.00628471373329
 20
-27.67274260559054
 30
0.0
  0
VERTEX
  5
2A3A
330
2A24
100
AcDbEntity
  8
LW 3850-02-01
100
AcDbVertex
100
AcDb2dVertex
 10
-40.00484466551552
 20
-27.66593813934298
 30
0.0
  0
VERTEX
  5
2A3B
330
2A24
100
AcDbEntity
  8
LW 3850-02-01
100
AcDbVertex
100
AcDb2dVertex
 10
-40.00359535216102
 20
-27.65879035034152
 30
0.0
  0
VERTEX
  5
2A3C
330
2A24
100
AcDbEntity
  8
LW 3850-02-01
100
AcDbVertex
100
AcDb2dVertex
 10
-40.0025415420414
 20
-27.65130877532931
 30
0.0
  0
VERTEX
  5
2A3D
330
2A24
100
AcDbEntity
  8
LW 3850-02-01
100
AcDbVertex
100
AcDb2dVertex
 10
-40.00166893004188
 20
-27.64347910919162
 30
0.0
  0
SEQEND
  5
2A3E
330
2A24
100
AcDbEntity
  8
LW 3850-02-01
  0
POLYLINE
  5
2A3F
330
2967
100
AcDbEntity
  8
LW 3850-02-01
100
AcDb2dPolyline
 66
     1
 10
0.0
 20
0.0
 30
0.0
 70
   128
  0
VERTEX
  5
2A40
330
2A3F
100
AcDbEntity
  8
LW 3850-02-01
100
AcDbVertex
100
AcDb2dVertex
 10
-40.00166893005825
 20
27.64347910842918
 30
0.0
  0
VERTEX
  5
2A41
330
2A3F
100
AcDbEntity
  8
LW 3850-02-01
100
AcDbVertex
100
AcDb2dVertex
 10
-40.00254154205777
 20
27.65130639038108
 30
0.0
  0
VERTEX
  5
2A42
330
2A3F
100
AcDbEntity
  8
LW 3850-02-01
100
AcDbVertex
100
AcDb2dVertex
 10
-40.00359535217739
 20
27.65879034957908
 30
0.0
  0
VERTEX
  5
2A43
330
2A3F
100
AcDbEntity
  8
LW 3850-02-01
100
AcDbVertex
100
AcDb2dVertex
 10
-40.00484466553189
 20
27.66593575439475
 30
0.0
  0
VERTEX
  5
2A44
330
2A3F
100
AcDbEntity
  8
LW 3850-02-01
100
AcDbVertex
100
AcDb2dVertex
 10
-40.00628471374966
 20
27.6727426048281
 30
0.0
  0
VERTEX
  5
2A45
330
2A3F
100
AcDbEntity
  8
LW 3850-02-01
100
AcDbVertex
100
AcDb2dVertex
 10
-40.00791549683071
 20
27.67921090087913
 30
0.0
  0
VERTEX
  5
2A46
330
2A3F
100
AcDbEntity
  8
LW 3850-02-01
100
AcDbVertex
100
AcDb2dVertex
 10
-40.00974178314663
 20
27.68534541091941
 30
0.0
  0
VERTEX
  5
2A47
330
2A3F
100
AcDbEntity
  8
LW 3850-02-01
100
AcDbVertex
100
AcDb2dVertex
 10
-40.011768341069
 20
27.69114136657737
 30
0.0
  0
VERTEX
  5
2A48
330
2A3F
100
AcDbEntity
  8
LW 3850-02-01
100
AcDbVertex
100
AcDb2dVertex
 10
-40.01399040222622
 20
27.69660592041038
 30
0.0
  0
VERTEX
  5
2A49
330
2A3F
100
AcDbEntity
  8
LW 3850-02-01
100
AcDbVertex
100
AcDb2dVertex
 10
-40.01641750336148
 20
27.70173430404685
 30
0.0
  0
VERTEX
  5
2A4A
330
2A3F
100
AcDbEntity
  8
LW 3850-02-01
100
AcDbVertex
100
AcDb2dVertex
 10
-40.01904010773182
 20
27.70653367004417
 30
0.0
  0
VERTEX
  5
2A4B
330
2A3F
100
AcDbEntity
  8
LW 3850-02-01
100
AcDbVertex
100
AcDb2dVertex
 10
-40.02187252045155
 20
27.71100401840232
 30
0.0
  0
VERTEX
  5
2A4C
330
2A3F
100
AcDbEntity
  8
LW 3850-02-01
100
AcDbVertex
100
AcDb2dVertex
 10
-40.0249099731493
 20
27.71514296493553
 30
0.0
  0
VERTEX
  5
2A4D
330
2A3F
100
AcDbEntity
  8
LW 3850-02-01
100
AcDbVertex
100
AcDb2dVertex
 10
-40.02815723419667
 20
27.71895527801536
 30
0.0
  0
VERTEX
  5
2A4E
330
2A3F
100
AcDbEntity
  8
LW 3850-02-01
100
AcDbVertex
100
AcDb2dVertex
 10
-40.03161430359364
 20
27.72244095764182
 30
0.0
  0
VERTEX
  5
2A4F
330
2A3F
100
AcDbEntity
  8
LW 3850-02-01
100
AcDbVertex
100
AcDb2dVertex
 10
-40.03528118134022
 20
27.72560000381492
 30
0.0
  0
VERTEX
  5
2A50
330
2A3F
100
AcDbEntity
  8
LW 3850-02-01
100
AcDbVertex
100
AcDb2dVertex
 10
-40.039162635808
 20
27.72843480072044
 30
0.0
  0
VERTEX
  5
2A51
330
2A3F
100
AcDbEntity
  8
LW 3850-02-01
100
AcDbVertex
100
AcDb2dVertex
 10
-40.04326343536854
 20
27.73094773254417
 30
0.0
  0
VERTEX
  5
2A52
330
2A3F
100
AcDbEntity
  8
LW 3850-02-01
100
AcDbVertex
100
AcDb2dVertex
 10
-40.04757881165028
 20
27.73313879928611
 30
0.0
  0
VERTEX
  5
2A53
330
2A3F
100
AcDbEntity
  8
LW 3850-02-01
100
AcDbVertex
100
AcDb2dVertex
 10
-40.05210876465321
 20
27.73501038513206
 30
0.0
  0
VERTEX
  5
2A54
330
2A3F
100
AcDbEntity
  8
LW 3850-02-01
100
AcDbVertex
100
AcDb2dVertex
 10
-40.05686759949208
 20
27.73656249008201
 30
0.0
  0
VERTEX
  5
2A55
330
2A3F
100
AcDbEntity
  8
LW 3850-02-01
100
AcDbVertex
100
AcDb2dVertex
 10
-40.06184101105214
 20
27.73779511413597
 30
0.0
  0
VERTEX
  5
2A56
330
2A3F
100
AcDbEntity
  8
LW 3850-02-01
100
AcDbVertex
100
AcDb2dVertex
 10
-40.06702899933339
 20
27.73871064147972
 30
0.0
  0
VERTEX
  5
2A57
330
2A3F
100
AcDbEntity
  8
LW 3850-02-01
100
AcDbVertex
100
AcDb2dVertex
 10
-40.0724124908495
 20
27.73931145629905
 30
0.0
  0
VERTEX
  5
2A58
330
2A3F
100
AcDbEntity
  8
LW 3850-02-01
100
AcDbVertex
100
AcDb2dVertex
 10
-40.07799625397206
 20
27.73959755859397
 30
0.0
  0
SEQEND
  5
2A59
330
2A3F
100
AcDbEntity
  8
LW 3850-02-01
  0
POLYLINE
  5
2A5A
330
2967
100
AcDbEntity
  8
LW 3850-02-01
100
AcDb2dPolyline
 66
     1
 10
0.0
 20
0.0
 30
0.0
 70
   128
  0
VERTEX
  5
2A5B
330
2A5A
100
AcDbEntity
  8
LW 3850-02-01
100
AcDbVertex
100
AcDb2dVertex
 10
-50.26506423949285
 20
-29.91840720215117
 30
0.0
  0
VERTEX
  5
2A5C
330
2A5A
100
AcDbEntity
  8
LW 3850-02-01
100
AcDbVertex
100
AcDb2dVertex
 10
-50.47875404357
 20
-29.97942805328648
 30
0.0
  0
VERTEX
  5
2A5D
330
2A5A
100
AcDbEntity
  8
LW 3850-02-01
100
AcDbVertex
100
AcDb2dVertex
 10
-50.70000171660467
 20
-29.99999880829148
 30
0.0
  0
SEQEND
  5
2A5E
330
2A5A
100
AcDbEntity
  8
LW 3850-02-01
  0
POLYLINE
  5
2A5F
330
2967
100
AcDbEntity
  8
LW 3850-02-01
100
AcDb2dPolyline
 66
     1
 10
0.0
 20
0.0
 30
0.0
 70
   128
  0
VERTEX
  5
2A60
330
2A5F
100
AcDbEntity
  8
LW 3850-02-01
100
AcDbVertex
100
AcDb2dVertex
 10
-40.07799148558411
 20
-27.73959040679904
 30
0.0
  0
VERTEX
  5
2A61
330
2A5F
100
AcDbEntity
  8
LW 3850-02-01
100
AcDbVertex
100
AcDb2dVertex
 10
-40.60101509093079
 20
-27.75709033050527
 30
0.0
  0
VERTEX
  5
2A62
330
2A5F
100
AcDbEntity
  8
LW 3850-02-01
100
AcDbVertex
100
AcDb2dVertex
 10
-41.12207889555725
 20
-27.78531432189948
 30
0.0
  0
VERTEX
  5
2A63
330
2A5F
100
AcDbEntity
  8
LW 3850-02-01
100
AcDbVertex
100
AcDb2dVertex
 10
-41.63902759550842
 20
-27.82367110290545
 30
0.0
  0
VERTEX
  5
2A64
330
2A5F
100
AcDbEntity
  8
LW 3850-02-01
100
AcDbVertex
100
AcDb2dVertex
 10
-42.14972496031555
 20
-27.87156462707554
 30
0.0
  0
VERTEX
  5
2A65
330
2A5F
100
AcDbEntity
  8
LW 3850-02-01
100
AcDbVertex
100
AcDb2dVertex
 10
-42.65201568602356
 20
-27.92840361633347
 30
0.0
  0
VERTEX
  5
2A66
330
2A5F
100
AcDbEntity
  8
LW 3850-02-01
100
AcDbVertex
100
AcDb2dVertex
 10
-43.14379692076477
 20
-27.99359202423159
 30
0.0
  0
VERTEX
  5
2A67
330
2A5F
100
AcDbEntity
  8
LW 3850-02-01
100
AcDbVertex
100
AcDb2dVertex
 10
-43.62545013426575
 20
-28.06660056152419
 30
0.0
  0
VERTEX
  5
2A68
330
2A5F
100
AcDbEntity
  8
LW 3850-02-01
100
AcDbVertex
100
AcDb2dVertex
 10
-44.096946716297
 20
-28.14658999481293
 30
0.0
  0
VERTEX
  5
2A69
330
2A5F
100
AcDbEntity
  8
LW 3850-02-01
100
AcDbVertex
100
AcDb2dVertex
 10
-44.5568847656134
 20
-28.23256373443707
 30
0.0
  0
VERTEX
  5
2A6A
330
2A5F
100
AcDbEntity
  8
LW 3850-02-01
100
AcDbVertex
100
AcDb2dVertex
 10
-45.00386714934165
 20
-28.32353472747923
 30
0.0
  0
VERTEX
  5
2A6B
330
2A5F
100
AcDbEntity
  8
LW 3850-02-01
100
AcDbVertex
100
AcDb2dVertex
 10
-45.43650627135093
 20
-28.41851592102182
 30
0.0
  0
VERTEX
  5
2A6C
330
2A5F
100
AcDbEntity
  8
LW 3850-02-01
100
AcDbVertex
100
AcDb2dVertex
 10
-45.85346698759849
 20
-28.51652026214742
 30
0.0
  0
VERTEX
  5
2A6D
330
2A5F
100
AcDbEntity
  8
LW 3850-02-01
100
AcDbVertex
100
AcDb2dVertex
 10
-46.25544548033554
 20
-28.6169469360367
 30
0.0
  0
VERTEX
  5
2A6E
330
2A5F
100
AcDbEntity
  8
LW 3850-02-01
100
AcDbVertex
100
AcDb2dVertex
 10
-46.64237976073104
 20
-28.71900916137861
 30
0.0
  0
VERTEX
  5
2A6F
330
2A5F
100
AcDbEntity
  8
LW 3850-02-01
100
AcDbVertex
100
AcDb2dVertex
 10
-47.01331138609726
 20
-28.82174372711359
 30
0.0
  0
VERTEX
  5
2A70
330
2A5F
100
AcDbEntity
  8
LW 3850-02-01
100
AcDbVertex
100
AcDb2dVertex
 10
-47.3672771453746
 20
-28.92419219055364
 30
0.0
  0
VERTEX
  5
2A71
330
2A5F
100
AcDbEntity
  8
LW 3850-02-01
100
AcDbVertex
100
AcDb2dVertex
 10
-47.70331382750373
 20
-29.02540087738237
 30
0.0
  0
VERTEX
  5
2A72
330
2A5F
100
AcDbEntity
  8
LW 3850-02-01
100
AcDbVertex
100
AcDb2dVertex
 10
-48.02046298979622
 20
-29.12441611328336
 30
0.0
  0
VERTEX
  5
2A73
330
2A5F
100
AcDbEntity
  8
LW 3850-02-01
100
AcDbVertex
100
AcDb2dVertex
 10
-48.3182716369522
 20
-29.22041296997287
 30
0.0
  0
VERTEX
  5
2A74
330
2A5F
100
AcDbEntity
  8
LW 3850-02-01
100
AcDbVertex
100
AcDb2dVertex
 10
-48.59737873076324
 20
-29.31298613586648
 30
0.0
  0
VERTEX
  5
2A75
330
2A5F
100
AcDbEntity
  8
LW 3850-02-01
100
AcDbVertex
100
AcDb2dVertex
 10
-48.85713100432304
 20
-29.40141558685537
 30
0.0
  0
VERTEX
  5
2A76
330
2A5F
100
AcDbEntity
  8
LW 3850-02-01
100
AcDbVertex
100
AcDb2dVertex
 10
-49.09676551817802
 20
-29.48495745697261
 30
0.0
  0
VERTEX
  5
2A77
330
2A5F
100
AcDbEntity
  8
LW 3850-02-01
100
AcDbVertex
100
AcDb2dVertex
 10
-49.31551933287551
 20
-29.56287264862306
 30
0.0
  0
VERTEX
  5
2A78
330
2A5F
100
AcDbEntity
  8
LW 3850-02-01
100
AcDbVertex
100
AcDb2dVertex
 10
-49.51264381407668
 20
-29.63441252746839
 30
0.0
  0
VERTEX
  5
2A79
330
2A5F
100
AcDbEntity
  8
LW 3850-02-01
100
AcDbVertex
100
AcDb2dVertex
 10
-49.6873664855857
 20
-29.69884753265637
 30
0.0
  0
VERTEX
  5
2A7A
330
2A5F
100
AcDbEntity
  8
LW 3850-02-01
100
AcDbVertex
100
AcDb2dVertex
 10
-49.8392629623313
 20
-29.75557684936786
 30
0.0
  0
VERTEX
  5
2A7B
330
2A5F
100
AcDbEntity
  8
LW 3850-02-01
100
AcDbVertex
100
AcDb2dVertex
 10
-49.9686145782373
 20
-29.80444312134057
 30
0.0
  0
VERTEX
  5
2A7C
330
2A5F
100
AcDbEntity
  8
LW 3850-02-01
100
AcDbVertex
100
AcDb2dVertex
 10
-50.07500171660399
 20
-29.8450362686184
 30
0.0
  0
VERTEX
  5
2A7D
330
2A5F
100
AcDbEntity
  8
LW 3850-02-01
100
AcDbVertex
100
AcDb2dVertex
 10
-50.15797615050314
 20
-29.87693190613061
 30
0.0
  0
VERTEX
  5
2A7E
330
2A5F
100
AcDbEntity
  8
LW 3850-02-01
100
AcDbVertex
100
AcDb2dVertex
 10
-50.21741390227339
 20
-29.89990592041289
 30
0.0
  0
VERTEX
  5
2A7F
330
2A5F
100
AcDbEntity
  8
LW 3850-02-01
100
AcDbVertex
100
AcDb2dVertex
 10
-50.26506423949285
 20
-29.91840720215117
 30
0.0
  0
SEQEND
  5
2A80
330
2A5F
100
AcDbEntity
  8
LW 3850-02-01
  0
POLYLINE
  5
2A81
330
2967
100
AcDbEntity
  8
LW 3850-02-01
100
AcDb2dPolyline
 66
     1
 10
0.0
 20
0.0
 30
0.0
 70
   128
  0
VERTEX
  5
2A82
330
2A81
100
AcDbEntity
  8
LW 3850-02-01
100
AcDbVertex
100
AcDb2dVertex
 10
-50.26500225068002
 20
29.918380975339
 30
0.0
  0
VERTEX
  5
2A83
330
2A81
100
AcDbEntity
  8
LW 3850-02-01
100
AcDbVertex
100
AcDb2dVertex
 10
-50.21740913391955
 20
29.89990591964442
 30
0.0
  0
VERTEX
  5
2A84
330
2A81
100
AcDbEntity
  8
LW 3850-02-01
100
AcDbVertex
100
AcDb2dVertex
 10
-50.1579713821493
 20
29.87693190536226
 30
0.0
  0
VERTEX
  5
2A85
330
2A81
100
AcDbEntity
  8
LW 3850-02-01
100
AcDbVertex
100
AcDb2dVertex
 10
-50.07499694825014
 20
29.84503388366426
 30
0.0
  0
VERTEX
  5
2A86
330
2A81
100
AcDbEntity
  8
LW 3850-02-01
100
AcDbVertex
100
AcDb2dVertex
 10
-49.96861457825502
 20
29.80444312057222
 30
0.0
  0
VERTEX
  5
2A87
330
2A81
100
AcDbEntity
  8
LW 3850-02-01
100
AcDbVertex
100
AcDb2dVertex
 10
-49.83925819397746
 20
29.75557446441383
 30
0.0
  0
VERTEX
  5
2A88
330
2A81
100
AcDbEntity
  8
LW 3850-02-01
100
AcDbVertex
100
AcDb2dVertex
 10
-49.68736171723162
 20
29.69884276351667
 30
0.0
  0
VERTEX
  5
2A89
330
2A81
100
AcDbEntity
  8
LW 3850-02-01
100
AcDbVertex
100
AcDb2dVertex
 10
-49.51263904572283
 20
29.63441252670026
 30
0.0
  0
VERTEX
  5
2A8A
330
2A81
100
AcDbEntity
  8
LW 3850-02-01
100
AcDbVertex
100
AcDb2dVertex
 10
-49.31551456452144
 20
29.56286787948352
 30
0.0
  0
VERTEX
  5
2A8B
330
2A81
100
AcDbEntity
  8
LW 3850-02-01
100
AcDbVertex
100
AcDb2dVertex
 10
-49.09676074982394
 20
29.48495268783324
 30
0.0
  0
VERTEX
  5
2A8C
330
2A81
100
AcDbEntity
  8
LW 3850-02-01
100
AcDbVertex
100
AcDb2dVertex
 10
-48.85712623596873
 20
29.40141081771611
 30
0.0
  0
VERTEX
  5
2A8D
330
2A81
100
AcDbEntity
  8
LW 3850-02-01
100
AcDbVertex
100
AcDb2dVertex
 10
-48.59737396240916
 20
29.31298375091319
 30
0.0
  0
VERTEX
  5
2A8E
330
2A81
100
AcDbEntity
  8
LW 3850-02-01
100
AcDbVertex
100
AcDb2dVertex
 10
-48.31826210022632
 20
29.22041058501975
 30
0.0
  0
VERTEX
  5
2A8F
330
2A81
100
AcDbEntity
  8
LW 3850-02-01
100
AcDbVertex
100
AcDb2dVertex
 10
-48.02045345307033
 20
29.12441134414462
 30
0.0
  0
VERTEX
  5
2A90
330
2A81
100
AcDbEntity
  8
LW 3850-02-01
100
AcDbVertex
100
AcDb2dVertex
 10
-47.70330429077785
 20
29.02540087661538
 30
0.0
  0
VERTEX
  5
2A91
330
2A81
100
AcDbEntity
  8
LW 3850-02-01
100
AcDbVertex
100
AcDb2dVertex
 10
-47.36726760864871
 20
28.92418980560103
 30
0.0
  0
VERTEX
  5
2A92
330
2A81
100
AcDbEntity
  8
LW 3850-02-01
100
AcDbVertex
100
AcDb2dVertex
 10
-47.01330661774295
 20
28.82173895797547
 30
0.0
  0
VERTEX
  5
2A93
330
2A81
100
AcDbEntity
  8
LW 3850-02-01
100
AcDbVertex
100
AcDb2dVertex
 10
-46.64237499237652
 20
28.71900439224067
 30
0.0
  0
VERTEX
  5
2A94
330
2A81
100
AcDbEntity
  8
LW 3850-02-01
100
AcDbVertex
100
AcDb2dVertex
 10
-46.25544071198078
 20
28.61694455108483
 30
0.0
  0
VERTEX
  5
2A95
330
2A81
100
AcDbEntity
  8
LW 3850-02-01
100
AcDbVertex
100
AcDb2dVertex
 10
-45.85345745087238
 20
28.51651787719578
 30
0.0
  0
VERTEX
  5
2A96
330
2A81
100
AcDbEntity
  8
LW 3850-02-01
100
AcDbVertex
100
AcDb2dVertex
 10
-45.43650150299618
 20
28.41851115188456
 30
0.0
  0
VERTEX
  5
2A97
330
2A81
100
AcDbEntity
  8
LW 3850-02-01
100
AcDbVertex
100
AcDb2dVertex
 10
-45.0038623809869
 20
28.32353234252804
 30
0.0
  0
VERTEX
  5
2A98
330
2A81
100
AcDbEntity
  8
LW 3850-02-01
100
AcDbVertex
100
AcDb2dVertex
 10
-44.55687522888706
 20
28.23256134948622
 30
0.0
  0
VERTEX
  5
2A99
330
2A81
100
AcDbEntity
  8
LW 3850-02-01
100
AcDbVertex
100
AcDb2dVertex
 10
-44.09693717957066
 20
28.14658760986231
 30
0.0
  0
VERTEX
  5
2A9A
330
2A81
100
AcDbEntity
  8
LW 3850-02-01
100
AcDbVertex
100
AcDb2dVertex
 10
-43.62544536591076
 20
28.06659817657385
 30
0.0
  0
VERTEX
  5
2A9B
330
2A81
100
AcDbEntity
  8
LW 3850-02-01
100
AcDbVertex
100
AcDb2dVertex
 10
-43.14379215240978
 20
27.99358725509575
 30
0.0
  0
VERTEX
  5
2A9C
330
2A81
100
AcDbEntity
  8
LW 3850-02-01
100
AcDbVertex
100
AcDb2dVertex
 10
-42.65201091766857
 20
27.92840123138376
 30
0.0
  0
VERTEX
  5
2A9D
330
2A81
100
AcDbEntity
  8
LW 3850-02-01
100
AcDbVertex
100
AcDb2dVertex
 10
-42.14972019196034
 20
27.87156224212606
 30
0.0
  0
VERTEX
  5
2A9E
330
2A81
100
AcDbEntity
  8
LW 3850-02-01
100
AcDbVertex
100
AcDb2dVertex
 10
-41.63902759552479
 20
27.82366871795626
 30
0.0
  0
VERTEX
  5
2A9F
330
2A81
100
AcDbEntity
  8
LW 3850-02-01
100
AcDbVertex
100
AcDb2dVertex
 10
-41.12207412720204
 20
27.78531193695056
 30
0.0
  0
VERTEX
  5
2AA0
330
2A81
100
AcDbEntity
  8
LW 3850-02-01
100
AcDbVertex
100
AcDb2dVertex
 10
-40.60101509094716
 20
27.75708794555675
 30
0.0
  0
VERTEX
  5
2AA1
330
2A81
100
AcDbEntity
  8
LW 3850-02-01
100
AcDbVertex
100
AcDb2dVertex
 10
-40.07799148560048
 20
27.7395904060366
 30
0.0
  0
SEQEND
  5
2AA2
330
2A81
100
AcDbEntity
  8
LW 3850-02-01
  0
ARC
  5
2AA3
330
2967
100
AcDbEntity
  8
LW 3850-02-01
100
AcDbCircle
 10
-50.70000000000845
 20
28.79999999998506
 30
0.0
 40
1.199999999999794
100
AcDbArc
 50
68.74634949034653
 51
90.00000000001303
  0
POLYLINE
  5
2AA4
330
2967
100
AcDbEntity
  8
LW 3850-02-01
100
AcDb2dPolyline
 66
     1
 10
0.0
 20
0.0
 30
0.0
 70
   128
  0
VERTEX
  5
2AA5
330
2AA4
100
AcDbEntity
  8
LW 3850-02-01
100
AcDbVertex
100
AcDb2dVertex
 10
-40.00000000000454
 20
27.60887503585838
 30
0.0
  0
VERTEX
  5
2AA6
330
2AA4
100
AcDbEntity
  8
LW 3850-02-01
100
AcDbVertex
100
AcDb2dVertex
 10
-40.00000476837612
 20
27.61031031570457
 30
0.0
  0
VERTEX
  5
2AA7
330
2AA4
100
AcDbEntity
  8
LW 3850-02-01
100
AcDbVertex
100
AcDb2dVertex
 10
-40.00000953674771
 20
27.61174797973655
 30
0.0
  0
VERTEX
  5
2AA8
330
2AA4
100
AcDbEntity
  8
LW 3850-02-01
100
AcDbVertex
100
AcDb2dVertex
 10
-40.00002384186245
 20
27.61318564376853
 30
0.0
  0
VERTEX
  5
2AA9
330
2AA4
100
AcDbEntity
  8
LW 3850-02-01
100
AcDbVertex
100
AcDb2dVertex
 10
-40.00004768372036
 20
27.61462330780052
 30
0.0
  0
VERTEX
  5
2AAA
330
2AA4
100
AcDbEntity
  8
LW 3850-02-01
100
AcDbVertex
100
AcDb2dVertex
 10
-40.00007152557827
 20
27.61606335601829
 30
0.0
  0
VERTEX
  5
2AAB
330
2AA4
100
AcDbEntity
  8
LW 3850-02-01
100
AcDbVertex
100
AcDb2dVertex
 10
-40.00010490417935
 20
27.61750102005027
 30
0.0
  0
VERTEX
  5
2AAC
330
2AA4
100
AcDbEntity
  8
LW 3850-02-01
100
AcDbVertex
100
AcDb2dVertex
 10
-40.00013828278042
 20
27.61894106826805
 30
0.0
  0
VERTEX
  5
2AAD
330
2AA4
100
AcDbEntity
  8
LW 3850-02-01
100
AcDbVertex
100
AcDb2dVertex
 10
-40.00018596649624
 20
27.62038111648582
 30
0.0
  0
VERTEX
  5
2AAE
330
2AA4
100
AcDbEntity
  8
LW 3850-02-01
100
AcDbVertex
100
AcDb2dVertex
 10
-40.00023365021206
 20
27.62182116470359
 30
0.0
  0
VERTEX
  5
2AAF
330
2AA4
100
AcDbEntity
  8
LW 3850-02-01
100
AcDbVertex
100
AcDb2dVertex
 10
-40.00028610229946
 20
27.62326359710716
 30
0.0
  0
VERTEX
  5
2AB0
330
2AA4
100
AcDbEntity
  8
LW 3850-02-01
100
AcDbVertex
100
AcDb2dVertex
 10
-40.00034809113003
 20
27.62470364532493
 30
0.0
  0
VERTEX
  5
2AB1
330
2AA4
100
AcDbEntity
  8
LW 3850-02-01
100
AcDbVertex
100
AcDb2dVertex
 10
-40.00041484833218
 20
27.62614607772849
 30
0.0
  0
VERTEX
  5
2AB2
330
2AA4
100
AcDbEntity
  8
LW 3850-02-01
100
AcDbVertex
100
AcDb2dVertex
 10
-40.00048637390591
 20
27.62758851013206
 30
0.0
  0
VERTEX
  5
2AB3
330
2AA4
100
AcDbEntity
  8
LW 3850-02-01
100
AcDbVertex
100
AcDb2dVertex
 10
-40.00056266785122
 20
27.62903094253562
 30
0.0
  0
VERTEX
  5
2AB4
330
2AA4
100
AcDbEntity
  8
LW 3850-02-01
100
AcDbVertex
100
AcDb2dVertex
 10
-40.0006484985397
 20
27.63047575912498
 30
0.0
  0
VERTEX
  5
2AB5
330
2AA4
100
AcDbEntity
  8
LW 3850-02-01
100
AcDbVertex
100
AcDb2dVertex
 10
-40.00073909759976
 20
27.63191819152854
 30
0.0
  0
VERTEX
  5
2AB6
330
2AA4
100
AcDbEntity
  8
LW 3850-02-01
100
AcDbVertex
100
AcDb2dVertex
 10
-40.0008344650314
 20
27.6333630081179
 30
0.0
  0
VERTEX
  5
2AB7
330
2AA4
100
AcDbEntity
  8
LW 3850-02-01
100
AcDbVertex
100
AcDb2dVertex
 10
-40.00093460083462
 20
27.63480544052146
 30
0.0
  0
VERTEX
  5
2AB8
330
2AA4
100
AcDbEntity
  8
LW 3850-02-01
100
AcDbVertex
100
AcDb2dVertex
 10
-40.00104427338101
 20
27.63625025711082
 30
0.0
  0
VERTEX
  5
2AB9
330
2AA4
100
AcDbEntity
  8
LW 3850-02-01
100
AcDbVertex
100
AcDb2dVertex
 10
-40.00115871429898
 20
27.63769507370017
 30
0.0
  0
VERTEX
  5
2ABA
330
2AA4
100
AcDbEntity
  8
LW 3850-02-01
100
AcDbVertex
100
AcDb2dVertex
 10
-40.00127792358853
 20
27.63913989028953
 30
0.0
  0
VERTEX
  5
2ABB
330
2AA4
100
AcDbEntity
  8
LW 3850-02-01
100
AcDbVertex
100
AcDb2dVertex
 10
-40.00140190124966
 20
27.64058709106468
 30
0.0
  0
VERTEX
  5
2ABC
330
2AA4
100
AcDbEntity
  8
LW 3850-02-01
100
AcDbVertex
100
AcDb2dVertex
 10
-40.00153541565396
 20
27.64203190765403
 30
0.0
  0
VERTEX
  5
2ABD
330
2AA4
100
AcDbEntity
  8
LW 3850-02-01
100
AcDbVertex
100
AcDb2dVertex
 10
-40.00166893005825
 20
27.64347910842918
 30
0.0
  0
SEQEND
  5
2ABE
330
2AA4
100
AcDbEntity
  8
LW 3850-02-01
  0
POLYLINE
  5
2ABF
330
2967
100
AcDbEntity
  8
LW 3850-02-01
100
AcDb2dPolyline
 66
     1
 10
0.0
 20
0.0
 30
0.0
 70
   128
  0
VERTEX
  5
2AC0
330
2ABF
100
AcDbEntity
  8
LW 3850-02-01
100
AcDbVertex
100
AcDb2dVertex
 10
-40.00166893004188
 20
-27.64347910919162
 30
0.0
  0
VERTEX
  5
2AC1
330
2ABF
100
AcDbEntity
  8
LW 3850-02-01
100
AcDbVertex
100
AcDb2dVertex
 10
-40.00153541563759
 20
-27.64203429260226
 30
0.0
  0
VERTEX
  5
2AC2
330
2ABF
100
AcDbEntity
  8
LW 3850-02-01
100
AcDbVertex
100
AcDb2dVertex
 10
-40.00140190123329
 20
-27.64058947601291
 30
0.0
  0
VERTEX
  5
2AC3
330
2ABF
100
AcDbEntity
  8
LW 3850-02-01
100
AcDbVertex
100
AcDb2dVertex
 10
-40.00127792357216
 20
-27.63913989105197
 30
0.0
  0
VERTEX
  5
2AC4
330
2ABF
100
AcDbEntity
  8
LW 3850-02-01
100
AcDbVertex
100
AcDb2dVertex
 10
-40.00115871428261
 20
-27.63769507446261
 30
0.0
  0
VERTEX
  5
2AC5
330
2ABF
100
AcDbEntity
  8
LW 3850-02-01
100
AcDbVertex
100
AcDb2dVertex
 10
-40.00104427336464
 20
-27.63625025787326
 30
0.0
  0
VERTEX
  5
2AC6
330
2ABF
100
AcDbEntity
  8
LW 3850-02-01
100
AcDbVertex
100
AcDb2dVertex
 10
-40.00093460081825
 20
-27.6348054412839
 30
0.0
  0
VERTEX
  5
2AC7
330
2ABF
100
AcDbEntity
  8
LW 3850-02-01
100
AcDbVertex
100
AcDb2dVertex
 10
-40.00083446501503
 20
-27.63336539306613
 30
0.0
  0
VERTEX
  5
2AC8
330
2ABF
100
AcDbEntity
  8
LW 3850-02-01
100
AcDbVertex
100
AcDb2dVertex
 10
-40.00073909758339
 20
-27.63192057647677
 30
0.0
  0
VERTEX
  5
2AC9
330
2ABF
100
AcDbEntity
  8
LW 3850-02-01
100
AcDbVertex
100
AcDb2dVertex
 10
-40.00064849852333
 20
-27.63047575988742
 30
0.0
  0
VERTEX
  5
2ACA
330
2ABF
100
AcDbEntity
  8
LW 3850-02-01
100
AcDbVertex
100
AcDb2dVertex
 10
-40.00056266783485
 20
-27.62903094329806
 30
0.0
  0
VERTEX
  5
2ACB
330
2ABF
100
AcDbEntity
  8
LW 3850-02-01
100
AcDbVertex
100
AcDb2dVertex
 10
-40.00048637388954
 20
-27.62759089508029
 30
0.0
  0
VERTEX
  5
2ACC
330
2ABF
100
AcDbEntity
  8
LW 3850-02-01
100
AcDbVertex
100
AcDb2dVertex
 10
-40.00041484831581
 20
-27.62614607849093
 30
0.0
  0
VERTEX
  5
2ACD
330
2ABF
100
AcDbEntity
  8
LW 3850-02-01
100
AcDbVertex
100
AcDb2dVertex
 10
-40.00034809111366
 20
-27.62470603027316
 30
0.0
  0
VERTEX
  5
2ACE
330
2ABF
100
AcDbEntity
  8
LW 3850-02-01
100
AcDbVertex
100
AcDb2dVertex
 10
-40.0002861022831
 20
-27.62326598205539
 30
0.0
  0
VERTEX
  5
2ACF
330
2ABF
100
AcDbEntity
  8
LW 3850-02-01
100
AcDbVertex
100
AcDb2dVertex
 10
-40.00023365019569
 20
-27.62182116546603
 30
0.0
  0
VERTEX
  5
2AD0
330
2ABF
100
AcDbEntity
  8
LW 3850-02-01
100
AcDbVertex
100
AcDb2dVertex
 10
-40.00018596647987
 20
-27.62038111724826
 30
0.0
  0
VERTEX
  5
2AD1
330
2ABF
100
AcDbEntity
  8
LW 3850-02-01
100
AcDbVertex
100
AcDb2dVertex
 10
-40.00013828276405
 20
-27.61894106903048
 30
0.0
  0
VERTEX
  5
2AD2
330
2ABF
100
AcDbEntity
  8
LW 3850-02-01
100
AcDbVertex
100
AcDb2dVertex
 10
-40.00010490416298
 20
-27.61750102081271
 30
0.0
  0
VERTEX
  5
2AD3
330
2ABF
100
AcDbEntity
  8
LW 3850-02-01
100
AcDbVertex
100
AcDb2dVertex
 10
-40.0000715255619
 20
-27.61606574096652
 30
0.0
  0
VERTEX
  5
2AD4
330
2ABF
100
AcDbEntity
  8
LW 3850-02-01
100
AcDbVertex
100
AcDb2dVertex
 10
-40.00004768370399
 20
-27.61462569274875
 30
0.0
  0
VERTEX
  5
2AD5
330
2ABF
100
AcDbEntity
  8
LW 3850-02-01
100
AcDbVertex
100
AcDb2dVertex
 10
-40.00002384184608
 20
-27.61318564453097
 30
0.0
  0
VERTEX
  5
2AD6
330
2ABF
100
AcDbEntity
  8
LW 3850-02-01
100
AcDbVertex
100
AcDb2dVertex
 10
-40.00000953673134
 20
-27.61175036468478
 30
0.0
  0
VERTEX
  5
2AD7
330
2ABF
100
AcDbEntity
  8
LW 3850-02-01
100
AcDbVertex
100
AcDb2dVertex
 10
-40.00000476835976
 20
-27.61031031646701
 30
0.0
  0
VERTEX
  5
2AD8
330
2ABF
100
AcDbEntity
  8
LW 3850-02-01
100
AcDbVertex
100
AcDb2dVertex
 10
-39.99999999998818
 20
-27.60887503662082
 30
0.0
  0
SEQEND
  5
2AD9
330
2ABF
100
AcDbEntity
  8
LW 3850-02-01
  0
LINE
  5
2ADA
330
2967
100
AcDbEntity
  8
LW 3850-02-01
100
AcDbLine
 10
-100.0000000000088
 20
29.99999999997021
 30
0.0
 11
-99.99999999999113
 21
-30.00000000002967
 31
0.0
  0
LINE
  5
2ADB
330
2967
100
AcDbEntity
  8
LW 3850-02-01
100
AcDbLine
 10
-100.0000000000088
 20
29.99999999997027
 30
0.0
 11
-50.70000000000892
 21
29.99999999998482
 31
0.0
  0
LINE
  5
2ADC
330
2967
100
AcDbEntity
  8
LW 3850-02-01
100
AcDbLine
 10
-99.99999999999113
 20
-30.00000000002967
 30
0.0
 11
-50.69999999999118
 21
-30.00000000001501
 31
0.0
  0
LINE
  5
2ADD
330
2967
100
AcDbEntity
  8
LW 3850-02-01
  6
VERDECKT
 62
     6
100
AcDbLine
 10
25.00000000000546
 20
2.657340475189585
 30
0.0
 11
23.80000000000541
 21
2.976344071310393
 31
0.0
  0
LINE
  5
2ADE
330
2967
100
AcDbEntity
  8
LW 3850-02-01
  6
VERDECKT
 62
     6
100
AcDbLine
 10
23.80000000000541
 20
2.976344071310393
 30
0.0
 11
0.000000000005457
 21
2.976344071303344
 31
0.0
  0
LINE
  5
2ADF
330
2967
100
AcDbEntity
  8
LW 3850-02-01
  6
VERDECKT
 62
     6
100
AcDbLine
 10
23.800000000007
 20
-2.999999999992951
 30
0.0
 11
23.80000000000541
 21
2.976344071310393
 31
0.0
  0
LINE
  5
2AE0
330
2967
100
AcDbEntity
  8
LW 3850-02-01
  6
VERDECKT
 62
     6
100
AcDbLine
 10
25.00000000000705
 20
-2.678460969075274
 30
0.0
 11
25.00000000000568
 21
2.657340475189585
 31
0.0
  0
LINE
  5
2AE1
330
2967
100
AcDbEntity
  8
LW 3850-02-01
  6
VERDECKT
 62
     6
100
AcDbLine
 10
25.00000000000705
 20
-2.678460969075274
 30
0.0
 11
23.80000000000723
 21
-2.999999999992951
 31
0.0
  0
LINE
  5
2AE2
330
2967
100
AcDbEntity
  8
LW 3850-02-01
  6
VERDECKT
 62
     6
100
AcDbLine
 10
0.0000000000070486
 20
-3.0
 30
0.0
 11
23.800000000007
 21
-2.999999999992951
 31
0.0
  0
LINE
  5
2AE3
330
2967
100
AcDbEntity
  8
LW 3850-02-01
100
AcDbLine
 10
-119.9999999999954
 20
11.99641267160314
 30
0.0
 11
-120.0000000000088
 21
29.99999999996442
 31
0.0
  0
LINE
  5
2AE4
330
2967
100
AcDbEntity
  8
LW 3850-02-01
100
AcDbLine
 10
-119.9999999999911
 20
-30.00000000003558
 30
0.0
 11
-119.9999999999883
 21
-11.99641267167408
 31
0.0
  0
LINE
  5
2AE5
330
2967
100
AcDbEntity
  8
LW 3850-02-01
100
AcDbLine
 10
-99.99999999999113
 20
-30.00000000002967
 30
0.0
 11
-119.9999999999911
 21
-30.00000000003558
 31
0.0
  0
LINE
  5
2AE6
330
2967
100
AcDbEntity
  8
LW 3850-02-01
100
AcDbLine
 10
-100.0000000000088
 20
29.99999999997033
 30
0.0
 11
-120.0000000000088
 21
29.99999999996442
 31
0.0
  0
LINE
  5
2AE7
330
2967
100
AcDbEntity
  8
LW 3850-02-01
100
AcDbLine
 10
-139.0000000000088
 20
29.99999999995873
 30
0.0
 11
-138.9999999999911
 21
-30.00000000004127
 31
0.0
  0
LINE
  5
2AE8
330
2967
100
AcDbEntity
  8
LW 3850-02-01
100
AcDbLine
 10
-139.9999999999913
 20
-29.0000000000415
 30
0.0
 11
-140.0000000000086
 21
28.99999999995845
 31
0.0
  0
LINE
  5
2AE9
330
2967
100
AcDbEntity
  8
LW 3850-02-01
100
AcDbLine
 10
-140.0000000000085
 20
28.99999999995845
 30
0.0
 11
-139.0000000000088
 21
29.99999999995873
 31
0.0
  0
LINE
  5
2AEA
330
2967
100
AcDbEntity
  8
LW 3850-02-01
100
AcDbLine
 10
-139.9999999999913
 20
-29.0000000000415
 30
0.0
 11
-138.999999999991
 21
-30.00000000004127
 31
0.0
  0
LINE
  5
2AEB
330
2967
100
AcDbEntity
  8
LW 3850-02-01
100
AcDbLine
 10
-119.9999999999883
 20
-11.99641267167408
 30
0.0
 11
-119.9999999999911
 21
-30.00000000003558
 31
0.0
  0
LINE
  5
2AEC
330
2967
100
AcDbEntity
  8
LW 3850-02-01
100
AcDbLine
 10
-120.0000000000088
 20
29.99999999996442
 30
0.0
 11
-119.9999999999953
 21
11.99641267160314
 31
0.0
  0
LINE
  5
2AED
330
2967
100
AcDbEntity
  8
LW 3850-02-01
100
AcDbLine
 10
-139.0000000000088
 20
29.99999999995873
 30
0.0
 11
-120.0000000000088
 21
29.99999999996442
 31
0.0
  0
LINE
  5
2AEE
330
2967
100
AcDbEntity
  8
LW 3850-02-01
100
AcDbLine
 10
-138.999999999991
 20
-30.00000000004127
 30
0.0
 11
-119.9999999999911
 21
-30.00000000003558
 31
0.0
  0
LINE
  5
2AEF
330
2967
100
AcDbEntity
  8
LW 3850-02-01
  6
VERDECKT
 62
     6
100
AcDbLine
 10
24.00000000000387
 20
-2.946410161506719
 30
0.0
 11
24.00000000000318
 21
-10.39999999999293
 31
0.0
  0
LINE
  5
2AF0
330
2967
100
AcDbEntity
  8
LW 3850-02-01
  6
VERDECKT
 62
     6
100
AcDbLine
 10
23.99999999999705
 20
10.40000000000708
 30
0.0
 11
24.00000000000205
 21
2.923176805290268
 31
0.0
  0
ARC
  5
2AF1
330
2967
100
AcDbEntity
  8
LW 3850-02-01
  6
VERDECKT
 62
     6
100
AcDbCircle
 10
22.39999999999691
 20
10.40000000000657
 30
0.0
 40
1.6
100
AcDbArc
 50
0.0
 51
90.00000000001303
  0
ARC
  5
2AF2
330
2967
100
AcDbEntity
  8
LW 3850-02-01
  6
VERDECKT
 62
     6
100
AcDbCircle
 10
22.40000000000305
 20
-10.39999999999338
 30
0.0
 40
1.6
100
AcDbArc
 50
270.000000000013
 51
0.0
  0
LINE
  5
2AF3
330
2967
100
AcDbEntity
  8
LW 3850-02-01
  6
VERDECKT
 62
     6
100
AcDbLine
 10
8.00000000000432
 20
-2.999999999997669
 30
0.0
 11
8.000000000003637
 21
-11.99999999999772
 31
0.0
  0
LINE
  5
2AF4
330
2967
100
AcDbEntity
  8
LW 3850-02-01
  6
VERDECKT
 62
     6
100
AcDbLine
 10
7.999999999996362
 20
12.00000000000233
 30
0.0
 11
8.000000000002501
 21
2.976344071305675
 31
0.0
  0
LINE
  5
2AF5
330
2967
100
AcDbEntity
  8
LW 3850-02-01
  6
VERDECKT
 62
     6
100
AcDbLine
 10
8.000000000002501
 20
-7.999999999997669
 30
0.0
 11
0.0000000000025011
 21
-8.000000000000056
 31
0.0
  0
LINE
  5
2AF6
330
2967
100
AcDbEntity
  8
LW 3850-02-01
  6
VERDECKT
 62
     6
100
AcDbLine
 10
7.999999999997498
 20
8.000000000002387
 30
0.0
 11
-0.0000000000025011
 21
7.999999999999943
 31
0.0
  0
LINE
  5
2AF7
330
2967
100
AcDbEntity
  8
LW 3850-02-01
  6
VERDECKT
 62
     6
100
AcDbLine
 10
22.4000000000035
 20
-11.9999999999934
 30
0.0
 11
8.000000000003637
 21
-11.99999999999761
 31
0.0
  0
LINE
  5
2AF8
330
2967
100
AcDbEntity
  8
LW 3850-02-01
  6
VERDECKT
 62
     6
100
AcDbLine
 10
22.39999999999645
 20
12.00000000000659
 30
0.0
 11
7.999999999996362
 21
12.00000000000233
 31
0.0
  0
LINE
  5
2AF9
330
2967
100
AcDbEntity
  8
LW 3850-02-01
  6
MITTE2
 62
     3
100
AcDbLine
 10
-145.2415019740562
 20
-0.0000000000431442
 30
0.0
 11
32.14763211219429
 21
0.0000000000094929
 31
0.0
  0
LINE
  5
2AFA
330
2967
100
AcDbEntity
  8
LW 3850-02-01
  6
MITTE2
 62
     3
100
AcDbLine
 10
-120.0000000000015
 20
34.50000019996435
 30
0.0
 11
-119.999999999981
 21
-34.50000020003569
 31
0.0
  0
CIRCLE
  5
2AFB
330
2967
100
AcDbEntity
  8
LW 3850-02-01
100
AcDbCircle
 10
-119.9999999999913
 20
-0.000000000035655
 30
0.0
 40
10.9964126716386
  0
CIRCLE
  5
2AFC
330
2967
100
AcDbEntity
  8
LW 3850-02-01
100
AcDbCircle
 10
-119.9999999999913
 20
-0.000000000035655
 30
0.0
 40
11.9964126716386
  0
HATCH
  5
2AFD
330
2967
100
AcDbEntity
  8
LW 3850-02-01
 62
     8
100
AcDbHatch
 10
0.0
 20
0.0
 30
0.0
210
0.0
220
0.0
230
1.0
  2
HONEY
 70
     0
 71
     0
 91
        1
 92
        1
 93
        1
 72
     2
 10
-116.5219467946683
 20
5.667949002993751
 40
3.349999999999996
 50
0.0
 51
360.0
 73
     1
 97
        0
 75
     0
 76
     1
 52
0.0
 41
0.25
 77
     0
 78
     3
 53
0.0
 43
-631.4962154911602
 44
74.20495435672183
 45
1.190625
 46
0.6874075
 79
     2
 49
0.79375
 49
-1.587499999999999
 53
120.0
 43
-631.4962154911602
 44
74.20495435672183
 45
-1.190624857751951
 46
0.6874077463808477
 79
     2
 49
0.7937499999999994
 49
-1.587499999999998
 53
60.0
 43
-631.4962154911602
 44
74.20495435672183
 45
0.0000001422480487
 46
1.374815246380847
 79
     2
 49
-1.587499999999999
 49
0.79375
 98
        1
 10
-631.4962154911602
 20
74.20495435672183
1001
ACAD
1010
0.0
1020
0.0
1030
0.0
  0
CIRCLE
  5
2AFE
330
2967
100
AcDbEntity
  8
LW 3850-02-01
 62
     8
100
AcDbCircle
 10
-116.5219467946683
 20
5.667949002993751
 30
0.0
 40
3.349999999999996
  0
CIRCLE
  5
2AFF
330
2967
100
AcDbEntity
  8
LW 3850-02-01
 62
     8
100
AcDbCircle
 10
-119.9999999999913
 20
-0.000000000035655
 30
0.0
 40
9.996412671638614
  0
HATCH
  5
2B00
330
2967
100
AcDbEntity
  8
LW 3850-02-01
 62
     8
100
AcDbHatch
 10
0.0
 20
0.0
 30
0.0
210
0.0
220
0.0
230
1.0
  2
HONEY
 70
     0
 71
     0
 91
        1
 92
        1
 93
        1
 72
     2
 10
-123.169561221308
 20
5.846056933002685
 40
3.349999999999996
 50
60.0
 51
420.0
 73
     1
 97
        0
 75
     0
 76
     1
 52
60.0
 41
0.25
 77
     0
 78
     3
 53
60.0
 43
-440.0114833051926
 44
-405.8662393766086
 45
0.0000001422480487
 46
1.374815246380847
 79
     2
 49
0.79375
 49
-1.587499999999999
 53
180.0
 43
-440.0114833051926
 44
-405.8662393766086
 45
-1.190625
 46
-0.6874074999999998
 79
     2
 49
0.79375
 49
-1.587499999999999
 53
120.0
 43
-440.0114833051926
 44
-405.8662393766086
 45
-1.190624857751951
 46
0.6874077463808474
 79
     2
 49
-1.587499999999998
 49
0.7937499999999994
 98
        1
 10
-440.0114833051926
 20
-405.8662393766086
1001
ACAD
1010
0.0
1020
0.0
1030
0.0
  0
CIRCLE
  5
2B01
330
2967
100
AcDbEntity
  8
LW 3850-02-01
 62
     8
100
AcDbCircle
 10
-123.169561221308
 20
5.846056933002685
 30
0.0
 40
3.349999999999996
  0
HATCH
  5
2B02
330
2967
100
AcDbEntity
  8
LW 3850-02-01
 62
     8
100
AcDbHatch
 10
0.0
 20
0.0
 30
0.0
210
0.0
220
0.0
230
1.0
  2
HONEY
 70
     0
 71
     0
 91
        1
 92
        1
 93
        1
 72
     2
 10
-126.6476144266309
 20
0.1781079299731942
 40
3.349999999999995
 50
120.0
 51
479.9999999999999
 73
     1
 97
        0
 75
     0
 76
     1
 52
120.0
 41
0.25
 77
     0
 78
     3
 53
120.0
 43
71.4847321859761
 44
-480.0711937333661
 45
-1.190624857751951
 46
0.6874077463808477
 79
     2
 49
0.7937499999999993
 49
-1.587499999999998
 53
240.0
 43
71.4847321859761
 44
-480.0711937333661
 45
-0.0000001422480492
 46
-1.374815246380847
 79
     2
 49
0.7937499999999999
 49
-1.587499999999999
 53
180.0
 43
71.4847321859761
 44
-480.0711937333661
 45
-1.190625
 46
-0.6874074999999995
 79
     2
 49
-1.587499999999999
 49
0.79375
 98
        1
 10
71.4847321859761
 20
-480.0711937333661
1001
ACAD
1010
0.0
1020
0.0
1030
0.0
  0
CIRCLE
  5
2B03
330
2967
100
AcDbEntity
  8
LW 3850-02-01
 62
     8
100
AcDbCircle
 10
-126.6476144266309
 20
0.1781079299731942
 30
0.0
 40
3.349999999999995
  0
HATCH
  5
2B04
330
2967
100
AcDbEntity
  8
LW 3850-02-01
 62
     8
100
AcDbHatch
 10
0.0
 20
0.0
 30
0.0
210
0.0
220
0.0
230
1.0
  2
HONEY
 70
     0
 71
     0
 91
        1
 92
        1
 93
        1
 72
     2
 10
-123.4780532053143
 20
-5.667949003065061
 40
3.349999999999996
 50
180.0
 51
540.0
 73
     1
 97
        0
 75
     0
 76
     1
 52
180.0
 41
0.25
 77
     0
 78
     3
 53
180.0
 43
391.4962154911775
 44
-74.2049543567932
 45
-1.190625
 46
-0.6874074999999999
 79
     2
 49
0.79375
 49
-1.587499999999999
 53
300.0
 43
391.4962154911775
 44
-74.2049543567932
 45
1.190624857751951
 46
-0.6874077463808478
 79
     2
 49
0.79375
 49
-1.587499999999999
 53
240.0
 43
391.4962154911775
 44
-74.2049543567932
 45
-0.0000001422480488
 46
-1.374815246380847
 79
     2
 49
-1.587499999999999
 49
0.7937499999999999
 98
        1
 10
391.4962154911775
 20
-74.2049543567932
1001
ACAD
1010
0.0
1020
0.0
1030
0.0
  0
CIRCLE
  5
2B05
330
2967
100
AcDbEntity
  8
LW 3850-02-01
 62
     8
100
AcDbCircle
 10
-123.4780532053143
 20
-5.667949003065061
 30
0.0
 40
3.349999999999996
  0
HATCH
  5
2B06
330
2967
100
AcDbEntity
  8
LW 3850-02-01
 62
     8
100
AcDbHatch
 10
0.0
 20
0.0
 30
0.0
210
0.0
220
0.0
230
1.0
  2
HONEY
 70
     0
 71
     0
 91
        1
 92
        1
 93
        1
 72
     2
 10
-116.8304387786747
 20
-5.846056933073882
 40
3.349999999999996
 50
-120.0
 51
240.0
 73
     1
 97
        0
 75
     0
 76
     1
 52
-120.0
 41
0.25
 77
     0
 78
     3
 53
240.0
 43
200.0114833052101
 44
405.8662393765372
 45
-0.0000001422480493
 46
-1.374815246380847
 79
     2
 49
0.79375
 49
-1.587499999999999
 53
360.0
 43
200.0114833052101
 44
405.8662393765372
 45
1.190625
 46
0.6874074999999991
 79
     2
 49
0.7937499999999999
 49
-1.587499999999999
 53
300.0
 43
200.0114833052101
 44
405.8662393765372
 45
1.19062485775195
 46
-0.687407746380848
 79
     2
 49
-1.587499999999999
 49
0.79375
 98
        1
 10
200.0114833052101
 20
405.8662393765372
1001
ACAD
1010
0.0
1020
0.0
1030
0.0
  0
CIRCLE
  5
2B07
330
2967
100
AcDbEntity
  8
LW 3850-02-01
 62
     8
100
AcDbCircle
 10
-116.8304387786747
 20
-5.846056933073882
 30
0.0
 40
3.349999999999996
  0
HATCH
  5
2B08
330
2967
100
AcDbEntity
  8
LW 3850-02-01
 62
     8
100
AcDbHatch
 10
0.0
 20
0.0
 30
0.0
210
0.0
220
0.0
230
1.0
  2
HONEY
 70
     0
 71
     0
 91
        1
 92
        1
 93
        1
 72
     2
 10
-113.3523855733517
 20
-0.1781079300445612
 40
3.349999999999996
 50
-60.00000000000005
 51
300.0
 73
     1
 97
        0
 75
     0
 76
     1
 52
-60.00000000000005
 41
0.25
 77
     0
 78
     3
 53
300.0
 43
-311.4847321859588
 44
480.0711937332949
 45
1.19062485775195
 46
-0.6874077463808483
 79
     2
 49
0.79375
 49
-1.587499999999999
 53
59.99999999999994
 43
-311.4847321859588
 44
480.0711937332949
 45
0.00000014224805
 46
1.374815246380847
 79
     2
 49
0.79375
 49
-1.587499999999999
 53
360.0
 43
-311.4847321859588
 44
480.0711937332949
 45
1.190625
 46
0.687407499999999
 79
     2
 49
-1.587499999999999
 49
0.79375
 98
        1
 10
-311.4847321859588
 20
480.0711937332949
1001
ACAD
1010
0.0
1020
0.0
1030
0.0
  0
CIRCLE
  5
2B09
330
2967
100
AcDbEntity
  8
LW 3850-02-01
 62
     8
100
AcDbCircle
 10
-113.3523855733517
 20
-0.1781079300445612
 30
0.0
 40
3.349999999999996
  0
HATCH
  5
2B0A
330
2967
100
AcDbEntity
  8
LW 3850-02-01
 62
     8
100
AcDbHatch
 10
0.0
 20
0.0
 30
0.0
210
0.0
220
0.0
230
1.0
  2
HONEY
 70
     0
 71
     0
 91
        1
 92
        1
 93
        1
 72
     2
 10
-119.9999999999912
 20
-0.000000000035655
 40
3.349999999999996
 50
0.0
 51
360.0
 73
     1
 97
        0
 75
     0
 76
     1
 52
0.0
 41
0.25
 77
     0
 78
     3
 53
0.0
 43
-634.9742686964831
 44
68.53700535369245
 45
1.190625
 46
0.6874075
 79
     2
 49
0.79375
 49
-1.587499999999999
 53
120.0
 43
-634.9742686964831
 44
68.53700535369245
 45
-1.190624857751951
 46
0.6874077463808477
 79
     2
 49
0.7937499999999993
 49
-1.587499999999998
 53
60.0
 43
-634.9742686964831
 44
68.53700535369245
 45
0.0000001422480487
 46
1.374815246380847
 79
     2
 49
-1.587499999999999
 49
0.79375
 98
        1
 10
-634.9742686964831
 20
68.53700535369245
1001
ACAD
1010
0.0
1020
0.0
1030
0.0
  0
CIRCLE
  5
2B0B
330
2967
100
AcDbEntity
  8
LW 3850-02-01
 62
     8
100
AcDbCircle
 10
-119.9999999999912
 20
-0.000000000035655
 30
0.0
 40
3.349999999999996
  0
INSERT
  5
2B0C
330
2967
100
AcDbEntity
  8
LW 3850-02-01
100
AcDbBlockReference
 66
     1
  2
insertpoint-ECKELT
 10
0.0
 20
0.0
 30
0.0
  0
ATTRIB
  5
2B0D
330
2B0C
100
AcDbEntity
  8
insertpoint_ECKELT
100
AcDbText
 10
-6.931514324693087
 20
0.0
 30
0.0
 40
0.6
  1
LW 3850/02-01
 72
     2
 11
-1.200000000000045
 21
0.0
 31
0.0
100
AcDbAttribute
  2
LINKS
 70
     0
  0
ATTRIB
  5
2B0E
330
2B0C
100
AcDbEntity
  8
insertpoint_ECKELT
100
AcDbText
 10
1.200000000000045
 20
0.0
 30
0.0
 40
0.6
  1

100
AcDbAttribute
  2
RECHTS
 70
     0
  0
SEQEND
  5
2B0F
330
2B0C
100
AcDbEntity
  8
LW 3850-02-01
  0
ENDBLK
  5
2969
330
2967
100
AcDbEntity
  8
0
100
AcDbBlockEnd
  0
ENDSEC
  0
SECTION
  2
ENTITIES
  0
INSERT
  5
243C
330
1F
100
AcDbEntity
  8
0
100
AcDbBlockReference
  2
LW 3850-02-01_a
 10
1215.584523659952
 20
70.50211069428155
 30
0.0
  0
INSERT
  5
2966
330
1F
100
AcDbEntity
  8
0
100
AcDbBlockReference
  2
LW 3850-02-01_b
 10
1215.584523659752
 20
-40.10150790665966
 30
0.0
  0
INSERT
  5
2B10
330
1F
100
AcDbEntity
  8
0
100
AcDbBlockReference
  2
LW 3850-02-01_c
 10
1099.06909492275
 20
70.50211069432305
 30
0.0
  0
VIEWPORT
  5
623
330
1B
100
AcDbEntity
 67
     1
  8
0
100
AcDbViewport
 10
144.2296600341797
 20
98.97533035278321
 30
0.0
 40
338.7692671638768
 41
211.6598603888209
 68
     1
 69
     1
 12
144.2296600341797
 22
98.97533035278321
 13
0.0
 23
0.0
 14
10.0
 24
10.0
 15
10.0
 25
10.0
 16
0.0
 26
0.0
 36
1.0
 17
0.0
 27
0.0
 37
0.0
 42
50.0
 43
0.0
 44
0.0
 45
211.6598603888209
 50
0.0
 51
0.0
 72
   100
 90
    32800
  1

281
     0
 71
     1
 74
     0
110
0.0
120
0.0
130
0.0
111
1.0
121
0.0
131
0.0
112
0.0
122
1.0
132
0.0
 79
     0
146
0.0
170
     0
  0
ENDSEC
  0
SECTION
  2
OBJECTS
  0
DICTIONARY
  5
C
330
0
100
AcDbDictionary
281
     1
  3
ACAD_COLOR
350
7C7
  3
ACAD_GROUP
350
D
  3
ACAD_LAYOUT
350
1A
  3
ACAD_MATERIAL
350
7C6
  3
ACAD_MLINESTYLE
350
17
  3
ACAD_PLOTSETTINGS
350
19
  3
ACAD_PLOTSTYLENAME
350
E
  3
ACAD_TABLESTYLE
350
83F
  3
AcDbVariableDictionary
350
615
  0
DICTIONARY
  5
843
330
2
100
AcDbDictionary
280
     1
281
     1
  3
ACAD_LAYERFILTERS
360
241D
  3
ACLYDICTIONARY
360
241C
  0
DICTIONARY
  5
526
330
1F
100
AcDbDictionary
280
     1
281
     1
  3
ACAD_LAYOUTSELFREF
360
7C1
  3
ACAD_SORTENTS
360
865
  0
DICTIONARY
  5
528
330
1B
100
AcDbDictionary
280
     1
281
     1
  3
ACAD_LAYOUTSELFREF
360
7C0
  0
DICTIONARY
  5
52A
330
23
100
AcDbDictionary
280
     1
281
     1
  3
ACAD_LAYOUTSELFREF
360
7C2
  0
DICTIONARY
  5
975
330
729
100
AcDbDictionary
280
     1
281
     1
  3
ACAD_SORTENTS
360
976
  0
DICTIONARY
  5
7C7
102
{ACAD_REACTORS
330
C
102
}
330
C
100
AcDbDictionary
281
     1
  0
DICTIONARY
  5
D
102
{ACAD_REACTORS
330
C
102
}
330
C
100
AcDbDictionary
281
     1
  0
DICTIONARY
  5
1A
102
{ACAD_REACTORS
330
C
102
}
330
C
100
AcDbDictionary
281
     1
  3
Layout1
350
1E
  3
Layout2
350
26
  3
Model
350
22
  0
DICTIONARY
  5
7C6
102
{ACAD_REACTORS
330
C
102
}
330
C
100
AcDbDictionary
281
     1
  0
DICTIONARY
  5
17
102
{ACAD_REACTORS
330
C
102
}
330
C
100
AcDbDictionary
281
     1
  3
Standard
350
18
  0
DICTIONARY
  5
19
102
{ACAD_REACTORS
330
C
102
}
330
C
100
AcDbDictionary
281
     1
  0
ACDBDICTIONARYWDFLT
  5
E
102
{ACAD_REACTORS
330
C
102
}
330
C
100
AcDbDictionary
281
     1
  3
Normal
350
F
100
AcDbDictionaryWithDefault
340
F
  0
DICTIONARY
  5
83F
102
{ACAD_REACTORS
330
C
102
}
330
C
100
AcDbDictionary
281
     1
  3
Standard
350
840
  0
DICTIONARY
  5
615
102
{ACAD_REACTORS
330
C
102
}
330
C
100
AcDbDictionary
281
     1
  3
CTABLESTYLE
350
852
  3
DIMASSOC
350
617
  3
HIDETEXT
350
616
  3
PROJECTNAME
350
83D
  0
DICTIONARY
  5
241D
102
{ACAD_REACTORS
330
843
102
}
330
843
100
AcDbDictionary
281
     1
  0
DICTIONARY
  5
241C
102
{ACAD_REACTORS
330
843
102
}
330
843
100
AcDbDictionary
281
     1
1001
ACAD
1000
<All
  0
XRECORD
  5
7C1
102
{ACAD_REACTORS
330
526
102
}
330
526
100
AcDbXrecord
280
     1
340
1F
  0
SORTENTSTABLE
  5
865
102
{ACAD_REACTORS
330
526
102
}
330
526
100
AcDbSortentsTable
330
1F
331
243C
  5
243C
  0
XRECORD
  5
7C0
102
{ACAD_REACTORS
330
528
102
}
330
528
100
AcDbXrecord
280
     1
340
1B
  0
XRECORD
  5
7C2
102
{ACAD_REACTORS
330
52A
102
}
330
52A
100
AcDbXrecord
280
     1
340
23
  0
SORTENTSTABLE
  5
976
102
{ACAD_REACTORS
330
975
102
}
330
975
100
AcDbSortentsTable
330
729
  0
LAYOUT
  5
1E
102
{ACAD_REACTORS
330
1A
102
}
330
1A
100
AcDbPlotSettings
  1

  2
\\A-SERVER\HP LaserJet 5N - AWT
  4
A4
  6

 40
6.011333465576171
 41
4.233341693878173
 42
6.011322021484375
 43
4.23333740234375
 44
209.9733276367187
 45
296.9259948730469
 46
0.0
 47
0.0
 48
0.0
 49
0.0
140
0.0
141
0.0
142
1.0
143
1.0
 70
   688
 72
     1
 73
     1
 74
     5
  7

 75
    16
147
1.0
 76
     0
 77
     2
 78
   300
148
0.0
149
0.0
100
AcDbLayout
  1
Layout1
 70
     1
 71
     1
 10
-4.23333740234375
 20
-6.011333465576171
 11
292.6926574707031
 21
203.9619941711426
 12
0.0
 22
0.0
 32
0.0
 14
1.000000000000000E+20
 24
1.000000000000000E+20
 34
1.000000000000000E+20
 15
-1.000000000000000E+20
 25
-1.000000000000000E+20
 35
-1.000000000000000E+20
146
0.0
 13
0.0
 23
0.0
 33
0.0
 16
1.0
 26
0.0
 36
0.0
 17
0.0
 27
1.0
 37
0.0
 76
     0
330
1B
331
623
  0
LAYOUT
  5
26
102
{ACAD_REACTORS
330
1A
102
}
330
1A
100
AcDbPlotSettings
  1

  2

  4

  6

 40
0.0
 41
0.0
 42
0.0
 43
0.0
 44
0.0
 45
0.0
 46
0.0
 47
0.0
 48
0.0
 49
0.0
140
0.0
141
0.0
142
1.0
143
1.0
 70
   688
 72
     0
 73
     0
 74
     5
  7

 75
    16
147
1.0
 76
     0
 77
     2
 78
   300
148
0.0
149
0.0
100
AcDbLayout
  1
Layout2
 70
     1
 71
     2
 10
0.0
 20
0.0
 11
12.0
 21
9.0
 12
0.0
 22
0.0
 32
0.0
 14
0.0
 24
0.0
 34
0.0
 15
0.0
 25
0.0
 35
0.0
146
0.0
 13
0.0
 23
0.0
 33
0.0
 16
1.0
 26
0.0
 36
0.0
 17
0.0
 27
1.0
 37
0.0
 76
     0
330
23
  0
LAYOUT
  5
22
102
{ACAD_REACTORS
330
1A
102
}
330
1A
100
AcDbPlotSettings
  1

  2

  4

  6

 40
0.0
 41
0.0
 42
0.0
 43
0.0
 44
0.0
 45
0.0
 46
0.0
 47
0.0
 48
0.0
 49
0.0
140
0.0
141
0.0
142
1.0
143
1.0
 70
  1712
 72
     0
 73
     0
 74
     0
  7

 75
     0
147
1.0
 76
     0
 77
     2
 78
   300
148
0.0
149
0.0
100
AcDbLayout
  1
Model
 70
     1
 71
     0
 10
0.0
 20
0.0
 11
12.0
 21
9.0
 12
0.0
 22
0.0
 32
0.0
 14
0.0
 24
0.0
 34
0.0
 15
0.0
 25
0.0
 35
0.0
146
0.0
 13
0.0
 23
0.0
 33
0.0
 16
1.0
 26
0.0
 36
0.0
 17
0.0
 27
1.0
 37
0.0
 76
     0
330
1F
  0
MLINESTYLE
  5
18
102
{ACAD_REACTORS
330
17
102
}
330
17
100
AcDbMlineStyle
  2
STANDARD
 70
     0
  3

 62
   256
 51
90.0
 52
90.0
 71
     2
 49
0.5
 62
   256
  6
BYLAYER
 49
-0.5
 62
   256
  6
BYLAYER
  0
ACDBPLACEHOLDER
  5
F
102
{ACAD_REACTORS
330
E
102
}
330
E
  0
TABLESTYLE
  5
840
102
{ACAD_REACTORS
330
83F
102
}
330
83F
100
AcDbTableStyle
  3
Standard
 70
     0
 71
     0
 40
1.5
 41
1.5
280
     0
281
     0
  7
Standard
140
4.5
170
     2
 62
     0
 63
     7
283
     0
274
    -2
284
     1
 64
     0
275
    -2
285
     1
 65
     0
276
    -2
286
     1
 66
     0
277
    -2
287
     1
 67
     0
278
    -2
288
     1
 68
     0
279
    -2
289
     1
 69
     0
  7
Standard
140
6.0
170
     5
 62
     0
 63
     7
283
     0
274
    -2
284
     1
 64
     0
275
    -2
285
     1
 65
     0
276
    -2
286
     1
 66
     0
277
    -2
287
     1
 67
     0
278
    -2
288
     1
 68
     0
279
    -2
289
     1
 69
     0
  7
Standard
140
4.5
170
     5
 62
     0
 63
     7
283
     0
274
    -2
284
     1
 64
     0
275
    -2
285
     1
 65
     0
276
    -2
286
     1
 66
     0
277
    -2
287
     1
 67
     0
278
    -2
288
     1
 68
     0
279
    -2
289
     1
 69
     0
  0
DICTIONARYVAR
  5
852
102
{ACAD_REACTORS
330
615
102
}
330
615
100
DictionaryVariables
280
     0
  1
STANDARD
  0
DICTIONARYVAR
  5
617
102
{ACAD_REACTORS
330
615
102
}
330
615
100
DictionaryVariables
280
     0
  1
2
  0
DICTIONARYVAR
  5
616
102
{ACAD_REACTORS
330
615
102
}
330
615
100
DictionaryVariables
280
     0
  1
1
  0
DICTIONARYVAR
  5
83D
102
{ACAD_REACTORS
330
615
102
}
330
615
100
DictionaryVariables
280
     0
  1

  0
ENDSEC
  0
EOF
