  0
SECTION
  2
HEADER
  9
$ACADVER
  1
AC1015
  9
$ACADMAINTVER
 70
    20
  9
$DWGCODEPAGE
  3
ANSI_1252
  9
$INSBASE
 10
0.0
 20
0.0
 30
0.0
  9
$EXTMIN
 10
-7.481786729156738
 20
-143.4294107302084
 30
-0.0015258207003583
  9
$EXTMAX
 10
105.3326422517784
 20
26.20075307797379
 30
0.0000000349246037
  9
$LIMMIN
 10
0.0
 20
0.0
  9
$LIMMAX
 10
18025.7704
 20
13929.0044
  9
$ORTHOMODE
 70
     1
  9
$REGENMODE
 70
     1
  9
$FILLMODE
 70
     1
  9
$QTEXTMODE
 70
     0
  9
$MIRRTEXT
 70
     1
  9
$LTSCALE
 40
0.4
  9
$ATTMODE
 70
     1
  9
$TEXTSIZE
 40
0.2
  9
$TRACEWID
 40
0.05
  9
$TEXTSTYLE
  7
Standard
  9
$CLAYER
  8
0
  9
$CELTYPE
  6
ByLayer
  9
$CECOLOR
 62
   256
  9
$CELTSCALE
 40
1.0
  9
$DISPSILH
 70
     0
  9
$DIMSCALE
 40
1.0
  9
$DIMASZ
 40
1.799999999999999
  9
$DIMEXO
 40
0.0625
  9
$DIMDLI
 40
0.38
  9
$DIMRND
 40
0.0
  9
$DIMDLE
 40
0.0
  9
$DIMEXE
 40
0.18
  9
$DIMTP
 40
0.0
  9
$DIMTM
 40
0.0
  9
$DIMTXT
 40
0.3499999940395355
  9
$DIMCEN
 40
0.09
  9
$DIMTSZ
 40
0.0
  9
$DIMTOL
 70
     0
  9
$DIMLIM
 70
     0
  9
$DIMTIH
 70
     1
  9
$DIMTOH
 70
     1
  9
$DIMSE1
 70
     0
  9
$DIMSE2
 70
     0
  9
$DIMTAD
 70
     0
  9
$DIMZIN
 70
     0
  9
$DIMBLK
  1

  9
$DIMASO
 70
     1
  9
$DIMSHO
 70
     1
  9
$DIMPOST
  1

  9
$DIMAPOST
  1

  9
$DIMALT
 70
     0
  9
$DIMALTD
 70
     2
  9
$DIMALTF
 40
25.4
  9
$DIMLFAC
 40
1.0
  9
$DIMTOFL
 70
     0
  9
$DIMTVP
 40
0.0
  9
$DIMTIX
 70
     0
  9
$DIMSOXD
 70
     0
  9
$DIMSAH
 70
     0
  9
$DIMBLK1
  1

  9
$DIMBLK2
  1

  9
$DIMSTYLE
  2
2dTranslator-Bemaßungsstil
  9
$DIMCLRD
 70
     0
  9
$DIMCLRE
 70
     0
  9
$DIMCLRT
 70
     0
  9
$DIMTFAC
 40
1.0
  9
$DIMGAP
 40
0.09
  9
$DIMJUST
 70
     0
  9
$DIMSD1
 70
     0
  9
$DIMSD2
 70
     0
  9
$DIMTOLJ
 70
     1
  9
$DIMTZIN
 70
     0
  9
$DIMALTZ
 70
     0
  9
$DIMALTTZ
 70
     0
  9
$DIMUPT
 70
     0
  9
$DIMDEC
 70
     4
  9
$DIMTDEC
 70
     4
  9
$DIMALTU
 70
     2
  9
$DIMALTTD
 70
     2
  9
$DIMTXSTY
  7
Standard
  9
$DIMAUNIT
 70
     0
  9
$DIMADEC
 70
     0
  9
$DIMALTRND
 40
0.0
  9
$DIMAZIN
 70
     0
  9
$DIMDSEP
 70
    46
  9
$DIMATFIT
 70
     3
  9
$DIMFRAC
 70
     0
  9
$DIMLDRBLK
  1

  9
$DIMLUNIT
 70
     2
  9
$DIMLWD
 70
    -2
  9
$DIMLWE
 70
    -2
  9
$DIMTMOVE
 70
     0
  9
$LUNITS
 70
     2
  9
$LUPREC
 70
     4
  9
$SKETCHINC
 40
0.1
  9
$FILLETRAD
 40
0.0
  9
$AUNITS
 70
     0
  9
$AUPREC
 70
     0
  9
$MENU
  1
.
  9
$ELEVATION
 40
0.0
  9
$PELEVATION
 40
0.0
  9
$THICKNESS
 40
0.0
  9
$LIMCHECK
 70
     0
  9
$CHAMFERA
 40
0.0
  9
$CHAMFERB
 40
0.0
  9
$CHAMFERC
 40
0.0
  9
$CHAMFERD
 40
0.0
  9
$SKPOLY
 70
     0
  9
$TDCREATE
 40
2452768.378621297
  9
$TDUCREATE
 40
2452768.295287963
  9
$TDUPDATE
 40
2454032.670329595
  9
$TDUUPDATE
 40
2454032.586996262
  9
$TDINDWG
 40
0.0488809722
  9
$TDUSRTIMER
 40
0.0488809722
  9
$USRTIMER
 70
     1
  9
$ANGBASE
 50
0.0
  9
$ANGDIR
 70
     0
  9
$PDMODE
 70
     0
  9
$PDSIZE
 40
0.0
  9
$PLINEWID
 40
0.0
  9
$SPLFRAME
 70
     0
  9
$SPLINETYPE
 70
     6
  9
$SPLINESEGS
 70
     8
  9
$HANDSEED
  5
165D
  9
$SURFTAB1
 70
     6
  9
$SURFTAB2
 70
     6
  9
$SURFTYPE
 70
     6
  9
$SURFU
 70
     6
  9
$SURFV
 70
     6
  9
$UCSBASE
  2

  9
$UCSNAME
  2

  9
$UCSORG
 10
0.0
 20
0.0
 30
0.0
  9
$UCSXDIR
 10
1.0
 20
0.0
 30
0.0
  9
$UCSYDIR
 10
0.0
 20
1.0
 30
0.0
  9
$UCSORTHOREF
  2

  9
$UCSORTHOVIEW
 70
     0
  9
$UCSORGTOP
 10
0.0
 20
0.0
 30
0.0
  9
$UCSORGBOTTOM
 10
0.0
 20
0.0
 30
0.0
  9
$UCSORGLEFT
 10
0.0
 20
0.0
 30
0.0
  9
$UCSORGRIGHT
 10
0.0
 20
0.0
 30
0.0
  9
$UCSORGFRONT
 10
0.0
 20
0.0
 30
0.0
  9
$UCSORGBACK
 10
0.0
 20
0.0
 30
0.0
  9
$PUCSBASE
  2

  9
$PUCSNAME
  2

  9
$PUCSORG
 10
0.0
 20
0.0
 30
0.0
  9
$PUCSXDIR
 10
1.0
 20
0.0
 30
0.0
  9
$PUCSYDIR
 10
0.0
 20
1.0
 30
0.0
  9
$PUCSORTHOREF
  2

  9
$PUCSORTHOVIEW
 70
     0
  9
$PUCSORGTOP
 10
0.0
 20
0.0
 30
0.0
  9
$PUCSORGBOTTOM
 10
0.0
 20
0.0
 30
0.0
  9
$PUCSORGLEFT
 10
0.0
 20
0.0
 30
0.0
  9
$PUCSORGRIGHT
 10
0.0
 20
0.0
 30
0.0
  9
$PUCSORGFRONT
 10
0.0
 20
0.0
 30
0.0
  9
$PUCSORGBACK
 10
0.0
 20
0.0
 30
0.0
  9
$USERI1
 70
     0
  9
$USERI2
 70
     0
  9
$USERI3
 70
     0
  9
$USERI4
 70
     0
  9
$USERI5
 70
     0
  9
$USERR1
 40
0.0
  9
$USERR2
 40
0.0
  9
$USERR3
 40
0.0
  9
$USERR4
 40
0.0
  9
$USERR5
 40
0.0
  9
$WORLDVIEW
 70
     1
  9
$SHADEDGE
 70
     3
  9
$SHADEDIF
 70
    70
  9
$TILEMODE
 70
     1
  9
$MAXACTVP
 70
    48
  9
$PINSBASE
 10
0.0
 20
0.0
 30
0.0
  9
$PLIMCHECK
 70
     0
  9
$PEXTMIN
 10
1.000000000000000E+20
 20
1.000000000000000E+20
 30
1.000000000000000E+20
  9
$PEXTMAX
 10
-1.000000000000000E+20
 20
-1.000000000000000E+20
 30
-1.000000000000000E+20
  9
$PLIMMIN
 10
-4.23333740234375
 20
-6.011333465576171
  9
$PLIMMAX
 10
292.6926574707031
 20
203.9619941711426
  9
$UNITMODE
 70
     0
  9
$VISRETAIN
 70
     1
  9
$PLINEGEN
 70
     0
  9
$PSLTSCALE
 70
     1
  9
$TREEDEPTH
 70
  3020
  9
$CMLSTYLE
  2
Standard
  9
$CMLJUST
 70
     0
  9
$CMLSCALE
 40
1.0
  9
$PROXYGRAPHICS
 70
     1
  9
$MEASUREMENT
 70
     1
  9
$CELWEIGHT
370
    -1
  9
$ENDCAPS
280
     0
  9
$JOINSTYLE
280
     0
  9
$LWDISPLAY
290
     0
  9
$INSUNITS
 70
     0
  9
$HYPERLINKBASE
  1

  9
$STYLESHEET
  1

  9
$XEDIT
290
     1
  9
$CEPSNTYPE
380
     0
  9
$PSTYLEMODE
290
     1
  9
$FINGERPRINTGUID
  2
{3F7A5F02-9C81-4EBE-80B3-85376FEB342C}
  9
$VERSIONGUID
  2
{708D4058-0338-4FDB-B80C-B70038931D58}
  9
$EXTNAMES
290
     1
  9
$PSVPSCALE
 40
0.0
  9
$OLESTARTUP
290
     0
  0
ENDSEC
  0
SECTION
  2
CLASSES
  0
CLASS
  1
ACDBDICTIONARYWDFLT
  2
AcDbDictionaryWithDefault
  3
ObjectDBX Classes
 90
        0
280
     0
281
     0
  0
CLASS
  1
ACDBPLACEHOLDER
  2
AcDbPlaceHolder
  3
ObjectDBX Classes
 90
        0
280
     0
281
     0
  0
CLASS
  1
LAYOUT
  2
AcDbLayout
  3
ObjectDBX Classes
 90
        0
280
     0
281
     0
  0
CLASS
  1
DICTIONARYVAR
  2
AcDbDictionaryVar
  3
ObjectDBX Classes
 90
        0
280
     0
281
     0
  0
CLASS
  1
TABLESTYLE
  2
AcDbTableStyle
  3
ObjectDBX Classes
 90
     2047
280
     0
281
     0
  0
CLASS
  1
SORTENTSTABLE
  2
AcDbSortentsTable
  3
ObjectDBX Classes
 90
        0
280
     0
281
     0
  0
CLASS
  1
ACAD_EVALUATION_GRAPH
  2
AcDbEvalGraph
  3
ObjectDBX Classes
 90
     1153
280
     0
281
     0
  0
CLASS
  1
ACAECUSTOBJ
  2
AcAeEditorObj
  3
AcAeEditorObj
 90
     1024
280
     0
281
     0
  0
ENDSEC
  0
SECTION
  2
TABLES
  0
TABLE
  2
VPORT
  5
8
330
0
100
AcDbSymbolTable
 70
     6
  0
VPORT
  5
1652
330
8
100
AcDbSymbolTableRecord
100
AcDbViewportTableRecord
  2
*Active
 70
     0
 10
0.0
 20
0.0
 11
1.0
 21
1.0
 12
48.92542776131086
 22
-58.61432882611734
 13
0.0
 23
0.0
 14
1.0
 24
1.0
 15
0.0
 25
0.0
 16
0.0
 26
0.0
 36
1.0
 17
0.0
 27
0.0
 37
0.0
 40
171.1402246135963
 41
1.778603268945022
 42
50.0
 43
0.0
 44
0.0
 50
0.0
 51
0.0
 71
     0
 72
   100
 73
     1
 74
     1
 75
     0
 76
     0
 77
     0
 78
     0
281
     0
 65
     1
110
0.0
120
0.0
130
0.0
111
1.0
121
0.0
131
0.0
112
0.0
122
1.0
132
0.0
 79
     0
146
0.0
  0
ENDTAB
  0
TABLE
  2
LTYPE
  5
5
330
0
100
AcDbSymbolTable
 70
     3
  0
LTYPE
  5
14
330
5
100
AcDbSymbolTableRecord
100
AcDbLinetypeTableRecord
  2
ByBlock
 70
     0
  3

 72
    65
 73
     0
 40
0.0
  0
LTYPE
  5
15
330
5
100
AcDbSymbolTableRecord
100
AcDbLinetypeTableRecord
  2
ByLayer
 70
     0
  3

 72
    65
 73
     0
 40
0.0
  0
LTYPE
  5
16
330
5
100
AcDbSymbolTableRecord
100
AcDbLinetypeTableRecord
  2
Continuous
 70
     0
  3
Solid line
 72
    65
 73
     0
 40
0.0
  0
LTYPE
  5
274
330
5
100
AcDbSymbolTableRecord
100
AcDbLinetypeTableRecord
  2
MITTE2
 70
     0
  3
Mitte (.5x) ___ _ ___ _ ___ _ ___ _ ___ _ ___
 72
    65
 73
     4
 40
28.575
 49
19.05
 74
     0
 49
-3.174999999999999
 74
     0
 49
3.174999999999999
 74
     0
 49
-3.174999999999999
 74
     0
  0
ENDTAB
  0
TABLE
  2
LAYER
  5
2
102
{ACAD_XDICTIONARY
360
935
102
}
330
0
100
AcDbSymbolTable
 70
     4
  0
LAYER
  5
10
330
2
100
AcDbSymbolTableRecord
100
AcDbLayerTableRecord
  2
0
 70
     0
 62
     7
  6
Continuous
370
    -3
390
F
  0
LAYER
  5
275
330
2
100
AcDbSymbolTableRecord
100
AcDbLayerTableRecord
  2
LW 3900-SECURIT-01
 70
     0
 62
     7
  6
Continuous
370
    -3
390
F
  0
LAYER
  5
276
330
2
100
AcDbSymbolTableRecord
100
AcDbLayerTableRecord
  2
insertpoint_ECKELT
 70
     0
 62
   141
  6
Continuous
370
    -3
390
F
  0
ENDTAB
  0
TABLE
  2
STYLE
  5
3
330
0
100
AcDbSymbolTable
 70
     1
  0
STYLE
  5
11
330
3
100
AcDbSymbolTableRecord
100
AcDbTextStyleTableRecord
  2
Standard
 70
     0
 40
0.0
 41
1.0
 50
0.0
 71
     0
 42
0.2
  3
ARIAL.TTF
  4

1001
ACAD
1000
Arial
1071
      256
  0
ENDTAB
  0
TABLE
  2
VIEW
  5
6
330
0
100
AcDbSymbolTable
 70
     1
  0
ENDTAB
  0
TABLE
  2
UCS
  5
7
330
0
100
AcDbSymbolTable
 70
     0
  0
ENDTAB
  0
TABLE
  2
APPID
  5
9
330
0
100
AcDbSymbolTable
 70
     3
  0
APPID
  5
12
330
9
100
AcDbSymbolTableRecord
100
AcDbRegAppTableRecord
  2
ACAD
 70
     0
  0
APPID
  5
429
330
9
100
AcDbSymbolTableRecord
100
AcDbRegAppTableRecord
  2
ACAD_EXEMPT_FROM_CAD_STANDARDS
 70
     0
  0
APPID
  5
12DA
330
9
100
AcDbSymbolTableRecord
100
AcDbRegAppTableRecord
  2
ACAUTHENVIRON
 70
     0
  0
ENDTAB
  0
TABLE
  2
DIMSTYLE
  5
A
330
0
100
AcDbSymbolTable
 70
     3
100
AcDbDimStyleTable
 71
     1
340
57
  0
DIMSTYLE
105
27
330
A
100
AcDbSymbolTableRecord
100
AcDbDimStyleTableRecord
  2
Standard
 70
     0
340
11
  0
DIMSTYLE
105
57
330
A
100
AcDbSymbolTableRecord
100
AcDbDimStyleTableRecord
  2
2dTranslator-Bemaßungsstil
 70
     0
 41
1.799999999999999
140
1.799999999999999
340
11
  0
ENDTAB
  0
TABLE
  2
BLOCK_RECORD
  5
1
330
0
100
AcDbSymbolTable
 70
     7
  0
BLOCK_RECORD
  5
1F
102
{ACAD_XDICTIONARY
360
16B
102
}
330
1
100
AcDbSymbolTableRecord
100
AcDbBlockTableRecord
  2
*Model_Space
340
22
  0
BLOCK_RECORD
  5
1B
102
{ACAD_XDICTIONARY
360
16D
102
}
330
1
100
AcDbSymbolTableRecord
100
AcDbBlockTableRecord
  2
*Paper_Space
340
1E
  0
BLOCK_RECORD
  5
23
102
{ACAD_XDICTIONARY
360
16F
102
}
330
1
100
AcDbSymbolTableRecord
100
AcDbBlockTableRecord
  2
*Paper_Space0
340
26
  0
BLOCK_RECORD
  5
26B
330
1
100
AcDbSymbolTableRecord
100
AcDbBlockTableRecord
  2
insertpoint-ECKELT
340
0
102
{BLKREFS
331
DD4
331
E1D
331
E65
331
12C4
102
}
  0
BLOCK_RECORD
  5
D9A
102
{ACAD_XDICTIONARY
360
D9B
102
}
330
1
100
AcDbSymbolTableRecord
100
AcDbBlockTableRecord
  2
LW 3900-10-01
340
0
310
2800000020000000200000000100080000000000000400000000000000000000000000000000000000000000000080000080000000808000800000008000800080800000C0C0C000C0DCC000F0CAA6000020400000206000002080000020A0000020C0000020E00000400000004020000040400000406000004080000040A0
310
000040C0000040E00000600000006020000060400000606000006080000060A0000060C0000060E00000800000008020000080400000806000008080000080A0000080C0000080E00000A0000000A0200000A0400000A0600000A0800000A0A00000A0C00000A0E00000C0000000C0200000C0400000C0600000C0800000C0
310
A00000C0C00000C0E00000E0000000E0200000E0400000E0600000E0800000E0A00000E0C00000E0E00040000000400020004000400040006000400080004000A0004000C0004000E00040200000402020004020400040206000402080004020A0004020C0004020E000404000004040200040404000404060004040800040
310
40A0004040C0004040E00040600000406020004060400040606000406080004060A0004060C0004060E00040800000408020004080400040806000408080004080A0004080C0004080E00040A0000040A0200040A0400040A0600040A0800040A0A00040A0C00040A0E00040C0000040C0200040C0400040C0600040C08000
310
40C0A00040C0C00040C0E00040E0000040E0200040E0400040E0600040E0800040E0A00040E0C00040E0E00080000000800020008000400080006000800080008000A0008000C0008000E00080200000802020008020400080206000802080008020A0008020C0008020E00080400000804020008040400080406000804080
310
008040A0008040C0008040E00080600000806020008060400080606000806080008060A0008060C0008060E00080800000808020008080400080806000808080008080A0008080C0008080E00080A0000080A0200080A0400080A0600080A0800080A0A00080A0C00080A0E00080C0000080C0200080C0400080C0600080C0
310
800080C0A00080C0C00080C0E00080E0000080E0200080E0400080E0600080E0800080E0A00080E0C00080E0E000C0000000C0002000C0004000C0006000C0008000C000A000C000C000C000E000C0200000C0202000C0204000C0206000C0208000C020A000C020C000C020E000C0400000C0402000C0404000C0406000C0
310
408000C040A000C040C000C040E000C0600000C0602000C0604000C0606000C0608000C060A000C060C000C060E000C0800000C0802000C0804000C0806000C0808000C080A000C080C000C080E000C0A00000C0A02000C0A04000C0A06000C0A08000C0A0A000C0A0C000C0A0E000C0C00000C0C02000C0C04000C0C06000
310
C0C08000C0C0A000F0FBFF00A4A0A000808080000000FF0000FF000000FFFF00FF000000FF00FF00FFFF0000FFFFFF0000000000000000000000000000000000000000000000000000000000000000000000000000000000000000000000FFFFFFFFFFFFFFFFFF00000000000000000000000000000000000000000000FFFF
310
0000A400A400A400FF000000000000000000000000000000000000000000FFF9F9F9F9F9F9F9F9F9A4FF0000000000000000000000000000000000000000FFF9F9F9F9F9F9F9F9F9F9FF0000000000000000000000000000000000000000FFF9F9F9F9F9F9F9F9F9F9FF0000000000000000000000000000FF0000000000FF
310
A400A400A400A400A400FF0000000000000000000000000000FFFFFF000000FF00A400A400A400A400A4FF0000000000000000000000000000FFA400FFFFFFFFA400A4A4A4A4A4A4A400FF0000000000000000000000000000FF00A40000A400A4A4A400A400A400A4A4FF0000000000000000000000000000FFFFFFFFA400
310
A400A400A400A400A400A4FFFFFF0000000000000000000000FAFAFAFAFAFAA4A40000FAFAFAFAFAFAFAFAFAFAFF000000000000000000000000FFFFFFFFA400A4FFFFFFFFFFFFFFFFFFFFFFFFFF000000000000000000000000FF00A40000A400FF00FA000000000000000000FF000000000000000000000000090900A400
310
00FFFF00FA000000000000000000FF00000000000000000909FAFAFAFAFAFAFAFAFAFAFAFAFAFAFAFAFAFAFAFAFAFAFAFA000000000000000000000900A4A400A4FFFF00FA000000000000000000FF000000000000000000000000FF0000A4A400A4FF00FA000000000000000000FF000000000000000000000000FFFFFFFF
310
A4A400FFFFFFFFFFFFFFFFFFFFFFFFFF0000000000000000000000FAFAFAFAFAFAA4A400A40000A400A400A400A400FF000000000000000000000000FFFFFFFFA400A4A4A4A40000A400A400A4FFFFFF000000000000000000000000FF00A4FFFFFFFF0000A4A40000A400A400FF0000000000000000000000000000FFA4FF
310
A40000FFA40000A4A40000A400A4FF0000000000000000000000000000FFFFA4000000FF00A40000A4A4FA00A400FF0000000000000000000000000000FF0000000000FFA400A40000A4FA0000A4FF0000000000000000000000000000000000000000FF00A400A4FFFFFAFF0000FF00000000000000000000000000000000
310
00000000FFA400A400FF00FAFFA400FF0000000000000000000000000000000000000000FF00A4A4A4FF00FAFF00A4FF0000000000000000000000000000000000000000FFFFFFFFFFFFFFFAFFFFFF00000000000000000000000000000000000000000000000000000000FA00000000000000000000000000000000000000
310
000000000000000000000000FA00000000000000000000000000000000000000000000000000000000000000000000000000000000000000
102
{BLKREFS
331
DE2
102
}
  0
BLOCK_RECORD
  5
DE3
102
{ACAD_XDICTIONARY
360
DE4
102
}
330
1
100
AcDbSymbolTableRecord
100
AcDbBlockTableRecord
  2
LW 3900-12-01
340
0
310
2800000020000000200000000100080000000000000400000000000000000000000000000000000000000000000080000080000000808000800000008000800080800000C0C0C000C0DCC000F0CAA6000020400000206000002080000020A0000020C0000020E00000400000004020000040400000406000004080000040A0
310
000040C0000040E00000600000006020000060400000606000006080000060A0000060C0000060E00000800000008020000080400000806000008080000080A0000080C0000080E00000A0000000A0200000A0400000A0600000A0800000A0A00000A0C00000A0E00000C0000000C0200000C0400000C0600000C0800000C0
310
A00000C0C00000C0E00000E0000000E0200000E0400000E0600000E0800000E0A00000E0C00000E0E00040000000400020004000400040006000400080004000A0004000C0004000E00040200000402020004020400040206000402080004020A0004020C0004020E000404000004040200040404000404060004040800040
310
40A0004040C0004040E00040600000406020004060400040606000406080004060A0004060C0004060E00040800000408020004080400040806000408080004080A0004080C0004080E00040A0000040A0200040A0400040A0600040A0800040A0A00040A0C00040A0E00040C0000040C0200040C0400040C0600040C08000
310
40C0A00040C0C00040C0E00040E0000040E0200040E0400040E0600040E0800040E0A00040E0C00040E0E00080000000800020008000400080006000800080008000A0008000C0008000E00080200000802020008020400080206000802080008020A0008020C0008020E00080400000804020008040400080406000804080
310
008040A0008040C0008040E00080600000806020008060400080606000806080008060A0008060C0008060E00080800000808020008080400080806000808080008080A0008080C0008080E00080A0000080A0200080A0400080A0600080A0800080A0A00080A0C00080A0E00080C0000080C0200080C0400080C0600080C0
310
800080C0A00080C0C00080C0E00080E0000080E0200080E0400080E0600080E0800080E0A00080E0C00080E0E000C0000000C0002000C0004000C0006000C0008000C000A000C000C000C000E000C0200000C0202000C0204000C0206000C0208000C020A000C020C000C020E000C0400000C0402000C0404000C0406000C0
310
408000C040A000C040C000C040E000C0600000C0602000C0604000C0606000C0608000C060A000C060C000C060E000C0800000C0802000C0804000C0806000C0808000C080A000C080C000C080E000C0A00000C0A02000C0A04000C0A06000C0A08000C0A0A000C0A0C000C0A0E000C0C00000C0C02000C0C04000C0C06000
310
C0C08000C0C0A000F0FBFF00A4A0A000808080000000FF0000FF000000FFFF00FF000000FF00FF00FFFF0000FFFFFF000000000000000000000000000000000000000000000000000000000000000000000000000000000000000000000000FFFFFFFFFFFFFFFFFF00000000000000000000000000000000000000000000FF
310
FFA400A400A400A400FF000000000000000000000000000000000000000000F9F9F9F9F9F9F9F9F9F9FF000000000000000000000000000000000000000000F9F9F9F9F9F9F9F9F9F9F9000000000000000000000000000000000000000000FFF9F9F9F9F9F9F9F9F9F90000000000000000000000000000FF000000000000
310
FF00A400A400A400A400FF0000000000000000000000000000FFFFFF00000000FFA400A400A400A400A4FF0000000000000000000000000000FFA400FFFFFFFFFF00A400A400A400A400FF0000000000000000000000000000FF00A40000A400A4A400A400A400A400A4FF0000000000000000000000000000FFFFFFA40000
310
A400A4A400A400A400A400FFFFFF0000000000000000000000FAFAFAFAFAA400A400A4FAFAFAFAFAFAFAFAFAFAFF000000000000000000000000FFFFFFA400A400A4FFFFFFFFFFFFFFFFFFFFFFFF000000000000000000000000FF00A400A400A4FFFFFA000000000000000000FF00000000000000000000000009A400A400
310
A400FFFFFA000000000000000000FF000000000000000009FAFAFAFAFAFAFAFAFAFAFAFAFAFAFAFAFAFAFAFAFAFAFAFAFA0000000000000000000009A400A400A400FFFFFA000000000000000000FF000000000000000000000000FFA4A400A400A4FFFFFA000000000000000000FF000000000000000000000000FFFFFFA4
310
A4A400A4FFFFFFFFFFFFFFFFFFFFFFFF0000000000000000000000FAFAFAFAFA00A4A400A40000A400A400A4A400A4FF000000000000000000000000FFFFFF00A400A4A400A40000A400A400A4FFFFFF000000000000000000000000FFA4A4FFFFFFFFFFA400A40000A4A400A4FF0000000000000000000000000000FF00FF
310
00000000FF00A400A40000A4A400FF0000000000000000000000000000FFFF0000000000FFA400A400A4FAA400A4FF0000000000000000000000000000FF000000000000FF00A400A400FA00A400FF000000000000000000000000000000000000000000FFA400A400FFFAFFFFA4FF00000000000000000000000000000000
310
0000000000FFA4A4A4A4FFFA00FFA4FF000000000000000000000000000000000000000000FF00A400A4FFFA00FF00FF000000000000000000000000000000000000000000FFFFFFFFFFFFFAFFFFFF00000000000000000000000000000000000000000000000000000000FA00000000000000000000000000000000000000
310
000000000000000000000000FA00000000000000000000000000000000000000000000000000000000000000000000000000000000000000
102
{BLKREFS
331
E2B
102
}
  0
BLOCK_RECORD
  5
E2C
102
{ACAD_XDICTIONARY
360
E2D
102
}
330
1
100
AcDbSymbolTableRecord
100
AcDbBlockTableRecord
  2
LW 3900-15-01
340
0
310
2800000020000000200000000100080000000000000400000000000000000000000000000000000000000000000080000080000000808000800000008000800080800000C0C0C000C0DCC000F0CAA6000020400000206000002080000020A0000020C0000020E00000400000004020000040400000406000004080000040A0
310
000040C0000040E00000600000006020000060400000606000006080000060A0000060C0000060E00000800000008020000080400000806000008080000080A0000080C0000080E00000A0000000A0200000A0400000A0600000A0800000A0A00000A0C00000A0E00000C0000000C0200000C0400000C0600000C0800000C0
310
A00000C0C00000C0E00000E0000000E0200000E0400000E0600000E0800000E0A00000E0C00000E0E00040000000400020004000400040006000400080004000A0004000C0004000E00040200000402020004020400040206000402080004020A0004020C0004020E000404000004040200040404000404060004040800040
310
40A0004040C0004040E00040600000406020004060400040606000406080004060A0004060C0004060E00040800000408020004080400040806000408080004080A0004080C0004080E00040A0000040A0200040A0400040A0600040A0800040A0A00040A0C00040A0E00040C0000040C0200040C0400040C0600040C08000
310
40C0A00040C0C00040C0E00040E0000040E0200040E0400040E0600040E0800040E0A00040E0C00040E0E00080000000800020008000400080006000800080008000A0008000C0008000E00080200000802020008020400080206000802080008020A0008020C0008020E00080400000804020008040400080406000804080
310
008040A0008040C0008040E00080600000806020008060400080606000806080008060A0008060C0008060E00080800000808020008080400080806000808080008080A0008080C0008080E00080A0000080A0200080A0400080A0600080A0800080A0A00080A0C00080A0E00080C0000080C0200080C0400080C0600080C0
310
800080C0A00080C0C00080C0E00080E0000080E0200080E0400080E0600080E0800080E0A00080E0C00080E0E000C0000000C0002000C0004000C0006000C0008000C000A000C000C000C000E000C0200000C0202000C0204000C0206000C0208000C020A000C020C000C020E000C0400000C0402000C0404000C0406000C0
310
408000C040A000C040C000C040E000C0600000C0602000C0604000C0606000C0608000C060A000C060C000C060E000C0800000C0802000C0804000C0806000C0808000C080A000C080C000C080E000C0A00000C0A02000C0A04000C0A06000C0A08000C0A0A000C0A0C000C0A0E000C0C00000C0C02000C0C04000C0C06000
310
C0C08000C0C0A000F0FBFF00A4A0A000808080000000FF0000FF000000FFFF00FF000000FF00FF00FFFF0000FFFFFF00000000000000000000000000000000000000000000000000000000000000000000000000000000000000000000000000FFA4FFA4FFA4FFA40000000000000000000000000000000000000000000000
310
A4FF00A400A400A400A400000000000000000000000000000000000000000000F9F9F9F9A4F9F9F9F9A4FF000000000000000000000000000000000000000000F9F9F9F9F9F9F9F9A4F9A4000000000000000000000000000000000000000000A4F9F9F9F9F9F9F9F9A4FF000000000000000000000000A400000000000000
310
00FFA4A400A400A400A400A4000000000000000000000000FFA4FF000000000000A400A4A400A400A400A4FF000000000000000000000000A400A4FFA4FFA4FFA4FFA400A4A4A4A4A4A4A4A4000000000000000000000000FFA400A400A400A400A400A400A400A400A400A4000000000000000000000000FFA4FF00A400A4
310
00A400A400A400A400A400A4FFA4FF000000000000000000FAFAFAFAA4A400A40000A4A4FAFAA4FAA4FAA4FAA4FAA400000000000000000000A4A4FF00A4A400A40000A4A4FFA4FFA4FFA4FFA4FFA400000000000000000000FFA4A40000A4A400A4FFFFFA000000000000000000FF00000000000000000009A4A400A400A4
310
00A400A4FFFA000000000000000000FF00000000000009FAFAFAA4FAA4FAA4FAA4FAA4FAFAFAFAFAFAFAFAFAFAFAFAFAFAFA0000000000000000A4A400A400A400A400FFFFFA000000000000000000FF00000000000000000000FFA4A400A400A400A4FFFFFA000000000000000000FF00000000000000000000FFFFA4A4A4
310
A400A400A4FFA4A4A4A4A4A4A4A4A4A4FF000000000000000000FAFAFAFAA400A4A400A400A40000A400A400A400A400A400000000000000000000A4FFA400A400A4A400A400A40000A400A400A4FFA4A400000000000000000000FFA400A4FFA4FFA4A4A4A400A40000A4A400A4FF000000000000000000000000A400A400
310
0000000000FFA4A400A40000A4A400A4000000000000000000000000FFA400000000000000A400A4A400A4FAA400A4FF000000000000000000000000A40000000000000000FFA400A4A400A400A400A4000000000000000000000000000000000000000000A400A400A4A4FAA400A4FF000000000000000000000000000000
310
000000000000FFA400A400A4FAFFA4A4A4000000000000000000000000000000000000000000A400A400A4FFFAA40000A4000000000000000000000000000000000000000000A4A4FFA4FFA4FAFFA4A400000000000000000000000000000000000000000000000000000000FA000000000000000000000000000000000000
310
00000000000000000000000000FA000000000000000000000000000000000000000000000000000000000000000000000000000000000000
102
{BLKREFS
331
E74
102
}
  0
ENDTAB
  0
ENDSEC
  0
SECTION
  2
BLOCKS
  0
BLOCK
  5
20
330
1F
100
AcDbEntity
  8
0
100
AcDbBlockBegin
  2
*Model_Space
 70
     0
 10
0.0
 20
0.0
 30
0.0
  3
*Model_Space
  1

  0
ENDBLK
  5
21
330
1F
100
AcDbEntity
  8
0
100
AcDbBlockEnd
  0
BLOCK
  5
1C
330
1B
100
AcDbEntity
 67
     1
  8
0
100
AcDbBlockBegin
  2
*Paper_Space
 70
     0
 10
0.0
 20
0.0
 30
0.0
  3
*Paper_Space
  1

  0
ENDBLK
  5
1D
330
1B
100
AcDbEntity
 67
     1
  8
0
100
AcDbBlockEnd
  0
BLOCK
  5
24
330
23
100
AcDbEntity
 67
     1
  8
0
100
AcDbBlockBegin
  2
*Paper_Space0
 70
     0
 10
0.0
 20
0.0
 30
0.0
  3
*Paper_Space0
  1

  0
ENDBLK
  5
25
330
23
100
AcDbEntity
 67
     1
  8
0
100
AcDbBlockEnd
  0
BLOCK
  5
272
330
26B
100
AcDbEntity
  8
0
100
AcDbBlockBegin
  2
insertpoint-ECKELT
 70
     2
 10
0.0
 20
0.0
 30
0.0
  3
insertpoint-ECKELT
  1

  0
ATTDEF
  5
26C
330
26B
100
AcDbEntity
  8
insertpoint_ECKELT
100
AcDbText
 10
-2.457298772169167
 20
-0.0000000000000255
 30
0.0
 40
0.6
  1
LW
 72
     2
 11
-1.199999999999999
 21
-0.0000000000000255
 31
0.0
100
AcDbAttributeDefinition
  3
Nr. links
  2
LINKS
 70
     0
  0
ATTDEF
  5
26D
330
26B
100
AcDbEntity
  8
insertpoint_ECKELT
100
AcDbText
 10
1.199999999999999
 20
-0.0000000000000255
 30
0.0
 40
0.6
  1
LW
100
AcDbAttributeDefinition
  3
Nr. rechts
  2
RECHTS
 70
     0
  0
LINE
  5
26E
102
{ACAD_REACTORS
330
271
102
}
330
26B
100
AcDbEntity
  8
insertpoint_ECKELT
100
AcDbLine
 10
0.0
 20
1.799999999999999
 30
0.0
 11
0.0
 21
-1.799999999999999
 31
0.0
  0
LINE
  5
26F
102
{ACAD_REACTORS
330
271
102
}
330
26B
100
AcDbEntity
  8
insertpoint_ECKELT
100
AcDbLine
 10
-1.8
 20
-0.0000000000000255
 30
0.0
 11
1.8
 21
-0.0000000000000255
 31
0.0
  0
CIRCLE
  5
270
102
{ACAD_REACTORS
330
271
102
}
330
26B
100
AcDbEntity
  8
insertpoint_ECKELT
100
AcDbCircle
 10
0.0
 20
0.0
 30
0.0
 40
1.199999999999999
  0
HATCH
  5
271
330
26B
100
AcDbEntity
  8
insertpoint_ECKELT
100
AcDbHatch
 10
0.0
 20
0.0
 30
0.0
210
0.0
220
0.0
230
1.0
  2
SOLID
 70
     1
 71
     1
 91
        2
 92
        7
 72
     1
 73
     1
 93
        3
 10
0.0
 20
-0.0000000000000255
 42
0.0
 10
0.0
 20
1.199999999999999
 42
0.4142135623731013
 10
-1.199999999999999
 20
-0.0000000000000255
 42
0.0
 97
        3
330
270
330
26F
330
26E
 92
        7
 72
     1
 73
     1
 93
        3
 10
1.199999999999999
 20
-0.0000000000000255
 42
0.0
 10
0.0
 20
-0.0000000000000255
 42
0.0
 10
0.0
 20
-1.199999999999999
 42
0.4142135623730888
 97
        3
330
26F
330
26E
330
270
 75
     0
 76
     1
 47
0.0223086566480813
 98
        2
 10
-0.3163651093721391
 20
0.2714132920773493
 10
0.7415965996738798
 20
-0.4513871917946231
  0
ENDBLK
  5
273
330
26B
100
AcDbEntity
  8
0
100
AcDbBlockEnd
  0
BLOCK
  5
D9E
330
D9A
100
AcDbEntity
  8
0
100
AcDbBlockBegin
  2
LW 3900-10-01
 70
     0
 10
0.0
 20
0.0
 30
0.0
  3
LW 3900-10-01
  1

  0
LINE
  5
DA0
330
D9A
100
AcDbEntity
  8
LW 3900-SECURIT-01
 62
     3
100
AcDbLine
 10
14.0
 20
7.0
 30
0.0
 11
31.0
 21
7.0
 31
0.0
  0
LINE
  5
DA2
330
D9A
100
AcDbEntity
  8
LW 3900-SECURIT-01
 62
     3
100
AcDbLine
 10
31.0
 20
-6.999999999999971
 30
0.0
 11
14.00000000000001
 21
-6.999999999999971
 31
0.0
  0
LINE
  5
DA6
330
D9A
100
AcDbEntity
  8
LW 3900-SECURIT-01
 48
0.0
100
AcDbLine
 10
4.000000000000014
 20
-5.500000000000028
 30
0.0
 11
4.000000000000014
 21
-8.5
 31
0.0
  0
LWPOLYLINE
  5
DA7
330
D9A
100
AcDbEntity
  8
LW 3900-SECURIT-01
 48
0.0
100
AcDbPolyline
 90
       25
 70
     0
 43
0.0
 10
18.50000023841858
 20
22.99999952316284
 10
18.52101802825927
 20
22.99768447875977
 10
18.5843563079834
 20
22.99094438552856
 10
18.69044423103332
 20
22.98007965087891
 10
18.83832931518554
 20
22.96570539474487
 10
19.02153968811035
 20
22.94918775558472
 10
19.23223614692688
 20
22.93196439743042
 10
19.47257995605468
 20
22.91472673416138
 10
19.74519848823547
 20
22.89817333221435
 10
20.04294872283935
 20
22.88374900817871
 10
20.35811901092529
 20
22.87283420562744
 10
20.68067312240601
 20
22.86605596542358
 10
20.99999904632568
 20
22.86372661590576
 10
21.31932497024536
 20
22.86605596542358
 10
21.64188146591186
 20
22.87283420562744
 10
21.9570517539978
 20
22.88374900817871
 10
22.25480318069458
 20
22.89817333221435
 10
22.52742052078247
 20
22.91472673416138
 10
22.76776313781738
 20
22.93196439743042
 10
22.97846078872681
 20
22.94918775558472
 10
23.16167116165161
 20
22.96570539474487
 10
23.30955505371094
 20
22.98007965087891
 10
23.41564416885376
 20
22.99094438552856
 10
23.47898244857788
 20
22.99768447875977
 10
23.49999904632568
 20
22.99999952316284
  0
LINE
  5
DA9
330
D9A
100
AcDbEntity
  8
LW 3900-SECURIT-01
 48
0.0
100
AcDbLine
 10
0.0000000000000142
 20
-5.500000000000028
 30
0.0
 11
4.000000000000014
 21
-5.500000000000028
 31
0.0
  0
LINE
  5
DAA
330
D9A
100
AcDbEntity
  8
LW 3900-SECURIT-01
 48
0.0
100
AcDbLine
 10
4.000000000000007
 20
5.5
 30
0.0
 11
0.0
 21
5.5
 31
0.0
  0
LINE
  5
DAB
330
D9A
100
AcDbEntity
  8
LW 3900-SECURIT-01
 48
0.0
100
AcDbLine
 10
4.866025403784448
 20
6.999999999999971
 30
0.0
 11
4.000000000000007
 21
5.5
 31
0.0
  0
LINE
  5
DAC
330
D9A
100
AcDbEntity
  8
LW 3900-SECURIT-01
 48
0.0
100
AcDbLine
 10
4.000000000000007
 20
8.5
 30
0.0
 11
4.866025403784448
 21
6.999999999999971
 31
0.0
  0
LINE
  5
DAD
330
D9A
100
AcDbEntity
  8
LW 3900-SECURIT-01
 48
0.0
100
AcDbLine
 10
0.0
 20
8.5
 30
0.0
 11
4.000000000000007
 21
8.5
 31
0.0
  0
LINE
  5
DAE
330
D9A
100
AcDbEntity
  8
LW 3900-SECURIT-01
 48
0.0
100
AcDbLine
 10
5.0
 20
11.0
 30
0.0
 11
0.0
 21
16.0
 31
0.0
  0
LINE
  5
DAF
330
D9A
100
AcDbEntity
  8
LW 3900-SECURIT-01
 48
0.0
100
AcDbLine
 10
10.0
 20
11.0
 30
0.0
 11
5.0
 21
11.0
 31
0.0
  0
LINE
  5
DB0
330
D9A
100
AcDbEntity
  8
LW 3900-SECURIT-01
 48
0.0
100
AcDbLine
 10
10.0
 20
21.99999999999997
 30
0.0
 11
10.00000000000001
 21
11.0
 31
0.0
  0
LINE
  5
DB1
330
D9A
100
AcDbEntity
  8
LW 3900-SECURIT-01
 48
0.0
100
AcDbLine
 10
12.0
 20
21.99999999999997
 30
0.0
 11
10.00000000000001
 21
21.99999999999997
 31
0.0
  0
LINE
  5
DB2
330
D9A
100
AcDbEntity
  8
LW 3900-SECURIT-01
 48
0.0
100
AcDbLine
 10
12.0
 20
23.0
 30
0.0
 11
12.0
 21
21.99999999999997
 31
0.0
  0
LINE
  5
DB3
330
D9A
100
AcDbEntity
  8
LW 3900-SECURIT-01
 48
0.0
100
AcDbLine
 10
18.5
 20
23.0
 30
0.0
 11
12.0
 21
23.0
 31
0.0
  0
LINE
  5
DB4
330
D9A
100
AcDbEntity
  8
LW 3900-SECURIT-01
 48
0.0
100
AcDbLine
 10
18.5
 20
16.99999999999997
 30
0.0
 11
18.5
 21
23.0
 31
0.0
  0
LINE
  5
DB5
330
D9A
100
AcDbEntity
  8
LW 3900-SECURIT-01
 48
0.0
100
AcDbLine
 10
21.0
 20
15.55662432702593
 30
0.0
 11
18.5
 21
16.99999999999997
 31
0.0
  0
LINE
  5
DB6
330
D9A
100
AcDbEntity
  8
LW 3900-SECURIT-01
 48
0.0
100
AcDbLine
 10
23.5
 20
16.99999999999997
 30
0.0
 11
21.0
 21
15.55662432702593
 31
0.0
  0
LINE
  5
DB7
330
D9A
100
AcDbEntity
  8
LW 3900-SECURIT-01
 48
0.0
100
AcDbLine
 10
23.5
 20
23.0
 30
0.0
 11
23.5
 21
16.99999999999997
 31
0.0
  0
LINE
  5
DB8
330
D9A
100
AcDbEntity
  8
LW 3900-SECURIT-01
 48
0.0
100
AcDbLine
 10
24.79289321881345
 20
23.0
 30
0.0
 11
23.5
 21
23.0
 31
0.0
  0
ARC
  5
DB9
330
D9A
100
AcDbEntity
  8
LW 3900-SECURIT-01
 48
0.0
100
AcDbCircle
 10
24.79289321881345
 20
22.5
 30
0.0
 40
0.5000000000000242
100
AcDbArc
 50
45.00000000000143
 51
90.0
  0
LINE
  5
DBA
330
D9A
100
AcDbEntity
  8
LW 3900-SECURIT-01
 48
0.0
100
AcDbLine
 10
27.85355339059326
 20
20.14644660940669
 30
0.0
 11
25.14644660940672
 21
22.85355339059328
 31
0.0
  0
ARC
  5
DBB
330
D9A
100
AcDbEntity
  8
LW 3900-SECURIT-01
 48
0.0
100
AcDbCircle
 10
27.50000000000003
 20
19.79289321881345
 30
0.0
 40
0.4999999999999716
100
AcDbArc
 50
0.0
 51
45.00000000000432
  0
LINE
  5
DBC
330
D9A
100
AcDbEntity
  8
LW 3900-SECURIT-01
 48
0.0
100
AcDbLine
 10
28.00000000000002
 20
8.999999999999971
 30
0.0
 11
28.0
 21
19.79289321881345
 31
0.0
  0
LINE
  5
DBD
330
D9A
100
AcDbEntity
  8
LW 3900-SECURIT-01
 48
0.0
100
AcDbLine
 10
30.0
 20
9.000000000000028
 30
0.0
 11
28.0
 21
9.000000000000028
 31
0.0
  0
LINE
  5
DBE
330
D9A
100
AcDbEntity
  8
LW 3900-SECURIT-01
 48
0.0
100
AcDbLine
 10
31.0
 20
8.0
 30
0.0
 11
30.0
 21
9.000000000000028
 31
0.0
  0
LINE
  5
DBF
330
D9A
100
AcDbEntity
  8
LW 3900-SECURIT-01
 48
0.0
100
AcDbLine
 10
12.00000000000001
 20
6.053000000000024
 30
0.0
 11
31.0
 21
6.053000000000026
 31
0.0
  0
LINE
  5
DC0
330
D9A
100
AcDbEntity
  8
LW 3900-SECURIT-01
 48
0.0
100
AcDbLine
 10
8.505298820595198
 20
0.0
 30
0.0
 11
12.0
 21
6.053000000000025
 31
0.0
  0
LINE
  5
DC1
330
D9A
100
AcDbEntity
  8
LW 3900-SECURIT-01
 48
0.0
100
AcDbLine
 10
12.00000000000001
 20
-6.052999999999997
 30
0.0
 11
8.505298820595196
 21
-0.0000000000000048
 31
0.0
  0
LINE
  5
DC2
330
D9A
100
AcDbEntity
  8
LW 3900-SECURIT-01
 48
0.0
100
AcDbLine
 10
31.00000000000003
 20
-6.052999999999996
 30
0.0
 11
12.00000000000001
 21
-6.052999999999994
 31
0.0
  0
LINE
  5
DC3
330
D9A
100
AcDbEntity
  8
LW 3900-SECURIT-01
 48
0.0
100
AcDbLine
 10
31.00000000000003
 20
-8.000000000000028
 30
0.0
 11
31.0
 21
8.0
 31
0.0
  0
LINE
  5
DC4
330
D9A
100
AcDbEntity
  8
LW 3900-SECURIT-01
 48
0.0
100
AcDbLine
 10
30.0
 20
-9.0
 30
0.0
 11
31.0
 21
-7.999999999999971
 31
0.0
  0
LINE
  5
DC5
330
D9A
100
AcDbEntity
  8
LW 3900-SECURIT-01
 48
0.0
100
AcDbLine
 10
28.0
 20
-9.0
 30
0.0
 11
30.0
 21
-9.0
 31
0.0
  0
LINE
  5
DC6
330
D9A
100
AcDbEntity
  8
LW 3900-SECURIT-01
 48
0.0
100
AcDbLine
 10
28.00000000000003
 20
-19.79289321881345
 30
0.0
 11
28.00000000000002
 21
-9.0
 31
0.0
  0
ARC
  5
DC7
330
D9A
100
AcDbEntity
  8
LW 3900-SECURIT-01
 48
0.0
100
AcDbCircle
 10
27.50000000000004
 20
-19.79289321881347
 30
0.0
 40
0.4999999999999708
100
AcDbArc
 50
314.9999999999986
 51
0.0
  0
LINE
  5
DC8
330
D9A
100
AcDbEntity
  8
LW 3900-SECURIT-01
 48
0.0
100
AcDbLine
 10
25.14644660940675
 20
-22.85355339059325
 30
0.0
 11
27.85355339059328
 21
-20.14644660940672
 31
0.0
  0
ARC
  5
DC9
330
D9A
100
AcDbEntity
  8
LW 3900-SECURIT-01
 48
0.0
100
AcDbCircle
 10
24.79289321881348
 20
-22.49999999999997
 30
0.0
 40
0.5000000000000249
100
AcDbArc
 50
270.0
 51
314.9999999999986
  0
LINE
  5
DCA
330
D9A
100
AcDbEntity
  8
LW 3900-SECURIT-01
 48
0.0
100
AcDbLine
 10
12.00000000000003
 20
-23.0
 30
0.0
 11
24.79289321881348
 21
-23.0
 31
0.0
  0
LINE
  5
DCB
330
D9A
100
AcDbEntity
  8
LW 3900-SECURIT-01
 48
0.0
100
AcDbLine
 10
12.00000000000003
 20
-22.0
 30
0.0
 11
12.00000000000003
 21
-23.0
 31
0.0
  0
LINE
  5
DCC
330
D9A
100
AcDbEntity
  8
LW 3900-SECURIT-01
 48
0.0
100
AcDbLine
 10
10.00000000000003
 20
-22.0
 30
0.0
 11
12.00000000000003
 21
-22.0
 31
0.0
  0
LINE
  5
DCD
330
D9A
100
AcDbEntity
  8
LW 3900-SECURIT-01
 48
0.0
100
AcDbLine
 10
10.00000000000001
 20
-11.0
 30
0.0
 11
10.00000000000001
 21
-22.0
 31
0.0
  0
LINE
  5
DCE
330
D9A
100
AcDbEntity
  8
LW 3900-SECURIT-01
 48
0.0
100
AcDbLine
 10
5.000000000000014
 20
-11.0
 30
0.0
 11
10.00000000000001
 21
-11.0
 31
0.0
  0
LINE
  5
DCF
330
D9A
100
AcDbEntity
  8
LW 3900-SECURIT-01
 48
0.0
100
AcDbLine
 10
0.0000000000000142
 20
-16.0
 30
0.0
 11
5.000000000000014
 21
-11.0
 31
0.0
  0
LINE
  5
DD0
330
D9A
100
AcDbEntity
  8
LW 3900-SECURIT-01
 48
0.0
100
AcDbLine
 10
0.0
 20
16.0
 30
0.0
 11
0.0000000000000142
 21
-16.0
 31
0.0
  0
LINE
  5
DD1
330
D9A
100
AcDbEntity
  8
LW 3900-SECURIT-01
 48
0.0
100
AcDbLine
 10
4.000000000000014
 20
-8.5
 30
0.0
 11
0.0000000000000142
 21
-8.5
 31
0.0
  0
LINE
  5
DD2
330
D9A
100
AcDbEntity
  8
LW 3900-SECURIT-01
 48
0.0
100
AcDbLine
 10
4.866025403784448
 20
-7.0
 30
0.0
 11
4.000000000000007
 21
-8.5
 31
0.0
  0
LINE
  5
DD3
330
D9A
100
AcDbEntity
  8
LW 3900-SECURIT-01
 48
0.0
100
AcDbLine
 10
4.000000000000007
 20
-5.500000000000028
 30
0.0
 11
4.866025403784448
 21
-7.0
 31
0.0
  0
INSERT
  5
DD4
330
D9A
100
AcDbEntity
  8
insertpoint_ECKELT
100
AcDbBlockReference
 66
     1
  2
insertpoint-ECKELT
 10
0.0
 20
0.0
 30
0.0
  0
ATTRIB
  5
163D
330
DD4
100
AcDbEntity
  8
insertpoint_ECKELT
100
AcDbText
 10
-6.931514324693059
 20
-0.0000000000000284
 30
0.0
 40
0.6
  1
LW 3900/10-01
 72
     2
 11
-1.200000000000017
 21
-0.0000000000000284
 31
0.0
100
AcDbAttribute
  2
LINKS
 70
     0
  0
ATTRIB
  5
163E
330
DD4
100
AcDbEntity
  8
insertpoint_ECKELT
100
AcDbText
 10
1.199999999999988
 20
-0.0000000000000284
 30
0.0
 40
0.6
  1

100
AcDbAttribute
  2
RECHTS
 70
     0
  0
SEQEND
  5
163F
330
DD4
100
AcDbEntity
  8
insertpoint_ECKELT
  0
LINE
  5
DD8
330
D9A
100
AcDbEntity
  8
LW 3900-SECURIT-01
  6
MITTE2
 62
     3
100
AcDbLine
 10
34.68236088981618
 20
0.0
 30
0.0
 11
-4.816740571937998
 21
0.0
 31
0.0
  0
LINE
  5
DD9
330
D9A
100
AcDbEntity
  8
LW 3900-SECURIT-01
  6
MITTE2
 62
     3
100
AcDbLine
 10
6.06676842937054
 20
6.999999999999971
 30
0.0
 11
-2.025328589565788
 21
6.999999999999971
 31
0.0
  0
LINE
  5
DDA
330
D9A
100
AcDbEntity
  8
LW 3900-SECURIT-01
  6
MITTE2
 62
     3
100
AcDbLine
 10
6.06676842937054
 20
-6.999999999999971
 30
0.0
 11
-2.025328589565788
 21
-6.999999999999971
 31
0.0
  0
LINE
  5
DDB
330
D9A
100
AcDbEntity
  8
LW 3900-SECURIT-01
  6
MITTE2
 62
     3
100
AcDbLine
 10
21.0
 20
13.27820912973922
 30
0.0
 11
21.0
 21
25.1521294245251
 31
0.0
  0
HATCH
  5
DDC
330
D9A
100
AcDbEntity
  8
LW 3900-SECURIT-01
 62
     1
100
AcDbHatch
 10
0.0
 20
0.0
 30
0.0
210
0.0
220
0.0
230
1.0
  2
SOLID
 70
     1
 71
     0
 91
        5
 92
        7
 72
     0
 73
     1
 93
       76
 10
14.07600150507754
 20
-18.08856979069733
 10
14.10786033445036
 20
-18.03698882885564
 10
14.22601845868165
 20
-17.8857464298396
 10
14.36049653389442
 20
-17.74532229957711
 10
14.50651644035587
 20
-17.61693773786376
 10
14.67018523643786
 20
-17.50003145494807
 10
14.84557218980261
 20
-17.39785357312635
 10
15.02732512240292
 20
-17.30650189354352
 10
15.20849405786866
 20
-17.23698358109735
 10
12.9513561196686
 20
-17.23698358109735
 10
12.73845956726863
 20
-17.24567323629733
 10
12.53642508386865
 20
-17.27174220189735
 10
12.34090784186866
 20
-17.31301806409735
 10
12.15625266886876
 20
-17.36732840909732
 10
11.98028715106862
 20
-17.43684565069733
 10
11.8130112884687
 20
-17.51939737509738
 10
11.66244302592177
 20
-17.61472289264125
 10
11.51973542546874
 20
-17.72143185849737
 10
11.39429416989809
 20
-17.84048013473742
 10
11.28302921782067
 20
-17.96873944548932
 10
11.18301128646872
 20
-18.10594910109731
 10
11.10045956206868
 20
-18.25150082569732
 10
11.03745956186866
 20
-18.40574220549749
 10
10.98749404446873
 20
-18.56650082669725
 10
10.95925266506871
 20
-18.73160427549734
 10
10.95056300986867
 20
-18.90539737949731
 10
10.96142507886871
 20
-19.0791904834974
 10
10.99183887206867
 20
-19.24646634609738
 10
11.0461492170687
 20
-19.40722496729737
 10
11.11566645866865
 20
-19.56363876089736
 10
11.20473542446875
 20
-19.71136289929743
 10
11.31118370066865
 20
-19.85256979629733
 10
11.4338816320927
 20
-19.98378358981736
 10
11.5700806808009
 20
-20.10491738330532
 10
11.71742508126867
 20
-20.21536290089736
 10
11.87818370246872
 20
-20.31312152189733
 10
12.05381032371592
 20
-20.39801945320133
 10
12.23445956566864
 20
-20.47170772929732
 10
12.42563198006876
 20
-20.52819048809735
 10
12.62549404966869
 20
-20.57163876409735
 10
12.83404577446866
 20
-20.59770772969736
 10
13.04476991306863
 20
-20.60639738489735
 10
15.16394099882124
 20
-20.60639738489735
 10
15.00339713476875
 20
-20.54332658116246
 10
14.81983299096633
 20
-20.45270630763972
 10
14.65136658479626
 20
-20.34817661470808
 10
14.48853369003551
 20
-20.23255837628264
 10
14.34462132166531
 20
-20.10276877974277
 10
14.21718542818097
 20
-19.96341509651429
 10
14.10348007343763
 20
-19.81292685180168
 10
14.05150884198905
 20
-19.72874220969734
 10
13.02304577506866
 20
-19.72874220969734
 10
12.89093694706308
 20
-19.72118220967334
 10
12.76018370526866
 20
-19.70084841650535
 10
12.63201129106873
 20
-19.66791462329737
 10
12.51687335966868
 20
-19.62229393349733
 10
12.41192839381829
 20
-19.56581117469736
 10
12.31377873833428
 20
-19.49820565724136
 10
12.22359749666871
 20
-19.42025945009735
 10
12.15190784126871
 20
-19.33553531189736
 10
13.87942915552752
 20
-19.33553531189736
 10
13.8688446882545
 20
-19.30289987113903
 10
13.83273288029004
 20
-19.11752592358792
 10
13.82068922750834
 20
-18.92723620963719
 10
13.83271089993768
 20
-18.73248511628222
 10
13.869016621613
 20
-18.54611574501567
 10
13.88561532428808
 20
-18.49698358509735
 10
12.11497680666871
 20
-18.49698358509735
 10
12.18449404826866
 20
-18.40139737789744
 10
12.26704577266865
 20
-18.31884565349733
 10
12.36213666952226
 20
-18.24898082568935
 10
12.4647354284687
 20
-18.19067323929735
 10
12.58342742884547
 20
-18.14670358398538
 10
12.70587336026874
 20
-18.11463875629735
 10
12.84273542966871
 20
-18.09508703209738
 10
12.98611474046872
 20
-18.08856979069733
 97
        0
 92
        7
 72
     0
 73
     1
 93
       72
 10
15.80446537010549
 20
-18.10316841143336
 10
15.9273284049783
 20
-18.08509392861734
 10
16.05139061226872
 20
-18.07988013549735
 10
17.32008027146871
 20
-18.07988013549735
 10
16.47283888946866
 20
-18.89453531049733
 10
18.23901130886871
 20
-20.61291462629734
 10
19.55766648546869
 20
-20.61291462629734
 10
17.84363199726867
 20
-18.87063875869737
 10
19.52508027846868
 20
-17.23698358109735
 10
16.08614923306878
 20
-17.23698358109735
 10
15.87816233585663
 20
-17.24775875354535
 10
15.67144412830383
 20
-17.27321944328136
 10
15.46701130006873
 20
-17.31301806409735
 10
15.27366647186868
 20
-17.36950082289738
 10
15.08683888506867
 20
-17.44119047829733
 10
14.91567874659419
 20
-17.52721806477737
 10
14.75011474606872
 20
-17.6236732374974
 10
14.59804578006871
 20
-17.73229392749735
 10
14.46234812446555
 20
-17.85160289339333
 10
14.3373561240687
 20
-17.98212151449738
 10
14.22873543406864
 20
-18.1211559976974
 10
14.13749405446871
 20
-18.26888013609724
 10
14.06580439906871
 20
-18.42312151589729
 10
14.01149405406868
 20
-18.58388013709734
 10
13.97890784706872
 20
-18.75115599969731
 10
13.96804577806868
 20
-18.92712151749745
 10
13.97890784706867
 20
-19.09874220769737
 10
14.01149405406868
 20
-19.26601807029735
 10
14.06363198526866
 20
-19.42677669149734
 10
14.13314922686867
 20
-19.58101807129733
 10
14.22499019267745
 20
-19.7297849683213
 10
14.3303696412879
 20
-19.86925393428143
 10
14.44837515890388
 20
-19.9982953140013
 10
14.58066646966868
 20
-20.11760427989734
 10
14.73278757359991
 20
-20.22561669403339
 10
14.89132164306873
 20
-20.32398359089737
 10
15.06294233326871
 20
-20.40870772909736
 10
15.24542509246866
 20
-20.48039738449737
 10
15.43965626549912
 20
-20.53444703984135
 10
15.63645957646865
 20
-20.57815600549734
 10
15.84501130126874
 20
-20.60422497109735
 10
16.05573543986865
 20
-20.61291462629734
 10
17.95876992866867
 20
-20.61291462629734
 10
17.07242509826868
 20
-19.73960427869733
 10
16.05573543986865
 20
-19.73960427869733
 10
15.98906840517416
 20
-19.73585698575803
 10
15.88812068071591
 20
-19.72587462348136
 10
15.76798619757589
 20
-19.70441117513738
 10
15.65086702479031
 20
-19.67008703709737
 10
15.54937185205431
 20
-19.62915876110534
 10
15.49323667946224
 20
-19.60100427825731
 10
15.43955198963663
 20
-19.5684180712573
 10
15.30699129956069
 20
-19.46909531232134
 10
15.23338992001668
 20
-19.39905669140935
 10
15.1783235750144
 20
-19.33119048429742
 10
15.12961805761829
 20
-19.25863186337736
 10
15.09025391956224
 20
-19.18146772520137
 10
15.06083074705508
 20
-19.10004565597742
 10
15.04013198836865
 20
-19.01288841432134
 10
15.03261543662067
 20
-18.92355875886542
 10
15.03397102283189
 20
-18.86125393108139
 10
15.03997557457511
 20
-18.79912289640148
 10
15.05213240219989
 20
-18.73594910309734
 10
15.0703459194991
 20
-18.67425255117737
 10
15.11399405756866
 20
-18.57553806810543
 10
15.1555219197695
 20
-18.50767186099338
 10
15.21860012686629
 20
-18.42963875729734
 10
15.34800206723109
 20
-18.30311602024372
 10
15.40726992056874
 20
-18.26305806711335
 10
15.48356509322467
 20
-18.21874082559341
 10
15.56758536935346
 20
-18.17659599787336
 10
15.68412233524064
 20
-18.13375599773738
 97
        0
 92
        7
 72
     0
 73
     1
 93
       57
 10
20.36250235009275
 20
-18.12524013564135
 10
20.49397683326872
 20
-18.08526772172135
 10
20.62866648886863
 20
-18.05815599749732
 10
20.77204579966859
 20
-18.04946634229733
 10
22.01249407946868
 20
-18.04946634229733
 10
22.01249407946868
 20
-17.22394909829737
 10
20.77856304106875
 20
-17.22394909829737
 10
20.56783890246872
 20
-17.23263875349735
 10
20.36145959146875
 20
-17.26088013289731
 10
20.16376993566876
 20
-17.30215599509731
 10
19.97476993506875
 20
-17.35646634009734
 10
19.7901147620688
 20
-17.42815599549735
 10
19.62370786498853
 20
-17.51079461644937
 10
19.46488703689822
 20
-17.6072497891694
 10
19.31480800193911
 20
-17.71673944468935
 10
19.18024869116719
 20
-17.8359615140333
 10
19.06018372526874
 20
-17.96474220409734
 10
18.95590786286873
 20
-18.10377668729737
 10
18.87118372466868
 20
-18.24932841189738
 10
18.79949406926867
 20
-18.40356979169738
 10
18.74952855186869
 20
-18.56432841289725
 10
18.71694234486868
 20
-18.73160427549729
 10
18.7060802758687
 20
-18.90539737949731
 10
18.71694234486868
 20
-19.07919048349734
 10
18.74952855186869
 20
-19.24646634609738
 10
18.80166648306867
 20
-19.40722496729737
 10
18.87335613846868
 20
-19.56363876089736
 10
18.96025269046872
 20
-19.71136289929737
 10
19.06909931150385
 20
-19.85091876180937
 10
19.18895572567747
 20
-19.98126358980934
 10
19.3253833123175
 20
-20.10257117640137
 10
19.4729423472687
 20
-20.21319048709736
 10
19.63370096846869
 20
-20.31094910809739
 10
19.80749407246866
 20
-20.39567324629738
 10
19.99214924546867
 20
-20.46953531549732
 10
20.18332165986873
 20
-20.52601807429736
 10
20.38318372946866
 20
-20.56946635029735
 10
20.58956304046869
 20
-20.59336290209737
 10
20.80245959286871
 20
-20.60205255729735
 10
22.01249407946868
 20
-20.60205255729735
 10
22.01249407946868
 20
-19.74394910629738
 10
20.77856304106864
 20
-19.74394910629738
 10
20.64491614409268
 20
-19.73360841660937
 10
20.51265959194869
 20
-19.71162358895336
 10
20.39204717777271
 20
-19.67729945091335
 10
20.27604028085271
 20
-19.62933255420935
 10
20.16637683222869
 20
-19.56841807125735
 10
20.06931338364471
 20
-19.50081255380135
 10
19.98189545233269
 20
-19.42104151906537
 10
19.90742510726868
 20
-19.33553531189736
 10
22.01249407946868
 20
-19.33553531189736
 10
22.01249407946868
 20
-18.50784565409734
 10
19.87049407266868
 20
-18.50784565409734
 10
19.94001131426869
 20
-18.41008703309737
 10
20.02690786626862
 20
-18.32101806729738
 10
20.12805545279672
 20
-18.24472289464134
 10
20.2354595910687
 20
-18.17763875649737
 97
        0
 92
        7
 72
     0
 73
     1
 93
        6
 10
22.24276994226868
 20
-17.23698358109735
 10
22.24276994226868
 20
-20.60639738489735
 10
24.48035615626871
 20
-20.60639738489735
 10
24.48035615626871
 20
-19.73960427869733
 10
23.2659768420687
 20
-19.73960427869733
 10
23.2659768420687
 20
-17.23698358109735
 97
        0
 92
        7
 72
     0
 73
     1
 93
        8
 10
23.49842511866869
 20
-17.23698358109735
 10
23.49842511866869
 20
-18.06250082509737
 10
24.73235615706868
 20
-18.06250082509737
 10
24.73235615706868
 20
-20.61291462629734
 10
25.75773547066869
 20
-20.61291462629734
 10
25.75773547066869
 20
-18.06250082509737
 10
27.00035616426872
 20
-18.06250082509737
 10
27.00035616426872
 20
-17.23698358109735
 97
        0
 75
     0
 76
     1
 47
0.0142553043587597
 98
        5
 10
13.38566163114392
 20
-17.67943325068646
 10
15.65315884448647
 20
-17.82198623569226
 10
20.14537057668802
 20
-17.76496506314456
 10
22.86921966051959
 20
-17.52262483845228
 10
24.28105764274646
 20
-17.62241197086561
  0
LWPOLYLINE
  5
DDD
330
D9A
100
AcDbEntity
  8
LW 3900-SECURIT-01
 62
     1
100
AcDbPolyline
 90
        8
 70
     1
 43
0.0
 10
25.75773547066869
 20
-18.06250082509737
 10
25.75773547066869
 20
-20.61291462629734
 10
24.73235615706868
 20
-20.61291462629734
 10
24.73235615706868
 20
-18.06250082509737
 10
23.49842511866869
 20
-18.06250082509737
 10
23.49842511866869
 20
-17.23698358109735
 10
27.00035616426872
 20
-17.23698358109735
 10
27.00035616426872
 20
-18.06250082509737
  0
LWPOLYLINE
  5
DDE
330
D9A
100
AcDbEntity
  8
LW 3900-SECURIT-01
 62
     1
100
AcDbPolyline
 90
       73
 70
     1
 43
0.0
 10
16.05573543986871
 20
-19.73960427869733
 10
17.07242509826868
 20
-19.73960427869733
 10
17.95876992866867
 20
-20.61291462629734
 10
16.05573543986871
 20
-20.61291462629734
 10
15.84501130126868
 20
-20.60422497109735
 10
15.63645957646871
 20
-20.57815600549734
 10
15.43965626549912
 20
-20.53444703984135
 10
15.24542509246872
 20
-20.48039738449737
 10
15.06294233326871
 20
-20.40870772909736
 10
14.89132164306868
 20
-20.32398359089737
 10
14.73278757359991
 20
-20.22561669403334
 10
14.58066646966868
 20
-20.11760427989734
 10
14.44837515890388
 20
-19.99829531400135
 10
14.3303696412879
 20
-19.86925393428137
 10
14.22499019267751
 20
-19.72978496832135
 10
14.13314922686867
 20
-19.58101807129733
 10
14.06363198526866
 20
-19.42677669149734
 10
14.01149405406868
 20
-19.26601807029735
 10
13.97890784706867
 20
-19.09874220769737
 10
13.96804577806868
 20
-18.92712151749734
 10
13.97890784706867
 20
-18.75115599969737
 10
14.01149405406868
 20
-18.58388013709734
 10
14.06580439906871
 20
-18.42312151589735
 10
14.13749405446866
 20
-18.26888013609735
 10
14.22873543406869
 20
-18.12115599769734
 10
14.3373561240687
 20
-17.98212151449738
 10
14.46234812446549
 20
-17.85160289339333
 10
14.59804578006866
 20
-17.73229392749735
 10
14.75011474606866
 20
-17.62367323749734
 10
14.91567874659431
 20
-17.52721806477737
 10
15.08683888506867
 20
-17.44119047829738
 10
15.27366647186868
 20
-17.36950082289738
 10
15.46701130006868
 20
-17.31301806409735
 10
15.67144412830389
 20
-17.27321944328136
 10
15.87816233585668
 20
-17.24775875354535
 10
16.08614923306866
 20
-17.23698358109735
 10
19.52508027846868
 20
-17.23698358109735
 10
17.84363199726867
 20
-18.87063875869737
 10
19.55766648546869
 20
-20.61291462629734
 10
18.23901130886871
 20
-20.61291462629734
 10
16.47283888946866
 20
-18.89453531049733
 10
17.32008027146871
 20
-18.07988013549735
 10
16.05139061226872
 20
-18.07988013549735
 10
15.9273284049783
 20
-18.08509392861734
 10
15.80446537010549
 20
-18.10316841143336
 10
15.6841223352407
 20
-18.13375599773738
 10
15.56758536935352
 20
-18.17659599787336
 10
15.48356509322467
 20
-18.21874082559336
 10
15.40726992056868
 20
-18.26305806711335
 10
15.36702812733749
 20
-18.29025668788935
 10
15.32951488583909
 20
-18.32119186040134
 10
15.21860012686629
 20
-18.42963875729734
 10
15.1555219197695
 20
-18.50767186099338
 10
15.11399405756866
 20
-18.57553806810537
 10
15.0703459194991
 20
-18.67425255117737
 10
15.05213240219989
 20
-18.73594910309734
 10
15.03997557457511
 20
-18.79912289640137
 10
15.03397102283189
 20
-18.86125393108133
 10
15.03261543662067
 20
-18.92355875886537
 10
15.04013198836871
 20
-19.01288841432134
 10
15.06083074705508
 20
-19.10004565597737
 10
15.0902539195623
 20
-19.18146772520137
 10
15.12961805761829
 20
-19.25863186337736
 10
15.17832357501429
 20
-19.33119048429736
 10
15.23338992001668
 20
-19.39905669140935
 10
15.30699129956069
 20
-19.46909531232134
 10
15.43955198963668
 20
-19.56841807125735
 10
15.4932366794623
 20
-19.60100427825736
 10
15.54937185205431
 20
-19.62915876110534
 10
15.65086702479031
 20
-19.67008703709737
 10
15.76798619757589
 20
-19.70441117513732
 10
15.88812068071591
 20
-19.72587462348136
 10
15.98906840517428
 20
-19.73585698575803
  0
LWPOLYLINE
  5
DDF
330
D9A
100
AcDbEntity
  8
LW 3900-SECURIT-01
 62
     1
100
AcDbPolyline
 90
       76
 70
     1
 43
0.0
 10
14.84557218980261
 20
-17.39785357312635
 10
14.6701852364378
 20
-17.50003145494807
 10
14.50651644035581
 20
-17.61693773786376
 10
14.36049653389442
 20
-17.74532229957711
 10
14.22601845868159
 20
-17.88574642983966
 10
14.10786033445042
 20
-18.03698882885553
 10
14.07600150507754
 20
-18.08856979069733
 10
12.98611474046866
 20
-18.08856979069733
 10
12.84273542966871
 20
-18.09508703209732
 10
12.70587336026868
 20
-18.11463875629735
 10
12.58342742884547
 20
-18.14670358398538
 10
12.4647354284687
 20
-18.19067323929735
 10
12.36213666952231
 20
-18.24898082568935
 10
12.26704577266871
 20
-18.31884565349733
 10
12.18449404826866
 20
-18.40139737789732
 10
12.11497680666871
 20
-18.49698358509735
 10
13.88561532428808
 20
-18.49698358509735
 10
13.869016621613
 20
-18.54611574501567
 10
13.83271089993768
 20
-18.73248511628228
 10
13.82068922750839
 20
-18.92723620963719
 10
13.83273288029004
 20
-19.11752592358797
 10
13.86884468825455
 20
-19.30289987113897
 10
13.87942915552752
 20
-19.33553531189736
 10
12.15190784126871
 20
-19.33553531189736
 10
12.22359749666871
 20
-19.42025945009735
 10
12.31377873833428
 20
-19.49820565724136
 10
12.41192839381829
 20
-19.56581117469736
 10
12.51687335966868
 20
-19.62229393349733
 10
12.63201129106868
 20
-19.66791462329737
 10
12.76018370526866
 20
-19.70084841650535
 10
12.89093694706308
 20
-19.72118220967334
 10
13.02304577506866
 20
-19.72874220969734
 10
14.05150884198905
 20
-19.72874220969734
 10
14.10348007343763
 20
-19.81292685180162
 10
14.21718542818097
 20
-19.96341509651429
 10
14.34462132166531
 20
-20.10276877974277
 10
14.48853369003551
 20
-20.23255837628259
 10
14.65136658479626
 20
-20.34817661470808
 10
14.81983299096633
 20
-20.45270630763972
 10
15.00339713476875
 20
-20.54332658116246
 10
15.16394099882124
 20
-20.60639738489735
 10
13.04476991306869
 20
-20.60639738489735
 10
12.83404577446866
 20
-20.59770772969736
 10
12.62549404966869
 20
-20.57163876409735
 10
12.4256319800687
 20
-20.52819048809735
 10
12.2344595656687
 20
-20.47170772929738
 10
12.05381032371586
 20
-20.39801945320133
 10
11.87818370246872
 20
-20.31312152189733
 10
11.71742508126867
 20
-20.21536290089736
 10
11.57008068080095
 20
-20.10491738330538
 10
11.4338816320927
 20
-19.98378358981736
 10
11.3111837006687
 20
-19.85256979629733
 10
11.20473542446869
 20
-19.71136289929737
 10
11.11566645866871
 20
-19.56363876089736
 10
11.0461492170687
 20
-19.40722496729737
 10
10.99183887206867
 20
-19.24646634609738
 10
10.96142507886871
 20
-19.07919048349734
 10
10.95056300986867
 20
-18.90539737949737
 10
10.95925266506866
 20
-18.73160427549734
 10
10.98749404446867
 20
-18.56650082669736
 10
11.03745956186866
 20
-18.40574220549737
 10
11.10045956206868
 20
-18.25150082569738
 10
11.18301128646867
 20
-18.10594910109736
 10
11.28302921782067
 20
-17.96873944548937
 10
11.39429416989803
 20
-17.84048013473736
 10
11.51973542546868
 20
-17.72143185849737
 10
11.66244302592172
 20
-17.61472289264137
 10
11.8130112884687
 20
-17.51939737509732
 10
11.98028715106868
 20
-17.43684565069733
 10
12.1562526688687
 20
-17.36732840909732
 10
12.34090784186871
 20
-17.31301806409735
 10
12.5364250838687
 20
-17.27174220189735
 10
12.73845956726869
 20
-17.24567323629733
 10
12.95135611966871
 20
-17.23698358109735
 10
15.20849405786872
 20
-17.23698358109735
 10
15.02732512240292
 20
-17.30650189354352
  0
LWPOLYLINE
  5
DE0
330
D9A
100
AcDbEntity
  8
LW 3900-SECURIT-01
 62
     1
100
AcDbPolyline
 90
        6
 70
     1
 43
0.0
 10
24.48035615626871
 20
-20.60639738489735
 10
22.24276994226868
 20
-20.60639738489735
 10
22.24276994226868
 20
-17.23698358109735
 10
23.2659768420687
 20
-17.23698358109735
 10
23.2659768420687
 20
-19.73960427869733
 10
24.48035615626871
 20
-19.73960427869733
  0
LWPOLYLINE
  5
DE1
330
D9A
100
AcDbEntity
  8
LW 3900-SECURIT-01
 62
     1
100
AcDbPolyline
 90
       57
 70
     1
 43
0.0
 10
19.18895572567747
 20
-19.98126358980934
 10
19.0690993115039
 20
-19.85091876180937
 10
18.96025269046866
 20
-19.71136289929737
 10
18.87335613846868
 20
-19.56363876089736
 10
18.80166648306867
 20
-19.40722496729737
 10
18.74952855186869
 20
-19.24646634609738
 10
18.71694234486868
 20
-19.07919048349734
 10
18.7060802758687
 20
-18.90539737949737
 10
18.71694234486868
 20
-18.73160427549734
 10
18.74952855186869
 20
-18.56432841289737
 10
18.79949406926867
 20
-18.40356979169738
 10
18.87118372466868
 20
-18.24932841189732
 10
18.95590786286867
 20
-18.10377668729737
 10
19.06018372526868
 20
-17.96474220409734
 10
19.18024869116708
 20
-17.83596151403336
 10
19.31480800193911
 20
-17.71673944468935
 10
19.46488703689827
 20
-17.60724978916934
 10
19.6237078649887
 20
-17.51079461644937
 10
19.79011476206868
 20
-17.42815599549735
 10
19.97476993506869
 20
-17.35646634009734
 10
20.1637699356687
 20
-17.30215599509736
 10
20.36145959146869
 20
-17.26088013289737
 10
20.56783890246867
 20
-17.23263875349735
 10
20.7785630410687
 20
-17.22394909829737
 10
22.01249407946868
 20
-17.22394909829737
 10
22.01249407946868
 20
-18.04946634229733
 10
20.77204579966871
 20
-18.04946634229733
 10
20.62866648886869
 20
-18.05815599749732
 10
20.49397683326866
 20
-18.08526772172135
 10
20.3625023500927
 20
-18.12524013564135
 10
20.2354595910687
 20
-18.17763875649737
 10
20.12805545279672
 20
-18.24472289464134
 10
20.02690786626867
 20
-18.32101806729733
 10
19.94001131426869
 20
-18.41008703309737
 10
19.87049407266868
 20
-18.50784565409734
 10
22.01249407946868
 20
-18.50784565409734
 10
22.01249407946868
 20
-19.33553531189736
 10
19.90742510726868
 20
-19.33553531189736
 10
19.98189545233269
 20
-19.42104151906537
 10
20.06931338364471
 20
-19.50081255380135
 10
20.16637683222869
 20
-19.56841807125735
 10
20.27604028085271
 20
-19.62933255420935
 10
20.39204717777271
 20
-19.67729945091335
 10
20.51265959194869
 20
-19.71162358895336
 10
20.64491614409268
 20
-19.73360841660937
 10
20.7785630410687
 20
-19.74394910629738
 10
22.01249407946868
 20
-19.74394910629738
 10
22.01249407946868
 20
-20.60205255729735
 10
20.80245959286871
 20
-20.60205255729735
 10
20.58956304046869
 20
-20.59336290209737
 10
20.38318372946871
 20
-20.56946635029735
 10
20.18332165986867
 20
-20.52601807429736
 10
19.99214924546867
 20
-20.46953531549732
 10
19.80749407246866
 20
-20.39567324629738
 10
19.63370096846869
 20
-20.31094910809733
 10
19.4729423472687
 20
-20.21319048709736
 10
19.3253833123175
 20
-20.10257117640137
  0
HATCH
  5
1250
330
D9A
100
AcDbEntity
  8
LW 3900-SECURIT-01
 62
     8
100
AcDbHatch
 10
0.0
 20
0.0
 30
0.0
210
0.0
220
0.0
230
1.0
  2
ANSI31
 70
     0
 71
     0
 91
        1
 92
        7
 72
     1
 73
     1
 93
       49
 10
24.79289321881345
 20
23.00000000000002
 42
-0.1989123673796524
 10
25.14644660940672
 20
22.85355339059328
 42
0.0
 10
27.85355339059326
 20
20.14644660940669
 42
-0.1989123673796594
 10
28.0
 20
19.79289321881345
 42
0.0
 10
28.00000000000002
 20
9.000000000000028
 42
0.0
 10
30.0
 20
9.000000000000028
 42
0.0
 10
31.0
 20
8.0
 42
0.0
 10
31.0
 20
6.053000000000026
 42
0.0
 10
12.0
 20
6.053000000000025
 42
0.0
 10
8.505298820595195
 20
-0.0000000000000054
 42
0.0
 10
12.00000000000001
 20
-6.052999999999993
 42
0.0
 10
31.00000000000003
 20
-6.052999999999995
 42
0.0
 10
31.00000000000003
 20
-7.999999999999945
 42
0.0
 10
30.0
 20
-8.999999999999998
 42
0.0
 10
28.00000000000002
 20
-9.0
 42
0.0
 10
28.00000000000003
 20
-19.79289321881345
 42
-0.1989123673796773
 10
27.85355339059328
 20
-20.14644660940672
 42
0.0
 10
25.14644660940675
 20
-22.85355339059325
 42
-0.198912367379654
 10
24.79289321881348
 20
-23.0
 42
0.0
 10
12.00000000000003
 20
-23.0
 42
0.0
 10
12.00000000000003
 20
-22.0
 42
0.0
 10
10.00000000000001
 20
-22.0
 42
0.0
 10
10.00000000000001
 20
-11.0
 42
0.0
 10
5.000000000000013
 20
-11.0
 42
0.0
 10
0.0000000000000142
 20
-16.0
 42
0.0
 10
0.0000000000000109
 20
-8.5
 42
0.0
 10
4.000000000000014
 20
-8.5
 42
0.0
 10
4.000000000000014
 20
-5.500000000000028
 42
0.0
 10
0.0000000000000095
 20
-5.500000000000028
 42
0.0
 10
0.0000000000000076
 20
-1.199999999999999
 42
-0.4142135623730969
 10
-1.199999999999999
 20
0.0
 42
-0.4142135623730951
 10
0.0
 20
1.199999999999999
 42
0.0
 10
0.0
 20
1.799999999999999
 42
0.0
 10
0.0000000000000047
 20
5.5
 42
0.0
 10
4.000000000000007
 20
5.5
 42
0.0
 10
4.866025403784448
 20
6.999999999999972
 42
0.0
 10
4.000000000000007
 20
8.499999999999998
 42
0.0
 10
0.0000000000000033
 20
8.5
 42
0.0
 10
0.0
 20
16.0
 42
0.0
 10
5.0
 20
11.0
 42
0.0
 10
10.00000000000001
 20
11.0
 42
0.0
 10
10.0
 20
21.99999999999997
 42
0.0
 10
12.0
 20
21.99999999999997
 42
0.0
 10
12.0
 20
23.0
 42
0.0
 10
18.5
 20
23.0
 42
0.0
 10
18.5
 20
16.99999999999997
 42
0.0
 10
21.0
 20
15.55662432702593
 42
0.0
 10
23.5
 20
16.99999999999997
 42
0.0
 10
23.49999904632561
 20
23.0
 42
0.0
 97
        0
 75
     0
 76
     1
 52
0.0
 41
0.75
 77
     0
 78
     1
 53
45.0
 43
0.0
 44
0.0
 45
-1.683798022700465
 46
1.683798022700466
 79
     0
 47
0.0779102847543925
 98
        1
 10
24.27737684713236
 20
12.48092516995223
1001
ACAD
1010
0.0
1020
0.0
1030
0.0
  0
LINE
  5
1251
330
D9A
100
AcDbEntity
  8
LW 3900-SECURIT-01
 48
0.0
100
AcDbLine
 10
4.000000000000007
 20
8.5
 30
0.0
 11
4.000000000000007
 21
5.5
 31
0.0
  0
LINE
  5
1252
330
D9A
100
AcDbEntity
  8
LW 3900-SECURIT-01
 48
0.0
100
AcDbLine
 10
12.00000000000001
 20
6.053000000000024
 30
0.0
 11
12.00000000000001
 21
-6.052999999999994
 31
0.0
  0
LINE
  5
1253
330
D9A
100
AcDbEntity
  8
LW 3900-SECURIT-01
 48
0.0
100
AcDbLine
 10
18.5
 20
16.99999999999997
 30
0.0
 11
23.5
 21
16.99999999999997
 31
0.0
  0
LINE
  5
1338
330
D9A
100
AcDbEntity
  8
LW 3900-SECURIT-01
 62
     3
100
AcDbLine
 10
14.00000000000001
 20
-6.999999999999971
 30
0.0
 11
14.00000000000001
 21
7.0
 31
0.0
  0
ENDBLK
  5
D9F
330
D9A
100
AcDbEntity
  8
0
100
AcDbBlockEnd
  0
BLOCK
  5
DE7
330
DE3
100
AcDbEntity
  8
0
100
AcDbBlockBegin
  2
LW 3900-12-01
 70
     0
 10
0.0
 20
0.0
 30
0.0
  3
LW 3900-12-01
  1

  0
LINE
  5
DE9
330
DE3
100
AcDbEntity
  8
LW 3900-SECURIT-01
 62
     3
100
AcDbLine
 10
16.00000000000002
 20
6.999999999999992
 30
0.0
 11
33.0
 21
7.0
 31
0.0
  0
LINE
  5
DEB
330
DE3
100
AcDbEntity
  8
LW 3900-SECURIT-01
 62
     3
100
AcDbLine
 10
33.0
 20
-6.999999999999971
 30
0.0
 11
16.00000000000003
 21
-6.999999999999971
 31
0.0
  0
LINE
  5
DEC
330
DE3
100
AcDbEntity
  8
LW 3900-SECURIT-01
 62
     3
100
AcDbLine
 10
16.00000000000002
 20
6.999999999999992
 30
0.0
 11
16.00000000000004
 21
-6.999999999999957
 31
0.0
  0
LINE
  5
DED
330
DE3
100
AcDbEntity
  8
LW 3900-SECURIT-01
 48
0.0
100
AcDbLine
 10
14.00000000000003
 20
-6.052999999999997
 30
0.0
 11
14.00000000000003
 21
6.053000000000032
 31
0.0
  0
LINE
  5
DEE
330
DE3
100
AcDbEntity
  8
LW 3900-SECURIT-01
 48
0.0
100
AcDbLine
 10
4.000000000000007
 20
8.499999999999971
 30
0.0
 11
4.000000000000007
 21
5.5
 31
0.0
  0
LINE
  5
DEF
330
DE3
100
AcDbEntity
  8
LW 3900-SECURIT-01
 48
0.0
100
AcDbLine
 10
4.000000000000014
 20
-5.500000000000028
 30
0.0
 11
4.000000000000014
 21
-8.5
 31
0.0
  0
LWPOLYLINE
  5
DF0
330
DE3
100
AcDbEntity
  8
LW 3900-SECURIT-01
 48
0.0
100
AcDbPolyline
 90
       25
 70
     0
 43
0.0
 10
20.50000023841858
 20
22.99999952316284
 10
20.52101802825928
 20
22.99768447875977
 10
20.5843563079834
 20
22.99094438552856
 10
20.69044423103333
 20
22.98007965087891
 10
20.83832931518555
 20
22.96570539474487
 10
21.02153968811035
 20
22.94918775558472
 10
21.23223614692688
 20
22.93196439743042
 10
21.47257995605469
 20
22.91472673416138
 10
21.74519848823547
 20
22.89817333221435
 10
22.04294872283936
 20
22.88374900817871
 10
22.35811901092529
 20
22.87283420562744
 10
22.68067312240601
 20
22.86605596542358
 10
22.99999904632568
 20
22.86372661590576
 10
23.31932497024536
 20
22.86605596542358
 10
23.64188146591187
 20
22.87283420562744
 10
23.9570517539978
 20
22.88374900817871
 10
24.25480318069458
 20
22.89817333221435
 10
24.52742052078247
 20
22.91472673416138
 10
24.76776313781738
 20
22.93196439743042
 10
24.97846078872681
 20
22.94918775558472
 10
25.16167116165161
 20
22.96570539474487
 10
25.30955505371094
 20
22.98007965087891
 10
25.41564416885376
 20
22.99094438552856
 10
25.47898244857788
 20
22.99768447875977
 10
25.49999904632568
 20
22.99999952316284
  0
LINE
  5
DF1
330
DE3
100
AcDbEntity
  8
LW 3900-SECURIT-01
 48
0.0
100
AcDbLine
 10
25.5
 20
16.99999999999997
 30
0.0
 11
20.5
 21
16.99999999999997
 31
0.0
  0
LINE
  5
DF2
330
DE3
100
AcDbEntity
  8
LW 3900-SECURIT-01
 48
0.0
100
AcDbLine
 10
0.0000000000000142
 20
-5.500000000000028
 30
0.0
 11
4.000000000000014
 21
-5.500000000000028
 31
0.0
  0
LINE
  5
DF3
330
DE3
100
AcDbEntity
  8
LW 3900-SECURIT-01
 48
0.0
100
AcDbLine
 10
4.000000000000007
 20
5.5
 30
0.0
 11
0.0
 21
5.5
 31
0.0
  0
LINE
  5
DF4
330
DE3
100
AcDbEntity
  8
LW 3900-SECURIT-01
 48
0.0
100
AcDbLine
 10
4.866025403784448
 20
6.999999999999971
 30
0.0
 11
4.000000000000007
 21
5.5
 31
0.0
  0
LINE
  5
DF5
330
DE3
100
AcDbEntity
  8
LW 3900-SECURIT-01
 48
0.0
100
AcDbLine
 10
4.000000000000007
 20
8.5
 30
0.0
 11
4.866025403784448
 21
6.999999999999971
 31
0.0
  0
LINE
  5
DF6
330
DE3
100
AcDbEntity
  8
LW 3900-SECURIT-01
 48
0.0
100
AcDbLine
 10
0.0
 20
8.5
 30
0.0
 11
4.000000000000007
 21
8.5
 31
0.0
  0
LINE
  5
DF7
330
DE3
100
AcDbEntity
  8
LW 3900-SECURIT-01
 48
0.0
100
AcDbLine
 10
5.0
 20
11.0
 30
0.0
 11
0.0
 21
16.0
 31
0.0
  0
LINE
  5
DF8
330
DE3
100
AcDbEntity
  8
LW 3900-SECURIT-01
 48
0.0
100
AcDbLine
 10
12.0
 20
11.0
 30
0.0
 11
5.0
 21
11.0
 31
0.0
  0
LINE
  5
DF9
330
DE3
100
AcDbEntity
  8
LW 3900-SECURIT-01
 48
0.0
100
AcDbLine
 10
12.0
 20
21.99999999999997
 30
0.0
 11
12.00000000000001
 21
11.0
 31
0.0
  0
LINE
  5
DFA
330
DE3
100
AcDbEntity
  8
LW 3900-SECURIT-01
 48
0.0
100
AcDbLine
 10
14.0
 20
21.99999999999997
 30
0.0
 11
12.00000000000001
 21
21.99999999999997
 31
0.0
  0
LINE
  5
DFB
330
DE3
100
AcDbEntity
  8
LW 3900-SECURIT-01
 48
0.0
100
AcDbLine
 10
14.0
 20
23.0
 30
0.0
 11
14.0
 21
21.99999999999997
 31
0.0
  0
LINE
  5
DFC
330
DE3
100
AcDbEntity
  8
LW 3900-SECURIT-01
 48
0.0
100
AcDbLine
 10
20.5
 20
23.0
 30
0.0
 11
14.0
 21
23.0
 31
0.0
  0
LINE
  5
DFD
330
DE3
100
AcDbEntity
  8
LW 3900-SECURIT-01
 48
0.0
100
AcDbLine
 10
20.5
 20
16.99999999999997
 30
0.0
 11
20.5
 21
23.0
 31
0.0
  0
LINE
  5
DFE
330
DE3
100
AcDbEntity
  8
LW 3900-SECURIT-01
 48
0.0
100
AcDbLine
 10
23.0
 20
15.55662432702593
 30
0.0
 11
20.5
 21
16.99999999999997
 31
0.0
  0
LINE
  5
DFF
330
DE3
100
AcDbEntity
  8
LW 3900-SECURIT-01
 48
0.0
100
AcDbLine
 10
25.5
 20
16.99999999999997
 30
0.0
 11
23.0
 21
15.55662432702593
 31
0.0
  0
LINE
  5
E00
330
DE3
100
AcDbEntity
  8
LW 3900-SECURIT-01
 48
0.0
100
AcDbLine
 10
25.5
 20
23.0
 30
0.0
 11
25.5
 21
16.99999999999997
 31
0.0
  0
LINE
  5
E01
330
DE3
100
AcDbEntity
  8
LW 3900-SECURIT-01
 48
0.0
100
AcDbLine
 10
26.79289321881345
 20
23.0
 30
0.0
 11
25.5
 21
23.0
 31
0.0
  0
ARC
  5
E02
330
DE3
100
AcDbEntity
  8
LW 3900-SECURIT-01
 48
0.0
100
AcDbCircle
 10
26.79289321881345
 20
22.5
 30
0.0
 40
0.5000000000000242
100
AcDbArc
 50
45.00000000000159
 51
90.0
  0
LINE
  5
E03
330
DE3
100
AcDbEntity
  8
LW 3900-SECURIT-01
 48
0.0
100
AcDbLine
 10
29.85355339059326
 20
20.14644660940669
 30
0.0
 11
27.14644660940673
 21
22.85355339059328
 31
0.0
  0
ARC
  5
E04
330
DE3
100
AcDbEntity
  8
LW 3900-SECURIT-01
 48
0.0
100
AcDbCircle
 10
29.50000000000003
 20
19.79289321881345
 30
0.0
 40
0.4999999999999716
100
AcDbArc
 50
0.0
 51
45.00000000000448
  0
LINE
  5
E05
330
DE3
100
AcDbEntity
  8
LW 3900-SECURIT-01
 48
0.0
100
AcDbLine
 10
30.00000000000002
 20
8.999999999999971
 30
0.0
 11
30.0
 21
19.79289321881345
 31
0.0
  0
LINE
  5
E06
330
DE3
100
AcDbEntity
  8
LW 3900-SECURIT-01
 48
0.0
100
AcDbLine
 10
32.0
 20
9.000000000000028
 30
0.0
 11
30.0
 21
9.000000000000028
 31
0.0
  0
LINE
  5
E07
330
DE3
100
AcDbEntity
  8
LW 3900-SECURIT-01
 48
0.0
100
AcDbLine
 10
33.0
 20
8.0
 30
0.0
 11
32.0
 21
9.000000000000028
 31
0.0
  0
LINE
  5
E08
330
DE3
100
AcDbEntity
  8
LW 3900-SECURIT-01
 48
0.0
100
AcDbLine
 10
14.00000000000002
 20
6.053000000000018
 30
0.0
 11
33.0
 21
6.053000000000025
 31
0.0
  0
LINE
  5
E09
330
DE3
100
AcDbEntity
  8
LW 3900-SECURIT-01
 48
0.0
100
AcDbLine
 10
10.50529882059521
 20
-0.0000000000000142
 30
0.0
 11
14.00000000000002
 21
6.053000000000018
 31
0.0
  0
LINE
  5
E0A
330
DE3
100
AcDbEntity
  8
LW 3900-SECURIT-01
 48
0.0
100
AcDbLine
 10
14.00000000000003
 20
-6.052999999999997
 30
0.0
 11
10.5052988205952
 21
0.0
 31
0.0
  0
LINE
  5
E0B
330
DE3
100
AcDbEntity
  8
LW 3900-SECURIT-01
 48
0.0
100
AcDbLine
 10
33.0
 20
-6.052999999999997
 30
0.0
 11
14.00000000000003
 21
-6.052999999999997
 31
0.0
  0
LINE
  5
E0C
330
DE3
100
AcDbEntity
  8
LW 3900-SECURIT-01
 48
0.0
100
AcDbLine
 10
33.00000000000003
 20
-8.000000000000028
 30
0.0
 11
33.0
 21
8.0
 31
0.0
  0
LINE
  5
E0D
330
DE3
100
AcDbEntity
  8
LW 3900-SECURIT-01
 48
0.0
100
AcDbLine
 10
32.0
 20
-9.0
 30
0.0
 11
33.0
 21
-7.999999999999971
 31
0.0
  0
LINE
  5
E0E
330
DE3
100
AcDbEntity
  8
LW 3900-SECURIT-01
 48
0.0
100
AcDbLine
 10
30.0
 20
-9.0
 30
0.0
 11
32.0
 21
-9.0
 31
0.0
  0
LINE
  5
E0F
330
DE3
100
AcDbEntity
  8
LW 3900-SECURIT-01
 48
0.0
100
AcDbLine
 10
30.00000000000003
 20
-19.79289321881345
 30
0.0
 11
30.00000000000002
 21
-9.0
 31
0.0
  0
ARC
  5
E10
330
DE3
100
AcDbEntity
  8
LW 3900-SECURIT-01
 48
0.0
100
AcDbCircle
 10
29.50000000000004
 20
-19.79289321881347
 30
0.0
 40
0.4999999999999708
100
AcDbArc
 50
314.9999999999984
 51
0.0
  0
LINE
  5
E11
330
DE3
100
AcDbEntity
  8
LW 3900-SECURIT-01
 48
0.0
100
AcDbLine
 10
27.14644660940675
 20
-22.85355339059325
 30
0.0
 11
29.85355339059328
 21
-20.14644660940672
 31
0.0
  0
ARC
  5
E12
330
DE3
100
AcDbEntity
  8
LW 3900-SECURIT-01
 48
0.0
100
AcDbCircle
 10
26.79289321881348
 20
-22.49999999999997
 30
0.0
 40
0.5000000000000249
100
AcDbArc
 50
270.0
 51
314.9999999999984
  0
LINE
  5
E13
330
DE3
100
AcDbEntity
  8
LW 3900-SECURIT-01
 48
0.0
100
AcDbLine
 10
14.00000000000003
 20
-23.0
 30
0.0
 11
26.79289321881348
 21
-23.0
 31
0.0
  0
LINE
  5
E14
330
DE3
100
AcDbEntity
  8
LW 3900-SECURIT-01
 48
0.0
100
AcDbLine
 10
14.00000000000003
 20
-22.0
 30
0.0
 11
14.00000000000003
 21
-23.0
 31
0.0
  0
LINE
  5
E15
330
DE3
100
AcDbEntity
  8
LW 3900-SECURIT-01
 48
0.0
100
AcDbLine
 10
12.00000000000003
 20
-22.0
 30
0.0
 11
14.00000000000003
 21
-22.0
 31
0.0
  0
LINE
  5
E16
330
DE3
100
AcDbEntity
  8
LW 3900-SECURIT-01
 48
0.0
100
AcDbLine
 10
12.00000000000001
 20
-11.0
 30
0.0
 11
12.00000000000001
 21
-22.0
 31
0.0
  0
LINE
  5
E17
330
DE3
100
AcDbEntity
  8
LW 3900-SECURIT-01
 48
0.0
100
AcDbLine
 10
5.000000000000014
 20
-11.0
 30
0.0
 11
12.00000000000001
 21
-11.0
 31
0.0
  0
LINE
  5
E18
330
DE3
100
AcDbEntity
  8
LW 3900-SECURIT-01
 48
0.0
100
AcDbLine
 10
0.0000000000000142
 20
-16.0
 30
0.0
 11
5.000000000000014
 21
-11.0
 31
0.0
  0
LINE
  5
E19
330
DE3
100
AcDbEntity
  8
LW 3900-SECURIT-01
 48
0.0
100
AcDbLine
 10
0.0
 20
16.0
 30
0.0
 11
0.0000000000000142
 21
-16.0
 31
0.0
  0
LINE
  5
E1A
330
DE3
100
AcDbEntity
  8
LW 3900-SECURIT-01
 48
0.0
100
AcDbLine
 10
4.000000000000014
 20
-8.5
 30
0.0
 11
0.0000000000000142
 21
-8.5
 31
0.0
  0
LINE
  5
E1B
330
DE3
100
AcDbEntity
  8
LW 3900-SECURIT-01
 48
0.0
100
AcDbLine
 10
4.866025403784448
 20
-7.0
 30
0.0
 11
4.000000000000007
 21
-8.5
 31
0.0
  0
LINE
  5
E1C
330
DE3
100
AcDbEntity
  8
LW 3900-SECURIT-01
 48
0.0
100
AcDbLine
 10
4.000000000000007
 20
-5.500000000000028
 30
0.0
 11
4.866025403784448
 21
-7.0
 31
0.0
  0
INSERT
  5
E1D
330
DE3
100
AcDbEntity
  8
insertpoint_ECKELT
100
AcDbBlockReference
 66
     1
  2
insertpoint-ECKELT
 10
0.0
 20
0.0
 30
0.0
  0
ATTRIB
  5
15BA
330
E1D
100
AcDbEntity
  8
insertpoint_ECKELT
100
AcDbText
 10
-6.931514324693059
 20
-0.0000000000000284
 30
0.0
 40
0.6
  1
LW 3900/12-01
 72
     2
 11
-1.200000000000017
 21
-0.0000000000000284
 31
0.0
100
AcDbAttribute
  2
LINKS
 70
     0
  0
ATTRIB
  5
15BB
330
E1D
100
AcDbEntity
  8
insertpoint_ECKELT
100
AcDbText
 10
1.199999999999988
 20
-0.0000000000000284
 30
0.0
 40
0.6
  1

100
AcDbAttribute
  2
RECHTS
 70
     0
  0
SEQEND
  5
15BC
330
E1D
100
AcDbEntity
  8
insertpoint_ECKELT
  0
LINE
  5
E21
330
DE3
100
AcDbEntity
  8
LW 3900-SECURIT-01
  6
MITTE2
 62
     3
100
AcDbLine
 10
36.68236088981618
 20
0.0
 30
0.0
 11
-4.816740571937998
 21
0.0
 31
0.0
  0
LINE
  5
E22
330
DE3
100
AcDbEntity
  8
LW 3900-SECURIT-01
  6
MITTE2
 62
     3
100
AcDbLine
 10
6.06676842937054
 20
6.999999999999971
 30
0.0
 11
-2.025328589565788
 21
6.999999999999971
 31
0.0
  0
LINE
  5
E23
330
DE3
100
AcDbEntity
  8
LW 3900-SECURIT-01
  6
MITTE2
 62
     3
100
AcDbLine
 10
6.06676842937054
 20
-6.999999999999971
 30
0.0
 11
-2.025328589565788
 21
-6.999999999999971
 31
0.0
  0
LINE
  5
E24
330
DE3
100
AcDbEntity
  8
LW 3900-SECURIT-01
  6
MITTE2
 62
     3
100
AcDbLine
 10
23.0
 20
13.27820912973922
 30
0.0
 11
23.0
 21
25.1521294245251
 31
0.0
  0
HATCH
  5
E25
330
DE3
100
AcDbEntity
  8
LW 3900-SECURIT-01
 62
     1
100
AcDbHatch
 10
0.0
 20
0.0
 30
0.0
210
0.0
220
0.0
230
1.0
  2
SOLID
 70
     1
 71
     0
 91
        5
 92
        7
 72
     0
 73
     1
 93
       76
 10
16.07600150507754
 20
-18.08856979069733
 10
16.10786033445036
 20
-18.03698882885564
 10
16.22601845868165
 20
-17.8857464298396
 10
16.36049653389442
 20
-17.74532229957711
 10
16.50651644035586
 20
-17.61693773786376
 10
16.67018523643786
 20
-17.50003145494807
 10
16.84557218980261
 20
-17.39785357312635
 10
17.02732512240293
 20
-17.30650189354352
 10
17.20849405786866
 20
-17.23698358109735
 10
14.9513561196686
 20
-17.23698358109735
 10
14.73845956726863
 20
-17.24567323629733
 10
14.53642508386865
 20
-17.27174220189735
 10
14.34090784186865
 20
-17.31301806409735
 10
14.15625266886876
 20
-17.36732840909732
 10
13.98028715106862
 20
-17.43684565069733
 10
13.8130112884687
 20
-17.51939737509738
 10
13.66244302592177
 20
-17.61472289264125
 10
13.51973542546874
 20
-17.72143185849737
 10
13.39429416989809
 20
-17.84048013473742
 10
13.28302921782067
 20
-17.96873944548932
 10
13.18301128646872
 20
-18.10594910109731
 10
13.10045956206868
 20
-18.25150082569732
 10
13.03745956186866
 20
-18.40574220549749
 10
12.98749404446873
 20
-18.56650082669725
 10
12.95925266506872
 20
-18.73160427549734
 10
12.95056300986867
 20
-18.90539737949731
 10
12.96142507886871
 20
-19.0791904834974
 10
12.99183887206867
 20
-19.24646634609738
 10
13.0461492170687
 20
-19.40722496729737
 10
13.11566645866865
 20
-19.56363876089736
 10
13.20473542446875
 20
-19.71136289929743
 10
13.31118370066865
 20
-19.85256979629733
 10
13.43388163209271
 20
-19.98378358981736
 10
13.5700806808009
 20
-20.10491738330532
 10
13.71742508126867
 20
-20.21536290089736
 10
13.87818370246872
 20
-20.31312152189733
 10
14.05381032371592
 20
-20.39801945320133
 10
14.23445956566864
 20
-20.47170772929732
 10
14.42563198006876
 20
-20.52819048809735
 10
14.62549404966869
 20
-20.57163876409735
 10
14.83404577446866
 20
-20.59770772969736
 10
15.04476991306863
 20
-20.60639738489735
 10
17.16394099882124
 20
-20.60639738489735
 10
17.00339713476874
 20
-20.54332658116246
 10
16.81983299096633
 20
-20.45270630763972
 10
16.65136658479626
 20
-20.34817661470808
 10
16.48853369003551
 20
-20.23255837628264
 10
16.34462132166531
 20
-20.10276877974277
 10
16.21718542818097
 20
-19.96341509651429
 10
16.10348007343764
 20
-19.81292685180168
 10
16.05150884198905
 20
-19.72874220969734
 10
15.02304577506867
 20
-19.72874220969734
 10
14.89093694706308
 20
-19.72118220967334
 10
14.76018370526866
 20
-19.70084841650535
 10
14.63201129106873
 20
-19.66791462329737
 10
14.51687335966868
 20
-19.62229393349733
 10
14.41192839381828
 20
-19.56581117469736
 10
14.31377873833428
 20
-19.49820565724136
 10
14.22359749666872
 20
-19.42025945009735
 10
14.15190784126871
 20
-19.33553531189736
 10
15.87942915552751
 20
-19.33553531189736
 10
15.8688446882545
 20
-19.30289987113903
 10
15.83273288029004
 20
-19.11752592358792
 10
15.82068922750834
 20
-18.92723620963719
 10
15.83271089993768
 20
-18.73248511628222
 10
15.869016621613
 20
-18.54611574501567
 10
15.88561532428808
 20
-18.49698358509735
 10
14.11497680666871
 20
-18.49698358509735
 10
14.18449404826866
 20
-18.40139737789744
 10
14.26704577266865
 20
-18.31884565349733
 10
14.36213666952226
 20
-18.24898082568935
 10
14.4647354284687
 20
-18.19067323929735
 10
14.58342742884546
 20
-18.14670358398538
 10
14.70587336026874
 20
-18.11463875629735
 10
14.8427354296687
 20
-18.09508703209738
 10
14.98611474046872
 20
-18.08856979069733
 97
        0
 92
        7
 72
     0
 73
     1
 93
       72
 10
17.80446537010549
 20
-18.10316841143336
 10
17.92732840497829
 20
-18.08509392861734
 10
18.05139061226872
 20
-18.07988013549735
 10
19.32008027146871
 20
-18.07988013549735
 10
18.47283888946866
 20
-18.89453531049733
 10
20.23901130886871
 20
-20.61291462629734
 10
21.55766648546869
 20
-20.61291462629734
 10
19.84363199726867
 20
-18.87063875869737
 10
21.52508027846868
 20
-17.23698358109735
 10
18.08614923306878
 20
-17.23698358109735
 10
17.87816233585663
 20
-17.24775875354535
 10
17.67144412830383
 20
-17.27321944328136
 10
17.46701130006873
 20
-17.31301806409735
 10
17.27366647186868
 20
-17.36950082289738
 10
17.08683888506867
 20
-17.44119047829733
 10
16.91567874659419
 20
-17.52721806477737
 10
16.75011474606872
 20
-17.6236732374974
 10
16.59804578006871
 20
-17.73229392749735
 10
16.46234812446555
 20
-17.85160289339333
 10
16.3373561240687
 20
-17.98212151449738
 10
16.22873543406864
 20
-18.1211559976974
 10
16.13749405446872
 20
-18.26888013609724
 10
16.06580439906871
 20
-18.42312151589729
 10
16.01149405406868
 20
-18.58388013709734
 10
15.97890784706872
 20
-18.75115599969731
 10
15.96804577806868
 20
-18.92712151749745
 10
15.97890784706867
 20
-19.09874220769737
 10
16.01149405406868
 20
-19.26601807029735
 10
16.06363198526866
 20
-19.42677669149734
 10
16.13314922686867
 20
-19.58101807129733
 10
16.22499019267745
 20
-19.7297849683213
 10
16.3303696412879
 20
-19.86925393428143
 10
16.44837515890388
 20
-19.9982953140013
 10
16.58066646966868
 20
-20.11760427989734
 10
16.7327875735999
 20
-20.22561669403339
 10
16.89132164306873
 20
-20.32398359089737
 10
17.06294233326871
 20
-20.40870772909736
 10
17.24542509246866
 20
-20.48039738449737
 10
17.43965626549912
 20
-20.53444703984135
 10
17.63645957646865
 20
-20.57815600549734
 10
17.84501130126874
 20
-20.60422497109735
 10
18.05573543986865
 20
-20.61291462629734
 10
19.95876992866867
 20
-20.61291462629734
 10
19.07242509826868
 20
-19.73960427869733
 10
18.05573543986865
 20
-19.73960427869733
 10
17.98906840517416
 20
-19.73585698575803
 10
17.88812068071591
 20
-19.72587462348136
 10
17.76798619757589
 20
-19.70441117513738
 10
17.65086702479031
 20
-19.67008703709737
 10
17.5493718520543
 20
-19.62915876110534
 10
17.49323667946224
 20
-19.60100427825731
 10
17.43955198963663
 20
-19.5684180712573
 10
17.30699129956069
 20
-19.46909531232134
 10
17.23338992001667
 20
-19.39905669140935
 10
17.1783235750144
 20
-19.33119048429742
 10
17.12961805761828
 20
-19.25863186337736
 10
17.09025391956224
 20
-19.18146772520137
 10
17.06083074705508
 20
-19.10004565597742
 10
17.04013198836866
 20
-19.01288841432134
 10
17.03261543662067
 20
-18.92355875886542
 10
17.03397102283189
 20
-18.86125393108139
 10
17.03997557457511
 20
-18.79912289640148
 10
17.05213240219989
 20
-18.73594910309734
 10
17.0703459194991
 20
-18.67425255117737
 10
17.11399405756866
 20
-18.57553806810543
 10
17.1555219197695
 20
-18.50767186099338
 10
17.21860012686629
 20
-18.42963875729734
 10
17.34800206723109
 20
-18.30311602024372
 10
17.40726992056873
 20
-18.26305806711335
 10
17.48356509322467
 20
-18.21874082559341
 10
17.56758536935346
 20
-18.17659599787336
 10
17.68412233524064
 20
-18.13375599773738
 97
        0
 92
        7
 72
     0
 73
     1
 93
       57
 10
22.36250235009276
 20
-18.12524013564135
 10
22.49397683326872
 20
-18.08526772172135
 10
22.62866648886863
 20
-18.05815599749732
 10
22.77204579966859
 20
-18.04946634229733
 10
24.01249407946868
 20
-18.04946634229733
 10
24.01249407946868
 20
-17.22394909829737
 10
22.77856304106875
 20
-17.22394909829737
 10
22.56783890246872
 20
-17.23263875349735
 10
22.36145959146874
 20
-17.26088013289731
 10
22.16376993566875
 20
-17.30215599509731
 10
21.97476993506875
 20
-17.35646634009734
 10
21.7901147620688
 20
-17.42815599549735
 10
21.62370786498853
 20
-17.51079461644937
 10
21.46488703689822
 20
-17.6072497891694
 10
21.31480800193911
 20
-17.71673944468935
 10
21.1802486911672
 20
-17.8359615140333
 10
21.06018372526874
 20
-17.96474220409734
 10
20.95590786286873
 20
-18.10377668729737
 10
20.87118372466868
 20
-18.24932841189738
 10
20.79949406926868
 20
-18.40356979169738
 10
20.74952855186869
 20
-18.56432841289725
 10
20.71694234486868
 20
-18.73160427549729
 10
20.7060802758687
 20
-18.90539737949731
 10
20.71694234486868
 20
-19.07919048349734
 10
20.74952855186869
 20
-19.24646634609738
 10
20.80166648306867
 20
-19.40722496729737
 10
20.87335613846868
 20
-19.56363876089736
 10
20.96025269046872
 20
-19.71136289929737
 10
21.06909931150385
 20
-19.85091876180937
 10
21.18895572567748
 20
-19.98126358980934
 10
21.3253833123175
 20
-20.10257117640137
 10
21.4729423472687
 20
-20.21319048709736
 10
21.63370096846869
 20
-20.31094910809739
 10
21.80749407246866
 20
-20.39567324629738
 10
21.99214924546867
 20
-20.46953531549732
 10
22.18332165986872
 20
-20.52601807429736
 10
22.38318372946865
 20
-20.56946635029735
 10
22.58956304046869
 20
-20.59336290209737
 10
22.80245959286872
 20
-20.60205255729735
 10
24.01249407946868
 20
-20.60205255729735
 10
24.01249407946868
 20
-19.74394910629738
 10
22.77856304106864
 20
-19.74394910629738
 10
22.64491614409267
 20
-19.73360841660937
 10
22.51265959194869
 20
-19.71162358895336
 10
22.39204717777271
 20
-19.67729945091335
 10
22.27604028085271
 20
-19.62933255420935
 10
22.16637683222869
 20
-19.56841807125735
 10
22.06931338364471
 20
-19.50081255380135
 10
21.98189545233269
 20
-19.42104151906537
 10
21.90742510726868
 20
-19.33553531189736
 10
24.01249407946868
 20
-19.33553531189736
 10
24.01249407946868
 20
-18.50784565409734
 10
21.87049407266868
 20
-18.50784565409734
 10
21.94001131426869
 20
-18.41008703309737
 10
22.02690786626861
 20
-18.32101806729738
 10
22.12805545279671
 20
-18.24472289464134
 10
22.2354595910687
 20
-18.17763875649737
 97
        0
 92
        7
 72
     0
 73
     1
 93
        6
 10
24.24276994226868
 20
-17.23698358109735
 10
24.24276994226868
 20
-20.60639738489735
 10
26.48035615626871
 20
-20.60639738489735
 10
26.48035615626871
 20
-19.73960427869733
 10
25.2659768420687
 20
-19.73960427869733
 10
25.2659768420687
 20
-17.23698358109735
 97
        0
 92
        7
 72
     0
 73
     1
 93
        8
 10
25.49842511866869
 20
-17.23698358109735
 10
25.49842511866869
 20
-18.06250082509737
 10
26.73235615706868
 20
-18.06250082509737
 10
26.73235615706868
 20
-20.61291462629734
 10
27.75773547066869
 20
-20.61291462629734
 10
27.75773547066869
 20
-18.06250082509737
 10
29.00035616426873
 20
-18.06250082509737
 10
29.00035616426873
 20
-17.23698358109735
 97
        0
 75
     0
 76
     1
 47
0.0142553043587597
 98
        5
 10
15.38566163114392
 20
-17.67943325068646
 10
17.65315884448647
 20
-17.82198623569226
 10
22.14537057668803
 20
-17.76496506314456
 10
24.86921966051959
 20
-17.52262483845228
 10
26.28105764274646
 20
-17.62241197086561
  0
LWPOLYLINE
  5
E26
330
DE3
100
AcDbEntity
  8
LW 3900-SECURIT-01
 62
     1
100
AcDbPolyline
 90
        8
 70
     1
 43
0.0
 10
27.75773547066869
 20
-18.06250082509737
 10
27.75773547066869
 20
-20.61291462629734
 10
26.73235615706868
 20
-20.61291462629734
 10
26.73235615706868
 20
-18.06250082509737
 10
25.49842511866869
 20
-18.06250082509737
 10
25.49842511866869
 20
-17.23698358109735
 10
29.00035616426873
 20
-17.23698358109735
 10
29.00035616426873
 20
-18.06250082509737
  0
LWPOLYLINE
  5
E27
330
DE3
100
AcDbEntity
  8
LW 3900-SECURIT-01
 62
     1
100
AcDbPolyline
 90
       73
 70
     1
 43
0.0
 10
18.05573543986871
 20
-19.73960427869733
 10
19.07242509826868
 20
-19.73960427869733
 10
19.95876992866867
 20
-20.61291462629734
 10
18.05573543986871
 20
-20.61291462629734
 10
17.84501130126868
 20
-20.60422497109735
 10
17.63645957646871
 20
-20.57815600549734
 10
17.43965626549912
 20
-20.53444703984135
 10
17.24542509246872
 20
-20.48039738449737
 10
17.06294233326871
 20
-20.40870772909736
 10
16.89132164306868
 20
-20.32398359089737
 10
16.7327875735999
 20
-20.22561669403334
 10
16.58066646966868
 20
-20.11760427989734
 10
16.44837515890388
 20
-19.99829531400135
 10
16.3303696412879
 20
-19.86925393428137
 10
16.22499019267751
 20
-19.72978496832135
 10
16.13314922686867
 20
-19.58101807129733
 10
16.06363198526866
 20
-19.42677669149734
 10
16.01149405406868
 20
-19.26601807029735
 10
15.97890784706867
 20
-19.09874220769737
 10
15.96804577806868
 20
-18.92712151749734
 10
15.97890784706867
 20
-18.75115599969737
 10
16.01149405406868
 20
-18.58388013709734
 10
16.06580439906871
 20
-18.42312151589735
 10
16.13749405446866
 20
-18.26888013609735
 10
16.22873543406869
 20
-18.12115599769734
 10
16.3373561240687
 20
-17.98212151449738
 10
16.46234812446549
 20
-17.85160289339333
 10
16.59804578006866
 20
-17.73229392749735
 10
16.75011474606866
 20
-17.62367323749734
 10
16.91567874659431
 20
-17.52721806477737
 10
17.08683888506867
 20
-17.44119047829738
 10
17.27366647186868
 20
-17.36950082289738
 10
17.46701130006868
 20
-17.31301806409735
 10
17.67144412830389
 20
-17.27321944328136
 10
17.87816233585668
 20
-17.24775875354535
 10
18.08614923306867
 20
-17.23698358109735
 10
21.52508027846868
 20
-17.23698358109735
 10
19.84363199726867
 20
-18.87063875869737
 10
21.55766648546869
 20
-20.61291462629734
 10
20.23901130886871
 20
-20.61291462629734
 10
18.47283888946866
 20
-18.89453531049733
 10
19.32008027146871
 20
-18.07988013549735
 10
18.05139061226872
 20
-18.07988013549735
 10
17.92732840497829
 20
-18.08509392861734
 10
17.80446537010549
 20
-18.10316841143336
 10
17.6841223352407
 20
-18.13375599773738
 10
17.56758536935352
 20
-18.17659599787336
 10
17.48356509322467
 20
-18.21874082559336
 10
17.40726992056868
 20
-18.26305806711335
 10
17.36702812733749
 20
-18.29025668788935
 10
17.32951488583909
 20
-18.32119186040134
 10
17.21860012686629
 20
-18.42963875729734
 10
17.1555219197695
 20
-18.50767186099338
 10
17.11399405756866
 20
-18.57553806810537
 10
17.0703459194991
 20
-18.67425255117737
 10
17.05213240219989
 20
-18.73594910309734
 10
17.03997557457511
 20
-18.79912289640137
 10
17.03397102283189
 20
-18.86125393108133
 10
17.03261543662067
 20
-18.92355875886537
 10
17.04013198836871
 20
-19.01288841432134
 10
17.06083074705508
 20
-19.10004565597737
 10
17.0902539195623
 20
-19.18146772520137
 10
17.12961805761828
 20
-19.25863186337736
 10
17.17832357501429
 20
-19.33119048429736
 10
17.23338992001667
 20
-19.39905669140935
 10
17.30699129956069
 20
-19.46909531232134
 10
17.43955198963668
 20
-19.56841807125735
 10
17.4932366794623
 20
-19.60100427825736
 10
17.5493718520543
 20
-19.62915876110534
 10
17.65086702479031
 20
-19.67008703709737
 10
17.76798619757589
 20
-19.70441117513732
 10
17.88812068071591
 20
-19.72587462348136
 10
17.98906840517428
 20
-19.73585698575803
  0
LWPOLYLINE
  5
E28
330
DE3
100
AcDbEntity
  8
LW 3900-SECURIT-01
 62
     1
100
AcDbPolyline
 90
       76
 70
     1
 43
0.0
 10
16.84557218980261
 20
-17.39785357312635
 10
16.6701852364378
 20
-17.50003145494807
 10
16.50651644035581
 20
-17.61693773786376
 10
16.36049653389442
 20
-17.74532229957711
 10
16.22601845868159
 20
-17.88574642983966
 10
16.10786033445042
 20
-18.03698882885553
 10
16.07600150507754
 20
-18.08856979069733
 10
14.98611474046866
 20
-18.08856979069733
 10
14.8427354296687
 20
-18.09508703209732
 10
14.70587336026868
 20
-18.11463875629735
 10
14.58342742884546
 20
-18.14670358398538
 10
14.4647354284687
 20
-18.19067323929735
 10
14.36213666952231
 20
-18.24898082568935
 10
14.26704577266871
 20
-18.31884565349733
 10
14.18449404826866
 20
-18.40139737789732
 10
14.11497680666871
 20
-18.49698358509735
 10
15.88561532428808
 20
-18.49698358509735
 10
15.869016621613
 20
-18.54611574501567
 10
15.83271089993768
 20
-18.73248511628228
 10
15.82068922750839
 20
-18.92723620963719
 10
15.83273288029004
 20
-19.11752592358797
 10
15.86884468825455
 20
-19.30289987113897
 10
15.87942915552751
 20
-19.33553531189736
 10
14.15190784126871
 20
-19.33553531189736
 10
14.22359749666872
 20
-19.42025945009735
 10
14.31377873833428
 20
-19.49820565724136
 10
14.41192839381828
 20
-19.56581117469736
 10
14.51687335966868
 20
-19.62229393349733
 10
14.63201129106868
 20
-19.66791462329737
 10
14.76018370526866
 20
-19.70084841650535
 10
14.89093694706308
 20
-19.72118220967334
 10
15.02304577506867
 20
-19.72874220969734
 10
16.05150884198905
 20
-19.72874220969734
 10
16.10348007343764
 20
-19.81292685180162
 10
16.21718542818097
 20
-19.96341509651429
 10
16.34462132166531
 20
-20.10276877974277
 10
16.48853369003551
 20
-20.23255837628259
 10
16.65136658479626
 20
-20.34817661470808
 10
16.81983299096633
 20
-20.45270630763972
 10
17.00339713476874
 20
-20.54332658116246
 10
17.16394099882124
 20
-20.60639738489735
 10
15.04476991306869
 20
-20.60639738489735
 10
14.83404577446866
 20
-20.59770772969736
 10
14.62549404966869
 20
-20.57163876409735
 10
14.4256319800687
 20
-20.52819048809735
 10
14.2344595656687
 20
-20.47170772929738
 10
14.05381032371586
 20
-20.39801945320133
 10
13.87818370246872
 20
-20.31312152189733
 10
13.71742508126867
 20
-20.21536290089736
 10
13.57008068080095
 20
-20.10491738330538
 10
13.43388163209271
 20
-19.98378358981736
 10
13.3111837006687
 20
-19.85256979629733
 10
13.20473542446869
 20
-19.71136289929737
 10
13.11566645866871
 20
-19.56363876089736
 10
13.0461492170687
 20
-19.40722496729737
 10
12.99183887206867
 20
-19.24646634609738
 10
12.96142507886871
 20
-19.07919048349734
 10
12.95056300986867
 20
-18.90539737949737
 10
12.95925266506866
 20
-18.73160427549734
 10
12.98749404446867
 20
-18.56650082669736
 10
13.03745956186866
 20
-18.40574220549737
 10
13.10045956206868
 20
-18.25150082569738
 10
13.18301128646867
 20
-18.10594910109736
 10
13.28302921782067
 20
-17.96873944548937
 10
13.39429416989803
 20
-17.84048013473736
 10
13.51973542546868
 20
-17.72143185849737
 10
13.66244302592171
 20
-17.61472289264137
 10
13.8130112884687
 20
-17.51939737509732
 10
13.98028715106868
 20
-17.43684565069733
 10
14.1562526688687
 20
-17.36732840909732
 10
14.34090784186871
 20
-17.31301806409735
 10
14.5364250838687
 20
-17.27174220189735
 10
14.73845956726869
 20
-17.24567323629733
 10
14.95135611966871
 20
-17.23698358109735
 10
17.20849405786872
 20
-17.23698358109735
 10
17.02732512240293
 20
-17.30650189354352
  0
LWPOLYLINE
  5
E29
330
DE3
100
AcDbEntity
  8
LW 3900-SECURIT-01
 62
     1
100
AcDbPolyline
 90
        6
 70
     1
 43
0.0
 10
26.48035615626871
 20
-20.60639738489735
 10
24.24276994226868
 20
-20.60639738489735
 10
24.24276994226868
 20
-17.23698358109735
 10
25.2659768420687
 20
-17.23698358109735
 10
25.2659768420687
 20
-19.73960427869733
 10
26.48035615626871
 20
-19.73960427869733
  0
LWPOLYLINE
  5
E2A
330
DE3
100
AcDbEntity
  8
LW 3900-SECURIT-01
 62
     1
100
AcDbPolyline
 90
       57
 70
     1
 43
0.0
 10
21.18895572567748
 20
-19.98126358980934
 10
21.0690993115039
 20
-19.85091876180937
 10
20.96025269046867
 20
-19.71136289929737
 10
20.87335613846868
 20
-19.56363876089736
 10
20.80166648306867
 20
-19.40722496729737
 10
20.74952855186869
 20
-19.24646634609738
 10
20.71694234486868
 20
-19.07919048349734
 10
20.7060802758687
 20
-18.90539737949737
 10
20.71694234486868
 20
-18.73160427549734
 10
20.74952855186869
 20
-18.56432841289737
 10
20.79949406926868
 20
-18.40356979169738
 10
20.87118372466868
 20
-18.24932841189732
 10
20.95590786286867
 20
-18.10377668729737
 10
21.06018372526869
 20
-17.96474220409734
 10
21.18024869116708
 20
-17.83596151403336
 10
21.31480800193911
 20
-17.71673944468935
 10
21.46488703689827
 20
-17.60724978916934
 10
21.6237078649887
 20
-17.51079461644937
 10
21.79011476206868
 20
-17.42815599549735
 10
21.97476993506869
 20
-17.35646634009734
 10
22.1637699356687
 20
-17.30215599509736
 10
22.36145959146869
 20
-17.26088013289737
 10
22.56783890246866
 20
-17.23263875349735
 10
22.77856304106869
 20
-17.22394909829737
 10
24.01249407946868
 20
-17.22394909829737
 10
24.01249407946868
 20
-18.04946634229733
 10
22.7720457996687
 20
-18.04946634229733
 10
22.62866648886869
 20
-18.05815599749732
 10
22.49397683326866
 20
-18.08526772172135
 10
22.3625023500927
 20
-18.12524013564135
 10
22.2354595910687
 20
-18.17763875649737
 10
22.12805545279671
 20
-18.24472289464134
 10
22.02690786626867
 20
-18.32101806729733
 10
21.94001131426869
 20
-18.41008703309737
 10
21.87049407266868
 20
-18.50784565409734
 10
24.01249407946868
 20
-18.50784565409734
 10
24.01249407946868
 20
-19.33553531189736
 10
21.90742510726868
 20
-19.33553531189736
 10
21.98189545233269
 20
-19.42104151906537
 10
22.06931338364471
 20
-19.50081255380135
 10
22.16637683222869
 20
-19.56841807125735
 10
22.27604028085271
 20
-19.62933255420935
 10
22.39204717777271
 20
-19.67729945091335
 10
22.51265959194869
 20
-19.71162358895336
 10
22.64491614409267
 20
-19.73360841660937
 10
22.77856304106869
 20
-19.74394910629738
 10
24.01249407946868
 20
-19.74394910629738
 10
24.01249407946868
 20
-20.60205255729735
 10
22.80245959286872
 20
-20.60205255729735
 10
22.58956304046869
 20
-20.59336290209737
 10
22.38318372946871
 20
-20.56946635029735
 10
22.18332165986867
 20
-20.52601807429736
 10
21.99214924546867
 20
-20.46953531549732
 10
21.80749407246866
 20
-20.39567324629738
 10
21.63370096846869
 20
-20.31094910809733
 10
21.4729423472687
 20
-20.21319048709736
 10
21.3253833123175
 20
-20.10257117640137
  0
HATCH
  5
1425
330
DE3
100
AcDbEntity
  8
LW 3900-SECURIT-01
 62
     8
100
AcDbHatch
 10
0.0
 20
0.0
 30
0.0
210
0.0
220
0.0
230
1.0
  2
ANSI31
 70
     0
 71
     0
 91
        2
 92
        7
 72
     1
 73
     1
 93
       28
 10
30.0
 20
19.79289321881345
 42
0.1989123673796531
 10
29.85355339059327
 20
20.14644660940669
 42
0.0
 10
27.14644660940673
 20
22.85355339059328
 42
0.1989123673796618
 10
26.79289321881342
 20
23.0
 42
0.0
 10
25.50000000000001
 20
23.0
 42
0.0
 10
25.5
 20
16.99999999999996
 42
0.0
 10
23.0
 20
15.55662432702593
 42
0.0
 10
20.5
 20
16.99999999999997
 42
0.0
 10
20.5
 20
23.0
 42
0.0
 10
14.0
 20
23.0
 42
0.0
 10
14.0
 20
21.99999999999997
 42
0.0
 10
12.0
 20
21.99999999999997
 42
0.0
 10
12.00000000000001
 20
10.99999999999999
 42
0.0
 10
4.999999999999994
 20
11.0
 42
0.0
 10
0.0
 20
16.0
 42
0.0
 10
0.0000000000000033
 20
8.5
 42
0.0
 10
4.00000000000001
 20
8.5
 42
0.0
 10
4.866025403784446
 20
6.999999999999971
 42
0.0
 10
4.000000000000001
 20
5.500000000000007
 42
0.0
 10
0.0000000000000047
 20
5.5
 42
0.0
 10
0.0000000000000066
 20
1.200000000000002
 42
-0.4142135623730942
 10
1.199999999999999
 20
0.0
 42
0.0
 10
10.50529882059521
 20
0.0
 42
0.0
 10
14.00000000000002
 20
6.053000000000018
 42
0.0
 10
33.00000000000001
 20
6.053000000000025
 42
0.0
 10
32.99999999999999
 20
8.000000000000007
 42
0.0
 10
32.0
 20
9.000000000000028
 42
0.0
 10
30.00000000000002
 20
9.000000000000028
 42
0.0
 97
        0
 92
        7
 72
     1
 73
     1
 93
       24
 10
30.00000000000001
 20
-9.0
 42
0.0
 10
32.0
 20
-9.0
 42
0.0
 10
33.00000000000002
 20
-7.999999999999957
 42
0.0
 10
33.00000000000002
 20
-6.052999999999983
 42
0.0
 10
14.00000000000003
 20
-6.052999999999997
 42
0.0
 10
10.50529882059521
 20
0.0
 42
0.0
 10
1.199999999999999
 20
0.0
 42
-0.4142135623730958
 10
0.0
 20
-1.200000000000002
 42
0.0
 10
0.0
 20
-1.799999999999997
 42
0.0
 10
0.0000000000000037
 20
-5.500000000000028
 42
0.0
 10
4.000000000000007
 20
-5.500000000000028
 42
0.0
 10
4.866025403784451
 20
-7.0
 42
0.0
 10
4.0
 20
-8.5
 42
0.0
 10
0.0000000000000109
 20
-8.5
 42
0.0
 10
0.0000000000000142
 20
-16.00000000000001
 42
0.0
 10
5.000000000000011
 20
-11.00000000000001
 42
0.0
 10
12.00000000000001
 20
-11.0
 42
0.0
 10
12.00000000000001
 20
-22.0
 42
0.0
 10
14.00000000000003
 20
-22.0
 42
0.0
 10
14.00000000000003
 20
-23.00000000000002
 42
0.0
 10
26.79289321881348
 20
-23.0
 42
0.1989123673796532
 10
27.14644660940675
 20
-22.85355339059325
 42
0.0
 10
29.85355339059328
 20
-20.14644660940672
 42
0.198912367379678
 10
30.00000000000003
 20
-19.79289321881345
 42
0.0
 97
        0
 75
     0
 76
     1
 52
0.0
 41
0.75
 77
     0
 78
     1
 53
45.0
 43
0.0
 44
60.0
 45
-1.683798022700465
 46
1.683798022700466
 79
     0
 47
0.0779153028771161
 98
        2
 10
18.5837270989773
 20
10.91824156026484
 10
18.73965913619622
 20
-13.70299409288447
1001
ACAD
1010
0.0
1020
0.0
1030
0.0
  0
ENDBLK
  5
DE8
330
DE3
100
AcDbEntity
  8
0
100
AcDbBlockEnd
  0
BLOCK
  5
E30
330
E2C
100
AcDbEntity
  8
0
100
AcDbBlockBegin
  2
LW 3900-15-01
 70
     0
 10
0.0
 20
0.0
 30
0.0
  3
LW 3900-15-01
  1

  0
LINE
  5
E32
330
E2C
100
AcDbEntity
  8
LW 3900-SECURIT-01
 62
     3
100
AcDbLine
 10
19.5
 20
7.0
 30
0.0
 11
36.5
 21
7.0
 31
0.0
  0
LINE
  5
E33
330
E2C
100
AcDbEntity
  8
LW 3900-SECURIT-01
 62
     3
100
AcDbLine
 10
36.5
 20
-6.999999999999971
 30
0.0
 11
19.50000000000001
 21
-6.999999999999971
 31
0.0
  0
LINE
  5
E34
330
E2C
100
AcDbEntity
  8
LW 3900-SECURIT-01
 62
     3
100
AcDbLine
 10
19.5
 20
7.0
 30
0.0
 11
19.50000000000001
 21
-6.999999999999985
 31
0.0
  0
LINE
  5
E35
330
E2C
100
AcDbEntity
  8
LW 3900-SECURIT-01
 48
0.0
100
AcDbLine
 10
17.50000000000001
 20
-6.053000000000011
 30
0.0
 11
17.50000000000001
 21
6.053000000000025
 31
0.0
  0
LINE
  5
E36
330
E2C
100
AcDbEntity
  8
LW 3900-SECURIT-01
 48
0.0
100
AcDbLine
 10
4.000000000000007
 20
8.499999999999971
 30
0.0
 11
4.000000000000007
 21
5.5
 31
0.0
  0
LINE
  5
E37
330
E2C
100
AcDbEntity
  8
LW 3900-SECURIT-01
 48
0.0
100
AcDbLine
 10
4.000000000000014
 20
-5.500000000000028
 30
0.0
 11
4.000000000000014
 21
-8.5
 31
0.0
  0
LWPOLYLINE
  5
E38
330
E2C
100
AcDbEntity
  8
LW 3900-SECURIT-01
 48
0.0
100
AcDbPolyline
 90
       25
 70
     0
 43
0.0
 10
23.50000023841858
 20
22.99999952316284
 10
23.52101802825928
 20
22.99768447875977
 10
23.5843563079834
 20
22.99094438552856
 10
23.69044423103332
 20
22.98007965087891
 10
23.83832931518555
 20
22.96570539474487
 10
24.02153968811035
 20
22.94918775558472
 10
24.23223614692688
 20
22.93196439743042
 10
24.47257995605469
 20
22.91472673416138
 10
24.74519848823547
 20
22.89817333221435
 10
25.04294872283935
 20
22.88374900817871
 10
25.35811901092529
 20
22.87283420562744
 10
25.68067312240601
 20
22.86605596542358
 10
25.99999904632568
 20
22.86372661590576
 10
26.31932497024536
 20
22.86605596542358
 10
26.64188146591186
 20
22.87283420562744
 10
26.9570517539978
 20
22.88374900817871
 10
27.25480318069458
 20
22.89817333221435
 10
27.52742052078247
 20
22.91472673416138
 10
27.76776313781738
 20
22.93196439743042
 10
27.97846078872681
 20
22.94918775558472
 10
28.16167116165161
 20
22.96570539474487
 10
28.30955505371094
 20
22.98007965087891
 10
28.41564416885376
 20
22.99094438552856
 10
28.47898244857788
 20
22.99768447875977
 10
28.49999904632568
 20
22.99999952316284
  0
LINE
  5
E39
330
E2C
100
AcDbEntity
  8
LW 3900-SECURIT-01
 48
0.0
100
AcDbLine
 10
28.5
 20
16.99999999999997
 30
0.0
 11
23.5
 21
16.99999999999997
 31
0.0
  0
LINE
  5
E3A
330
E2C
100
AcDbEntity
  8
LW 3900-SECURIT-01
 48
0.0
100
AcDbLine
 10
0.0000000000000142
 20
-5.500000000000028
 30
0.0
 11
4.000000000000014
 21
-5.500000000000028
 31
0.0
  0
LINE
  5
E3B
330
E2C
100
AcDbEntity
  8
LW 3900-SECURIT-01
 48
0.0
100
AcDbLine
 10
4.000000000000007
 20
5.5
 30
0.0
 11
0.0
 21
5.5
 31
0.0
  0
LINE
  5
E3C
330
E2C
100
AcDbEntity
  8
LW 3900-SECURIT-01
 48
0.0
100
AcDbLine
 10
4.866025403784448
 20
6.999999999999971
 30
0.0
 11
4.000000000000007
 21
5.5
 31
0.0
  0
LINE
  5
E3D
330
E2C
100
AcDbEntity
  8
LW 3900-SECURIT-01
 48
0.0
100
AcDbLine
 10
4.000000000000007
 20
8.5
 30
0.0
 11
4.866025403784448
 21
6.999999999999971
 31
0.0
  0
LINE
  5
E3E
330
E2C
100
AcDbEntity
  8
LW 3900-SECURIT-01
 48
0.0
100
AcDbLine
 10
0.0
 20
8.5
 30
0.0
 11
4.000000000000007
 21
8.5
 31
0.0
  0
LINE
  5
E3F
330
E2C
100
AcDbEntity
  8
LW 3900-SECURIT-01
 48
0.0
100
AcDbLine
 10
5.0
 20
11.0
 30
0.0
 11
0.0
 21
16.0
 31
0.0
  0
LINE
  5
E40
330
E2C
100
AcDbEntity
  8
LW 3900-SECURIT-01
 48
0.0
100
AcDbLine
 10
15.0
 20
11.0
 30
0.0
 11
5.0
 21
11.0
 31
0.0
  0
LINE
  5
E41
330
E2C
100
AcDbEntity
  8
LW 3900-SECURIT-01
 48
0.0
100
AcDbLine
 10
15.0
 20
21.99999999999997
 30
0.0
 11
15.00000000000001
 21
11.0
 31
0.0
  0
LINE
  5
E42
330
E2C
100
AcDbEntity
  8
LW 3900-SECURIT-01
 48
0.0
100
AcDbLine
 10
17.0
 20
21.99999999999997
 30
0.0
 11
15.00000000000001
 21
21.99999999999997
 31
0.0
  0
LINE
  5
E43
330
E2C
100
AcDbEntity
  8
LW 3900-SECURIT-01
 48
0.0
100
AcDbLine
 10
17.0
 20
23.0
 30
0.0
 11
17.0
 21
21.99999999999997
 31
0.0
  0
LINE
  5
E44
330
E2C
100
AcDbEntity
  8
LW 3900-SECURIT-01
 48
0.0
100
AcDbLine
 10
23.5
 20
23.0
 30
0.0
 11
17.0
 21
23.0
 31
0.0
  0
LINE
  5
E45
330
E2C
100
AcDbEntity
  8
LW 3900-SECURIT-01
 48
0.0
100
AcDbLine
 10
23.5
 20
16.99999999999997
 30
0.0
 11
23.5
 21
23.0
 31
0.0
  0
LINE
  5
E46
330
E2C
100
AcDbEntity
  8
LW 3900-SECURIT-01
 48
0.0
100
AcDbLine
 10
26.0
 20
15.55662432702593
 30
0.0
 11
23.5
 21
16.99999999999997
 31
0.0
  0
LINE
  5
E47
330
E2C
100
AcDbEntity
  8
LW 3900-SECURIT-01
 48
0.0
100
AcDbLine
 10
28.5
 20
16.99999999999997
 30
0.0
 11
26.0
 21
15.55662432702593
 31
0.0
  0
LINE
  5
E48
330
E2C
100
AcDbEntity
  8
LW 3900-SECURIT-01
 48
0.0
100
AcDbLine
 10
28.5
 20
23.0
 30
0.0
 11
28.5
 21
16.99999999999997
 31
0.0
  0
LINE
  5
E49
330
E2C
100
AcDbEntity
  8
LW 3900-SECURIT-01
 48
0.0
100
AcDbLine
 10
29.79289321881345
 20
23.0
 30
0.0
 11
28.5
 21
23.0
 31
0.0
  0
ARC
  5
E4A
330
E2C
100
AcDbEntity
  8
LW 3900-SECURIT-01
 48
0.0
100
AcDbCircle
 10
29.79289321881345
 20
22.5
 30
0.0
 40
0.5000000000000242
100
AcDbArc
 50
45.00000000000159
 51
90.0
  0
LINE
  5
E4B
330
E2C
100
AcDbEntity
  8
LW 3900-SECURIT-01
 48
0.0
100
AcDbLine
 10
32.85355339059326
 20
20.14644660940669
 30
0.0
 11
30.14644660940672
 21
22.85355339059328
 31
0.0
  0
ARC
  5
E4C
330
E2C
100
AcDbEntity
  8
LW 3900-SECURIT-01
 48
0.0
100
AcDbCircle
 10
32.50000000000003
 20
19.79289321881345
 30
0.0
 40
0.4999999999999716
100
AcDbArc
 50
0.0
 51
45.00000000000393
  0
LINE
  5
E4D
330
E2C
100
AcDbEntity
  8
LW 3900-SECURIT-01
 48
0.0
100
AcDbLine
 10
33.00000000000002
 20
8.999999999999971
 30
0.0
 11
33.0
 21
19.79289321881345
 31
0.0
  0
LINE
  5
E4E
330
E2C
100
AcDbEntity
  8
LW 3900-SECURIT-01
 48
0.0
100
AcDbLine
 10
35.5
 20
9.000000000000028
 30
0.0
 11
33.0
 21
9.000000000000028
 31
0.0
  0
LINE
  5
E4F
330
E2C
100
AcDbEntity
  8
LW 3900-SECURIT-01
 48
0.0
100
AcDbLine
 10
36.5
 20
8.0
 30
0.0
 11
35.5
 21
9.000000000000028
 31
0.0
  0
LINE
  5
E50
330
E2C
100
AcDbEntity
  8
LW 3900-SECURIT-01
 48
0.0
100
AcDbLine
 10
17.5
 20
6.053000000000025
 30
0.0
 11
36.5
 21
6.053000000000025
 31
0.0
  0
LINE
  5
E51
330
E2C
100
AcDbEntity
  8
LW 3900-SECURIT-01
 48
0.0
100
AcDbLine
 10
14.00529882059521
 20
0.0000000000000142
 30
0.0
 11
17.5
 21
6.053000000000025
 31
0.0
  0
LINE
  5
E52
330
E2C
100
AcDbEntity
  8
LW 3900-SECURIT-01
 48
0.0
100
AcDbLine
 10
17.50000000000001
 20
-6.052999999999997
 30
0.0
 11
14.0052988205952
 21
-0.0000000000000142
 31
0.0
  0
LINE
  5
E53
330
E2C
100
AcDbEntity
  8
LW 3900-SECURIT-01
 48
0.0
100
AcDbLine
 10
36.5
 20
-6.052999999999997
 30
0.0
 11
17.50000000000001
 21
-6.052999999999997
 31
0.0
  0
LINE
  5
E54
330
E2C
100
AcDbEntity
  8
LW 3900-SECURIT-01
 48
0.0
100
AcDbLine
 10
36.50000000000003
 20
-8.000000000000028
 30
0.0
 11
36.5
 21
8.0
 31
0.0
  0
LINE
  5
E55
330
E2C
100
AcDbEntity
  8
LW 3900-SECURIT-01
 48
0.0
100
AcDbLine
 10
35.5
 20
-9.0
 30
0.0
 11
36.5
 21
-7.999999999999971
 31
0.0
  0
LINE
  5
E56
330
E2C
100
AcDbEntity
  8
LW 3900-SECURIT-01
 48
0.0
100
AcDbLine
 10
33.0
 20
-9.0
 30
0.0
 11
35.5
 21
-9.0
 31
0.0
  0
LINE
  5
E57
330
E2C
100
AcDbEntity
  8
LW 3900-SECURIT-01
 48
0.0
100
AcDbLine
 10
33.00000000000003
 20
-19.79289321881345
 30
0.0
 11
33.00000000000002
 21
-9.0
 31
0.0
  0
ARC
  5
E58
330
E2C
100
AcDbEntity
  8
LW 3900-SECURIT-01
 48
0.0
100
AcDbCircle
 10
32.50000000000004
 20
-19.79289321881347
 30
0.0
 40
0.4999999999999708
100
AcDbArc
 50
314.9999999999984
 51
0.0
  0
LINE
  5
E59
330
E2C
100
AcDbEntity
  8
LW 3900-SECURIT-01
 48
0.0
100
AcDbLine
 10
30.14644660940675
 20
-22.85355339059325
 30
0.0
 11
32.85355339059328
 21
-20.14644660940672
 31
0.0
  0
ARC
  5
E5A
330
E2C
100
AcDbEntity
  8
LW 3900-SECURIT-01
 48
0.0
100
AcDbCircle
 10
29.79289321881348
 20
-22.49999999999997
 30
0.0
 40
0.5000000000000249
100
AcDbArc
 50
270.0
 51
314.9999999999984
  0
LINE
  5
E5B
330
E2C
100
AcDbEntity
  8
LW 3900-SECURIT-01
 48
0.0
100
AcDbLine
 10
17.00000000000003
 20
-23.0
 30
0.0
 11
29.79289321881348
 21
-23.0
 31
0.0
  0
LINE
  5
E5C
330
E2C
100
AcDbEntity
  8
LW 3900-SECURIT-01
 48
0.0
100
AcDbLine
 10
17.00000000000003
 20
-22.0
 30
0.0
 11
17.00000000000003
 21
-23.0
 31
0.0
  0
LINE
  5
E5D
330
E2C
100
AcDbEntity
  8
LW 3900-SECURIT-01
 48
0.0
100
AcDbLine
 10
15.00000000000003
 20
-22.0
 30
0.0
 11
17.00000000000003
 21
-22.0
 31
0.0
  0
LINE
  5
E5E
330
E2C
100
AcDbEntity
  8
LW 3900-SECURIT-01
 48
0.0
100
AcDbLine
 10
15.00000000000001
 20
-11.0
 30
0.0
 11
15.00000000000001
 21
-22.0
 31
0.0
  0
LINE
  5
E5F
330
E2C
100
AcDbEntity
  8
LW 3900-SECURIT-01
 48
0.0
100
AcDbLine
 10
5.000000000000014
 20
-11.0
 30
0.0
 11
15.00000000000001
 21
-11.0
 31
0.0
  0
LINE
  5
E60
330
E2C
100
AcDbEntity
  8
LW 3900-SECURIT-01
 48
0.0
100
AcDbLine
 10
0.0000000000000142
 20
-16.0
 30
0.0
 11
5.000000000000014
 21
-11.0
 31
0.0
  0
LINE
  5
E61
330
E2C
100
AcDbEntity
  8
LW 3900-SECURIT-01
 48
0.0
100
AcDbLine
 10
0.0
 20
16.0
 30
0.0
 11
0.0000000000000142
 21
-16.0
 31
0.0
  0
LINE
  5
E62
330
E2C
100
AcDbEntity
  8
LW 3900-SECURIT-01
 48
0.0
100
AcDbLine
 10
4.000000000000014
 20
-8.5
 30
0.0
 11
0.0000000000000142
 21
-8.5
 31
0.0
  0
LINE
  5
E63
330
E2C
100
AcDbEntity
  8
LW 3900-SECURIT-01
 48
0.0
100
AcDbLine
 10
4.866025403784448
 20
-7.0
 30
0.0
 11
4.000000000000007
 21
-8.5
 31
0.0
  0
LINE
  5
E64
330
E2C
100
AcDbEntity
  8
LW 3900-SECURIT-01
 48
0.0
100
AcDbLine
 10
4.000000000000007
 20
-5.500000000000028
 30
0.0
 11
4.866025403784448
 21
-7.0
 31
0.0
  0
INSERT
  5
E65
330
E2C
100
AcDbEntity
  8
insertpoint_ECKELT
100
AcDbBlockReference
 66
     1
  2
insertpoint-ECKELT
 10
0.0
 20
0.0
 30
0.0
  0
ATTRIB
  5
1533
330
E65
100
AcDbEntity
  8
insertpoint_ECKELT
100
AcDbText
 10
-6.931514324693059
 20
-0.0000000000000284
 30
0.0
 40
0.6
  1
LW 3900/15-01
 72
     2
 11
-1.200000000000017
 21
-0.0000000000000284
 31
0.0
100
AcDbAttribute
  2
LINKS
 70
     0
  0
ATTRIB
  5
1534
330
E65
100
AcDbEntity
  8
insertpoint_ECKELT
100
AcDbText
 10
1.199999999999988
 20
-0.0000000000000284
 30
0.0
 40
0.6
  1

100
AcDbAttribute
  2
RECHTS
 70
     0
  0
SEQEND
  5
1535
330
E65
100
AcDbEntity
  8
insertpoint_ECKELT
  0
LINE
  5
E69
330
E2C
100
AcDbEntity
  8
LW 3900-SECURIT-01
  6
MITTE2
 62
     3
100
AcDbLine
 10
40.18236088981618
 20
0.0
 30
0.0
 11
-4.816740571937998
 21
0.0
 31
0.0
  0
LINE
  5
E6A
330
E2C
100
AcDbEntity
  8
LW 3900-SECURIT-01
  6
MITTE2
 62
     3
100
AcDbLine
 10
6.06676842937054
 20
6.999999999999971
 30
0.0
 11
-2.025328589565788
 21
6.999999999999971
 31
0.0
  0
LINE
  5
E6B
330
E2C
100
AcDbEntity
  8
LW 3900-SECURIT-01
  6
MITTE2
 62
     3
100
AcDbLine
 10
6.06676842937054
 20
-6.999999999999971
 30
0.0
 11
-2.025328589565788
 21
-6.999999999999971
 31
0.0
  0
LINE
  5
E6C
330
E2C
100
AcDbEntity
  8
LW 3900-SECURIT-01
  6
MITTE2
 62
     3
100
AcDbLine
 10
26.0
 20
13.27820912973922
 30
0.0
 11
26.0
 21
25.1521294245251
 31
0.0
  0
HATCH
  5
E6D
330
E2C
100
AcDbEntity
  8
LW 3900-SECURIT-01
 62
     1
100
AcDbHatch
 10
0.0
 20
0.0
 30
0.0
210
0.0
220
0.0
230
1.0
  2
SOLID
 70
     1
 71
     0
 91
        5
 92
        7
 72
     0
 73
     1
 93
       76
 10
19.07600150507754
 20
-18.08856979069733
 10
19.10786033445036
 20
-18.03698882885564
 10
19.22601845868165
 20
-17.8857464298396
 10
19.36049653389442
 20
-17.74532229957711
 10
19.50651644035587
 20
-17.61693773786376
 10
19.67018523643786
 20
-17.50003145494807
 10
19.84557218980261
 20
-17.39785357312635
 10
20.02732512240293
 20
-17.30650189354352
 10
20.20849405786866
 20
-17.23698358109735
 10
17.9513561196686
 20
-17.23698358109735
 10
17.73845956726863
 20
-17.24567323629733
 10
17.53642508386865
 20
-17.27174220189735
 10
17.34090784186865
 20
-17.31301806409735
 10
17.15625266886876
 20
-17.36732840909732
 10
16.98028715106862
 20
-17.43684565069733
 10
16.8130112884687
 20
-17.51939737509738
 10
16.66244302592177
 20
-17.61472289264125
 10
16.51973542546874
 20
-17.72143185849737
 10
16.39429416989809
 20
-17.84048013473742
 10
16.28302921782067
 20
-17.96873944548932
 10
16.18301128646872
 20
-18.10594910109731
 10
16.10045956206868
 20
-18.25150082569732
 10
16.03745956186866
 20
-18.40574220549749
 10
15.98749404446873
 20
-18.56650082669725
 10
15.95925266506872
 20
-18.73160427549734
 10
15.95056300986867
 20
-18.90539737949731
 10
15.96142507886871
 20
-19.0791904834974
 10
15.99183887206867
 20
-19.24646634609738
 10
16.0461492170687
 20
-19.40722496729737
 10
16.11566645866865
 20
-19.56363876089736
 10
16.20473542446875
 20
-19.71136289929743
 10
16.31118370066865
 20
-19.85256979629733
 10
16.43388163209271
 20
-19.98378358981736
 10
16.5700806808009
 20
-20.10491738330532
 10
16.71742508126867
 20
-20.21536290089736
 10
16.87818370246872
 20
-20.31312152189733
 10
17.05381032371592
 20
-20.39801945320133
 10
17.23445956566864
 20
-20.47170772929732
 10
17.42563198006876
 20
-20.52819048809735
 10
17.62549404966869
 20
-20.57163876409735
 10
17.83404577446866
 20
-20.59770772969736
 10
18.04476991306863
 20
-20.60639738489735
 10
20.16394099882125
 20
-20.60639738489735
 10
20.00339713476875
 20
-20.54332658116246
 10
19.81983299096633
 20
-20.45270630763972
 10
19.65136658479626
 20
-20.34817661470808
 10
19.48853369003551
 20
-20.23255837628264
 10
19.34462132166531
 20
-20.10276877974277
 10
19.21718542818097
 20
-19.96341509651429
 10
19.10348007343763
 20
-19.81292685180168
 10
19.05150884198905
 20
-19.72874220969734
 10
18.02304577506866
 20
-19.72874220969734
 10
17.89093694706308
 20
-19.72118220967334
 10
17.76018370526866
 20
-19.70084841650535
 10
17.63201129106873
 20
-19.66791462329737
 10
17.51687335966868
 20
-19.62229393349733
 10
17.41192839381828
 20
-19.56581117469736
 10
17.31377873833428
 20
-19.49820565724136
 10
17.22359749666871
 20
-19.42025945009735
 10
17.15190784126871
 20
-19.33553531189736
 10
18.87942915552752
 20
-19.33553531189736
 10
18.86884468825449
 20
-19.30289987113903
 10
18.83273288029004
 20
-19.11752592358792
 10
18.82068922750834
 20
-18.92723620963719
 10
18.83271089993768
 20
-18.73248511628222
 10
18.869016621613
 20
-18.54611574501567
 10
18.88561532428808
 20
-18.49698358509735
 10
17.11497680666871
 20
-18.49698358509735
 10
17.18449404826866
 20
-18.40139737789744
 10
17.26704577266865
 20
-18.31884565349733
 10
17.36213666952226
 20
-18.24898082568935
 10
17.4647354284687
 20
-18.19067323929735
 10
17.58342742884547
 20
-18.14670358398538
 10
17.70587336026874
 20
-18.11463875629735
 10
17.84273542966871
 20
-18.09508703209738
 10
17.98611474046872
 20
-18.08856979069733
 97
        0
 92
        7
 72
     0
 73
     1
 93
       72
 10
20.80446537010549
 20
-18.10316841143336
 10
20.9273284049783
 20
-18.08509392861734
 10
21.05139061226872
 20
-18.07988013549735
 10
22.32008027146871
 20
-18.07988013549735
 10
21.47283888946866
 20
-18.89453531049733
 10
23.23901130886871
 20
-20.61291462629734
 10
24.55766648546869
 20
-20.61291462629734
 10
22.84363199726867
 20
-18.87063875869737
 10
24.52508027846868
 20
-17.23698358109735
 10
21.08614923306878
 20
-17.23698358109735
 10
20.87816233585663
 20
-17.24775875354535
 10
20.67144412830383
 20
-17.27321944328136
 10
20.46701130006873
 20
-17.31301806409735
 10
20.27366647186868
 20
-17.36950082289738
 10
20.08683888506867
 20
-17.44119047829733
 10
19.91567874659419
 20
-17.52721806477737
 10
19.75011474606872
 20
-17.6236732374974
 10
19.59804578006871
 20
-17.73229392749735
 10
19.46234812446555
 20
-17.85160289339333
 10
19.3373561240687
 20
-17.98212151449738
 10
19.22873543406864
 20
-18.1211559976974
 10
19.13749405446871
 20
-18.26888013609724
 10
19.06580439906871
 20
-18.42312151589729
 10
19.01149405406868
 20
-18.58388013709734
 10
18.97890784706872
 20
-18.75115599969731
 10
18.96804577806868
 20
-18.92712151749745
 10
18.97890784706867
 20
-19.09874220769737
 10
19.01149405406868
 20
-19.26601807029735
 10
19.06363198526866
 20
-19.42677669149734
 10
19.13314922686867
 20
-19.58101807129733
 10
19.22499019267745
 20
-19.7297849683213
 10
19.3303696412879
 20
-19.86925393428143
 10
19.44837515890388
 20
-19.9982953140013
 10
19.58066646966868
 20
-20.11760427989734
 10
19.73278757359991
 20
-20.22561669403339
 10
19.89132164306873
 20
-20.32398359089737
 10
20.06294233326871
 20
-20.40870772909736
 10
20.24542509246867
 20
-20.48039738449737
 10
20.43965626549912
 20
-20.53444703984135
 10
20.63645957646865
 20
-20.57815600549734
 10
20.84501130126874
 20
-20.60422497109735
 10
21.05573543986865
 20
-20.61291462629734
 10
22.95876992866867
 20
-20.61291462629734
 10
22.07242509826868
 20
-19.73960427869733
 10
21.05573543986865
 20
-19.73960427869733
 10
20.98906840517416
 20
-19.73585698575803
 10
20.88812068071591
 20
-19.72587462348136
 10
20.76798619757589
 20
-19.70441117513738
 10
20.65086702479032
 20
-19.67008703709737
 10
20.54937185205431
 20
-19.62915876110534
 10
20.49323667946224
 20
-19.60100427825731
 10
20.43955198963663
 20
-19.5684180712573
 10
20.30699129956069
 20
-19.46909531232134
 10
20.23338992001668
 20
-19.39905669140935
 10
20.1783235750144
 20
-19.33119048429742
 10
20.12961805761829
 20
-19.25863186337736
 10
20.09025391956225
 20
-19.18146772520137
 10
20.06083074705508
 20
-19.10004565597742
 10
20.04013198836866
 20
-19.01288841432134
 10
20.03261543662067
 20
-18.92355875886542
 10
20.03397102283189
 20
-18.86125393108139
 10
20.03997557457511
 20
-18.79912289640148
 10
20.05213240219989
 20
-18.73594910309734
 10
20.0703459194991
 20
-18.67425255117737
 10
20.11399405756866
 20
-18.57553806810543
 10
20.1555219197695
 20
-18.50767186099338
 10
20.21860012686629
 20
-18.42963875729734
 10
20.34800206723109
 20
-18.30311602024372
 10
20.40726992056874
 20
-18.26305806711335
 10
20.48356509322467
 20
-18.21874082559341
 10
20.56758536935347
 20
-18.17659599787336
 10
20.68412233524064
 20
-18.13375599773738
 97
        0
 92
        7
 72
     0
 73
     1
 93
       57
 10
25.36250235009275
 20
-18.12524013564135
 10
25.49397683326872
 20
-18.08526772172135
 10
25.62866648886863
 20
-18.05815599749732
 10
25.77204579966859
 20
-18.04946634229733
 10
27.01249407946868
 20
-18.04946634229733
 10
27.01249407946868
 20
-17.22394909829737
 10
25.77856304106875
 20
-17.22394909829737
 10
25.56783890246872
 20
-17.23263875349735
 10
25.36145959146875
 20
-17.26088013289731
 10
25.16376993566876
 20
-17.30215599509731
 10
24.97476993506875
 20
-17.35646634009734
 10
24.7901147620688
 20
-17.42815599549735
 10
24.62370786498853
 20
-17.51079461644937
 10
24.46488703689822
 20
-17.6072497891694
 10
24.31480800193912
 20
-17.71673944468935
 10
24.18024869116719
 20
-17.8359615140333
 10
24.06018372526875
 20
-17.96474220409734
 10
23.95590786286873
 20
-18.10377668729737
 10
23.87118372466868
 20
-18.24932841189738
 10
23.79949406926868
 20
-18.40356979169738
 10
23.74952855186869
 20
-18.56432841289725
 10
23.71694234486868
 20
-18.73160427549729
 10
23.7060802758687
 20
-18.90539737949731
 10
23.71694234486868
 20
-19.07919048349734
 10
23.74952855186869
 20
-19.24646634609738
 10
23.80166648306867
 20
-19.40722496729737
 10
23.87335613846868
 20
-19.56363876089736
 10
23.96025269046872
 20
-19.71136289929737
 10
24.06909931150385
 20
-19.85091876180937
 10
24.18895572567747
 20
-19.98126358980934
 10
24.3253833123175
 20
-20.10257117640137
 10
24.4729423472687
 20
-20.21319048709736
 10
24.63370096846869
 20
-20.31094910809739
 10
24.80749407246866
 20
-20.39567324629738
 10
24.99214924546867
 20
-20.46953531549732
 10
25.18332165986873
 20
-20.52601807429736
 10
25.38318372946866
 20
-20.56946635029735
 10
25.58956304046869
 20
-20.59336290209737
 10
25.80245959286872
 20
-20.60205255729735
 10
27.01249407946868
 20
-20.60205255729735
 10
27.01249407946868
 20
-19.74394910629738
 10
25.77856304106864
 20
-19.74394910629738
 10
25.64491614409268
 20
-19.73360841660937
 10
25.51265959194869
 20
-19.71162358895336
 10
25.39204717777271
 20
-19.67729945091335
 10
25.27604028085271
 20
-19.62933255420935
 10
25.1663768322287
 20
-19.56841807125735
 10
25.06931338364471
 20
-19.50081255380135
 10
24.9818954523327
 20
-19.42104151906537
 10
24.90742510726868
 20
-19.33553531189736
 10
27.01249407946868
 20
-19.33553531189736
 10
27.01249407946868
 20
-18.50784565409734
 10
24.87049407266868
 20
-18.50784565409734
 10
24.94001131426869
 20
-18.41008703309737
 10
25.02690786626862
 20
-18.32101806729738
 10
25.12805545279672
 20
-18.24472289464134
 10
25.23545959106871
 20
-18.17763875649737
 97
        0
 92
        7
 72
     0
 73
     1
 93
        6
 10
27.24276994226868
 20
-17.23698358109735
 10
27.24276994226868
 20
-20.60639738489735
 10
29.48035615626871
 20
-20.60639738489735
 10
29.48035615626871
 20
-19.73960427869733
 10
28.2659768420687
 20
-19.73960427869733
 10
28.2659768420687
 20
-17.23698358109735
 97
        0
 92
        7
 72
     0
 73
     1
 93
        8
 10
28.49842511866869
 20
-17.23698358109735
 10
28.49842511866869
 20
-18.06250082509737
 10
29.73235615706868
 20
-18.06250082509737
 10
29.73235615706868
 20
-20.61291462629734
 10
30.75773547066869
 20
-20.61291462629734
 10
30.75773547066869
 20
-18.06250082509737
 10
32.00035616426872
 20
-18.06250082509737
 10
32.00035616426872
 20
-17.23698358109735
 97
        0
 75
     0
 76
     1
 47
0.0142553043587597
 98
        5
 10
18.38566163114392
 20
-17.67943325068646
 10
20.65315884448647
 20
-17.82198623569226
 10
25.14537057668802
 20
-17.76496506314456
 10
27.86921966051959
 20
-17.52262483845228
 10
29.28105764274646
 20
-17.62241197086561
  0
LWPOLYLINE
  5
E6E
330
E2C
100
AcDbEntity
  8
LW 3900-SECURIT-01
 62
     1
100
AcDbPolyline
 90
        8
 70
     1
 43
0.0
 10
30.75773547066869
 20
-18.06250082509737
 10
30.75773547066869
 20
-20.61291462629734
 10
29.73235615706868
 20
-20.61291462629734
 10
29.73235615706868
 20
-18.06250082509737
 10
28.49842511866869
 20
-18.06250082509737
 10
28.49842511866869
 20
-17.23698358109735
 10
32.00035616426872
 20
-17.23698358109735
 10
32.00035616426872
 20
-18.06250082509737
  0
LWPOLYLINE
  5
E6F
330
E2C
100
AcDbEntity
  8
LW 3900-SECURIT-01
 62
     1
100
AcDbPolyline
 90
       73
 70
     1
 43
0.0
 10
21.05573543986871
 20
-19.73960427869733
 10
22.07242509826868
 20
-19.73960427869733
 10
22.95876992866867
 20
-20.61291462629734
 10
21.05573543986871
 20
-20.61291462629734
 10
20.84501130126868
 20
-20.60422497109735
 10
20.63645957646871
 20
-20.57815600549734
 10
20.43965626549912
 20
-20.53444703984135
 10
20.24542509246872
 20
-20.48039738449737
 10
20.06294233326871
 20
-20.40870772909736
 10
19.89132164306868
 20
-20.32398359089737
 10
19.73278757359991
 20
-20.22561669403334
 10
19.58066646966868
 20
-20.11760427989734
 10
19.44837515890388
 20
-19.99829531400135
 10
19.3303696412879
 20
-19.86925393428137
 10
19.22499019267751
 20
-19.72978496832135
 10
19.13314922686867
 20
-19.58101807129733
 10
19.06363198526866
 20
-19.42677669149734
 10
19.01149405406868
 20
-19.26601807029735
 10
18.97890784706867
 20
-19.09874220769737
 10
18.96804577806868
 20
-18.92712151749734
 10
18.97890784706867
 20
-18.75115599969737
 10
19.01149405406868
 20
-18.58388013709734
 10
19.06580439906871
 20
-18.42312151589735
 10
19.13749405446866
 20
-18.26888013609735
 10
19.22873543406869
 20
-18.12115599769734
 10
19.3373561240687
 20
-17.98212151449738
 10
19.46234812446549
 20
-17.85160289339333
 10
19.59804578006866
 20
-17.73229392749735
 10
19.75011474606866
 20
-17.62367323749734
 10
19.91567874659431
 20
-17.52721806477737
 10
20.08683888506867
 20
-17.44119047829738
 10
20.27366647186868
 20
-17.36950082289738
 10
20.46701130006868
 20
-17.31301806409735
 10
20.67144412830389
 20
-17.27321944328136
 10
20.87816233585669
 20
-17.24775875354535
 10
21.08614923306867
 20
-17.23698358109735
 10
24.52508027846868
 20
-17.23698358109735
 10
22.84363199726867
 20
-18.87063875869737
 10
24.55766648546869
 20
-20.61291462629734
 10
23.23901130886871
 20
-20.61291462629734
 10
21.47283888946866
 20
-18.89453531049733
 10
22.32008027146871
 20
-18.07988013549735
 10
21.05139061226872
 20
-18.07988013549735
 10
20.9273284049783
 20
-18.08509392861734
 10
20.80446537010549
 20
-18.10316841143336
 10
20.6841223352407
 20
-18.13375599773738
 10
20.56758536935352
 20
-18.17659599787336
 10
20.48356509322467
 20
-18.21874082559336
 10
20.40726992056868
 20
-18.26305806711335
 10
20.36702812733749
 20
-18.29025668788935
 10
20.32951488583909
 20
-18.32119186040134
 10
20.21860012686629
 20
-18.42963875729734
 10
20.1555219197695
 20
-18.50767186099338
 10
20.11399405756866
 20
-18.57553806810537
 10
20.0703459194991
 20
-18.67425255117737
 10
20.05213240219989
 20
-18.73594910309734
 10
20.03997557457511
 20
-18.79912289640137
 10
20.03397102283189
 20
-18.86125393108133
 10
20.03261543662067
 20
-18.92355875886537
 10
20.04013198836871
 20
-19.01288841432134
 10
20.06083074705508
 20
-19.10004565597737
 10
20.0902539195623
 20
-19.18146772520137
 10
20.12961805761829
 20
-19.25863186337736
 10
20.17832357501429
 20
-19.33119048429736
 10
20.23338992001668
 20
-19.39905669140935
 10
20.30699129956069
 20
-19.46909531232134
 10
20.43955198963669
 20
-19.56841807125735
 10
20.4932366794623
 20
-19.60100427825736
 10
20.54937185205431
 20
-19.62915876110534
 10
20.65086702479032
 20
-19.67008703709737
 10
20.76798619757589
 20
-19.70441117513732
 10
20.88812068071591
 20
-19.72587462348136
 10
20.98906840517428
 20
-19.73585698575803
  0
LWPOLYLINE
  5
E71
330
E2C
100
AcDbEntity
  8
LW 3900-SECURIT-01
 62
     1
100
AcDbPolyline
 90
       76
 70
     1
 43
0.0
 10
19.84557218980261
 20
-17.39785357312635
 10
19.6701852364378
 20
-17.50003145494807
 10
19.50651644035581
 20
-17.61693773786376
 10
19.36049653389442
 20
-17.74532229957711
 10
19.22601845868159
 20
-17.88574642983966
 10
19.10786033445042
 20
-18.03698882885553
 10
19.07600150507754
 20
-18.08856979069733
 10
17.98611474046866
 20
-18.08856979069733
 10
17.84273542966871
 20
-18.09508703209732
 10
17.70587336026868
 20
-18.11463875629735
 10
17.58342742884547
 20
-18.14670358398538
 10
17.4647354284687
 20
-18.19067323929735
 10
17.36213666952231
 20
-18.24898082568935
 10
17.26704577266871
 20
-18.31884565349733
 10
17.18449404826866
 20
-18.40139737789732
 10
17.11497680666871
 20
-18.49698358509735
 10
18.88561532428808
 20
-18.49698358509735
 10
18.869016621613
 20
-18.54611574501567
 10
18.83271089993768
 20
-18.73248511628228
 10
18.82068922750839
 20
-18.92723620963719
 10
18.83273288029004
 20
-19.11752592358797
 10
18.86884468825455
 20
-19.30289987113897
 10
18.87942915552752
 20
-19.33553531189736
 10
17.15190784126871
 20
-19.33553531189736
 10
17.22359749666871
 20
-19.42025945009735
 10
17.31377873833428
 20
-19.49820565724136
 10
17.41192839381828
 20
-19.56581117469736
 10
17.51687335966868
 20
-19.62229393349733
 10
17.63201129106868
 20
-19.66791462329737
 10
17.76018370526866
 20
-19.70084841650535
 10
17.89093694706308
 20
-19.72118220967334
 10
18.02304577506866
 20
-19.72874220969734
 10
19.05150884198905
 20
-19.72874220969734
 10
19.10348007343763
 20
-19.81292685180162
 10
19.21718542818097
 20
-19.96341509651429
 10
19.34462132166531
 20
-20.10276877974277
 10
19.48853369003551
 20
-20.23255837628259
 10
19.65136658479626
 20
-20.34817661470808
 10
19.81983299096633
 20
-20.45270630763972
 10
20.00339713476875
 20
-20.54332658116246
 10
20.16394099882125
 20
-20.60639738489735
 10
18.04476991306869
 20
-20.60639738489735
 10
17.83404577446866
 20
-20.59770772969736
 10
17.62549404966869
 20
-20.57163876409735
 10
17.4256319800687
 20
-20.52819048809735
 10
17.2344595656687
 20
-20.47170772929738
 10
17.05381032371586
 20
-20.39801945320133
 10
16.87818370246872
 20
-20.31312152189733
 10
16.71742508126867
 20
-20.21536290089736
 10
16.57008068080095
 20
-20.10491738330538
 10
16.43388163209271
 20
-19.98378358981736
 10
16.31118370066871
 20
-19.85256979629733
 10
16.20473542446869
 20
-19.71136289929737
 10
16.11566645866871
 20
-19.56363876089736
 10
16.0461492170687
 20
-19.40722496729737
 10
15.99183887206867
 20
-19.24646634609738
 10
15.96142507886871
 20
-19.07919048349734
 10
15.95056300986867
 20
-18.90539737949737
 10
15.95925266506866
 20
-18.73160427549734
 10
15.98749404446867
 20
-18.56650082669736
 10
16.03745956186866
 20
-18.40574220549737
 10
16.10045956206868
 20
-18.25150082569738
 10
16.18301128646867
 20
-18.10594910109736
 10
16.28302921782067
 20
-17.96873944548937
 10
16.39429416989803
 20
-17.84048013473736
 10
16.51973542546868
 20
-17.72143185849737
 10
16.66244302592172
 20
-17.61472289264137
 10
16.8130112884687
 20
-17.51939737509732
 10
16.98028715106868
 20
-17.43684565069733
 10
17.1562526688687
 20
-17.36732840909732
 10
17.34090784186871
 20
-17.31301806409735
 10
17.5364250838687
 20
-17.27174220189735
 10
17.73845956726869
 20
-17.24567323629733
 10
17.95135611966871
 20
-17.23698358109735
 10
20.20849405786872
 20
-17.23698358109735
 10
20.02732512240293
 20
-17.30650189354352
  0
LWPOLYLINE
  5
E72
330
E2C
100
AcDbEntity
  8
LW 3900-SECURIT-01
 62
     1
100
AcDbPolyline
 90
        6
 70
     1
 43
0.0
 10
29.48035615626871
 20
-20.60639738489735
 10
27.24276994226868
 20
-20.60639738489735
 10
27.24276994226868
 20
-17.23698358109735
 10
28.2659768420687
 20
-17.23698358109735
 10
28.2659768420687
 20
-19.73960427869733
 10
29.48035615626871
 20
-19.73960427869733
  0
LWPOLYLINE
  5
E73
330
E2C
100
AcDbEntity
  8
LW 3900-SECURIT-01
 62
     1
100
AcDbPolyline
 90
       57
 70
     1
 43
0.0
 10
24.18895572567747
 20
-19.98126358980934
 10
24.06909931150391
 20
-19.85091876180937
 10
23.96025269046866
 20
-19.71136289929737
 10
23.87335613846868
 20
-19.56363876089736
 10
23.80166648306867
 20
-19.40722496729737
 10
23.74952855186869
 20
-19.24646634609738
 10
23.71694234486868
 20
-19.07919048349734
 10
23.7060802758687
 20
-18.90539737949737
 10
23.71694234486868
 20
-18.73160427549734
 10
23.74952855186869
 20
-18.56432841289737
 10
23.79949406926868
 20
-18.40356979169738
 10
23.87118372466868
 20
-18.24932841189732
 10
23.95590786286867
 20
-18.10377668729737
 10
24.06018372526869
 20
-17.96474220409734
 10
24.18024869116708
 20
-17.83596151403336
 10
24.31480800193912
 20
-17.71673944468935
 10
24.46488703689828
 20
-17.60724978916934
 10
24.6237078649887
 20
-17.51079461644937
 10
24.79011476206868
 20
-17.42815599549735
 10
24.97476993506869
 20
-17.35646634009734
 10
25.1637699356687
 20
-17.30215599509736
 10
25.36145959146869
 20
-17.26088013289737
 10
25.56783890246867
 20
-17.23263875349735
 10
25.7785630410687
 20
-17.22394909829737
 10
27.01249407946868
 20
-17.22394909829737
 10
27.01249407946868
 20
-18.04946634229733
 10
25.77204579966871
 20
-18.04946634229733
 10
25.62866648886869
 20
-18.05815599749732
 10
25.49397683326866
 20
-18.08526772172135
 10
25.3625023500927
 20
-18.12524013564135
 10
25.23545959106871
 20
-18.17763875649737
 10
25.12805545279672
 20
-18.24472289464134
 10
25.02690786626867
 20
-18.32101806729733
 10
24.94001131426869
 20
-18.41008703309737
 10
24.87049407266868
 20
-18.50784565409734
 10
27.01249407946868
 20
-18.50784565409734
 10
27.01249407946868
 20
-19.33553531189736
 10
24.90742510726868
 20
-19.33553531189736
 10
24.9818954523327
 20
-19.42104151906537
 10
25.06931338364471
 20
-19.50081255380135
 10
25.1663768322287
 20
-19.56841807125735
 10
25.27604028085271
 20
-19.62933255420935
 10
25.39204717777271
 20
-19.67729945091335
 10
25.51265959194869
 20
-19.71162358895336
 10
25.64491614409268
 20
-19.73360841660937
 10
25.7785630410687
 20
-19.74394910629738
 10
27.01249407946868
 20
-19.74394910629738
 10
27.01249407946868
 20
-20.60205255729735
 10
25.80245959286872
 20
-20.60205255729735
 10
25.58956304046869
 20
-20.59336290209737
 10
25.38318372946871
 20
-20.56946635029735
 10
25.18332165986867
 20
-20.52601807429736
 10
24.99214924546867
 20
-20.46953531549732
 10
24.80749407246866
 20
-20.39567324629738
 10
24.63370096846869
 20
-20.31094910809733
 10
24.4729423472687
 20
-20.21319048709736
 10
24.3253833123175
 20
-20.10257117640137
  0
HATCH
  5
1540
330
E2C
100
AcDbEntity
  8
LW 3900-SECURIT-01
 62
     8
100
AcDbHatch
 10
0.0
 20
0.0
 30
0.0
210
0.0
220
0.0
230
1.0
  2
ANSI31
 70
     0
 71
     0
 91
        3
 92
        7
 72
     1
 73
     1
 93
       30
 10
33.0
 20
19.79289321881345
 42
0.1989123673796492
 10
32.85355339059328
 20
20.14644660940668
 42
0.0
 10
30.14644660940672
 20
22.85355339059328
 42
0.1989123673796655
 10
29.79289321881342
 20
23.0
 42
0.0
 10
28.5
 20
23.0
 42
0.0
 10
28.5
 20
16.99999999999998
 42
0.0
 10
26.00000000000001
 20
15.55662432702593
 42
0.0
 10
23.5
 20
16.99999999999998
 42
0.0
 10
23.5
 20
23.0
 42
0.0
 10
17.0
 20
23.0
 42
0.0
 10
17.0
 20
21.99999999999997
 42
0.0
 10
15.0
 20
21.99999999999999
 42
0.0
 10
15.00000000000001
 20
11.00000000000001
 42
0.0
 10
5.00000000000001
 20
11.00000000000001
 42
0.0
 10
0.0
 20
16.0
 42
0.0
 10
0.0000000000000033
 20
8.5
 42
0.0
 10
4.000000000000003
 20
8.5
 42
0.0
 10
4.866025403784449
 20
6.999999999999971
 42
0.0
 10
4.000000000000008
 20
5.500000000000014
 42
0.0
 10
0.0000000000000047
 20
5.5
 42
0.0
 10
0.0000000000000066
 20
1.200000000000002
 42
-0.4142135623730942
 10
1.199999999999999
 20
0.0
 42
0.0
 10
14.0052988205952
 20
-0.0000000000000142
 42
0.0
 10
17.5
 20
6.053000000000025
 42
0.0
 10
19.5
 20
6.053000000000039
 42
0.0
 10
19.5
 20
7.0
 42
0.0
 10
36.49999999999999
 20
7.000000000000014
 42
0.0
 10
36.5
 20
7.999999999999985
 42
0.0
 10
35.50000000000001
 20
9.000000000000028
 42
0.0
 10
33.00000000000002
 20
9.000000000000014
 42
0.0
 97
        0
 92
       23
 72
     0
 73
     1
 93
        4
 10
36.5
 20
7.000000000000014
 10
19.49999999999999
 20
7.0
 10
19.49999999999999
 20
6.053000000000039
 10
36.49999999999999
 20
6.053000000000039
 97
        0
 92
        7
 72
     1
 73
     1
 93
       24
 10
33.00000000000002
 20
-9.0
 42
0.0
 10
35.5
 20
-9.0
 42
0.0
 10
36.50000000000003
 20
-7.999999999999943
 42
0.0
 10
36.50000000000003
 20
-6.052999999999997
 42
0.0
 10
17.50000000000001
 20
-6.052999999999997
 42
0.0
 10
14.00529882059518
 20
0.0
 42
0.0
 10
1.199999999999999
 20
0.0
 42
-0.4142135623730958
 10
0.0
 20
-1.200000000000002
 42
0.0
 10
0.0
 20
-1.799999999999997
 42
0.0
 10
0.0000000000000037
 20
-5.500000000000042
 42
0.0
 10
4.000000000000016
 20
-5.500000000000042
 42
0.0
 10
4.866025403784441
 20
-7.0
 42
0.0
 10
4.000000000000007
 20
-8.5
 42
0.0
 10
0.0000000000000109
 20
-8.5
 42
0.0
 10
0.0000000000000142
 20
-16.0
 42
0.0
 10
5.000000000000007
 20
-11.0
 42
0.0
 10
15.00000000000001
 20
-11.0
 42
0.0
 10
15.00000000000001
 20
-22.0
 42
0.0
 10
17.00000000000003
 20
-22.0
 42
0.0
 10
17.00000000000003
 20
-23.0
 42
0.0
 10
29.79289321881348
 20
-23.0
 42
0.1989123673796532
 10
30.14644660940675
 20
-22.85355339059325
 42
0.0
 10
32.85355339059328
 20
-20.14644660940672
 42
0.1989123673796697
 10
33.00000000000003
 20
-19.79289321881345
 42
0.0
 97
        0
 75
     0
 76
     1
 52
0.0
 41
0.75
 77
     0
 78
     1
 53
45.0
 43
0.0000000000000071
 44
120.0
 45
-1.683798022700465
 46
1.683798022700466
 79
     0
 47
0.077634637328015
 98
        3
 10
20.95735724781446
 20
11.8274637184075
 10
22.35568886355441
 20
6.781211988869813
 10
21.5788375790653
 20
-12.5498128614804
1001
ACAD
1010
0.0
1020
0.0
1030
0.0
  0
ENDBLK
  5
E31
330
E2C
100
AcDbEntity
  8
0
100
AcDbBlockEnd
  0
ENDSEC
  0
SECTION
  2
ENTITIES
  0
MTEXT
  5
41A
330
1F
100
AcDbEntity
  8
0
100
AcDbMText
 10
56.85565983408284
 20
5.801836870267948
 30
0.0
 40
5.0
 41
57.03130618910018
 71
     1
 72
     5
  1
LW 3900/10-01
 73
     1
 44
1.0
1001
ACAD
1000
ACAD_MTEXT_DEFINED_HEIGHT_BEGIN
1070
    46
1040
0.0
1000
ACAD_MTEXT_DEFINED_HEIGHT_END
1000
MTEXTBEGIN
1070
    73
1070
     1
1070
    44
1040
1.0
1070
    74
1070
     0
1000
MTEXTEND
  0
MTEXT
  5
5BC
330
1F
100
AcDbEntity
  8
0
100
AcDbMText
 10
56.85565983408284
 20
-54.19816312973205
 30
0.0
 40
5.0
 41
57.03130618910018
 71
     1
 72
     5
  1
LW 3900/12-01
 73
     1
 44
1.0
1001
ACAD
1000
ACAD_MTEXT_DEFINED_HEIGHT_BEGIN
1070
    46
1040
0.0
1000
ACAD_MTEXT_DEFINED_HEIGHT_END
1000
MTEXTBEGIN
1070
    73
1070
     1
1070
    44
1040
1.0
1070
    74
1070
     0
1000
MTEXTEND
  0
MTEXT
  5
728
330
1F
100
AcDbEntity
  8
0
100
AcDbMText
 10
56.85565983408283
 20
-114.198163129732
 30
0.0
 40
5.0
 41
57.03130618910018
 71
     1
 72
     5
  1
LW 3900/15-01
 73
     1
 44
1.0
1001
ACAD
1000
ACAD_MTEXT_DEFINED_HEIGHT_BEGIN
1070
    46
1040
0.0
1000
ACAD_MTEXT_DEFINED_HEIGHT_END
1000
MTEXTBEGIN
1070
    73
1070
     1
1070
    44
1040
1.0
1070
    74
1070
     0
1000
MTEXTEND
  0
INSERT
  5
DE2
330
1F
100
AcDbEntity
  8
0
100
AcDbBlockReference
  2
LW 3900-10-01
 10
0.0
 20
0.0
 30
0.0
  0
INSERT
  5
E2B
330
1F
100
AcDbEntity
  8
0
100
AcDbBlockReference
  2
LW 3900-12-01
 10
0.0
 20
-60.0
 30
0.0
  0
INSERT
  5
E74
330
1F
100
AcDbEntity
  8
0
100
AcDbBlockReference
  2
LW 3900-15-01
 10
-0.0000000000000071
 20
-120.0
 30
0.0
  0
VIEWPORT
  5
26A
102
{ACAD_XDICTIONARY
360
165B
102
}
330
1B
100
AcDbEntity
 67
     1
  8
0
100
AcDbViewport
 10
144.2296600341797
 20
98.97533035278321
 30
0.0
 40
355.6015568961758
 41
222.1765171227363
 68
     1
 69
     1
 12
144.2296600341797
 22
98.97533035278321
 13
0.0
 23
0.0
 14
10.0
 24
10.0
 15
10.0
 25
10.0
 16
0.0
 26
0.0
 36
1.0
 17
0.0
 27
0.0
 37
0.0
 42
50.0
 43
0.0
 44
0.0
 45
222.1765171227363
 50
0.0
 51
0.0
 72
   100
 90
    32800
  1

281
     0
 71
     1
 74
     0
110
0.0
120
0.0
130
0.0
111
1.0
121
0.0
131
0.0
112
0.0
122
1.0
132
0.0
 79
     0
146
0.0
  0
ENDSEC
  0
SECTION
  2
OBJECTS
  0
DICTIONARY
  5
C
330
0
100
AcDbDictionary
281
     1
  3
ACAD_COLOR
350
38D
  3
ACAD_GROUP
350
D
  3
ACAD_LAYOUT
350
1A
  3
ACAD_MATERIAL
350
38C
  3
ACAD_MLINESTYLE
350
17
  3
ACAD_PLOTSETTINGS
350
19
  3
ACAD_PLOTSTYLENAME
350
E
  3
ACAD_TABLESTYLE
350
38E
  3
ACDBHEADERROUNDTRIPXREC
350
1654
  3
AcDbVariableDictionary
350
25C
  3
DWGPROPS
350
1653
  0
DICTIONARY
  5
935
330
2
100
AcDbDictionary
280
     1
281
     1
  3
ACAD_LAYERFILTERS
360
937
  3
ACLYDICTIONARY
360
936
  0
DICTIONARY
  5
16B
330
1F
100
AcDbDictionary
280
     1
281
     1
  3
ACAD_LAYOUTSELFREF
360
387
  3
ACAD_SORTENTS
360
579
  0
DICTIONARY
  5
16D
330
1B
100
AcDbDictionary
280
     1
281
     1
  3
ACAD_LAYOUTSELFREF
360
386
  0
DICTIONARY
  5
16F
330
23
100
AcDbDictionary
280
     1
281
     1
  3
ACAD_LAYOUTSELFREF
360
388
  0
DICTIONARY
  5
D9B
330
D9A
100
AcDbDictionary
280
     1
281
     1
  3
ACAD_SORTENTS
360
164F
  3
AcDbBlockTableRecordData
360
D9C
  0
DICTIONARY
  5
DE4
330
DE3
100
AcDbDictionary
280
     1
281
     1
  3
ACAD_SORTENTS
360
15C8
  3
AcDbBlockTableRecordData
360
DE5
  0
DICTIONARY
  5
E2D
330
E2C
100
AcDbDictionary
280
     1
281
     1
  3
ACAD_SORTENTS
360
1541
  3
AcDbBlockTableRecordData
360
E2E
  0
DICTIONARY
  5
165B
330
26A
100
AcDbDictionary
280
     1
281
     1
  3
ACAD_XREC_ROUNDTRIP
360
165C
  0
DICTIONARY
  5
38D
102
{ACAD_REACTORS
330
C
102
}
330
C
100
AcDbDictionary
281
     1
  0
DICTIONARY
  5
D
102
{ACAD_REACTORS
330
C
102
}
330
C
100
AcDbDictionary
281
     1
  0
DICTIONARY
  5
1A
102
{ACAD_REACTORS
330
C
102
}
330
C
100
AcDbDictionary
281
     1
  3
Layout1
350
1E
  3
Layout2
350
26
  3
Model
350
22
  0
DICTIONARY
  5
38C
102
{ACAD_REACTORS
330
C
102
}
330
C
100
AcDbDictionary
281
     1
  0
DICTIONARY
  5
17
102
{ACAD_REACTORS
330
C
102
}
330
C
100
AcDbDictionary
281
     1
  3
Standard
350
18
  0
DICTIONARY
  5
19
102
{ACAD_REACTORS
330
C
102
}
330
C
100
AcDbDictionary
281
     1
  0
ACDBDICTIONARYWDFLT
  5
E
102
{ACAD_REACTORS
330
C
102
}
330
C
100
AcDbDictionary
281
     1
  3
Normal
350
F
100
AcDbDictionaryWithDefault
340
F
  0
DICTIONARY
  5
38E
102
{ACAD_REACTORS
330
C
102
}
330
C
100
AcDbDictionary
281
     1
  3
Standard
350
38F
  0
DICTIONARY
  5
1654
102
{ACAD_REACTORS
330
C
102
}
330
C
100
AcDbDictionary
281
     1
  0
DICTIONARY
  5
25C
102
{ACAD_REACTORS
330
C
102
}
330
C
100
AcDbDictionary
281
     1
  3
CTABLESTYLE
350
6E4
  3
DIMASSOC
350
25E
  3
HIDETEXT
350
25D
  3
PROJECTNAME
350
931
  0
XRECORD
  5
1653
102
{ACAD_REACTORS
330
C
102
}
330
C
100
AcDbXrecord
280
     1
  1
DWGPROPS COOKIE
  2

  3

  4
Grandl
  6

  7

  8

  9

300
=
301
=
302
=
303
=
304
=
305
=
306
=
307
=
308
=
309
=
 40
0.048880787037037
 41
2452768.378621297
 42
2454032.670329595
  1

 90
        0
  0
DICTIONARY
  5
937
102
{ACAD_REACTORS
330
935
102
}
330
935
100
AcDbDictionary
281
     1
  0
DICTIONARY
  5
936
102
{ACAD_REACTORS
330
935
102
}
330
935
100
AcDbDictionary
281
     1
1001
ACAD
1000
<All
  0
XRECORD
  5
387
102
{ACAD_REACTORS
330
16B
102
}
330
16B
100
AcDbXrecord
280
     1
340
1F
  0
SORTENTSTABLE
  5
579
102
{ACAD_REACTORS
330
16B
102
}
330
16B
100
AcDbSortentsTable
330
1F
331
728
  5
729
331
41A
  5
427
331
5BC
  5
5BD
  0
XRECORD
  5
386
102
{ACAD_REACTORS
330
16D
102
}
330
16D
100
AcDbXrecord
280
     1
340
1B
  0
XRECORD
  5
388
102
{ACAD_REACTORS
330
16F
102
}
330
16F
100
AcDbXrecord
280
     1
340
23
  0
SORTENTSTABLE
  5
164F
102
{ACAD_REACTORS
330
D9B
102
}
330
D9B
100
AcDbSortentsTable
330
D9A
331
DDF
  5
DE0
331
DDE
  5
DDF
331
DDD
  5
DDE
331
DDC
  5
DDD
331
DDB
  5
DDC
331
DDA
  5
DDB
331
DD9
  5
DDA
331
DC7
  5
DC8
331
DC6
  5
DC7
331
DD8
  5
DD9
331
DC5
  5
DC6
331
DE1
  5
1250
331
DE0
  5
DE1
331
DC4
  5
DC5
331
DC3
  5
DC4
331
DD4
  5
DD8
331
DC2
  5
DC3
331
DC1
  5
DC2
331
DD3
  5
DD4
331
DD2
  5
DD3
331
DC0
  5
DC1
331
DBF
  5
DC0
331
DD1
  5
DD2
331
DD0
  5
DD1
331
DBE
  5
DBF
331
DBD
  5
DBE
331
DCF
  5
DD0
331
DCE
  5
DCF
331
DBC
  5
DBD
331
DBB
  5
DBC
331
DCD
  5
DCE
331
DCC
  5
DCD
331
DBA
  5
DBB
331
DB9
  5
DBA
331
DA7
  5
DA9
331
DCB
  5
DCC
331
DCA
  5
DCB
331
DA6
  5
DA7
331
DB8
  5
DB9
331
DB7
  5
DB8
331
DC9
  5
DCA
331
DC8
  5
DC9
331
DB6
  5
DB7
331
DB5
  5
DB6
331
DB4
  5
DB5
331
DB3
  5
DB4
331
DB2
  5
DB3
331
DB1
  5
DB2
331
DB0
  5
DB1
331
DAF
  5
DB0
331
DAE
  5
DAF
331
DAD
  5
DAE
331
DAC
  5
DAD
331
DAB
  5
DAC
331
DAA
  5
DAB
331
1250
  5
DA6
331
DA9
  5
DAA
  0
DICTIONARY
  5
D9C
102
{ACAD_REACTORS
330
D9B
102
}
330
D9B
100
AcDbDictionary
280
     1
281
     1
  3
Edit
360
D9D
  0
SORTENTSTABLE
  5
15C8
102
{ACAD_REACTORS
330
DE4
102
}
330
DE4
100
AcDbSortentsTable
330
DE3
331
E1D
  5
E21
331
E29
  5
E2A
331
E1A
  5
E1B
331
E26
  5
E27
331
E17
  5
E18
331
E23
  5
E24
331
E14
  5
E15
331
E11
  5
E12
331
E0E
  5
E0F
331
DFF
  5
E00
331
E0B
  5
E0C
331
DFC
  5
DFD
331
E08
  5
E09
331
DF9
  5
DFA
331
E05
  5
E06
331
DF6
  5
DF7
331
E02
  5
E03
331
DF3
  5
DF4
331
1425
  5
DF2
331
E2A
  5
1425
331
E1B
  5
E1C
331
E27
  5
E28
331
E18
  5
E19
331
E24
  5
E25
331
E15
  5
E16
331
E21
  5
E22
331
E12
  5
E13
331
E0F
  5
E10
331
E0C
  5
E0D
331
DFD
  5
DFE
331
E09
  5
E0A
331
DFA
  5
DFB
331
E06
  5
E07
331
DF7
  5
DF8
331
E03
  5
E04
331
DF4
  5
DF5
331
E00
  5
E01
331
E1C
  5
E1D
331
E28
  5
E29
331
E19
  5
E1A
331
E25
  5
E26
331
E16
  5
E17
331
E13
  5
E14
331
E22
  5
E23
331
E10
  5
E11
331
E0D
  5
E0E
331
DFE
  5
DFF
331
E0A
  5
E0B
331
DFB
  5
DFC
331
E07
  5
E08
331
DF8
  5
DF9
331
E04
  5
E05
331
DF5
  5
DF6
331
E01
  5
E02
331
DF2
  5
DF3
  0
DICTIONARY
  5
DE5
102
{ACAD_REACTORS
330
DE4
102
}
330
DE4
100
AcDbDictionary
280
     1
281
     1
  3
Edit
360
DE6
  0
SORTENTSTABLE
  5
1541
102
{ACAD_REACTORS
330
E2D
102
}
330
E2D
100
AcDbSortentsTable
330
E2C
331
E73
  5
1540
331
E6D
  5
E6E
331
E6A
  5
E6B
331
E64
  5
E65
331
1540
  5
E3A
331
E61
  5
E62
331
E57
  5
E58
331
E5E
  5
E5F
331
E5B
  5
E5C
331
E54
  5
E55
331
E58
  5
E59
331
E51
  5
E52
331
E4E
  5
E4F
331
E3F
  5
E40
331
E4B
  5
E4C
331
E3C
  5
E3D
331
E48
  5
E49
331
E45
  5
E46
331
E42
  5
E43
331
E71
  5
E72
331
E6E
  5
E6F
331
E6B
  5
E6C
331
E65
  5
E69
331
E62
  5
E63
331
E5F
  5
E60
331
E5C
  5
E5D
331
E55
  5
E56
331
E59
  5
E5A
331
E52
  5
E53
331
E4F
  5
E50
331
E4C
  5
E4D
331
E3D
  5
E3E
331
E49
  5
E4A
331
E3A
  5
E3B
331
E46
  5
E47
331
E43
  5
E44
331
E40
  5
E41
331
E72
  5
E73
331
E6F
  5
E71
331
E6C
  5
E6D
331
E69
  5
E6A
331
E63
  5
E64
331
E60
  5
E61
331
E5D
  5
E5E
331
E56
  5
E57
331
E5A
  5
E5B
331
E53
  5
E54
331
E50
  5
E51
331
E4D
  5
E4E
331
E3E
  5
E3F
331
E4A
  5
E4B
331
E3B
  5
E3C
331
E47
  5
E48
331
E44
  5
E45
331
E41
  5
E42
  0
DICTIONARY
  5
E2E
102
{ACAD_REACTORS
330
E2D
102
}
330
E2D
100
AcDbDictionary
280
     1
281
     1
  3
Edit
360
E2F
  0
XRECORD
  5
165C
102
{ACAD_REACTORS
330
165B
102
}
330
165B
100
AcDbXrecord
280
     1
102
SHADEPLOT
 70
     0
  0
LAYOUT
  5
1E
102
{ACAD_XDICTIONARY
360
1655
102
}
102
{ACAD_REACTORS
330
1A
102
}
330
1A
100
AcDbPlotSettings
  1

  2
\\A-SERVER\HP LaserJet 5N - AWT
  4
A4
  6

 40
6.011333465576171
 41
4.233341693878173
 42
6.011322021484375
 43
4.23333740234375
 44
209.9733276367187
 45
296.9259948730469
 46
0.0
 47
0.0
 48
0.0
 49
0.0
140
0.0
141
0.0
142
1.0
143
1.0
 70
   688
 72
     1
 73
     1
 74
     5
  7

 75
    16
147
1.0
148
0.0
149
0.0
100
AcDbLayout
  1
Layout1
 70
     1
 71
     1
 10
-4.23333740234375
 20
-6.011333465576171
 11
292.6926574707031
 21
203.9619941711426
 12
0.0
 22
0.0
 32
0.0
 14
1.000000000000000E+20
 24
1.000000000000000E+20
 34
1.000000000000000E+20
 15
-1.000000000000000E+20
 25
-1.000000000000000E+20
 35
-1.000000000000000E+20
146
0.0
 13
0.0
 23
0.0
 33
0.0
 16
1.0
 26
0.0
 36
0.0
 17
0.0
 27
1.0
 37
0.0
 76
     0
330
1B
331
26A
  0
LAYOUT
  5
26
102
{ACAD_XDICTIONARY
360
1659
102
}
102
{ACAD_REACTORS
330
1A
102
}
330
1A
100
AcDbPlotSettings
  1

  2

  4

  6

 40
0.0
 41
0.0
 42
0.0
 43
0.0
 44
0.0
 45
0.0
 46
0.0
 47
0.0
 48
0.0
 49
0.0
140
0.0
141
0.0
142
1.0
143
1.0
 70
   688
 72
     0
 73
     0
 74
     5
  7

 75
    16
147
1.0
148
0.0
149
0.0
100
AcDbLayout
  1
Layout2
 70
     1
 71
     2
 10
0.0
 20
0.0
 11
12.0
 21
9.0
 12
0.0
 22
0.0
 32
0.0
 14
0.0
 24
0.0
 34
0.0
 15
0.0
 25
0.0
 35
0.0
146
0.0
 13
0.0
 23
0.0
 33
0.0
 16
1.0
 26
0.0
 36
0.0
 17
0.0
 27
1.0
 37
0.0
 76
     0
330
23
  0
LAYOUT
  5
22
102
{ACAD_XDICTIONARY
360
1657
102
}
102
{ACAD_REACTORS
330
1A
102
}
330
1A
100
AcDbPlotSettings
  1

  2

  4

  6

 40
0.0
 41
0.0
 42
0.0
 43
0.0
 44
0.0
 45
0.0
 46
0.0
 47
0.0
 48
0.0
 49
0.0
140
0.0
141
0.0
142
1.0
143
1.0
 70
  1712
 72
     0
 73
     0
 74
     0
  7

 75
     0
147
1.0
148
0.0
149
0.0
100
AcDbLayout
  1
Model
 70
     1
 71
     0
 10
0.0
 20
0.0
 11
12.0
 21
9.0
 12
0.0
 22
0.0
 32
0.0
 14
0.0
 24
0.0
 34
0.0
 15
0.0
 25
0.0
 35
0.0
146
0.0
 13
0.0
 23
0.0
 33
0.0
 16
1.0
 26
0.0
 36
0.0
 17
0.0
 27
1.0
 37
0.0
 76
     0
330
1F
  0
MLINESTYLE
  5
18
102
{ACAD_REACTORS
330
17
102
}
330
17
100
AcDbMlineStyle
  2
STANDARD
 70
     0
  3

 62
   256
 51
90.0
 52
90.0
 71
     2
 49
0.5
 62
   256
  6
BYLAYER
 49
-0.5
 62
   256
  6
BYLAYER
  0
ACDBPLACEHOLDER
  5
F
102
{ACAD_REACTORS
330
E
102
}
330
E
  0
TABLESTYLE
  5
38F
102
{ACAD_REACTORS
330
38E
102
}
330
38E
100
AcDbTableStyle
  3
Standard
 70
     0
 71
     0
 40
1.5
 41
1.5
280
     0
281
     0
  7
Standard
140
4.5
170
     2
 62
     0
 63
     7
283
     0
274
    -2
284
     1
 64
     0
275
    -2
285
     1
 65
     0
276
    -2
286
     1
 66
     0
277
    -2
287
     1
 67
     0
278
    -2
288
     1
 68
     0
279
    -2
289
     1
 69
     0
  7
Standard
140
6.0
170
     5
 62
     0
 63
     7
283
     0
274
    -2
284
     1
 64
     0
275
    -2
285
     1
 65
     0
276
    -2
286
     1
 66
     0
277
    -2
287
     1
 67
     0
278
    -2
288
     1
 68
     0
279
    -2
289
     1
 69
     0
  7
Standard
140
4.5
170
     5
 62
     0
 63
     7
283
     0
274
    -2
284
     1
 64
     0
275
    -2
285
     1
 65
     0
276
    -2
286
     1
 66
     0
277
    -2
287
     1
 67
     0
278
    -2
288
     1
 68
     0
279
    -2
289
     1
 69
     0
  0
DICTIONARYVAR
  5
6E4
102
{ACAD_REACTORS
330
25C
102
}
330
25C
100
DictionaryVariables
280
     0
  1
STANDARD
  0
DICTIONARYVAR
  5
25E
102
{ACAD_REACTORS
330
25C
102
}
330
25C
100
DictionaryVariables
280
     0
  1
2
  0
DICTIONARYVAR
  5
25D
102
{ACAD_REACTORS
330
25C
102
}
330
25C
100
DictionaryVariables
280
     0
  1
1
  0
DICTIONARYVAR
  5
931
102
{ACAD_REACTORS
330
25C
102
}
330
25C
100
DictionaryVariables
280
     0
  1

  0
XRECORD
  5
D9D
102
{ACAD_REACTORS
330
D9C
102
}
330
D9C
100
AcDbXrecord
280
     1
1070
     0
1070
     0
1070
     0
  0
XRECORD
  5
DE6
102
{ACAD_REACTORS
330
DE5
102
}
330
DE5
100
AcDbXrecord
280
     1
1070
     0
1070
     0
1070
     0
  0
XRECORD
  5
E2F
102
{ACAD_REACTORS
330
E2E
102
}
330
E2E
100
AcDbXrecord
280
     1
1070
     0
1070
     0
1070
     0
  0
DICTIONARY
  5
1655
330
1E
100
AcDbDictionary
280
     1
281
     1
  3
ACAD_XREC_ROUNDTRIP
360
1656
  0
DICTIONARY
  5
1659
330
26
100
AcDbDictionary
280
     1
281
     1
  3
ACAD_XREC_ROUNDTRIP
360
165A
  0
DICTIONARY
  5
1657
330
22
100
AcDbDictionary
280
     1
281
     1
  3
ACAD_XREC_ROUNDTRIP
360
1658
  0
XRECORD
  5
1656
102
{ACAD_REACTORS
330
1655
102
}
330
1655
100
AcDbXrecord
280
     1
102
SHADEPLOT
 70
     0
102
SHADEPLOTRESLEVEL
 70
     2
102
SHADEPLOTCUSTOMDPI
 70
   300
  0
XRECORD
  5
165A
102
{ACAD_REACTORS
330
1659
102
}
330
1659
100
AcDbXrecord
280
     1
102
SHADEPLOT
 70
     0
102
SHADEPLOTRESLEVEL
 70
     2
102
SHADEPLOTCUSTOMDPI
 70
   300
  0
XRECORD
  5
1658
102
{ACAD_REACTORS
330
1657
102
}
330
1657
100
AcDbXrecord
280
     1
102
SHADEPLOT
 70
     0
102
SHADEPLOTRESLEVEL
 70
     2
102
SHADEPLOTCUSTOMDPI
 70
   300
  0
ENDSEC
  0
EOF