  0
SECTION
  2
HEADER
  9
$ACADVER
  1
AC1015
  9
$ACADMAINTVER
 70
    20
  9
$DWGCODEPAGE
  3
ANSI_1252
  9
$INSBASE
 10
0.0
 20
0.0
 30
0.0
  9
$EXTMIN
 10
-6.735389098088489
 20
-85.67154050546013
 30
-0.0015258207003583
  9
$EXTMAX
 10
106.0743704853448
 20
83.26240563922329
 30
0.0000000349246037
  9
$LIMMIN
 10
0.0
 20
0.0
  9
$LIMMAX
 10
18025.7704
 20
13929.0044
  9
$ORTHOMODE
 70
     1
  9
$REGENMODE
 70
     1
  9
$FILLMODE
 70
     1
  9
$QTEXTMODE
 70
     0
  9
$MIRRTEXT
 70
     1
  9
$LTSCALE
 40
0.4
  9
$ATTMODE
 70
     1
  9
$TEXTSIZE
 40
0.2
  9
$TRACEWID
 40
0.05
  9
$TEXTSTYLE
  7
Standard
  9
$CLAYER
  8
0
  9
$CELTYPE
  6
ByLayer
  9
$CECOLOR
 62
   256
  9
$CELTSCALE
 40
1.0
  9
$DISPSILH
 70
     0
  9
$DIMSCALE
 40
1.0
  9
$DIMASZ
 40
1.799999999999999
  9
$DIMEXO
 40
0.0625
  9
$DIMDLI
 40
0.38
  9
$DIMRND
 40
0.0
  9
$DIMDLE
 40
0.0
  9
$DIMEXE
 40
0.18
  9
$DIMTP
 40
0.0
  9
$DIMTM
 40
0.0
  9
$DIMTXT
 40
0.3499999940395355
  9
$DIMCEN
 40
0.09
  9
$DIMTSZ
 40
0.0
  9
$DIMTOL
 70
     0
  9
$DIMLIM
 70
     0
  9
$DIMTIH
 70
     1
  9
$DIMTOH
 70
     1
  9
$DIMSE1
 70
     0
  9
$DIMSE2
 70
     0
  9
$DIMTAD
 70
     0
  9
$DIMZIN
 70
     0
  9
$DIMBLK
  1

  9
$DIMASO
 70
     1
  9
$DIMSHO
 70
     1
  9
$DIMPOST
  1

  9
$DIMAPOST
  1

  9
$DIMALT
 70
     0
  9
$DIMALTD
 70
     2
  9
$DIMALTF
 40
25.4
  9
$DIMLFAC
 40
1.0
  9
$DIMTOFL
 70
     0
  9
$DIMTVP
 40
0.0
  9
$DIMTIX
 70
     0
  9
$DIMSOXD
 70
     0
  9
$DIMSAH
 70
     0
  9
$DIMBLK1
  1

  9
$DIMBLK2
  1

  9
$DIMSTYLE
  2
2dTranslator-Bemaßungsstil
  9
$DIMCLRD
 70
     0
  9
$DIMCLRE
 70
     0
  9
$DIMCLRT
 70
     0
  9
$DIMTFAC
 40
1.0
  9
$DIMGAP
 40
0.09
  9
$DIMJUST
 70
     0
  9
$DIMSD1
 70
     0
  9
$DIMSD2
 70
     0
  9
$DIMTOLJ
 70
     1
  9
$DIMTZIN
 70
     0
  9
$DIMALTZ
 70
     0
  9
$DIMALTTZ
 70
     0
  9
$DIMUPT
 70
     0
  9
$DIMDEC
 70
     4
  9
$DIMTDEC
 70
     4
  9
$DIMALTU
 70
     2
  9
$DIMALTTD
 70
     2
  9
$DIMTXSTY
  7
Standard
  9
$DIMAUNIT
 70
     0
  9
$DIMADEC
 70
     0
  9
$DIMALTRND
 40
0.0
  9
$DIMAZIN
 70
     0
  9
$DIMDSEP
 70
    46
  9
$DIMATFIT
 70
     3
  9
$DIMFRAC
 70
     0
  9
$DIMLDRBLK
  1

  9
$DIMLUNIT
 70
     2
  9
$DIMLWD
 70
    -2
  9
$DIMLWE
 70
    -2
  9
$DIMTMOVE
 70
     0
  9
$LUNITS
 70
     2
  9
$LUPREC
 70
     4
  9
$SKETCHINC
 40
0.1
  9
$FILLETRAD
 40
0.0
  9
$AUNITS
 70
     0
  9
$AUPREC
 70
     0
  9
$MENU
  1
.
  9
$ELEVATION
 40
0.0
  9
$PELEVATION
 40
0.0
  9
$THICKNESS
 40
0.0
  9
$LIMCHECK
 70
     0
  9
$CHAMFERA
 40
0.0
  9
$CHAMFERB
 40
0.0
  9
$CHAMFERC
 40
0.0
  9
$CHAMFERD
 40
0.0
  9
$SKPOLY
 70
     0
  9
$TDCREATE
 40
2452768.379173588
  9
$TDUCREATE
 40
2452768.295840254
  9
$TDUPDATE
 40
2454032.661402685
  9
$TDUUPDATE
 40
2454032.578069352
  9
$TDINDWG
 40
0.0410600579
  9
$TDUSRTIMER
 40
0.0410600579
  9
$USRTIMER
 70
     1
  9
$ANGBASE
 50
0.0
  9
$ANGDIR
 70
     0
  9
$PDMODE
 70
     0
  9
$PDSIZE
 40
0.0
  9
$PLINEWID
 40
0.0
  9
$SPLFRAME
 70
     0
  9
$SPLINETYPE
 70
     6
  9
$SPLINESEGS
 70
     8
  9
$HANDSEED
  5
14C5
  9
$SURFTAB1
 70
     6
  9
$SURFTAB2
 70
     6
  9
$SURFTYPE
 70
     6
  9
$SURFU
 70
     6
  9
$SURFV
 70
     6
  9
$UCSBASE
  2

  9
$UCSNAME
  2

  9
$UCSORG
 10
0.0
 20
0.0
 30
0.0
  9
$UCSXDIR
 10
1.0
 20
0.0
 30
0.0
  9
$UCSYDIR
 10
0.0
 20
1.0
 30
0.0
  9
$UCSORTHOREF
  2

  9
$UCSORTHOVIEW
 70
     0
  9
$UCSORGTOP
 10
0.0
 20
0.0
 30
0.0
  9
$UCSORGBOTTOM
 10
0.0
 20
0.0
 30
0.0
  9
$UCSORGLEFT
 10
0.0
 20
0.0
 30
0.0
  9
$UCSORGRIGHT
 10
0.0
 20
0.0
 30
0.0
  9
$UCSORGFRONT
 10
0.0
 20
0.0
 30
0.0
  9
$UCSORGBACK
 10
0.0
 20
0.0
 30
0.0
  9
$PUCSBASE
  2

  9
$PUCSNAME
  2

  9
$PUCSORG
 10
0.0
 20
0.0
 30
0.0
  9
$PUCSXDIR
 10
1.0
 20
0.0
 30
0.0
  9
$PUCSYDIR
 10
0.0
 20
1.0
 30
0.0
  9
$PUCSORTHOREF
  2

  9
$PUCSORTHOVIEW
 70
     0
  9
$PUCSORGTOP
 10
0.0
 20
0.0
 30
0.0
  9
$PUCSORGBOTTOM
 10
0.0
 20
0.0
 30
0.0
  9
$PUCSORGLEFT
 10
0.0
 20
0.0
 30
0.0
  9
$PUCSORGRIGHT
 10
0.0
 20
0.0
 30
0.0
  9
$PUCSORGFRONT
 10
0.0
 20
0.0
 30
0.0
  9
$PUCSORGBACK
 10
0.0
 20
0.0
 30
0.0
  9
$USERI1
 70
     0
  9
$USERI2
 70
     0
  9
$USERI3
 70
     0
  9
$USERI4
 70
     0
  9
$USERI5
 70
     0
  9
$USERR1
 40
0.0
  9
$USERR2
 40
0.0
  9
$USERR3
 40
0.0
  9
$USERR4
 40
0.0
  9
$USERR5
 40
0.0
  9
$WORLDVIEW
 70
     1
  9
$SHADEDGE
 70
     3
  9
$SHADEDIF
 70
    70
  9
$TILEMODE
 70
     1
  9
$MAXACTVP
 70
    48
  9
$PINSBASE
 10
0.0
 20
0.0
 30
0.0
  9
$PLIMCHECK
 70
     0
  9
$PEXTMIN
 10
1.000000000000000E+20
 20
1.000000000000000E+20
 30
1.000000000000000E+20
  9
$PEXTMAX
 10
-1.000000000000000E+20
 20
-1.000000000000000E+20
 30
-1.000000000000000E+20
  9
$PLIMMIN
 10
-4.23333740234375
 20
-6.011333465576171
  9
$PLIMMAX
 10
292.6926574707031
 20
203.9619941711426
  9
$UNITMODE
 70
     0
  9
$VISRETAIN
 70
     1
  9
$PLINEGEN
 70
     0
  9
$PSLTSCALE
 70
     1
  9
$TREEDEPTH
 70
  3020
  9
$CMLSTYLE
  2
Standard
  9
$CMLJUST
 70
     0
  9
$CMLSCALE
 40
1.0
  9
$PROXYGRAPHICS
 70
     1
  9
$MEASUREMENT
 70
     1
  9
$CELWEIGHT
370
    -1
  9
$ENDCAPS
280
     0
  9
$JOINSTYLE
280
     0
  9
$LWDISPLAY
290
     0
  9
$INSUNITS
 70
     0
  9
$HYPERLINKBASE
  1

  9
$STYLESHEET
  1

  9
$XEDIT
290
     1
  9
$CEPSNTYPE
380
     0
  9
$PSTYLEMODE
290
     1
  9
$FINGERPRINTGUID
  2
{30C6A903-BB18-405D-9EC9-2648FC37A0EC}
  9
$VERSIONGUID
  2
{7265935A-3F71-4F64-A3B0-EFCE20408509}
  9
$EXTNAMES
290
     1
  9
$PSVPSCALE
 40
0.0
  9
$OLESTARTUP
290
     0
  0
ENDSEC
  0
SECTION
  2
CLASSES
  0
CLASS
  1
ACDBDICTIONARYWDFLT
  2
AcDbDictionaryWithDefault
  3
ObjectDBX Classes
 90
        0
280
     0
281
     0
  0
CLASS
  1
ACDBPLACEHOLDER
  2
AcDbPlaceHolder
  3
ObjectDBX Classes
 90
        0
280
     0
281
     0
  0
CLASS
  1
LAYOUT
  2
AcDbLayout
  3
ObjectDBX Classes
 90
        0
280
     0
281
     0
  0
CLASS
  1
DICTIONARYVAR
  2
AcDbDictionaryVar
  3
ObjectDBX Classes
 90
        0
280
     0
281
     0
  0
CLASS
  1
TABLESTYLE
  2
AcDbTableStyle
  3
ObjectDBX Classes
 90
     2047
280
     0
281
     0
  0
CLASS
  1
SORTENTSTABLE
  2
AcDbSortentsTable
  3
ObjectDBX Classes
 90
        0
280
     0
281
     0
  0
ENDSEC
  0
SECTION
  2
TABLES
  0
TABLE
  2
VPORT
  5
8
330
0
100
AcDbSymbolTable
 70
     5
  0
VPORT
  5
14BA
330
8
100
AcDbSymbolTableRecord
100
AcDbViewportTableRecord
  2
*Active
 70
     0
 10
0.0
 20
0.0
 11
1.0
 21
1.0
 12
49.66949069362818
 22
-1.204567433118427
 13
0.0
 23
0.0
 14
1.0
 24
1.0
 15
0.0
 25
0.0
 16
0.0
 26
0.0
 36
1.0
 17
0.0
 27
0.0
 37
0.0
 40
170.4378091667429
 41
1.778603268945022
 42
50.0
 43
0.0
 44
0.0
 50
0.0
 51
0.0
 71
     0
 72
   100
 73
     1
 74
     1
 75
     0
 76
     0
 77
     0
 78
     0
281
     0
 65
     1
110
0.0
120
0.0
130
0.0
111
1.0
121
0.0
131
0.0
112
0.0
122
1.0
132
0.0
 79
     0
146
0.0
  0
ENDTAB
  0
TABLE
  2
LTYPE
  5
5
330
0
100
AcDbSymbolTable
 70
     3
  0
LTYPE
  5
14
330
5
100
AcDbSymbolTableRecord
100
AcDbLinetypeTableRecord
  2
ByBlock
 70
     0
  3

 72
    65
 73
     0
 40
0.0
  0
LTYPE
  5
15
330
5
100
AcDbSymbolTableRecord
100
AcDbLinetypeTableRecord
  2
ByLayer
 70
     0
  3

 72
    65
 73
     0
 40
0.0
  0
LTYPE
  5
16
330
5
100
AcDbSymbolTableRecord
100
AcDbLinetypeTableRecord
  2
Continuous
 70
     0
  3
Solid line
 72
    65
 73
     0
 40
0.0
  0
LTYPE
  5
277
330
5
100
AcDbSymbolTableRecord
100
AcDbLinetypeTableRecord
  2
MITTE2
 70
     0
  3
Mitte (.5x) ___ _ ___ _ ___ _ ___ _ ___ _ ___
 72
    65
 73
     4
 40
28.575
 49
19.05
 74
     0
 49
-3.174999999999999
 74
     0
 49
3.174999999999999
 74
     0
 49
-3.174999999999999
 74
     0
  0
ENDTAB
  0
TABLE
  2
LAYER
  5
2
102
{ACAD_XDICTIONARY
360
9BC
102
}
330
0
100
AcDbSymbolTable
 70
     4
  0
LAYER
  5
10
330
2
100
AcDbSymbolTableRecord
100
AcDbLayerTableRecord
  2
0
 70
     0
 62
     7
  6
Continuous
370
    -3
390
F
  0
LAYER
  5
278
330
2
100
AcDbSymbolTableRecord
100
AcDbLayerTableRecord
  2
LW 3900-STADIP-01
 70
     0
 62
     7
  6
Continuous
370
    -3
390
F
  0
LAYER
  5
279
330
2
100
AcDbSymbolTableRecord
100
AcDbLayerTableRecord
  2
insertpoint_ECKELT
 70
     0
 62
   141
  6
Continuous
370
    -3
390
F
  0
ENDTAB
  0
TABLE
  2
STYLE
  5
3
330
0
100
AcDbSymbolTable
 70
     1
  0
STYLE
  5
11
330
3
100
AcDbSymbolTableRecord
100
AcDbTextStyleTableRecord
  2
Standard
 70
     0
 40
0.0
 41
1.0
 50
0.0
 71
     0
 42
0.2
  3
ARIAL.TTF
  4

1001
ACAD
1000
Arial
1071
      256
  0
ENDTAB
  0
TABLE
  2
VIEW
  5
6
330
0
100
AcDbSymbolTable
 70
     1
  0
ENDTAB
  0
TABLE
  2
UCS
  5
7
330
0
100
AcDbSymbolTable
 70
     0
  0
ENDTAB
  0
TABLE
  2
APPID
  5
9
330
0
100
AcDbSymbolTable
 70
     2
  0
APPID
  5
12
330
9
100
AcDbSymbolTableRecord
100
AcDbRegAppTableRecord
  2
ACAD
 70
     0
  0
APPID
  5
AA8
330
9
100
AcDbSymbolTableRecord
100
AcDbRegAppTableRecord
  2
ACAD_EXEMPT_FROM_CAD_STANDARDS
 70
     0
  0
ENDTAB
  0
TABLE
  2
DIMSTYLE
  5
A
330
0
100
AcDbSymbolTable
 70
     3
100
AcDbDimStyleTable
 71
     1
340
57
  0
DIMSTYLE
105
27
330
A
100
AcDbSymbolTableRecord
100
AcDbDimStyleTableRecord
  2
Standard
 70
     0
340
11
  0
DIMSTYLE
105
57
330
A
100
AcDbSymbolTableRecord
100
AcDbDimStyleTableRecord
  2
2dTranslator-Bemaßungsstil
 70
     0
 41
1.799999999999999
140
1.799999999999999
340
11
  0
ENDTAB
  0
TABLE
  2
BLOCK_RECORD
  5
1
330
0
100
AcDbSymbolTable
 70
     6
  0
BLOCK_RECORD
  5
1F
102
{ACAD_XDICTIONARY
360
16B
102
}
330
1
100
AcDbSymbolTableRecord
100
AcDbBlockTableRecord
  2
*Model_Space
340
22
  0
BLOCK_RECORD
  5
1B
102
{ACAD_XDICTIONARY
360
16D
102
}
330
1
100
AcDbSymbolTableRecord
100
AcDbBlockTableRecord
  2
*Paper_Space
340
1E
  0
BLOCK_RECORD
  5
23
102
{ACAD_XDICTIONARY
360
16F
102
}
330
1
100
AcDbSymbolTableRecord
100
AcDbBlockTableRecord
  2
*Paper_Space0
340
26
  0
BLOCK_RECORD
  5
26E
330
1
100
AcDbSymbolTableRecord
100
AcDbBlockTableRecord
  2
insertpoint-ECKELT
340
0
102
{BLKREFS
331
E5B
331
EA4
331
EED
102
}
  0
BLOCK_RECORD
  5
E22
102
{ACAD_XDICTIONARY
360
E23
102
}
330
1
100
AcDbSymbolTableRecord
100
AcDbBlockTableRecord
  2
LW 3900-15-01
340
0
310
2800000020000000200000000100080000000000000400000000000000000000000000000000000000000000000080000080000000808000800000008000800080800000C0C0C000C0DCC000F0CAA6000020400000206000002080000020A0000020C0000020E00000400000004020000040400000406000004080000040A0
310
000040C0000040E00000600000006020000060400000606000006080000060A0000060C0000060E00000800000008020000080400000806000008080000080A0000080C0000080E00000A0000000A0200000A0400000A0600000A0800000A0A00000A0C00000A0E00000C0000000C0200000C0400000C0600000C0800000C0
310
A00000C0C00000C0E00000E0000000E0200000E0400000E0600000E0800000E0A00000E0C00000E0E00040000000400020004000400040006000400080004000A0004000C0004000E00040200000402020004020400040206000402080004020A0004020C0004020E000404000004040200040404000404060004040800040
310
40A0004040C0004040E00040600000406020004060400040606000406080004060A0004060C0004060E00040800000408020004080400040806000408080004080A0004080C0004080E00040A0000040A0200040A0400040A0600040A0800040A0A00040A0C00040A0E00040C0000040C0200040C0400040C0600040C08000
310
40C0A00040C0C00040C0E00040E0000040E0200040E0400040E0600040E0800040E0A00040E0C00040E0E00080000000800020008000400080006000800080008000A0008000C0008000E00080200000802020008020400080206000802080008020A0008020C0008020E00080400000804020008040400080406000804080
310
008040A0008040C0008040E00080600000806020008060400080606000806080008060A0008060C0008060E00080800000808020008080400080806000808080008080A0008080C0008080E00080A0000080A0200080A0400080A0600080A0800080A0A00080A0C00080A0E00080C0000080C0200080C0400080C0600080C0
310
800080C0A00080C0C00080C0E00080E0000080E0200080E0400080E0600080E0800080E0A00080E0C00080E0E000C0000000C0002000C0004000C0006000C0008000C000A000C000C000C000E000C0200000C0202000C0204000C0206000C0208000C020A000C020C000C020E000C0400000C0402000C0404000C0406000C0
310
408000C040A000C040C000C040E000C0600000C0602000C0604000C0606000C0608000C060A000C060C000C060E000C0800000C0802000C0804000C0806000C0808000C080A000C080C000C080E000C0A00000C0A02000C0A04000C0A06000C0A08000C0A0A000C0A0C000C0A0E000C0C00000C0C02000C0C04000C0C06000
310
C0C08000C0C0A000F0FBFF00A4A0A000808080000000FF0000FF000000FFFF00FF000000FF00FF00FFFF0000FFFFFF0000000000000000000000000000000000000000000000000000000000000000000000000000000000000000000000000000FFA4FFA4FFA4FFA400000000000000000000000000000000000000000000
310
00A4FF00A400A400A400A400000000000000000000000000000000000000000000F9F9F9F9F9F9F9F9F9F9FF000000000000000000000000000000000000000000F9F9F9F9F9F9F9F9F9F9F9000000000000000000000000000000000000000000A4F9F9F9F9F9F9F9F9F9F90000000000000000000000FF00000000000000
310
0000FFA4A400A400A400A400A40000000000000000000000A4FFFF00000000000000A400A4A400A400A400A4FF0000000000000000000000FFA400A4FFA4FFA4FFA4FFA400A4A4A4A4A4A400A40000000000000000000000A400A400A400A400A400A400A400A400A400A4A4FF0000000000000000000000FFA4FFA400A400
310
A400A400A400A400A400A400A4A4FF000000000000000000FAFAFAFAFAA400A4A400A400FAA4FAA4FAA4FAA4FAA4A400000000000000000000A4FFA40000A400A4A400A4FFA4FFA4FFA4FFA4FFA4FF00000000000000000000A4A400A40000A400A4A4FFFA000000000000000000FF0000000000000000000909A4A4A4A4A4
310
00A400A4FFFA000000000000000000FF00000000000009FAFAFAA4FAA4FAA4FAA4FAA4FAFAFAFAFAFAFAFAFAFAFAFAFAFAFA000000000000000009A400A400A400A400A4FFFA000000000000000000FF00000000000000000000A400A400A400A400A4A4FFFA000000000000000000FF00000000000000000000FFA4FFA400
310
A400A400A4A4FFA4A4A4A4A4A4A4A4A4A4000000000000000000FAFAFAFAFAA400A400A400A4A40000A400A400A400A4A400000000000000000000FFA4A40000A400A400A400A4A40000A400A400A4FFA400000000000000000000A400A4A4A4FFA4FFA4FFA400A4A40000A4A400A4FF0000000000000000000000FFA4A400
310
000000000000FFA400A4A40000A4A400A40000000000000000000000A4A40000000000000000A400A400A4A4FA00A4A4FF0000000000000000000000A4000000000000000000FFA400A400A4A40000A4A4000000000000000000000000000000000000000000A400A400A4FFFAA40000A40000000000000000000000000000
310
00000000000000FFA400A400A4FAFFA4A4FF000000000000000000000000000000000000000000A400A400A4FFFAA40000A4000000000000000000000000000000000000000000FFA4FFA4FFA4FAFFA4A400000000000000000000000000000000000000000000000000000000FA0000000000000000000000000000000000
310
0000000000000000000000000000FA0000000000000000000000000000000000000000000000000000000000000000000000000000000000
102
{BLKREFS
331
E6A
102
}
  0
BLOCK_RECORD
  5
E6B
102
{ACAD_XDICTIONARY
360
E6C
102
}
330
1
100
AcDbSymbolTableRecord
100
AcDbBlockTableRecord
  2
LW 3900-20-01
340
0
310
2800000020000000200000000100080000000000000400000000000000000000000000000000000000000000000080000080000000808000800000008000800080800000C0C0C000C0DCC000F0CAA6000020400000206000002080000020A0000020C0000020E00000400000004020000040400000406000004080000040A0
310
000040C0000040E00000600000006020000060400000606000006080000060A0000060C0000060E00000800000008020000080400000806000008080000080A0000080C0000080E00000A0000000A0200000A0400000A0600000A0800000A0A00000A0C00000A0E00000C0000000C0200000C0400000C0600000C0800000C0
310
A00000C0C00000C0E00000E0000000E0200000E0400000E0600000E0800000E0A00000E0C00000E0E00040000000400020004000400040006000400080004000A0004000C0004000E00040200000402020004020400040206000402080004020A0004020C0004020E000404000004040200040404000404060004040800040
310
40A0004040C0004040E00040600000406020004060400040606000406080004060A0004060C0004060E00040800000408020004080400040806000408080004080A0004080C0004080E00040A0000040A0200040A0400040A0600040A0800040A0A00040A0C00040A0E00040C0000040C0200040C0400040C0600040C08000
310
40C0A00040C0C00040C0E00040E0000040E0200040E0400040E0600040E0800040E0A00040E0C00040E0E00080000000800020008000400080006000800080008000A0008000C0008000E00080200000802020008020400080206000802080008020A0008020C0008020E00080400000804020008040400080406000804080
310
008040A0008040C0008040E00080600000806020008060400080606000806080008060A0008060C0008060E00080800000808020008080400080806000808080008080A0008080C0008080E00080A0000080A0200080A0400080A0600080A0800080A0A00080A0C00080A0E00080C0000080C0200080C0400080C0600080C0
310
800080C0A00080C0C00080C0E00080E0000080E0200080E0400080E0600080E0800080E0A00080E0C00080E0E000C0000000C0002000C0004000C0006000C0008000C000A000C000C000C000E000C0200000C0202000C0204000C0206000C0208000C020A000C020C000C020E000C0400000C0402000C0404000C0406000C0
310
408000C040A000C040C000C040E000C0600000C0602000C0604000C0606000C0608000C060A000C060C000C060E000C0800000C0802000C0804000C0806000C0808000C080A000C080C000C080E000C0A00000C0A02000C0A04000C0A06000C0A08000C0A0A000C0A0C000C0A0E000C0C00000C0C02000C0C04000C0C06000
310
C0C08000C0C0A000F0FBFF00A4A0A000808080000000FF0000FF000000FFFF00FF000000FF00FF00FFFF0000FFFFFF0000000000000000000000000000000000000000000000000000000000000000000000000000000000000000000000000000000000000000000000000000000000000000000000000000000000000000
310
000000A4FFA4FFA4FFA4FF0000000000000000000000000000000000000000000000A4FFA400A400A400A40000000000000000000000000000000000000000000000F9F9F9F9F9F9F9F9F9FFFF000000000000000000000000000000000000000000F9F9F9A4F9F9F9F9A4A4A4000000000000000000FF0000000000000000
310
000000A4F9F9F9F9F9F9F9A4F9FF000000000000000000A4FF00000000000000000000FFA400A4A400A4A400A4A4000000000000000000FFA4FF000000000000000000A400A400A4A400A4A4A4FF000000000000000000A400A4FFA4A4FFA4FFA4FFA4FFA4A400A400A400A400A4000000000000000000FFA4FFA400A4A400
310
A400A400A400A4A400A400A400A4FF0000000000000000FAFAFAFAFAA400A4A400A4A4A400A4A400A400A400A400A4FF0000000000000000FFA4FFA400A4A400A40000A4A4FFA4A4A4A4A4A4FFA4FFA40000000000000000A400A400A400A4A400A40000A4FA000000000000000000FF000000000000000009A400A400A400
310
A4A400A4FFFFFA000000000000000000FF000000000909FAFAFAA4A4FAA4FAA4FAA4A4FAA4FAFAFAFAFAFAFAFAFAFAFAFAFAFA0000000000000900A4A400A400A400A4A4FFFFFA000000000000000000FF0000000000000000A40000A4A400A400A400A4A4FFFA000000000000000000FF0000000000000000FFA4A4A400A4
310
00A400A400A4A4FFA4A4A4FFA4A4A4A4A4FF00000000000000FAFAFAFAA4A400A400A400A400A4A40000A4A400A400A400A40000000000000000A4A4FF00A4A400A400A400A400A4A40000A4A400A400A4000000000000000000FFA4A4A4A4FFA4FFA4FFA4FFA400A4A40000A4A4A4A4FF000000000000000000A400A40000
310
00000000000000FFA400A4A400FAA400A4A4000000000000000000FFA400000000000000000000A400A400A4A4FA00A400A4000000000000000000FF0000000000000000000000FFA400A4FFA4A4FF00A4FF000000000000000000000000000000000000000000A400A400A400FAA40000A400000000000000000000000000
310
0000000000000000A4A4A4A4FF00FAA4A4A4FF000000000000000000000000000000000000000000A4FFFFA4A4FFFAFFA40000000000000000000000000000000000000000000000000000000000FA00000000000000000000000000000000000000000000000000000000000000FA00000000000000000000000000000000
310
0000000000000000000000000000000000000000000000000000000000000000000000000000000000000000000000000000000000000000
102
{BLKREFS
331
EB3
102
}
  0
BLOCK_RECORD
  5
EB4
102
{ACAD_XDICTIONARY
360
EB5
102
}
330
1
100
AcDbSymbolTableRecord
100
AcDbBlockTableRecord
  2
LW 3900-24-01
340
0
310
2800000020000000200000000100080000000000000400000000000000000000000000000000000000000000000080000080000000808000800000008000800080800000C0C0C000C0DCC000F0CAA6000020400000206000002080000020A0000020C0000020E00000400000004020000040400000406000004080000040A0
310
000040C0000040E00000600000006020000060400000606000006080000060A0000060C0000060E00000800000008020000080400000806000008080000080A0000080C0000080E00000A0000000A0200000A0400000A0600000A0800000A0A00000A0C00000A0E00000C0000000C0200000C0400000C0600000C0800000C0
310
A00000C0C00000C0E00000E0000000E0200000E0400000E0600000E0800000E0A00000E0C00000E0E00040000000400020004000400040006000400080004000A0004000C0004000E00040200000402020004020400040206000402080004020A0004020C0004020E000404000004040200040404000404060004040800040
310
40A0004040C0004040E00040600000406020004060400040606000406080004060A0004060C0004060E00040800000408020004080400040806000408080004080A0004080C0004080E00040A0000040A0200040A0400040A0600040A0800040A0A00040A0C00040A0E00040C0000040C0200040C0400040C0600040C08000
310
40C0A00040C0C00040C0E00040E0000040E0200040E0400040E0600040E0800040E0A00040E0C00040E0E00080000000800020008000400080006000800080008000A0008000C0008000E00080200000802020008020400080206000802080008020A0008020C0008020E00080400000804020008040400080406000804080
310
008040A0008040C0008040E00080600000806020008060400080606000806080008060A0008060C0008060E00080800000808020008080400080806000808080008080A0008080C0008080E00080A0000080A0200080A0400080A0600080A0800080A0A00080A0C00080A0E00080C0000080C0200080C0400080C0600080C0
310
800080C0A00080C0C00080C0E00080E0000080E0200080E0400080E0600080E0800080E0A00080E0C00080E0E000C0000000C0002000C0004000C0006000C0008000C000A000C000C000C000E000C0200000C0202000C0204000C0206000C0208000C020A000C020C000C020E000C0400000C0402000C0404000C0406000C0
310
408000C040A000C040C000C040E000C0600000C0602000C0604000C0606000C0608000C060A000C060C000C060E000C0800000C0802000C0804000C0806000C0808000C080A000C080C000C080E000C0A00000C0A02000C0A04000C0A06000C0A08000C0A0A000C0A0C000C0A0E000C0C00000C0C02000C0C04000C0C06000
310
C0C08000C0C0A000F0FBFF00A4A0A000808080000000FF0000FF000000FFFF00FF000000FF00FF00FFFF0000FFFFFF0000000000000000000000000000000000000000000000000000000000000000000000000000000000000000000000000000000000000000000000000000000000000000000000000000000000000000
310
000000000000000000000000000000000000000000000000000000000000000000000000A4FFA4FFA4A4FF000000000000000000000000000000000000000000000000A4FFA400A400A4A4FF0000000000000000000000000000000000000000000000F9F9F9A4F9F9F9F9A4FF000000000000000000000000000000000000
310
00000000F9F9F9F9F9F9F9A4F9A4000000000000000000FF000000000000000000000000A4A400A400A400A4A4FF000000000000000000A4FF0000000000000000000000FFA4A400A400A400A4A4000000000000000000A4A4FFA4FFA4FFA4A4FFA4FFA4A400A4A400A400A400A4000000000000000000FFA4A400A400A400
310
A4A400A400A4A400A4A400A400A4FF0000000000000000FAFAA4FAA400A400A400A4A400A4A400A400A4A400A400A4FF0000000000000000FFA4A400A400A400A4A400A4A4FFA4A4A4FFA4A4A4A4A4A40000000000000000A400A4A400A400A400A4A400A4A4FA0000000000000000FF000000000000000009A400A4A400A4
310
00A400A4A4FFA4FA0000000000000000FF0000000009FAFAFAA4FAA4FAA4A4FAA4FAA4FAA4A4FAFAFAFAFAFAFAFAFAFAFAFAFA000000000000A4A400A400A4A400A400A400A4FFFA0000000000000000FF0000000000000000FFA4A400A400A4A400A400A400A4FFA4A4FFA4FFA4FFA4FF00000000000000FAFAA4FAA4A4A4
310
A4A4A4A4A4A4A400A4A4FAA4FAA4A4FAA4FF0000000000000000FFA4A40000A400A4A400A400A4A400A4A400A400A4A4A4A40000000000000000A400A4A4A4FFA4FFA4A4FFA4FFA4A400A4A400A400A4FF000000000000000000A4A4A400000000000000000000A400A400A4A4A4A400A4000000000000000000FFA4000000
310
0000000000000000A4A400A400A400A4A4FF000000000000000000A4000000000000000000000000FFA4A400A4FAA400A4A400000000000000000000000000000000000000000000A400A4A4FFFAA40000A400000000000000000000000000000000000000000000FFA400A4A4FAFFA400FF00000000000000000000000000
310
000000000000000000A4A40000A4FAA4A4A4000000000000000000000000000000000000000000000000FFA4FFFFFAFFFF0000000000000000000000000000000000000000000000000000000000FA000000000000000000000000000000000000000000000000000000000000000000000000000000000000000000000000
310
0000000000000000000000000000000000000000000000000000000000000000000000000000000000000000000000000000000000000000
102
{BLKREFS
331
EFC
102
}
  0
ENDTAB
  0
ENDSEC
  0
SECTION
  2
BLOCKS
  0
BLOCK
  5
20
330
1F
100
AcDbEntity
  8
0
100
AcDbBlockBegin
  2
*Model_Space
 70
     0
 10
0.0
 20
0.0
 30
0.0
  3
*Model_Space
  1

  0
ENDBLK
  5
21
330
1F
100
AcDbEntity
  8
0
100
AcDbBlockEnd
  0
BLOCK
  5
1C
330
1B
100
AcDbEntity
 67
     1
  8
0
100
AcDbBlockBegin
  2
*Paper_Space
 70
     0
 10
0.0
 20
0.0
 30
0.0
  3
*Paper_Space
  1

  0
ENDBLK
  5
1D
330
1B
100
AcDbEntity
 67
     1
  8
0
100
AcDbBlockEnd
  0
BLOCK
  5
24
330
23
100
AcDbEntity
 67
     1
  8
0
100
AcDbBlockBegin
  2
*Paper_Space0
 70
     0
 10
0.0
 20
0.0
 30
0.0
  3
*Paper_Space0
  1

  0
ENDBLK
  5
25
330
23
100
AcDbEntity
 67
     1
  8
0
100
AcDbBlockEnd
  0
BLOCK
  5
275
330
26E
100
AcDbEntity
  8
0
100
AcDbBlockBegin
  2
insertpoint-ECKELT
 70
     2
 10
0.0
 20
0.0
 30
0.0
  3
insertpoint-ECKELT
  1

  0
ATTDEF
  5
26F
330
26E
100
AcDbEntity
  8
insertpoint_ECKELT
100
AcDbText
 10
-2.457298772169167
 20
-0.0000000000000255
 30
0.0
 40
0.6
  1
LW
 72
     2
 11
-1.199999999999999
 21
-0.0000000000000255
 31
0.0
100
AcDbAttributeDefinition
  3
Nr. links
  2
LINKS
 70
     0
  0
ATTDEF
  5
270
330
26E
100
AcDbEntity
  8
insertpoint_ECKELT
100
AcDbText
 10
1.199999999999999
 20
-0.0000000000000255
 30
0.0
 40
0.6
  1
LW
100
AcDbAttributeDefinition
  3
Nr. rechts
  2
RECHTS
 70
     0
  0
LINE
  5
271
102
{ACAD_REACTORS
330
274
102
}
330
26E
100
AcDbEntity
  8
insertpoint_ECKELT
100
AcDbLine
 10
0.0
 20
1.799999999999999
 30
0.0
 11
0.0
 21
-1.799999999999999
 31
0.0
  0
LINE
  5
272
102
{ACAD_REACTORS
330
274
102
}
330
26E
100
AcDbEntity
  8
insertpoint_ECKELT
100
AcDbLine
 10
-1.8
 20
-0.0000000000000255
 30
0.0
 11
1.8
 21
-0.0000000000000255
 31
0.0
  0
CIRCLE
  5
273
102
{ACAD_REACTORS
330
274
102
}
330
26E
100
AcDbEntity
  8
insertpoint_ECKELT
100
AcDbCircle
 10
0.0
 20
0.0
 30
0.0
 40
1.199999999999999
  0
HATCH
  5
274
330
26E
100
AcDbEntity
  8
insertpoint_ECKELT
100
AcDbHatch
 10
0.0
 20
0.0
 30
0.0
210
0.0
220
0.0
230
1.0
  2
SOLID
 70
     1
 71
     1
 91
        2
 92
        7
 72
     1
 73
     1
 93
        3
 10
0.0
 20
-0.0000000000000255
 42
0.0
 10
0.0
 20
1.199999999999999
 42
0.4142135623731013
 10
-1.199999999999999
 20
-0.0000000000000255
 42
0.0
 97
        3
330
273
330
272
330
271
 92
        7
 72
     1
 73
     1
 93
        3
 10
1.199999999999999
 20
-0.0000000000000255
 42
0.0
 10
0.0
 20
-0.0000000000000255
 42
0.0
 10
0.0
 20
-1.199999999999999
 42
0.4142135623730888
 97
        3
330
272
330
271
330
273
 75
     0
 76
     1
 47
0.0223086566480813
 98
        2
 10
-0.3163651093721391
 20
0.2714132920773493
 10
0.7415965996738798
 20
-0.4513871917946231
  0
ENDBLK
  5
276
330
26E
100
AcDbEntity
  8
0
100
AcDbBlockEnd
  0
BLOCK
  5
E26
330
E22
100
AcDbEntity
  8
0
100
AcDbBlockBegin
  2
LW 3900-15-01
 70
     0
 10
0.0
 20
0.0
 30
0.0
  3
LW 3900-15-01
  1

  0
LINE
  5
E28
330
E22
100
AcDbEntity
  8
LW 3900-STADIP-01
 62
     3
100
AcDbLine
 10
19.5
 20
6.999999999999985
 30
0.0
 11
36.49999999999999
 21
7.0
 31
0.0
  0
LINE
  5
E29
330
E22
100
AcDbEntity
  8
LW 3900-STADIP-01
 62
     3
100
AcDbLine
 10
36.49999999999999
 20
-6.999999999999971
 30
0.0
 11
19.50000000000001
 21
-6.999999999999985
 31
0.0
  0
LINE
  5
E2A
330
E22
100
AcDbEntity
  8
LW 3900-STADIP-01
 62
     3
100
AcDbLine
 10
19.5
 20
6.999999999999985
 30
0.0
 11
19.50000000000002
 21
-6.999999999999992
 31
0.0
  0
LINE
  5
E2B
330
E22
100
AcDbEntity
  8
LW 3900-STADIP-01
 48
0.0
100
AcDbLine
 10
17.50000000000001
 20
-6.053000000000011
 30
0.0
 11
17.50000000000001
 21
6.053000000000011
 31
0.0
  0
LINE
  5
E2C
330
E22
100
AcDbEntity
  8
LW 3900-STADIP-01
 48
0.0
100
AcDbLine
 10
4.000000000000007
 20
8.499999999999971
 30
0.0
 11
4.000000000000007
 21
5.5
 31
0.0
  0
LINE
  5
E2D
330
E22
100
AcDbEntity
  8
LW 3900-STADIP-01
 48
0.0
100
AcDbLine
 10
4.000000000000014
 20
-5.500000000000028
 30
0.0
 11
4.000000000000014
 21
-8.5
 31
0.0
  0
LWPOLYLINE
  5
E2E
330
E22
100
AcDbEntity
  8
LW 3900-STADIP-01
 48
0.0
100
AcDbPolyline
 90
       25
 70
     0
 43
0.0
 10
25.26000023841858
 20
22.99999952316284
 10
25.28101802825928
 20
22.99768447875977
 10
25.3443563079834
 20
22.99094438552856
 10
25.45044423103333
 20
22.98007965087891
 10
25.59832931518555
 20
22.96570539474487
 10
25.78153968811035
 20
22.94918775558472
 10
25.99223614692688
 20
22.93196439743042
 10
26.23257995605469
 20
22.91472673416138
 10
26.50519848823547
 20
22.89817333221435
 10
26.80294872283936
 20
22.88374900817871
 10
27.11811901092529
 20
22.87283420562744
 10
27.44067312240601
 20
22.86605596542358
 10
27.75999904632568
 20
22.86372661590576
 10
28.07932497024536
 20
22.86605596542358
 10
28.40188146591187
 20
22.87283420562744
 10
28.7170517539978
 20
22.88374900817871
 10
29.01480318069458
 20
22.89817333221435
 10
29.28742052078247
 20
22.91472673416138
 10
29.52776313781738
 20
22.93196439743042
 10
29.73846078872681
 20
22.94918775558472
 10
29.92167116165161
 20
22.96570539474487
 10
30.06955505371094
 20
22.98007965087891
 10
30.17564416885376
 20
22.99094438552856
 10
30.23898244857788
 20
22.99768447875977
 10
30.25999904632568
 20
22.99999952316284
  0
LINE
  5
E2F
330
E22
100
AcDbEntity
  8
LW 3900-STADIP-01
 48
0.0
100
AcDbLine
 10
30.26
 20
16.99999999999997
 30
0.0
 11
25.26
 21
16.99999999999997
 31
0.0
  0
LINE
  5
E30
330
E22
100
AcDbEntity
  8
LW 3900-STADIP-01
 48
0.0
100
AcDbLine
 10
0.0000000000000142
 20
-5.500000000000028
 30
0.0
 11
4.000000000000014
 21
-5.500000000000028
 31
0.0
  0
LINE
  5
E31
330
E22
100
AcDbEntity
  8
LW 3900-STADIP-01
 48
0.0
100
AcDbLine
 10
4.000000000000007
 20
5.5
 30
0.0
 11
0.0
 21
5.5
 31
0.0
  0
LINE
  5
E32
330
E22
100
AcDbEntity
  8
LW 3900-STADIP-01
 48
0.0
100
AcDbLine
 10
4.866025403784448
 20
6.999999999999971
 30
0.0
 11
4.000000000000007
 21
5.5
 31
0.0
  0
LINE
  5
E33
330
E22
100
AcDbEntity
  8
LW 3900-STADIP-01
 48
0.0
100
AcDbLine
 10
4.000000000000007
 20
8.5
 30
0.0
 11
4.866025403784448
 21
6.999999999999971
 31
0.0
  0
LINE
  5
E34
330
E22
100
AcDbEntity
  8
LW 3900-STADIP-01
 48
0.0
100
AcDbLine
 10
0.0
 20
8.5
 30
0.0
 11
4.000000000000007
 21
8.5
 31
0.0
  0
LINE
  5
E35
330
E22
100
AcDbEntity
  8
LW 3900-STADIP-01
 48
0.0
100
AcDbLine
 10
5.0
 20
11.0
 30
0.0
 11
0.0
 21
16.0
 31
0.0
  0
LINE
  5
E36
330
E22
100
AcDbEntity
  8
LW 3900-STADIP-01
 48
0.0
100
AcDbLine
 10
16.76
 20
11.0
 30
0.0
 11
5.0
 21
11.0
 31
0.0
  0
LINE
  5
E37
330
E22
100
AcDbEntity
  8
LW 3900-STADIP-01
 48
0.0
100
AcDbLine
 10
16.76
 20
21.99999999999997
 30
0.0
 11
16.76000000000001
 21
11.0
 31
0.0
  0
LINE
  5
E38
330
E22
100
AcDbEntity
  8
LW 3900-STADIP-01
 48
0.0
100
AcDbLine
 10
18.76
 20
21.99999999999997
 30
0.0
 11
16.76000000000001
 21
21.99999999999997
 31
0.0
  0
LINE
  5
E39
330
E22
100
AcDbEntity
  8
LW 3900-STADIP-01
 48
0.0
100
AcDbLine
 10
18.76
 20
23.0
 30
0.0
 11
18.76
 21
21.99999999999997
 31
0.0
  0
LINE
  5
E3A
330
E22
100
AcDbEntity
  8
LW 3900-STADIP-01
 48
0.0
100
AcDbLine
 10
25.26
 20
23.0
 30
0.0
 11
18.76
 21
23.0
 31
0.0
  0
LINE
  5
E3B
330
E22
100
AcDbEntity
  8
LW 3900-STADIP-01
 48
0.0
100
AcDbLine
 10
25.26
 20
16.99999999999997
 30
0.0
 11
25.26
 21
23.0
 31
0.0
  0
LINE
  5
E3C
330
E22
100
AcDbEntity
  8
LW 3900-STADIP-01
 48
0.0
100
AcDbLine
 10
27.76
 20
15.55662432702593
 30
0.0
 11
25.26
 21
16.99999999999997
 31
0.0
  0
LINE
  5
E3D
330
E22
100
AcDbEntity
  8
LW 3900-STADIP-01
 48
0.0
100
AcDbLine
 10
30.26
 20
16.99999999999997
 30
0.0
 11
27.76
 21
15.55662432702593
 31
0.0
  0
LINE
  5
E3E
330
E22
100
AcDbEntity
  8
LW 3900-STADIP-01
 48
0.0
100
AcDbLine
 10
30.26
 20
23.0
 30
0.0
 11
30.26
 21
16.99999999999997
 31
0.0
  0
LINE
  5
E3F
330
E22
100
AcDbEntity
  8
LW 3900-STADIP-01
 48
0.0
100
AcDbLine
 10
31.55289321881344
 20
23.0
 30
0.0
 11
30.26
 21
23.0
 31
0.0
  0
ARC
  5
E40
330
E22
100
AcDbEntity
  8
LW 3900-STADIP-01
 48
0.0
100
AcDbCircle
 10
31.55289321881344
 20
22.5
 30
0.0
 40
0.5000000000000242
100
AcDbArc
 50
45.00000000000102
 51
90.0
  0
LINE
  5
E41
330
E22
100
AcDbEntity
  8
LW 3900-STADIP-01
 48
0.0
100
AcDbLine
 10
34.61355339059326
 20
20.14644660940669
 30
0.0
 11
31.90644660940672
 21
22.85355339059328
 31
0.0
  0
ARC
  5
E42
330
E22
100
AcDbEntity
  8
LW 3900-STADIP-01
 48
0.0
100
AcDbCircle
 10
34.26000000000003
 20
19.79289321881345
 30
0.0
 40
0.4999999999999716
100
AcDbArc
 50
0.0
 51
45.00000000000448
  0
LINE
  5
E43
330
E22
100
AcDbEntity
  8
LW 3900-STADIP-01
 48
0.0
100
AcDbLine
 10
34.76000000000001
 20
8.999999999999971
 30
0.0
 11
34.76
 21
19.79289321881345
 31
0.0
  0
LINE
  5
E44
330
E22
100
AcDbEntity
  8
LW 3900-STADIP-01
 48
0.0
100
AcDbLine
 10
35.49999999999999
 20
9.000000000000028
 30
0.0
 11
34.76
 21
9.000000000000028
 31
0.0
  0
LINE
  5
E45
330
E22
100
AcDbEntity
  8
LW 3900-STADIP-01
 48
0.0
100
AcDbLine
 10
36.49999999999999
 20
8.0
 30
0.0
 11
35.49999999999999
 21
9.000000000000028
 31
0.0
  0
LINE
  5
E46
330
E22
100
AcDbEntity
  8
LW 3900-STADIP-01
 48
0.0
100
AcDbLine
 10
17.5
 20
6.053000000000011
 30
0.0
 11
36.49999999999999
 21
6.053000000000025
 31
0.0
  0
LINE
  5
E47
330
E22
100
AcDbEntity
  8
LW 3900-STADIP-01
 48
0.0
100
AcDbLine
 10
14.0052988205952
 20
-0.0000000000000142
 30
0.0
 11
17.5
 21
6.053000000000011
 31
0.0
  0
LINE
  5
E48
330
E22
100
AcDbEntity
  8
LW 3900-STADIP-01
 48
0.0
100
AcDbLine
 10
17.50000000000001
 20
-6.053000000000011
 30
0.0
 11
14.00529882059519
 21
0.0000000000000071
 31
0.0
  0
LINE
  5
E49
330
E22
100
AcDbEntity
  8
LW 3900-STADIP-01
 48
0.0
100
AcDbLine
 10
36.49999999999999
 20
-6.052999999999997
 30
0.0
 11
17.50000000000001
 21
-6.053000000000011
 31
0.0
  0
LINE
  5
E4A
330
E22
100
AcDbEntity
  8
LW 3900-STADIP-01
 48
0.0
100
AcDbLine
 10
36.50000000000002
 20
-8.000000000000028
 30
0.0
 11
36.49999999999999
 21
8.0
 31
0.0
  0
LINE
  5
E4B
330
E22
100
AcDbEntity
  8
LW 3900-STADIP-01
 48
0.0
100
AcDbLine
 10
35.49999999999999
 20
-9.0
 30
0.0
 11
36.49999999999999
 21
-7.999999999999971
 31
0.0
  0
LINE
  5
E4C
330
E22
100
AcDbEntity
  8
LW 3900-STADIP-01
 48
0.0
100
AcDbLine
 10
34.76
 20
-9.0
 30
0.0
 11
35.49999999999999
 21
-9.0
 31
0.0
  0
LINE
  5
E4D
330
E22
100
AcDbEntity
  8
LW 3900-STADIP-01
 48
0.0
100
AcDbLine
 10
34.76000000000003
 20
-19.79289321881345
 30
0.0
 11
34.76000000000001
 21
-9.0
 31
0.0
  0
ARC
  5
E4E
330
E22
100
AcDbEntity
  8
LW 3900-STADIP-01
 48
0.0
100
AcDbCircle
 10
34.26000000000004
 20
-19.79289321881347
 30
0.0
 40
0.4999999999999708
100
AcDbArc
 50
314.999999999999
 51
0.0
  0
LINE
  5
E4F
330
E22
100
AcDbEntity
  8
LW 3900-STADIP-01
 48
0.0
100
AcDbLine
 10
31.90644660940675
 20
-22.85355339059325
 30
0.0
 11
34.61355339059327
 21
-20.14644660940672
 31
0.0
  0
ARC
  5
E50
330
E22
100
AcDbEntity
  8
LW 3900-STADIP-01
 48
0.0
100
AcDbCircle
 10
31.55289321881348
 20
-22.49999999999997
 30
0.0
 40
0.5000000000000249
100
AcDbArc
 50
270.0
 51
314.999999999999
  0
LINE
  5
E51
330
E22
100
AcDbEntity
  8
LW 3900-STADIP-01
 48
0.0
100
AcDbLine
 10
18.76000000000002
 20
-23.0
 30
0.0
 11
31.55289321881348
 21
-23.0
 31
0.0
  0
LINE
  5
E52
330
E22
100
AcDbEntity
  8
LW 3900-STADIP-01
 48
0.0
100
AcDbLine
 10
18.76000000000002
 20
-22.0
 30
0.0
 11
18.76000000000002
 21
-23.0
 31
0.0
  0
LINE
  5
E53
330
E22
100
AcDbEntity
  8
LW 3900-STADIP-01
 48
0.0
100
AcDbLine
 10
16.76000000000002
 20
-22.0
 30
0.0
 11
18.76000000000002
 21
-22.0
 31
0.0
  0
LINE
  5
E54
330
E22
100
AcDbEntity
  8
LW 3900-STADIP-01
 48
0.0
100
AcDbLine
 10
16.76000000000001
 20
-11.0
 30
0.0
 11
16.76000000000001
 21
-22.0
 31
0.0
  0
LINE
  5
E55
330
E22
100
AcDbEntity
  8
LW 3900-STADIP-01
 48
0.0
100
AcDbLine
 10
5.000000000000014
 20
-11.0
 30
0.0
 11
16.76000000000001
 21
-11.0
 31
0.0
  0
LINE
  5
E56
330
E22
100
AcDbEntity
  8
LW 3900-STADIP-01
 48
0.0
100
AcDbLine
 10
0.0000000000000142
 20
-16.0
 30
0.0
 11
5.000000000000014
 21
-11.0
 31
0.0
  0
LINE
  5
E57
330
E22
100
AcDbEntity
  8
LW 3900-STADIP-01
 48
0.0
100
AcDbLine
 10
0.0
 20
16.0
 30
0.0
 11
0.0000000000000142
 21
-16.0
 31
0.0
  0
LINE
  5
E58
330
E22
100
AcDbEntity
  8
LW 3900-STADIP-01
 48
0.0
100
AcDbLine
 10
4.000000000000014
 20
-8.5
 30
0.0
 11
0.0000000000000142
 21
-8.5
 31
0.0
  0
LINE
  5
E59
330
E22
100
AcDbEntity
  8
LW 3900-STADIP-01
 48
0.0
100
AcDbLine
 10
4.866025403784448
 20
-7.0
 30
0.0
 11
4.000000000000007
 21
-8.5
 31
0.0
  0
LINE
  5
E5A
330
E22
100
AcDbEntity
  8
LW 3900-STADIP-01
 48
0.0
100
AcDbLine
 10
4.000000000000007
 20
-5.500000000000028
 30
0.0
 11
4.866025403784448
 21
-7.0
 31
0.0
  0
INSERT
  5
E5B
330
E22
100
AcDbEntity
  8
insertpoint_ECKELT
100
AcDbBlockReference
 66
     1
  2
insertpoint-ECKELT
 10
0.0
 20
0.0
 30
0.0
  0
ATTRIB
  5
1162
330
E5B
100
AcDbEntity
  8
insertpoint_ECKELT
100
AcDbText
 10
-6.931514324693059
 20
-0.0000000000000284
 30
0.0
 40
0.6
  1
LW 3900/15-01
 72
     2
 11
-1.200000000000017
 21
-0.0000000000000284
 31
0.0
100
AcDbAttribute
  2
LINKS
 70
     0
  0
ATTRIB
  5
1163
330
E5B
100
AcDbEntity
  8
insertpoint_ECKELT
100
AcDbText
 10
1.199999999999988
 20
-0.0000000000000284
 30
0.0
 40
0.6
  1

100
AcDbAttribute
  2
RECHTS
 70
     0
  0
SEQEND
  5
1164
330
E5B
100
AcDbEntity
  8
insertpoint_ECKELT
  0
LINE
  5
E5F
330
E22
100
AcDbEntity
  8
LW 3900-STADIP-01
  6
MITTE2
 62
     3
100
AcDbLine
 10
40.18236088981617
 20
0.0
 30
0.0
 11
-4.816740571937998
 21
0.0
 31
0.0
  0
LINE
  5
E60
330
E22
100
AcDbEntity
  8
LW 3900-STADIP-01
  6
MITTE2
 62
     3
100
AcDbLine
 10
6.06676842937054
 20
6.999999999999971
 30
0.0
 11
-2.025328589565788
 21
6.999999999999971
 31
0.0
  0
LINE
  5
E61
330
E22
100
AcDbEntity
  8
LW 3900-STADIP-01
  6
MITTE2
 62
     3
100
AcDbLine
 10
6.06676842937054
 20
-6.999999999999971
 30
0.0
 11
-2.025328589565788
 21
-6.999999999999971
 31
0.0
  0
LINE
  5
E62
330
E22
100
AcDbEntity
  8
LW 3900-STADIP-01
  6
MITTE2
 62
     3
100
AcDbLine
 10
27.76
 20
13.27820912973922
 30
0.0
 11
27.76
 21
25.1521294245251
 31
0.0
  0
HATCH
  5
E63
330
E22
100
AcDbEntity
  8
LW 3900-STADIP-01
 62
     1
100
AcDbHatch
 10
0.0
 20
0.0
 30
0.0
210
0.0
220
0.0
230
1.0
  2
SOLID
 70
     1
 71
     0
 91
        5
 92
        7
 72
     0
 73
     1
 93
       76
 10
20.83600150507754
 20
-18.08856979069733
 10
20.86786033445036
 20
-18.03698882885564
 10
20.98601845868165
 20
-17.8857464298396
 10
21.12049653389442
 20
-17.74532229957711
 10
21.26651644035586
 20
-17.61693773786376
 10
21.43018523643786
 20
-17.50003145494807
 10
21.60557218980261
 20
-17.39785357312635
 10
21.78732512240292
 20
-17.30650189354352
 10
21.96849405786866
 20
-17.23698358109735
 10
19.7113561196686
 20
-17.23698358109735
 10
19.49845956726863
 20
-17.24567323629733
 10
19.29642508386865
 20
-17.27174220189735
 10
19.10090784186865
 20
-17.31301806409735
 10
18.91625266886876
 20
-17.36732840909732
 10
18.74028715106862
 20
-17.43684565069733
 10
18.5730112884687
 20
-17.51939737509738
 10
18.42244302592177
 20
-17.61472289264125
 10
18.27973542546873
 20
-17.72143185849737
 10
18.15429416989809
 20
-17.84048013473742
 10
18.04302921782067
 20
-17.96873944548932
 10
17.94301128646872
 20
-18.10594910109731
 10
17.86045956206868
 20
-18.25150082569732
 10
17.79745956186865
 20
-18.40574220549749
 10
17.74749404446873
 20
-18.56650082669725
 10
17.71925266506871
 20
-18.73160427549734
 10
17.71056300986867
 20
-18.90539737949731
 10
17.72142507886871
 20
-19.0791904834974
 10
17.75183887206867
 20
-19.24646634609738
 10
17.8061492170687
 20
-19.40722496729737
 10
17.87566645866865
 20
-19.56363876089736
 10
17.96473542446875
 20
-19.71136289929743
 10
18.07118370066865
 20
-19.85256979629733
 10
18.1938816320927
 20
-19.98378358981736
 10
18.3300806808009
 20
-20.10491738330532
 10
18.47742508126867
 20
-20.21536290089736
 10
18.63818370246871
 20
-20.31312152189733
 10
18.81381032371592
 20
-20.39801945320133
 10
18.99445956566864
 20
-20.47170772929732
 10
19.18563198006875
 20
-20.52819048809735
 10
19.38549404966869
 20
-20.57163876409735
 10
19.59404577446866
 20
-20.59770772969736
 10
19.80476991306863
 20
-20.60639738489735
 10
21.92394099882124
 20
-20.60639738489735
 10
21.76339713476874
 20
-20.54332658116246
 10
21.57983299096633
 20
-20.45270630763972
 10
21.41136658479626
 20
-20.34817661470808
 10
21.24853369003551
 20
-20.23255837628264
 10
21.10462132166532
 20
-20.10276877974277
 10
20.97718542818097
 20
-19.96341509651429
 10
20.86348007343763
 20
-19.81292685180168
 10
20.81150884198905
 20
-19.72874220969734
 10
19.78304577506866
 20
-19.72874220969734
 10
19.65093694706308
 20
-19.72118220967334
 10
19.52018370526866
 20
-19.70084841650535
 10
19.39201129106873
 20
-19.66791462329737
 10
19.27687335966868
 20
-19.62229393349733
 10
19.17192839381828
 20
-19.56581117469736
 10
19.07377873833427
 20
-19.49820565724136
 10
18.98359749666871
 20
-19.42025945009735
 10
18.91190784126871
 20
-19.33553531189736
 10
20.63942915552752
 20
-19.33553531189736
 10
20.62884468825449
 20
-19.30289987113903
 10
20.59273288029004
 20
-19.11752592358792
 10
20.58068922750834
 20
-18.92723620963719
 10
20.59271089993768
 20
-18.73248511628222
 10
20.629016621613
 20
-18.54611574501567
 10
20.64561532428808
 20
-18.49698358509735
 10
18.8749768066687
 20
-18.49698358509735
 10
18.94449404826866
 20
-18.40139737789744
 10
19.02704577266865
 20
-18.31884565349733
 10
19.12213666952225
 20
-18.24898082568935
 10
19.22473542846869
 20
-18.19067323929735
 10
19.34342742884546
 20
-18.14670358398538
 10
19.46587336026874
 20
-18.11463875629735
 10
19.6027354296687
 20
-18.09508703209738
 10
19.74611474046872
 20
-18.08856979069733
 97
        0
 92
        7
 72
     0
 73
     1
 93
       72
 10
22.56446537010549
 20
-18.10316841143336
 10
22.68732840497829
 20
-18.08509392861734
 10
22.81139061226872
 20
-18.07988013549735
 10
24.08008027146871
 20
-18.07988013549735
 10
23.23283888946866
 20
-18.89453531049733
 10
24.99901130886871
 20
-20.61291462629734
 10
26.31766648546868
 20
-20.61291462629734
 10
24.60363199726867
 20
-18.87063875869737
 10
26.28508027846868
 20
-17.23698358109735
 10
22.84614923306878
 20
-17.23698358109735
 10
22.63816233585663
 20
-17.24775875354535
 10
22.43144412830383
 20
-17.27321944328136
 10
22.22701130006873
 20
-17.31301806409735
 10
22.03366647186868
 20
-17.36950082289738
 10
21.84683888506867
 20
-17.44119047829733
 10
21.6756787465942
 20
-17.52721806477737
 10
21.51011474606872
 20
-17.6236732374974
 10
21.35804578006871
 20
-17.73229392749735
 10
21.22234812446555
 20
-17.85160289339333
 10
21.0973561240687
 20
-17.98212151449738
 10
20.98873543406864
 20
-18.1211559976974
 10
20.89749405446871
 20
-18.26888013609724
 10
20.82580439906871
 20
-18.42312151589729
 10
20.77149405406867
 20
-18.58388013709734
 10
20.73890784706872
 20
-18.75115599969731
 10
20.72804577806868
 20
-18.92712151749745
 10
20.73890784706867
 20
-19.09874220769737
 10
20.77149405406867
 20
-19.26601807029735
 10
20.82363198526866
 20
-19.42677669149734
 10
20.89314922686867
 20
-19.58101807129733
 10
20.98499019267745
 20
-19.7297849683213
 10
21.0903696412879
 20
-19.86925393428143
 10
21.20837515890388
 20
-19.9982953140013
 10
21.34066646966868
 20
-20.11760427989734
 10
21.4927875735999
 20
-20.22561669403339
 10
21.65132164306873
 20
-20.32398359089737
 10
21.82294233326871
 20
-20.40870772909736
 10
22.00542509246866
 20
-20.48039738449737
 10
22.19965626549912
 20
-20.53444703984135
 10
22.39645957646865
 20
-20.57815600549734
 10
22.60501130126874
 20
-20.60422497109735
 10
22.81573543986866
 20
-20.61291462629734
 10
24.71876992866867
 20
-20.61291462629734
 10
23.83242509826868
 20
-19.73960427869733
 10
22.81573543986866
 20
-19.73960427869733
 10
22.74906840517417
 20
-19.73585698575803
 10
22.64812068071591
 20
-19.72587462348136
 10
22.52798619757589
 20
-19.70441117513738
 10
22.41086702479031
 20
-19.67008703709737
 10
22.3093718520543
 20
-19.62915876110534
 10
22.25323667946224
 20
-19.60100427825731
 10
22.19955198963663
 20
-19.5684180712573
 10
22.06699129956069
 20
-19.46909531232134
 10
21.99338992001667
 20
-19.39905669140935
 10
21.9383235750144
 20
-19.33119048429742
 10
21.88961805761829
 20
-19.25863186337736
 10
21.85025391956224
 20
-19.18146772520137
 10
21.82083074705507
 20
-19.10004565597742
 10
21.80013198836865
 20
-19.01288841432134
 10
21.79261543662067
 20
-18.92355875886542
 10
21.79397102283189
 20
-18.86125393108139
 10
21.79997557457511
 20
-18.79912289640148
 10
21.81213240219989
 20
-18.73594910309734
 10
21.8303459194991
 20
-18.67425255117737
 10
21.87399405756866
 20
-18.57553806810543
 10
21.9155219197695
 20
-18.50767186099338
 10
21.97860012686629
 20
-18.42963875729734
 10
22.10800206723109
 20
-18.30311602024372
 10
22.16726992056873
 20
-18.26305806711335
 10
22.24356509322467
 20
-18.21874082559341
 10
22.32758536935346
 20
-18.17659599787336
 10
22.44412233524064
 20
-18.13375599773738
 97
        0
 92
        7
 72
     0
 73
     1
 93
       57
 10
27.12250235009275
 20
-18.12524013564135
 10
27.25397683326872
 20
-18.08526772172135
 10
27.38866648886863
 20
-18.05815599749732
 10
27.53204579966859
 20
-18.04946634229733
 10
28.77249407946868
 20
-18.04946634229733
 10
28.77249407946868
 20
-17.22394909829737
 10
27.53856304106875
 20
-17.22394909829737
 10
27.32783890246872
 20
-17.23263875349735
 10
27.12145959146874
 20
-17.26088013289731
 10
26.92376993566875
 20
-17.30215599509731
 10
26.73476993506875
 20
-17.35646634009734
 10
26.5501147620688
 20
-17.42815599549735
 10
26.38370786498853
 20
-17.51079461644937
 10
26.22488703689822
 20
-17.6072497891694
 10
26.07480800193911
 20
-17.71673944468935
 10
25.94024869116719
 20
-17.8359615140333
 10
25.82018372526874
 20
-17.96474220409734
 10
25.71590786286872
 20
-18.10377668729737
 10
25.63118372466868
 20
-18.24932841189738
 10
25.55949406926867
 20
-18.40356979169738
 10
25.50952855186869
 20
-18.56432841289725
 10
25.47694234486868
 20
-18.73160427549729
 10
25.4660802758687
 20
-18.90539737949731
 10
25.47694234486868
 20
-19.07919048349734
 10
25.50952855186869
 20
-19.24646634609738
 10
25.56166648306867
 20
-19.40722496729737
 10
25.63335613846868
 20
-19.56363876089736
 10
25.72025269046872
 20
-19.71136289929737
 10
25.82909931150385
 20
-19.85091876180937
 10
25.94895572567747
 20
-19.98126358980934
 10
26.0853833123175
 20
-20.10257117640137
 10
26.2329423472687
 20
-20.21319048709736
 10
26.39370096846869
 20
-20.31094910809739
 10
26.56749407246866
 20
-20.39567324629738
 10
26.75214924546867
 20
-20.46953531549732
 10
26.94332165986872
 20
-20.52601807429736
 10
27.14318372946865
 20
-20.56946635029735
 10
27.34956304046869
 20
-20.59336290209737
 10
27.56245959286871
 20
-20.60205255729735
 10
28.77249407946868
 20
-20.60205255729735
 10
28.77249407946868
 20
-19.74394910629738
 10
27.53856304106863
 20
-19.74394910629738
 10
27.40491614409267
 20
-19.73360841660937
 10
27.27265959194869
 20
-19.71162358895336
 10
27.15204717777271
 20
-19.67729945091335
 10
27.03604028085271
 20
-19.62933255420935
 10
26.92637683222869
 20
-19.56841807125735
 10
26.82931338364471
 20
-19.50081255380135
 10
26.74189545233269
 20
-19.42104151906537
 10
26.66742510726868
 20
-19.33553531189736
 10
28.77249407946868
 20
-19.33553531189736
 10
28.77249407946868
 20
-18.50784565409734
 10
26.63049407266868
 20
-18.50784565409734
 10
26.70001131426869
 20
-18.41008703309737
 10
26.78690786626861
 20
-18.32101806729738
 10
26.88805545279671
 20
-18.24472289464134
 10
26.9954595910687
 20
-18.17763875649737
 97
        0
 92
        7
 72
     0
 73
     1
 93
        6
 10
29.00276994226868
 20
-17.23698358109735
 10
29.00276994226868
 20
-20.60639738489735
 10
31.24035615626871
 20
-20.60639738489735
 10
31.24035615626871
 20
-19.73960427869733
 10
30.0259768420687
 20
-19.73960427869733
 10
30.0259768420687
 20
-17.23698358109735
 97
        0
 92
        7
 72
     0
 73
     1
 93
        8
 10
30.25842511866869
 20
-17.23698358109735
 10
30.25842511866869
 20
-18.06250082509737
 10
31.49235615706868
 20
-18.06250082509737
 10
31.49235615706868
 20
-20.61291462629734
 10
32.51773547066869
 20
-20.61291462629734
 10
32.51773547066869
 20
-18.06250082509737
 10
33.76035616426872
 20
-18.06250082509737
 10
33.76035616426872
 20
-17.23698358109735
 97
        0
 75
     0
 76
     1
 47
0.0142553043587597
 98
        5
 10
20.14566163114392
 20
-17.67943325068646
 10
22.41315884448647
 20
-17.82198623569226
 10
26.90537057668802
 20
-17.76496506314456
 10
29.62921966051959
 20
-17.52262483845228
 10
31.04105764274646
 20
-17.62241197086561
  0
LWPOLYLINE
  5
E65
330
E22
100
AcDbEntity
  8
LW 3900-STADIP-01
 62
     1
100
AcDbPolyline
 90
        8
 70
     1
 43
0.0
 10
32.51773547066869
 20
-18.06250082509737
 10
32.51773547066869
 20
-20.61291462629734
 10
31.49235615706868
 20
-20.61291462629734
 10
31.49235615706868
 20
-18.06250082509737
 10
30.25842511866869
 20
-18.06250082509737
 10
30.25842511866869
 20
-17.23698358109735
 10
33.76035616426872
 20
-17.23698358109735
 10
33.76035616426872
 20
-18.06250082509737
  0
LWPOLYLINE
  5
E66
330
E22
100
AcDbEntity
  8
LW 3900-STADIP-01
 62
     1
100
AcDbPolyline
 90
       73
 70
     1
 43
0.0
 10
22.81573543986871
 20
-19.73960427869733
 10
23.83242509826868
 20
-19.73960427869733
 10
24.71876992866867
 20
-20.61291462629734
 10
22.81573543986871
 20
-20.61291462629734
 10
22.60501130126868
 20
-20.60422497109735
 10
22.39645957646871
 20
-20.57815600549734
 10
22.19965626549912
 20
-20.53444703984135
 10
22.00542509246872
 20
-20.48039738449737
 10
21.82294233326871
 20
-20.40870772909736
 10
21.65132164306868
 20
-20.32398359089737
 10
21.4927875735999
 20
-20.22561669403334
 10
21.34066646966868
 20
-20.11760427989734
 10
21.20837515890388
 20
-19.99829531400135
 10
21.0903696412879
 20
-19.86925393428137
 10
20.98499019267751
 20
-19.72978496832135
 10
20.89314922686867
 20
-19.58101807129733
 10
20.82363198526866
 20
-19.42677669149734
 10
20.77149405406867
 20
-19.26601807029735
 10
20.73890784706867
 20
-19.09874220769737
 10
20.72804577806868
 20
-18.92712151749734
 10
20.73890784706867
 20
-18.75115599969737
 10
20.77149405406867
 20
-18.58388013709734
 10
20.82580439906871
 20
-18.42312151589735
 10
20.89749405446866
 20
-18.26888013609735
 10
20.98873543406869
 20
-18.12115599769734
 10
21.0973561240687
 20
-17.98212151449738
 10
21.22234812446549
 20
-17.85160289339333
 10
21.35804578006866
 20
-17.73229392749735
 10
21.51011474606866
 20
-17.62367323749734
 10
21.67567874659431
 20
-17.52721806477737
 10
21.84683888506867
 20
-17.44119047829738
 10
22.03366647186868
 20
-17.36950082289738
 10
22.22701130006868
 20
-17.31301806409735
 10
22.43144412830389
 20
-17.27321944328136
 10
22.63816233585668
 20
-17.24775875354535
 10
22.84614923306866
 20
-17.23698358109735
 10
26.28508027846868
 20
-17.23698358109735
 10
24.60363199726867
 20
-18.87063875869737
 10
26.31766648546868
 20
-20.61291462629734
 10
24.99901130886871
 20
-20.61291462629734
 10
23.23283888946866
 20
-18.89453531049733
 10
24.08008027146871
 20
-18.07988013549735
 10
22.81139061226872
 20
-18.07988013549735
 10
22.68732840497829
 20
-18.08509392861734
 10
22.56446537010549
 20
-18.10316841143336
 10
22.4441223352407
 20
-18.13375599773738
 10
22.32758536935352
 20
-18.17659599787336
 10
22.24356509322467
 20
-18.21874082559336
 10
22.16726992056868
 20
-18.26305806711335
 10
22.12702812733749
 20
-18.29025668788935
 10
22.08951488583909
 20
-18.32119186040134
 10
21.97860012686629
 20
-18.42963875729734
 10
21.9155219197695
 20
-18.50767186099338
 10
21.87399405756866
 20
-18.57553806810537
 10
21.8303459194991
 20
-18.67425255117737
 10
21.81213240219989
 20
-18.73594910309734
 10
21.79997557457511
 20
-18.79912289640137
 10
21.79397102283189
 20
-18.86125393108133
 10
21.79261543662067
 20
-18.92355875886537
 10
21.80013198836871
 20
-19.01288841432134
 10
21.82083074705507
 20
-19.10004565597737
 10
21.8502539195623
 20
-19.18146772520137
 10
21.88961805761829
 20
-19.25863186337736
 10
21.93832357501429
 20
-19.33119048429736
 10
21.99338992001667
 20
-19.39905669140935
 10
22.06699129956069
 20
-19.46909531232134
 10
22.19955198963668
 20
-19.56841807125735
 10
22.2532366794623
 20
-19.60100427825736
 10
22.3093718520543
 20
-19.62915876110534
 10
22.41086702479031
 20
-19.67008703709737
 10
22.52798619757589
 20
-19.70441117513732
 10
22.64812068071591
 20
-19.72587462348136
 10
22.74906840517428
 20
-19.73585698575803
  0
LWPOLYLINE
  5
E67
330
E22
100
AcDbEntity
  8
LW 3900-STADIP-01
 62
     1
100
AcDbPolyline
 90
       76
 70
     1
 43
0.0
 10
21.60557218980261
 20
-17.39785357312635
 10
21.4301852364378
 20
-17.50003145494807
 10
21.26651644035581
 20
-17.61693773786376
 10
21.12049653389442
 20
-17.74532229957711
 10
20.98601845868159
 20
-17.88574642983966
 10
20.86786033445042
 20
-18.03698882885553
 10
20.83600150507754
 20
-18.08856979069733
 10
19.74611474046866
 20
-18.08856979069733
 10
19.6027354296687
 20
-18.09508703209732
 10
19.46587336026868
 20
-18.11463875629735
 10
19.34342742884546
 20
-18.14670358398538
 10
19.22473542846869
 20
-18.19067323929735
 10
19.12213666952231
 20
-18.24898082568935
 10
19.0270457726687
 20
-18.31884565349733
 10
18.94449404826866
 20
-18.40139737789732
 10
18.8749768066687
 20
-18.49698358509735
 10
20.64561532428808
 20
-18.49698358509735
 10
20.629016621613
 20
-18.54611574501567
 10
20.59271089993768
 20
-18.73248511628228
 10
20.58068922750839
 20
-18.92723620963719
 10
20.59273288029004
 20
-19.11752592358797
 10
20.62884468825455
 20
-19.30289987113897
 10
20.63942915552752
 20
-19.33553531189736
 10
18.91190784126871
 20
-19.33553531189736
 10
18.98359749666871
 20
-19.42025945009735
 10
19.07377873833427
 20
-19.49820565724136
 10
19.17192839381828
 20
-19.56581117469736
 10
19.27687335966868
 20
-19.62229393349733
 10
19.39201129106868
 20
-19.66791462329737
 10
19.52018370526866
 20
-19.70084841650535
 10
19.65093694706308
 20
-19.72118220967334
 10
19.78304577506866
 20
-19.72874220969734
 10
20.81150884198905
 20
-19.72874220969734
 10
20.86348007343763
 20
-19.81292685180162
 10
20.97718542818097
 20
-19.96341509651429
 10
21.10462132166532
 20
-20.10276877974277
 10
21.24853369003551
 20
-20.23255837628259
 10
21.41136658479626
 20
-20.34817661470808
 10
21.57983299096633
 20
-20.45270630763972
 10
21.76339713476874
 20
-20.54332658116246
 10
21.92394099882124
 20
-20.60639738489735
 10
19.80476991306869
 20
-20.60639738489735
 10
19.59404577446866
 20
-20.59770772969736
 10
19.38549404966869
 20
-20.57163876409735
 10
19.1856319800687
 20
-20.52819048809735
 10
18.9944595656687
 20
-20.47170772929738
 10
18.81381032371586
 20
-20.39801945320133
 10
18.63818370246871
 20
-20.31312152189733
 10
18.47742508126867
 20
-20.21536290089736
 10
18.33008068080095
 20
-20.10491738330538
 10
18.1938816320927
 20
-19.98378358981736
 10
18.0711837006687
 20
-19.85256979629733
 10
17.96473542446869
 20
-19.71136289929737
 10
17.87566645866871
 20
-19.56363876089736
 10
17.8061492170687
 20
-19.40722496729737
 10
17.75183887206867
 20
-19.24646634609738
 10
17.72142507886871
 20
-19.07919048349734
 10
17.71056300986867
 20
-18.90539737949737
 10
17.71925266506866
 20
-18.73160427549734
 10
17.74749404446867
 20
-18.56650082669736
 10
17.79745956186865
 20
-18.40574220549737
 10
17.86045956206868
 20
-18.25150082569738
 10
17.94301128646867
 20
-18.10594910109736
 10
18.04302921782067
 20
-17.96873944548937
 10
18.15429416989803
 20
-17.84048013473736
 10
18.27973542546868
 20
-17.72143185849737
 10
18.42244302592171
 20
-17.61472289264137
 10
18.5730112884687
 20
-17.51939737509732
 10
18.74028715106868
 20
-17.43684565069733
 10
18.9162526688687
 20
-17.36732840909732
 10
19.10090784186871
 20
-17.31301806409735
 10
19.2964250838687
 20
-17.27174220189735
 10
19.49845956726869
 20
-17.24567323629733
 10
19.71135611966871
 20
-17.23698358109735
 10
21.96849405786872
 20
-17.23698358109735
 10
21.78732512240292
 20
-17.30650189354352
  0
LWPOLYLINE
  5
E68
330
E22
100
AcDbEntity
  8
LW 3900-STADIP-01
 62
     1
100
AcDbPolyline
 90
        6
 70
     1
 43
0.0
 10
31.24035615626871
 20
-20.60639738489735
 10
29.00276994226868
 20
-20.60639738489735
 10
29.00276994226868
 20
-17.23698358109735
 10
30.0259768420687
 20
-17.23698358109735
 10
30.0259768420687
 20
-19.73960427869733
 10
31.24035615626871
 20
-19.73960427869733
  0
LWPOLYLINE
  5
E69
330
E22
100
AcDbEntity
  8
LW 3900-STADIP-01
 62
     1
100
AcDbPolyline
 90
       57
 70
     1
 43
0.0
 10
25.94895572567747
 20
-19.98126358980934
 10
25.8290993115039
 20
-19.85091876180937
 10
25.72025269046867
 20
-19.71136289929737
 10
25.63335613846868
 20
-19.56363876089736
 10
25.56166648306867
 20
-19.40722496729737
 10
25.50952855186869
 20
-19.24646634609738
 10
25.47694234486868
 20
-19.07919048349734
 10
25.4660802758687
 20
-18.90539737949737
 10
25.47694234486868
 20
-18.73160427549734
 10
25.50952855186869
 20
-18.56432841289737
 10
25.55949406926867
 20
-18.40356979169738
 10
25.63118372466868
 20
-18.24932841189732
 10
25.71590786286867
 20
-18.10377668729737
 10
25.82018372526869
 20
-17.96474220409734
 10
25.94024869116708
 20
-17.83596151403336
 10
26.07480800193911
 20
-17.71673944468935
 10
26.22488703689827
 20
-17.60724978916934
 10
26.3837078649887
 20
-17.51079461644937
 10
26.55011476206868
 20
-17.42815599549735
 10
26.73476993506869
 20
-17.35646634009734
 10
26.92376993566869
 20
-17.30215599509736
 10
27.12145959146869
 20
-17.26088013289737
 10
27.32783890246866
 20
-17.23263875349735
 10
27.53856304106869
 20
-17.22394909829737
 10
28.77249407946868
 20
-17.22394909829737
 10
28.77249407946868
 20
-18.04946634229733
 10
27.5320457996687
 20
-18.04946634229733
 10
27.38866648886869
 20
-18.05815599749732
 10
27.25397683326866
 20
-18.08526772172135
 10
27.1225023500927
 20
-18.12524013564135
 10
26.9954595910687
 20
-18.17763875649737
 10
26.88805545279671
 20
-18.24472289464134
 10
26.78690786626867
 20
-18.32101806729733
 10
26.70001131426869
 20
-18.41008703309737
 10
26.63049407266868
 20
-18.50784565409734
 10
28.77249407946868
 20
-18.50784565409734
 10
28.77249407946868
 20
-19.33553531189736
 10
26.66742510726868
 20
-19.33553531189736
 10
26.74189545233269
 20
-19.42104151906537
 10
26.82931338364471
 20
-19.50081255380135
 10
26.92637683222869
 20
-19.56841807125735
 10
27.03604028085271
 20
-19.62933255420935
 10
27.15204717777271
 20
-19.67729945091335
 10
27.27265959194869
 20
-19.71162358895336
 10
27.40491614409267
 20
-19.73360841660937
 10
27.53856304106869
 20
-19.74394910629738
 10
28.77249407946868
 20
-19.74394910629738
 10
28.77249407946868
 20
-20.60205255729735
 10
27.56245959286871
 20
-20.60205255729735
 10
27.34956304046869
 20
-20.59336290209737
 10
27.14318372946871
 20
-20.56946635029735
 10
26.94332165986867
 20
-20.52601807429736
 10
26.75214924546867
 20
-20.46953531549732
 10
26.56749407246866
 20
-20.39567324629738
 10
26.39370096846869
 20
-20.31094910809733
 10
26.2329423472687
 20
-20.21319048709736
 10
26.0853833123175
 20
-20.10257117640137
  0
HATCH
  5
116F
330
E22
100
AcDbEntity
  8
LW 3900-STADIP-01
 62
     8
100
AcDbHatch
 10
0.0
 20
0.0
 30
0.0
210
0.0
220
0.0
230
1.0
  2
ANSI31
 70
     0
 71
     0
 91
        4
 92
        7
 72
     1
 73
     1
 93
       30
 10
34.76
 20
19.79289321881345
 42
0.1989123673796531
 10
34.61355339059327
 20
20.14644660940668
 42
0.0
 10
31.90644660940672
 20
22.85355339059328
 42
0.1989123673796651
 10
31.55289321881341
 20
23.0
 42
0.0
 10
30.26
 20
23.0
 42
0.0
 10
30.26
 20
16.99999999999995
 42
0.0
 10
27.76
 20
15.55662432702593
 42
0.0
 10
25.26
 20
16.99999999999997
 42
0.0
 10
25.26
 20
22.99999999999998
 42
0.0
 10
18.75999999999999
 20
23.0
 42
0.0
 10
18.76
 20
21.99999999999997
 42
0.0
 10
16.76
 20
21.99999999999997
 42
0.0
 10
16.76000000000001
 20
11.0
 42
0.0
 10
4.999999999999997
 20
11.0
 42
0.0
 10
0.0
 20
16.0
 42
0.0
 10
0.0000000000000033
 20
8.5
 42
0.0
 10
4.000000000000016
 20
8.5
 42
0.0
 10
4.866025403784445
 20
6.999999999999971
 42
0.0
 10
4.000000000000007
 20
5.499999999999992
 42
0.0
 10
0.0000000000000047
 20
5.5
 42
0.0
 10
0.0000000000000066
 20
1.200000000000002
 42
-0.4142135623730942
 10
1.199999999999999
 20
0.0
 42
0.0
 10
14.00529882059521
 20
-0.0000000000000071
 42
0.0
 10
17.5
 20
6.053000000000004
 42
0.0
 10
19.5
 20
6.053000000000011
 42
0.0
 10
19.5
 20
6.999999999999985
 42
0.0
 10
36.49999999999999
 20
7.000000000000014
 42
0.0
 10
36.49999999999999
 20
8.0
 42
0.0
 10
35.50000000000001
 20
9.000000000000042
 42
0.0
 10
34.76000000000002
 20
9.000000000000042
 42
0.0
 97
        0
 92
       23
 72
     0
 73
     1
 93
        4
 10
36.49999999999999
 20
7.0
 10
19.49999999999999
 20
6.999999999999985
 10
19.49999999999999
 20
6.053000000000011
 10
36.49999999999999
 20
6.053000000000004
 97
        0
 92
        7
 72
     1
 73
     1
 93
       26
 10
34.76000000000001
 20
-8.999999999999992
 42
0.0
 10
35.49999999999999
 20
-8.999999999999992
 42
0.0
 10
36.50000000000002
 20
-7.99999999999995
 42
0.0
 10
36.50000000000001
 20
-6.999999999999978
 42
0.0
 10
19.50000000000001
 20
-6.999999999999985
 42
0.0
 10
19.50000000000001
 20
-6.053000000000011
 42
0.0
 10
17.50000000000001
 20
-6.053000000000011
 42
0.0
 10
14.0052988205952
 20
-0.0000000000000071
 42
0.0
 10
1.199999999999999
 20
0.0
 42
-0.4142135623730958
 10
0.0
 20
-1.200000000000002
 42
0.0
 10
0.0
 20
-1.799999999999997
 42
0.0
 10
0.0000000000000039
 20
-5.500000000000028
 42
0.0
 10
4.000000000000008
 20
-5.500000000000028
 42
0.0
 10
4.866025403784449
 20
-7.0
 42
0.0
 10
4.000000000000007
 20
-8.5
 42
0.0
 10
0.0000000000000109
 20
-8.5
 42
0.0
 10
0.0000000000000143
 20
-15.99999999999999
 42
0.0
 10
5.00000000000002
 20
-11.0
 42
0.0
 10
16.76000000000001
 20
-10.99999999999999
 42
0.0
 10
16.76000000000001
 20
-22.0
 42
0.0
 10
18.76000000000002
 20
-22.0
 42
0.0
 10
18.76000000000002
 20
-23.0
 42
0.0
 10
31.55289321881348
 20
-23.0
 42
0.1989123673796542
 10
31.90644660940675
 20
-22.85355339059325
 42
0.0
 10
34.61355339059327
 20
-20.14644660940672
 42
0.1989123673796761
 10
34.76000000000003
 20
-19.79289321881345
 42
0.0
 97
        0
 92
        7
 72
     0
 73
     1
 93
        4
 10
36.50000000000002
 20
-6.053000000000004
 10
19.50000000000001
 20
-6.053000000000018
 10
19.50000000000002
 20
-6.999999999999992
 10
36.50000000000002
 20
-6.999999999999971
 97
        0
 75
     0
 76
     1
 52
0.0
 41
0.75
 77
     0
 78
     1
 53
45.0
 43
-0.7463748552439356
 44
-57.7561077826974
 45
-1.683798022700465
 46
1.683798022700466
 79
     0
 47
0.0875504838890995
 98
        4
 10
24.08439232110985
 20
12.12364387097736
 10
22.77028155807333
 20
6.520412859684512
 10
23.90917736449459
 20
-12.82824390376819
 10
22.77028155807333
 20
-6.34950829497464
1001
ACAD
1010
0.0
1020
0.0
1030
0.0
  0
ENDBLK
  5
E27
330
E22
100
AcDbEntity
  8
0
100
AcDbBlockEnd
  0
BLOCK
  5
E6F
330
E6B
100
AcDbEntity
  8
0
100
AcDbBlockBegin
  2
LW 3900-20-01
 70
     0
 10
0.0
 20
0.0
 30
0.0
  3
LW 3900-20-01
  1

  0
LINE
  5
E71
330
E6B
100
AcDbEntity
  8
LW 3900-STADIP-01
 62
     3
100
AcDbLine
 10
24.5
 20
6.999999999999989
 30
0.0
 11
41.49999999999999
 21
7.0
 31
0.0
  0
LINE
  5
E72
330
E6B
100
AcDbEntity
  8
LW 3900-STADIP-01
 62
     3
100
AcDbLine
 10
41.49999999999999
 20
-6.999999999999971
 30
0.0
 11
24.50000000000001
 21
-6.999999999999982
 31
0.0
  0
LINE
  5
E73
330
E6B
100
AcDbEntity
  8
LW 3900-STADIP-01
 62
     3
100
AcDbLine
 10
24.5
 20
6.999999999999989
 30
0.0
 11
24.50000000000001
 21
-6.999999999999982
 31
0.0
  0
LINE
  5
E74
330
E6B
100
AcDbEntity
  8
LW 3900-STADIP-01
 48
0.0
100
AcDbLine
 10
22.50000000000001
 20
-6.053000000000007
 30
0.0
 11
22.50000000000001
 21
6.053000000000015
 31
0.0
  0
LINE
  5
E75
330
E6B
100
AcDbEntity
  8
LW 3900-STADIP-01
 48
0.0
100
AcDbLine
 10
4.000000000000007
 20
8.499999999999971
 30
0.0
 11
4.000000000000007
 21
5.5
 31
0.0
  0
LINE
  5
E76
330
E6B
100
AcDbEntity
  8
LW 3900-STADIP-01
 48
0.0
100
AcDbLine
 10
4.000000000000014
 20
-5.500000000000028
 30
0.0
 11
4.000000000000014
 21
-8.5
 31
0.0
  0
LWPOLYLINE
  5
E77
330
E6B
100
AcDbEntity
  8
LW 3900-STADIP-01
 48
0.0
100
AcDbPolyline
 90
       25
 70
     0
 43
0.0
 10
30.02000023841858
 20
22.99999952316284
 10
30.04101802825927
 20
22.99768447875977
 10
30.10435630798339
 20
22.99094438552856
 10
30.21044423103332
 20
22.98007965087891
 10
30.35832931518554
 20
22.96570539474487
 10
30.54153968811035
 20
22.94918775558472
 10
30.75223614692688
 20
22.93196439743042
 10
30.99257995605468
 20
22.91472673416138
 10
31.26519848823547
 20
22.89817333221435
 10
31.56294872283935
 20
22.88374900817871
 10
31.87811901092529
 20
22.87283420562744
 10
32.200673122406
 20
22.86605596542358
 10
32.51999904632568
 20
22.86372661590576
 10
32.83932497024536
 20
22.86605596542358
 10
33.16188146591186
 20
22.87283420562744
 10
33.4770517539978
 20
22.88374900817871
 10
33.77480318069458
 20
22.89817333221435
 10
34.04742052078247
 20
22.91472673416138
 10
34.28776313781738
 20
22.93196439743042
 10
34.4984607887268
 20
22.94918775558472
 10
34.68167116165161
 20
22.96570539474487
 10
34.82955505371093
 20
22.98007965087891
 10
34.93564416885376
 20
22.99094438552856
 10
34.99898244857788
 20
22.99768447875977
 10
35.01999904632568
 20
22.99999952316284
  0
LINE
  5
E78
330
E6B
100
AcDbEntity
  8
LW 3900-STADIP-01
 48
0.0
100
AcDbLine
 10
35.02
 20
16.99999999999997
 30
0.0
 11
30.02
 21
16.99999999999997
 31
0.0
  0
LINE
  5
E79
330
E6B
100
AcDbEntity
  8
LW 3900-STADIP-01
 48
0.0
100
AcDbLine
 10
0.0000000000000142
 20
-5.500000000000028
 30
0.0
 11
4.000000000000014
 21
-5.500000000000028
 31
0.0
  0
LINE
  5
E7A
330
E6B
100
AcDbEntity
  8
LW 3900-STADIP-01
 48
0.0
100
AcDbLine
 10
4.000000000000007
 20
5.5
 30
0.0
 11
0.0
 21
5.5
 31
0.0
  0
LINE
  5
E7B
330
E6B
100
AcDbEntity
  8
LW 3900-STADIP-01
 48
0.0
100
AcDbLine
 10
4.866025403784448
 20
6.999999999999971
 30
0.0
 11
4.000000000000007
 21
5.5
 31
0.0
  0
LINE
  5
E7C
330
E6B
100
AcDbEntity
  8
LW 3900-STADIP-01
 48
0.0
100
AcDbLine
 10
4.000000000000007
 20
8.5
 30
0.0
 11
4.866025403784448
 21
6.999999999999971
 31
0.0
  0
LINE
  5
E7D
330
E6B
100
AcDbEntity
  8
LW 3900-STADIP-01
 48
0.0
100
AcDbLine
 10
0.0
 20
8.5
 30
0.0
 11
4.000000000000007
 21
8.5
 31
0.0
  0
LINE
  5
E7E
330
E6B
100
AcDbEntity
  8
LW 3900-STADIP-01
 48
0.0
100
AcDbLine
 10
5.0
 20
11.0
 30
0.0
 11
0.0
 21
16.0
 31
0.0
  0
LINE
  5
E7F
330
E6B
100
AcDbEntity
  8
LW 3900-STADIP-01
 48
0.0
100
AcDbLine
 10
21.52
 20
11.0
 30
0.0
 11
5.0
 21
11.0
 31
0.0
  0
LINE
  5
E80
330
E6B
100
AcDbEntity
  8
LW 3900-STADIP-01
 48
0.0
100
AcDbLine
 10
21.52
 20
21.99999999999997
 30
0.0
 11
21.52000000000001
 21
11.0
 31
0.0
  0
LINE
  5
E81
330
E6B
100
AcDbEntity
  8
LW 3900-STADIP-01
 48
0.0
100
AcDbLine
 10
23.52
 20
21.99999999999997
 30
0.0
 11
21.52000000000001
 21
21.99999999999997
 31
0.0
  0
LINE
  5
E82
330
E6B
100
AcDbEntity
  8
LW 3900-STADIP-01
 48
0.0
100
AcDbLine
 10
23.52
 20
23.0
 30
0.0
 11
23.52
 21
21.99999999999997
 31
0.0
  0
LINE
  5
E83
330
E6B
100
AcDbEntity
  8
LW 3900-STADIP-01
 48
0.0
100
AcDbLine
 10
30.02
 20
23.0
 30
0.0
 11
23.52
 21
23.0
 31
0.0
  0
LINE
  5
E84
330
E6B
100
AcDbEntity
  8
LW 3900-STADIP-01
 48
0.0
100
AcDbLine
 10
30.02
 20
16.99999999999997
 30
0.0
 11
30.02
 21
23.0
 31
0.0
  0
LINE
  5
E85
330
E6B
100
AcDbEntity
  8
LW 3900-STADIP-01
 48
0.0
100
AcDbLine
 10
32.52
 20
15.55662432702593
 30
0.0
 11
30.02
 21
16.99999999999997
 31
0.0
  0
LINE
  5
E86
330
E6B
100
AcDbEntity
  8
LW 3900-STADIP-01
 48
0.0
100
AcDbLine
 10
35.02
 20
16.99999999999997
 30
0.0
 11
32.52
 21
15.55662432702593
 31
0.0
  0
LINE
  5
E87
330
E6B
100
AcDbEntity
  8
LW 3900-STADIP-01
 48
0.0
100
AcDbLine
 10
35.02
 20
23.0
 30
0.0
 11
35.02
 21
16.99999999999997
 31
0.0
  0
LINE
  5
E88
330
E6B
100
AcDbEntity
  8
LW 3900-STADIP-01
 48
0.0
100
AcDbLine
 10
36.31289321881344
 20
23.0
 30
0.0
 11
35.02
 21
23.0
 31
0.0
  0
ARC
  5
E89
330
E6B
100
AcDbEntity
  8
LW 3900-STADIP-01
 48
0.0
100
AcDbCircle
 10
36.31289321881344
 20
22.5
 30
0.0
 40
0.5000000000000242
100
AcDbArc
 50
45.00000000000102
 51
90.0
  0
LINE
  5
E8A
330
E6B
100
AcDbEntity
  8
LW 3900-STADIP-01
 48
0.0
100
AcDbLine
 10
39.37355339059326
 20
20.14644660940669
 30
0.0
 11
36.66644660940672
 21
22.85355339059328
 31
0.0
  0
ARC
  5
E8B
330
E6B
100
AcDbEntity
  8
LW 3900-STADIP-01
 48
0.0
100
AcDbCircle
 10
39.02000000000003
 20
19.79289321881345
 30
0.0
 40
0.4999999999999716
100
AcDbArc
 50
0.0
 51
45.00000000000455
  0
LINE
  5
E8C
330
E6B
100
AcDbEntity
  8
LW 3900-STADIP-01
 48
0.0
100
AcDbLine
 10
39.52000000000001
 20
8.999999999999971
 30
0.0
 11
39.52
 21
19.79289321881345
 31
0.0
  0
LINE
  5
E8D
330
E6B
100
AcDbEntity
  8
LW 3900-STADIP-01
 48
0.0
100
AcDbLine
 10
40.49999999999999
 20
9.000000000000028
 30
0.0
 11
39.52
 21
9.000000000000028
 31
0.0
  0
LINE
  5
E8E
330
E6B
100
AcDbEntity
  8
LW 3900-STADIP-01
 48
0.0
100
AcDbLine
 10
41.49999999999999
 20
8.0
 30
0.0
 11
40.49999999999999
 21
9.000000000000028
 31
0.0
  0
LINE
  5
E8F
330
E6B
100
AcDbEntity
  8
LW 3900-STADIP-01
 48
0.0
100
AcDbLine
 10
22.5
 20
6.053000000000015
 30
0.0
 11
41.49999999999999
 21
6.053000000000025
 31
0.0
  0
LINE
  5
E90
330
E6B
100
AcDbEntity
  8
LW 3900-STADIP-01
 48
0.0
100
AcDbLine
 10
19.0052988205952
 20
-0.0000000000000164
 30
0.0
 11
22.5
 21
6.053000000000015
 31
0.0
  0
LINE
  5
E91
330
E6B
100
AcDbEntity
  8
LW 3900-STADIP-01
 48
0.0
100
AcDbLine
 10
22.50000000000001
 20
-6.053000000000007
 30
0.0
 11
19.00529882059518
 21
0.0
 31
0.0
  0
LINE
  5
E92
330
E6B
100
AcDbEntity
  8
LW 3900-STADIP-01
 48
0.0
100
AcDbLine
 10
41.49999999999999
 20
-6.052999999999997
 30
0.0
 11
22.50000000000001
 21
-6.053000000000007
 31
0.0
  0
LINE
  5
E93
330
E6B
100
AcDbEntity
  8
LW 3900-STADIP-01
 48
0.0
100
AcDbLine
 10
41.50000000000002
 20
-8.000000000000028
 30
0.0
 11
41.49999999999999
 21
8.0
 31
0.0
  0
LINE
  5
E94
330
E6B
100
AcDbEntity
  8
LW 3900-STADIP-01
 48
0.0
100
AcDbLine
 10
40.49999999999999
 20
-9.0
 30
0.0
 11
41.49999999999999
 21
-7.999999999999971
 31
0.0
  0
LINE
  5
E95
330
E6B
100
AcDbEntity
  8
LW 3900-STADIP-01
 48
0.0
100
AcDbLine
 10
39.52
 20
-9.0
 30
0.0
 11
40.49999999999999
 21
-9.0
 31
0.0
  0
LINE
  5
E96
330
E6B
100
AcDbEntity
  8
LW 3900-STADIP-01
 48
0.0
100
AcDbLine
 10
39.52000000000003
 20
-19.79289321881345
 30
0.0
 11
39.52000000000001
 21
-9.0
 31
0.0
  0
ARC
  5
E97
330
E6B
100
AcDbEntity
  8
LW 3900-STADIP-01
 48
0.0
100
AcDbCircle
 10
39.02000000000004
 20
-19.79289321881347
 30
0.0
 40
0.4999999999999708
100
AcDbArc
 50
314.999999999999
 51
0.0
  0
LINE
  5
E98
330
E6B
100
AcDbEntity
  8
LW 3900-STADIP-01
 48
0.0
100
AcDbLine
 10
36.66644660940675
 20
-22.85355339059325
 30
0.0
 11
39.37355339059327
 21
-20.14644660940672
 31
0.0
  0
ARC
  5
E99
330
E6B
100
AcDbEntity
  8
LW 3900-STADIP-01
 48
0.0
100
AcDbCircle
 10
36.31289321881347
 20
-22.49999999999997
 30
0.0
 40
0.5000000000000249
100
AcDbArc
 50
270.0
 51
314.999999999999
  0
LINE
  5
E9A
330
E6B
100
AcDbEntity
  8
LW 3900-STADIP-01
 48
0.0
100
AcDbLine
 10
23.52000000000002
 20
-23.0
 30
0.0
 11
36.31289321881347
 21
-23.0
 31
0.0
  0
LINE
  5
E9B
330
E6B
100
AcDbEntity
  8
LW 3900-STADIP-01
 48
0.0
100
AcDbLine
 10
23.52000000000002
 20
-22.0
 30
0.0
 11
23.52000000000002
 21
-23.0
 31
0.0
  0
LINE
  5
E9C
330
E6B
100
AcDbEntity
  8
LW 3900-STADIP-01
 48
0.0
100
AcDbLine
 10
21.52000000000002
 20
-22.0
 30
0.0
 11
23.52000000000002
 21
-22.0
 31
0.0
  0
LINE
  5
E9D
330
E6B
100
AcDbEntity
  8
LW 3900-STADIP-01
 48
0.0
100
AcDbLine
 10
21.52000000000001
 20
-11.0
 30
0.0
 11
21.52000000000001
 21
-22.0
 31
0.0
  0
LINE
  5
E9E
330
E6B
100
AcDbEntity
  8
LW 3900-STADIP-01
 48
0.0
100
AcDbLine
 10
5.000000000000014
 20
-11.0
 30
0.0
 11
21.52000000000001
 21
-11.0
 31
0.0
  0
LINE
  5
E9F
330
E6B
100
AcDbEntity
  8
LW 3900-STADIP-01
 48
0.0
100
AcDbLine
 10
0.0000000000000142
 20
-16.0
 30
0.0
 11
5.000000000000014
 21
-11.0
 31
0.0
  0
LINE
  5
EA0
330
E6B
100
AcDbEntity
  8
LW 3900-STADIP-01
 48
0.0
100
AcDbLine
 10
0.0
 20
16.0
 30
0.0
 11
0.0000000000000142
 21
-16.0
 31
0.0
  0
LINE
  5
EA1
330
E6B
100
AcDbEntity
  8
LW 3900-STADIP-01
 48
0.0
100
AcDbLine
 10
4.000000000000014
 20
-8.5
 30
0.0
 11
0.0000000000000142
 21
-8.5
 31
0.0
  0
LINE
  5
EA2
330
E6B
100
AcDbEntity
  8
LW 3900-STADIP-01
 48
0.0
100
AcDbLine
 10
4.866025403784448
 20
-7.0
 30
0.0
 11
4.000000000000007
 21
-8.5
 31
0.0
  0
LINE
  5
EA3
330
E6B
100
AcDbEntity
  8
LW 3900-STADIP-01
 48
0.0
100
AcDbLine
 10
4.000000000000007
 20
-5.500000000000028
 30
0.0
 11
4.866025403784448
 21
-7.0
 31
0.0
  0
INSERT
  5
EA4
330
E6B
100
AcDbEntity
  8
insertpoint_ECKELT
100
AcDbBlockReference
 66
     1
  2
insertpoint-ECKELT
 10
0.0
 20
0.0
 30
0.0
  0
ATTRIB
  5
14A9
330
EA4
100
AcDbEntity
  8
insertpoint_ECKELT
100
AcDbText
 10
-6.931514324693059
 20
-0.0000000000000284
 30
0.0
 40
0.6
  1
LW 3900/20-01
 72
     2
 11
-1.200000000000017
 21
-0.0000000000000284
 31
0.0
100
AcDbAttribute
  2
LINKS
 70
     0
  0
ATTRIB
  5
14AA
330
EA4
100
AcDbEntity
  8
insertpoint_ECKELT
100
AcDbText
 10
1.199999999999988
 20
-0.0000000000000284
 30
0.0
 40
0.6
  1

100
AcDbAttribute
  2
RECHTS
 70
     0
  0
SEQEND
  5
14AB
330
EA4
100
AcDbEntity
  8
insertpoint_ECKELT
  0
LINE
  5
EA8
330
E6B
100
AcDbEntity
  8
LW 3900-STADIP-01
  6
MITTE2
 62
     3
100
AcDbLine
 10
45.18236088981617
 20
0.0
 30
0.0
 11
-4.816740571937998
 21
0.0
 31
0.0
  0
LINE
  5
EA9
330
E6B
100
AcDbEntity
  8
LW 3900-STADIP-01
  6
MITTE2
 62
     3
100
AcDbLine
 10
6.06676842937054
 20
6.999999999999971
 30
0.0
 11
-2.025328589565788
 21
6.999999999999971
 31
0.0
  0
LINE
  5
EAA
330
E6B
100
AcDbEntity
  8
LW 3900-STADIP-01
  6
MITTE2
 62
     3
100
AcDbLine
 10
6.06676842937054
 20
-6.999999999999971
 30
0.0
 11
-2.025328589565788
 21
-6.999999999999971
 31
0.0
  0
LINE
  5
EAB
330
E6B
100
AcDbEntity
  8
LW 3900-STADIP-01
  6
MITTE2
 62
     3
100
AcDbLine
 10
32.52
 20
13.27820912973922
 30
0.0
 11
32.52
 21
25.1521294245251
 31
0.0
  0
HATCH
  5
EAC
330
E6B
100
AcDbEntity
  8
LW 3900-STADIP-01
 62
     1
100
AcDbHatch
 10
0.0
 20
0.0
 30
0.0
210
0.0
220
0.0
230
1.0
  2
SOLID
 70
     1
 71
     0
 91
        5
 92
        7
 72
     0
 73
     1
 93
       76
 10
25.59600150507754
 20
-18.08856979069733
 10
25.62786033445036
 20
-18.03698882885564
 10
25.74601845868165
 20
-17.8857464298396
 10
25.88049653389442
 20
-17.74532229957711
 10
26.02651644035586
 20
-17.61693773786376
 10
26.19018523643786
 20
-17.50003145494807
 10
26.36557218980261
 20
-17.39785357312635
 10
26.54732512240292
 20
-17.30650189354352
 10
26.72849405786866
 20
-17.23698358109735
 10
24.4713561196686
 20
-17.23698358109735
 10
24.25845956726863
 20
-17.24567323629733
 10
24.05642508386865
 20
-17.27174220189735
 10
23.86090784186865
 20
-17.31301806409735
 10
23.67625266886876
 20
-17.36732840909732
 10
23.50028715106862
 20
-17.43684565069733
 10
23.3330112884687
 20
-17.51939737509738
 10
23.18244302592177
 20
-17.61472289264125
 10
23.03973542546874
 20
-17.72143185849737
 10
22.91429416989808
 20
-17.84048013473742
 10
22.80302921782066
 20
-17.96873944548932
 10
22.70301128646872
 20
-18.10594910109731
 10
22.62045956206867
 20
-18.25150082569732
 10
22.55745956186865
 20
-18.40574220549749
 10
22.50749404446873
 20
-18.56650082669725
 10
22.47925266506872
 20
-18.73160427549734
 10
22.47056300986867
 20
-18.90539737949731
 10
22.48142507886871
 20
-19.0791904834974
 10
22.51183887206867
 20
-19.24646634609738
 10
22.5661492170687
 20
-19.40722496729737
 10
22.63566645866865
 20
-19.56363876089736
 10
22.72473542446875
 20
-19.71136289929743
 10
22.83118370066865
 20
-19.85256979629733
 10
22.9538816320927
 20
-19.98378358981736
 10
23.09008068080089
 20
-20.10491738330532
 10
23.23742508126867
 20
-20.21536290089736
 10
23.39818370246872
 20
-20.31312152189733
 10
23.57381032371592
 20
-20.39801945320133
 10
23.75445956566864
 20
-20.47170772929732
 10
23.94563198006876
 20
-20.52819048809735
 10
24.14549404966868
 20
-20.57163876409735
 10
24.35404577446866
 20
-20.59770772969736
 10
24.56476991306863
 20
-20.60639738489735
 10
26.68394099882124
 20
-20.60639738489735
 10
26.52339713476874
 20
-20.54332658116246
 10
26.33983299096633
 20
-20.45270630763972
 10
26.17136658479626
 20
-20.34817661470808
 10
26.00853369003551
 20
-20.23255837628264
 10
25.86462132166531
 20
-20.10276877974277
 10
25.73718542818097
 20
-19.96341509651429
 10
25.62348007343763
 20
-19.81292685180168
 10
25.57150884198904
 20
-19.72874220969734
 10
24.54304577506866
 20
-19.72874220969734
 10
24.41093694706308
 20
-19.72118220967334
 10
24.28018370526866
 20
-19.70084841650535
 10
24.15201129106873
 20
-19.66791462329737
 10
24.03687335966868
 20
-19.62229393349733
 10
23.93192839381828
 20
-19.56581117469736
 10
23.83377873833428
 20
-19.49820565724136
 10
23.74359749666871
 20
-19.42025945009735
 10
23.6719078412687
 20
-19.33553531189736
 10
25.39942915552752
 20
-19.33553531189736
 10
25.38884468825449
 20
-19.30289987113903
 10
25.35273288029003
 20
-19.11752592358792
 10
25.34068922750833
 20
-18.92723620963719
 10
25.35271089993768
 20
-18.73248511628222
 10
25.389016621613
 20
-18.54611574501567
 10
25.40561532428808
 20
-18.49698358509735
 10
23.63497680666871
 20
-18.49698358509735
 10
23.70449404826866
 20
-18.40139737789744
 10
23.78704577266865
 20
-18.31884565349733
 10
23.88213666952225
 20
-18.24898082568935
 10
23.9847354284687
 20
-18.19067323929735
 10
24.10342742884547
 20
-18.14670358398538
 10
24.22587336026874
 20
-18.11463875629735
 10
24.3627354296687
 20
-18.09508703209738
 10
24.50611474046872
 20
-18.08856979069733
 97
        0
 92
        7
 72
     0
 73
     1
 93
       72
 10
27.32446537010549
 20
-18.10316841143336
 10
27.44732840497829
 20
-18.08509392861734
 10
27.57139061226872
 20
-18.07988013549735
 10
28.84008027146871
 20
-18.07988013549735
 10
27.99283888946866
 20
-18.89453531049733
 10
29.75901130886871
 20
-20.61291462629734
 10
31.07766648546868
 20
-20.61291462629734
 10
29.36363199726867
 20
-18.87063875869737
 10
31.04508027846867
 20
-17.23698358109735
 10
27.60614923306878
 20
-17.23698358109735
 10
27.39816233585663
 20
-17.24775875354535
 10
27.19144412830383
 20
-17.27321944328136
 10
26.98701130006873
 20
-17.31301806409735
 10
26.79366647186868
 20
-17.36950082289738
 10
26.60683888506867
 20
-17.44119047829733
 10
26.4356787465942
 20
-17.52721806477737
 10
26.27011474606872
 20
-17.6236732374974
 10
26.11804578006871
 20
-17.73229392749735
 10
25.98234812446555
 20
-17.85160289339333
 10
25.8573561240687
 20
-17.98212151449738
 10
25.74873543406864
 20
-18.1211559976974
 10
25.65749405446871
 20
-18.26888013609724
 10
25.58580439906871
 20
-18.42312151589729
 10
25.53149405406867
 20
-18.58388013709734
 10
25.49890784706872
 20
-18.75115599969731
 10
25.48804577806868
 20
-18.92712151749745
 10
25.49890784706867
 20
-19.09874220769737
 10
25.53149405406867
 20
-19.26601807029735
 10
25.58363198526866
 20
-19.42677669149734
 10
25.65314922686866
 20
-19.58101807129733
 10
25.74499019267745
 20
-19.7297849683213
 10
25.8503696412879
 20
-19.86925393428143
 10
25.96837515890388
 20
-19.9982953140013
 10
26.10066646966868
 20
-20.11760427989734
 10
26.2527875735999
 20
-20.22561669403339
 10
26.41132164306873
 20
-20.32398359089737
 10
26.5829423332687
 20
-20.40870772909736
 10
26.76542509246866
 20
-20.48039738449737
 10
26.95965626549912
 20
-20.53444703984135
 10
27.15645957646865
 20
-20.57815600549734
 10
27.36501130126874
 20
-20.60422497109735
 10
27.57573543986865
 20
-20.61291462629734
 10
29.47876992866867
 20
-20.61291462629734
 10
28.59242509826868
 20
-19.73960427869733
 10
27.57573543986865
 20
-19.73960427869733
 10
27.50906840517416
 20
-19.73585698575803
 10
27.40812068071591
 20
-19.72587462348136
 10
27.28798619757589
 20
-19.70441117513738
 10
27.17086702479031
 20
-19.67008703709737
 10
27.0693718520543
 20
-19.62915876110534
 10
27.01323667946224
 20
-19.60100427825731
 10
26.95955198963662
 20
-19.5684180712573
 10
26.82699129956069
 20
-19.46909531232134
 10
26.75338992001667
 20
-19.39905669140935
 10
26.6983235750144
 20
-19.33119048429742
 10
26.64961805761829
 20
-19.25863186337736
 10
26.61025391956224
 20
-19.18146772520137
 10
26.58083074705507
 20
-19.10004565597742
 10
26.56013198836865
 20
-19.01288841432134
 10
26.55261543662067
 20
-18.92355875886542
 10
26.55397102283189
 20
-18.86125393108139
 10
26.5599755745751
 20
-18.79912289640148
 10
26.57213240219988
 20
-18.73594910309734
 10
26.5903459194991
 20
-18.67425255117737
 10
26.63399405756866
 20
-18.57553806810543
 10
26.6755219197695
 20
-18.50767186099338
 10
26.73860012686629
 20
-18.42963875729734
 10
26.86800206723109
 20
-18.30311602024372
 10
26.92726992056873
 20
-18.26305806711335
 10
27.00356509322467
 20
-18.21874082559341
 10
27.08758536935346
 20
-18.17659599787336
 10
27.20412233524064
 20
-18.13375599773738
 97
        0
 92
        7
 72
     0
 73
     1
 93
       57
 10
31.88250235009275
 20
-18.12524013564135
 10
32.01397683326872
 20
-18.08526772172135
 10
32.14866648886863
 20
-18.05815599749732
 10
32.29204579966859
 20
-18.04946634229733
 10
33.53249407946868
 20
-18.04946634229733
 10
33.53249407946868
 20
-17.22394909829737
 10
32.29856304106875
 20
-17.22394909829737
 10
32.08783890246872
 20
-17.23263875349735
 10
31.88145959146874
 20
-17.26088013289731
 10
31.68376993566875
 20
-17.30215599509731
 10
31.49476993506875
 20
-17.35646634009734
 10
31.31011476206879
 20
-17.42815599549735
 10
31.14370786498853
 20
-17.51079461644937
 10
30.98488703689822
 20
-17.6072497891694
 10
30.83480800193911
 20
-17.71673944468935
 10
30.70024869116719
 20
-17.8359615140333
 10
30.58018372526874
 20
-17.96474220409734
 10
30.47590786286872
 20
-18.10377668729737
 10
30.39118372466868
 20
-18.24932841189738
 10
30.31949406926867
 20
-18.40356979169738
 10
30.26952855186869
 20
-18.56432841289725
 10
30.23694234486868
 20
-18.73160427549729
 10
30.2260802758687
 20
-18.90539737949731
 10
30.23694234486868
 20
-19.07919048349734
 10
30.26952855186869
 20
-19.24646634609738
 10
30.32166648306867
 20
-19.40722496729737
 10
30.39335613846868
 20
-19.56363876089736
 10
30.48025269046872
 20
-19.71136289929737
 10
30.58909931150385
 20
-19.85091876180937
 10
30.70895572567747
 20
-19.98126358980934
 10
30.8453833123175
 20
-20.10257117640137
 10
30.99294234726869
 20
-20.21319048709736
 10
31.15370096846869
 20
-20.31094910809739
 10
31.32749407246866
 20
-20.39567324629738
 10
31.51214924546867
 20
-20.46953531549732
 10
31.70332165986872
 20
-20.52601807429736
 10
31.90318372946865
 20
-20.56946635029735
 10
32.10956304046869
 20
-20.59336290209737
 10
32.32245959286871
 20
-20.60205255729735
 10
33.53249407946868
 20
-20.60205255729735
 10
33.53249407946868
 20
-19.74394910629738
 10
32.29856304106863
 20
-19.74394910629738
 10
32.16491614409267
 20
-19.73360841660937
 10
32.03265959194869
 20
-19.71162358895336
 10
31.91204717777271
 20
-19.67729945091335
 10
31.79604028085271
 20
-19.62933255420935
 10
31.68637683222869
 20
-19.56841807125735
 10
31.58931338364471
 20
-19.50081255380135
 10
31.50189545233269
 20
-19.42104151906537
 10
31.42742510726868
 20
-19.33553531189736
 10
33.53249407946868
 20
-19.33553531189736
 10
33.53249407946868
 20
-18.50784565409734
 10
31.39049407266867
 20
-18.50784565409734
 10
31.46001131426868
 20
-18.41008703309737
 10
31.54690786626861
 20
-18.32101806729738
 10
31.64805545279671
 20
-18.24472289464134
 10
31.7554595910687
 20
-18.17763875649737
 97
        0
 92
        7
 72
     0
 73
     1
 93
        6
 10
33.76276994226868
 20
-17.23698358109735
 10
33.76276994226868
 20
-20.60639738489735
 10
36.00035615626871
 20
-20.60639738489735
 10
36.00035615626871
 20
-19.73960427869733
 10
34.78597684206869
 20
-19.73960427869733
 10
34.78597684206869
 20
-17.23698358109735
 97
        0
 92
        7
 72
     0
 73
     1
 93
        8
 10
35.01842511866869
 20
-17.23698358109735
 10
35.01842511866869
 20
-18.06250082509737
 10
36.25235615706868
 20
-18.06250082509737
 10
36.25235615706868
 20
-20.61291462629734
 10
37.27773547066869
 20
-20.61291462629734
 10
37.27773547066869
 20
-18.06250082509737
 10
38.52035616426872
 20
-18.06250082509737
 10
38.52035616426872
 20
-17.23698358109735
 97
        0
 75
     0
 76
     1
 47
0.0142553043587597
 98
        5
 10
24.90566163114392
 20
-17.67943325068646
 10
27.17315884448647
 20
-17.82198623569226
 10
31.66537057668802
 20
-17.76496506314456
 10
34.38921966051959
 20
-17.52262483845228
 10
35.80105764274646
 20
-17.62241197086561
  0
LWPOLYLINE
  5
EAD
330
E6B
100
AcDbEntity
  8
LW 3900-STADIP-01
 62
     1
100
AcDbPolyline
 90
        8
 70
     1
 43
0.0
 10
37.27773547066869
 20
-18.06250082509737
 10
37.27773547066869
 20
-20.61291462629734
 10
36.25235615706868
 20
-20.61291462629734
 10
36.25235615706868
 20
-18.06250082509737
 10
35.01842511866869
 20
-18.06250082509737
 10
35.01842511866869
 20
-17.23698358109735
 10
38.52035616426872
 20
-17.23698358109735
 10
38.52035616426872
 20
-18.06250082509737
  0
LWPOLYLINE
  5
EAE
330
E6B
100
AcDbEntity
  8
LW 3900-STADIP-01
 62
     1
100
AcDbPolyline
 90
       73
 70
     1
 43
0.0
 10
27.57573543986871
 20
-19.73960427869733
 10
28.59242509826868
 20
-19.73960427869733
 10
29.47876992866867
 20
-20.61291462629734
 10
27.57573543986871
 20
-20.61291462629734
 10
27.36501130126868
 20
-20.60422497109735
 10
27.15645957646871
 20
-20.57815600549734
 10
26.95965626549912
 20
-20.53444703984135
 10
26.76542509246872
 20
-20.48039738449737
 10
26.5829423332687
 20
-20.40870772909736
 10
26.41132164306867
 20
-20.32398359089737
 10
26.2527875735999
 20
-20.22561669403334
 10
26.10066646966868
 20
-20.11760427989734
 10
25.96837515890388
 20
-19.99829531400135
 10
25.8503696412879
 20
-19.86925393428137
 10
25.74499019267751
 20
-19.72978496832135
 10
25.65314922686866
 20
-19.58101807129733
 10
25.58363198526866
 20
-19.42677669149734
 10
25.53149405406867
 20
-19.26601807029735
 10
25.49890784706867
 20
-19.09874220769737
 10
25.48804577806868
 20
-18.92712151749734
 10
25.49890784706867
 20
-18.75115599969737
 10
25.53149405406867
 20
-18.58388013709734
 10
25.58580439906871
 20
-18.42312151589735
 10
25.65749405446866
 20
-18.26888013609735
 10
25.74873543406869
 20
-18.12115599769734
 10
25.8573561240687
 20
-17.98212151449738
 10
25.98234812446549
 20
-17.85160289339333
 10
26.11804578006866
 20
-17.73229392749735
 10
26.27011474606866
 20
-17.62367323749734
 10
26.43567874659431
 20
-17.52721806477737
 10
26.60683888506867
 20
-17.44119047829738
 10
26.79366647186868
 20
-17.36950082289738
 10
26.98701130006867
 20
-17.31301806409735
 10
27.19144412830388
 20
-17.27321944328136
 10
27.39816233585668
 20
-17.24775875354535
 10
27.60614923306866
 20
-17.23698358109735
 10
31.04508027846867
 20
-17.23698358109735
 10
29.36363199726867
 20
-18.87063875869737
 10
31.07766648546868
 20
-20.61291462629734
 10
29.75901130886871
 20
-20.61291462629734
 10
27.99283888946866
 20
-18.89453531049733
 10
28.84008027146871
 20
-18.07988013549735
 10
27.57139061226872
 20
-18.07988013549735
 10
27.44732840497829
 20
-18.08509392861734
 10
27.32446537010549
 20
-18.10316841143336
 10
27.2041223352407
 20
-18.13375599773738
 10
27.08758536935352
 20
-18.17659599787336
 10
27.00356509322467
 20
-18.21874082559336
 10
26.92726992056868
 20
-18.26305806711335
 10
26.88702812733749
 20
-18.29025668788935
 10
26.84951488583909
 20
-18.32119186040134
 10
26.73860012686629
 20
-18.42963875729734
 10
26.6755219197695
 20
-18.50767186099338
 10
26.63399405756866
 20
-18.57553806810537
 10
26.5903459194991
 20
-18.67425255117737
 10
26.57213240219988
 20
-18.73594910309734
 10
26.5599755745751
 20
-18.79912289640137
 10
26.55397102283189
 20
-18.86125393108133
 10
26.55261543662067
 20
-18.92355875886537
 10
26.56013198836871
 20
-19.01288841432134
 10
26.58083074705507
 20
-19.10004565597737
 10
26.6102539195623
 20
-19.18146772520137
 10
26.64961805761829
 20
-19.25863186337736
 10
26.69832357501429
 20
-19.33119048429736
 10
26.75338992001667
 20
-19.39905669140935
 10
26.82699129956069
 20
-19.46909531232134
 10
26.95955198963668
 20
-19.56841807125735
 10
27.0132366794623
 20
-19.60100427825736
 10
27.0693718520543
 20
-19.62915876110534
 10
27.17086702479031
 20
-19.67008703709737
 10
27.28798619757589
 20
-19.70441117513732
 10
27.40812068071591
 20
-19.72587462348136
 10
27.50906840517428
 20
-19.73585698575803
  0
LWPOLYLINE
  5
EB0
330
E6B
100
AcDbEntity
  8
LW 3900-STADIP-01
 62
     1
100
AcDbPolyline
 90
       76
 70
     1
 43
0.0
 10
26.36557218980261
 20
-17.39785357312635
 10
26.1901852364378
 20
-17.50003145494807
 10
26.02651644035581
 20
-17.61693773786376
 10
25.88049653389442
 20
-17.74532229957711
 10
25.74601845868159
 20
-17.88574642983966
 10
25.62786033445042
 20
-18.03698882885553
 10
25.59600150507754
 20
-18.08856979069733
 10
24.50611474046866
 20
-18.08856979069733
 10
24.3627354296687
 20
-18.09508703209732
 10
24.22587336026868
 20
-18.11463875629735
 10
24.10342742884547
 20
-18.14670358398538
 10
23.9847354284687
 20
-18.19067323929735
 10
23.88213666952231
 20
-18.24898082568935
 10
23.78704577266871
 20
-18.31884565349733
 10
23.70449404826866
 20
-18.40139737789732
 10
23.63497680666871
 20
-18.49698358509735
 10
25.40561532428808
 20
-18.49698358509735
 10
25.389016621613
 20
-18.54611574501567
 10
25.35271089993768
 20
-18.73248511628228
 10
25.34068922750839
 20
-18.92723620963719
 10
25.35273288029003
 20
-19.11752592358797
 10
25.38884468825455
 20
-19.30289987113897
 10
25.39942915552752
 20
-19.33553531189736
 10
23.6719078412687
 20
-19.33553531189736
 10
23.74359749666871
 20
-19.42025945009735
 10
23.83377873833428
 20
-19.49820565724136
 10
23.93192839381828
 20
-19.56581117469736
 10
24.03687335966868
 20
-19.62229393349733
 10
24.15201129106868
 20
-19.66791462329737
 10
24.28018370526866
 20
-19.70084841650535
 10
24.41093694706308
 20
-19.72118220967334
 10
24.54304577506866
 20
-19.72874220969734
 10
25.57150884198904
 20
-19.72874220969734
 10
25.62348007343763
 20
-19.81292685180162
 10
25.73718542818097
 20
-19.96341509651429
 10
25.86462132166531
 20
-20.10276877974277
 10
26.00853369003551
 20
-20.23255837628259
 10
26.17136658479626
 20
-20.34817661470808
 10
26.33983299096633
 20
-20.45270630763972
 10
26.52339713476874
 20
-20.54332658116246
 10
26.68394099882124
 20
-20.60639738489735
 10
24.56476991306869
 20
-20.60639738489735
 10
24.35404577446866
 20
-20.59770772969736
 10
24.14549404966868
 20
-20.57163876409735
 10
23.9456319800687
 20
-20.52819048809735
 10
23.7544595656687
 20
-20.47170772929738
 10
23.57381032371586
 20
-20.39801945320133
 10
23.39818370246872
 20
-20.31312152189733
 10
23.23742508126867
 20
-20.21536290089736
 10
23.09008068080095
 20
-20.10491738330538
 10
22.9538816320927
 20
-19.98378358981736
 10
22.8311837006687
 20
-19.85256979629733
 10
22.72473542446869
 20
-19.71136289929737
 10
22.63566645866871
 20
-19.56363876089736
 10
22.5661492170687
 20
-19.40722496729737
 10
22.51183887206867
 20
-19.24646634609738
 10
22.48142507886871
 20
-19.07919048349734
 10
22.47056300986867
 20
-18.90539737949737
 10
22.47925266506866
 20
-18.73160427549734
 10
22.50749404446867
 20
-18.56650082669736
 10
22.55745956186865
 20
-18.40574220549737
 10
22.62045956206867
 20
-18.25150082569738
 10
22.70301128646867
 20
-18.10594910109736
 10
22.80302921782066
 20
-17.96873944548937
 10
22.91429416989803
 20
-17.84048013473736
 10
23.03973542546868
 20
-17.72143185849737
 10
23.18244302592171
 20
-17.61472289264137
 10
23.3330112884687
 20
-17.51939737509732
 10
23.50028715106867
 20
-17.43684565069733
 10
23.6762526688687
 20
-17.36732840909732
 10
23.86090784186871
 20
-17.31301806409735
 10
24.05642508386871
 20
-17.27174220189735
 10
24.25845956726869
 20
-17.24567323629733
 10
24.47135611966871
 20
-17.23698358109735
 10
26.72849405786872
 20
-17.23698358109735
 10
26.54732512240292
 20
-17.30650189354352
  0
LWPOLYLINE
  5
EB1
330
E6B
100
AcDbEntity
  8
LW 3900-STADIP-01
 62
     1
100
AcDbPolyline
 90
        6
 70
     1
 43
0.0
 10
36.00035615626871
 20
-20.60639738489735
 10
33.76276994226868
 20
-20.60639738489735
 10
33.76276994226868
 20
-17.23698358109735
 10
34.78597684206869
 20
-17.23698358109735
 10
34.78597684206869
 20
-19.73960427869733
 10
36.00035615626871
 20
-19.73960427869733
  0
LWPOLYLINE
  5
EB2
330
E6B
100
AcDbEntity
  8
LW 3900-STADIP-01
 62
     1
100
AcDbPolyline
 90
       57
 70
     1
 43
0.0
 10
30.70895572567747
 20
-19.98126358980934
 10
30.5890993115039
 20
-19.85091876180937
 10
30.48025269046866
 20
-19.71136289929737
 10
30.39335613846868
 20
-19.56363876089736
 10
30.32166648306867
 20
-19.40722496729737
 10
30.26952855186869
 20
-19.24646634609738
 10
30.23694234486868
 20
-19.07919048349734
 10
30.2260802758687
 20
-18.90539737949737
 10
30.23694234486868
 20
-18.73160427549734
 10
30.26952855186869
 20
-18.56432841289737
 10
30.31949406926867
 20
-18.40356979169738
 10
30.39118372466868
 20
-18.24932841189732
 10
30.47590786286867
 20
-18.10377668729737
 10
30.58018372526869
 20
-17.96474220409734
 10
30.70024869116708
 20
-17.83596151403336
 10
30.83480800193911
 20
-17.71673944468935
 10
30.98488703689827
 20
-17.60724978916934
 10
31.1437078649887
 20
-17.51079461644937
 10
31.31011476206868
 20
-17.42815599549735
 10
31.49476993506869
 20
-17.35646634009734
 10
31.68376993566869
 20
-17.30215599509736
 10
31.88145959146869
 20
-17.26088013289737
 10
32.08783890246866
 20
-17.23263875349735
 10
32.29856304106869
 20
-17.22394909829737
 10
33.53249407946868
 20
-17.22394909829737
 10
33.53249407946868
 20
-18.04946634229733
 10
32.2920457996687
 20
-18.04946634229733
 10
32.14866648886868
 20
-18.05815599749732
 10
32.01397683326866
 20
-18.08526772172135
 10
31.88250235009269
 20
-18.12524013564135
 10
31.7554595910687
 20
-18.17763875649737
 10
31.64805545279671
 20
-18.24472289464134
 10
31.54690786626867
 20
-18.32101806729733
 10
31.46001131426868
 20
-18.41008703309737
 10
31.39049407266867
 20
-18.50784565409734
 10
33.53249407946868
 20
-18.50784565409734
 10
33.53249407946868
 20
-19.33553531189736
 10
31.42742510726868
 20
-19.33553531189736
 10
31.50189545233269
 20
-19.42104151906537
 10
31.58931338364471
 20
-19.50081255380135
 10
31.68637683222869
 20
-19.56841807125735
 10
31.79604028085271
 20
-19.62933255420935
 10
31.91204717777271
 20
-19.67729945091335
 10
32.03265959194869
 20
-19.71162358895336
 10
32.16491614409267
 20
-19.73360841660937
 10
32.29856304106869
 20
-19.74394910629738
 10
33.53249407946868
 20
-19.74394910629738
 10
33.53249407946868
 20
-20.60205255729735
 10
32.32245959286871
 20
-20.60205255729735
 10
32.10956304046869
 20
-20.59336290209737
 10
31.90318372946871
 20
-20.56946635029735
 10
31.70332165986867
 20
-20.52601807429736
 10
31.51214924546867
 20
-20.46953531549732
 10
31.32749407246866
 20
-20.39567324629738
 10
31.15370096846869
 20
-20.31094910809733
 10
30.99294234726869
 20
-20.21319048709736
 10
30.8453833123175
 20
-20.10257117640137
  0
HATCH
  5
12AE
330
E6B
100
AcDbEntity
  8
LW 3900-STADIP-01
 62
     8
100
AcDbHatch
 10
0.0
 20
0.0
 30
0.0
210
0.0
220
0.0
230
1.0
  2
ANSI31
 70
     0
 71
     0
 91
        4
 92
        7
 72
     1
 73
     1
 93
       31
 10
39.52
 20
19.79289321881345
 42
0.19891236737965
 10
39.37355339059327
 20
20.14644660940668
 42
0.0
 10
36.66644660940672
 20
22.85355339059328
 42
0.198912367379669
 10
36.31289321881342
 20
23.00000000000002
 42
0.0
 10
35.02074195946175
 20
23.00000000000002
 42
0.0
 10
35.02
 20
22.99992104496733
 42
0.0
 10
35.01999999999999
 20
16.99999999999997
 42
0.0
 10
32.52
 20
15.55662432702593
 42
0.0
 10
30.01999999999999
 20
16.99999999999997
 42
0.0
 10
30.01999999999999
 20
22.99884387018014
 42
0.0
 10
23.52
 20
23.0
 42
0.0
 10
23.52
 20
21.99999999999997
 42
0.0
 10
21.52
 20
21.99999999999997
 42
0.0
 10
21.52
 20
11.0
 42
0.0
 10
5.000000000000001
 20
11.0
 42
0.0
 10
0.0
 20
15.99999999999999
 42
0.0
 10
0.0000000000000034
 20
8.5
 42
0.0
 10
4.000000000000007
 20
8.5
 42
0.0
 10
4.866025403784448
 20
6.999999999999972
 42
0.0
 10
4.000000000000007
 20
5.5
 42
0.0
 10
0.0000000000000047
 20
5.5
 42
0.0
 10
0.0000000000000066
 20
1.199999999999999
 42
-0.4142135623730935
 10
1.199999999999999
 20
0.0
 42
0.0
 10
19.00529882059521
 20
-0.0000000000000004
 42
0.0
 10
22.5
 20
6.053000000000015
 42
0.0
 10
24.5
 20
6.053000000000016
 42
0.0
 10
24.5
 20
6.999999999999988
 42
0.0
 10
41.5
 20
6.999999999999999
 42
0.0
 10
41.49999999999999
 20
8.0
 42
0.0
 10
40.49999999999998
 20
9.000000000000028
 42
0.0
 10
39.52000000000002
 20
9.000000000000028
 42
0.0
 97
        0
 92
       23
 72
     0
 73
     1
 93
        4
 10
41.5
 20
7.0
 10
24.5
 20
6.999999999999989
 10
24.5
 20
6.053000000000016
 10
41.5
 20
6.053000000000025
 97
        0
 92
       23
 72
     0
 73
     1
 93
        4
 10
41.50000000000001
 20
-6.052999999999997
 10
24.50000000000001
 20
-6.053000000000007
 10
24.50000000000002
 20
-6.999999999999984
 10
41.50000000000002
 20
-6.999999999999973
 97
        0
 92
        7
 72
     1
 73
     1
 93
       26
 10
39.52000000000002
 20
-9.000000000000001
 42
0.0
 10
40.49999999999999
 20
-8.999999999999998
 42
0.0
 10
41.50000000000002
 20
-7.99999999999995
 42
0.0
 10
41.50000000000002
 20
-6.999999999999971
 42
0.0
 10
24.50000000000001
 20
-6.999999999999984
 42
0.0
 10
24.50000000000001
 20
-6.053000000000007
 42
0.0
 10
22.50000000000001
 20
-6.053000000000007
 42
0.0
 10
19.00529882059519
 20
-0.0000000000000004
 42
0.0
 10
1.199999999999999
 20
0.0
 42
-0.4142135623730951
 10
0.0
 20
-1.2
 42
0.0
 10
0.0
 20
-1.799999999999999
 42
0.0
 10
0.0000000000000038
 20
-5.500000000000028
 42
0.0
 10
4.000000000000007
 20
-5.500000000000027
 42
0.0
 10
4.866025403784448
 20
-7.0
 42
0.0
 10
4.000000000000005
 20
-8.5
 42
0.0
 10
0.0000000000000109
 20
-8.5
 42
0.0
 10
0.0000000000000143
 20
-15.99999999999999
 42
0.0
 10
5.000000000000011
 20
-11.0
 42
0.0
 10
21.52000000000001
 20
-11.0
 42
0.0
 10
21.52000000000001
 20
-22.0
 42
0.0
 10
23.52000000000002
 20
-22.0
 42
0.0
 10
23.52000000000002
 20
-23.0
 42
0.0
 10
36.31289321881347
 20
-23.0
 42
0.1989123673796506
 10
36.66644660940674
 20
-22.85355339059325
 42
0.0
 10
39.37355339059327
 20
-20.14644660940672
 42
0.1989123673796762
 10
39.52000000000003
 20
-19.79289321881345
 42
0.0
 97
        0
 75
     0
 76
     1
 52
0.0
 41
0.75
 77
     0
 78
     1
 53
45.0
 43
-0.7463748552439356
 44
2.243892217302608
 45
-1.683798022700465
 46
1.683798022700466
 79
     0
 47
0.0873926530790957
 98
        4
 10
27.0250116657376
 20
9.562636872305496
 10
28.77400079622832
 20
6.591286939015994
 10
29.47359687464511
 20
-6.692396478335659
 10
29.5610459404675
 20
-10.27549517398827
1001
ACAD
1010
0.0
1020
0.0
1030
0.0
  0
ENDBLK
  5
E70
330
E6B
100
AcDbEntity
  8
0
100
AcDbBlockEnd
  0
BLOCK
  5
EB8
330
EB4
100
AcDbEntity
  8
0
100
AcDbBlockBegin
  2
LW 3900-24-01
 70
     0
 10
0.0
 20
0.0
 30
0.0
  3
LW 3900-24-01
  1

  0
LINE
  5
EBA
330
EB4
100
AcDbEntity
  8
LW 3900-STADIP-01
 62
     3
100
AcDbLine
 10
28.5
 20
7.0
 30
0.0
 11
45.49999999999999
 21
7.0
 31
0.0
  0
LINE
  5
EBB
330
EB4
100
AcDbEntity
  8
LW 3900-STADIP-01
 62
     3
100
AcDbLine
 10
45.49999999999999
 20
-6.999999999999971
 30
0.0
 11
28.50000000000001
 21
-6.999999999999971
 31
0.0
  0
LINE
  5
EBC
330
EB4
100
AcDbEntity
  8
LW 3900-STADIP-01
 62
     3
100
AcDbLine
 10
28.5
 20
7.0
 30
0.0
 11
28.50000000000002
 21
-6.999999999999971
 31
0.0
  0
LINE
  5
EBD
330
EB4
100
AcDbEntity
  8
LW 3900-STADIP-01
 48
0.0
100
AcDbLine
 10
26.50000000000002
 20
-6.052999999999997
 30
0.0
 11
26.50000000000002
 21
6.053000000000025
 31
0.0
  0
LINE
  5
EBE
330
EB4
100
AcDbEntity
  8
LW 3900-STADIP-01
 48
0.0
100
AcDbLine
 10
4.000000000000007
 20
8.499999999999971
 30
0.0
 11
4.000000000000007
 21
5.5
 31
0.0
  0
LINE
  5
EBF
330
EB4
100
AcDbEntity
  8
LW 3900-STADIP-01
 48
0.0
100
AcDbLine
 10
4.000000000000014
 20
-5.500000000000028
 30
0.0
 11
4.000000000000014
 21
-8.5
 31
0.0
  0
LWPOLYLINE
  5
EC0
330
EB4
100
AcDbEntity
  8
LW 3900-STADIP-01
 48
0.0
100
AcDbPolyline
 90
       25
 70
     0
 43
0.0
 10
34.02000023841857
 20
22.99999952316284
 10
34.04101802825927
 20
22.99768447875977
 10
34.10435630798339
 20
22.99094438552856
 10
34.21044423103332
 20
22.98007965087891
 10
34.35832931518554
 20
22.96570539474487
 10
34.54153968811035
 20
22.94918775558472
 10
34.75223614692688
 20
22.93196439743042
 10
34.99257995605468
 20
22.91472673416138
 10
35.26519848823547
 20
22.89817333221435
 10
35.56294872283935
 20
22.88374900817871
 10
35.87811901092529
 20
22.87283420562744
 10
36.200673122406
 20
22.86605596542358
 10
36.51999904632568
 20
22.86372661590576
 10
36.83932497024536
 20
22.86605596542358
 10
37.16188146591186
 20
22.87283420562744
 10
37.4770517539978
 20
22.88374900817871
 10
37.77480318069458
 20
22.89817333221435
 10
38.04742052078247
 20
22.91472673416138
 10
38.28776313781738
 20
22.93196439743042
 10
38.4984607887268
 20
22.94918775558472
 10
38.68167116165161
 20
22.96570539474487
 10
38.82955505371093
 20
22.98007965087891
 10
38.93564416885375
 20
22.99094438552856
 10
38.99898244857788
 20
22.99768447875977
 10
39.01999904632568
 20
22.99999952316284
  0
LINE
  5
EC1
330
EB4
100
AcDbEntity
  8
LW 3900-STADIP-01
 48
0.0
100
AcDbLine
 10
39.02
 20
16.99999999999997
 30
0.0
 11
34.02
 21
16.99999999999997
 31
0.0
  0
LINE
  5
EC2
330
EB4
100
AcDbEntity
  8
LW 3900-STADIP-01
 48
0.0
100
AcDbLine
 10
0.0000000000000142
 20
-5.500000000000028
 30
0.0
 11
4.000000000000014
 21
-5.500000000000028
 31
0.0
  0
LINE
  5
EC3
330
EB4
100
AcDbEntity
  8
LW 3900-STADIP-01
 48
0.0
100
AcDbLine
 10
4.000000000000007
 20
5.5
 30
0.0
 11
0.0
 21
5.5
 31
0.0
  0
LINE
  5
EC4
330
EB4
100
AcDbEntity
  8
LW 3900-STADIP-01
 48
0.0
100
AcDbLine
 10
4.866025403784448
 20
6.999999999999971
 30
0.0
 11
4.000000000000007
 21
5.5
 31
0.0
  0
LINE
  5
EC5
330
EB4
100
AcDbEntity
  8
LW 3900-STADIP-01
 48
0.0
100
AcDbLine
 10
4.000000000000007
 20
8.5
 30
0.0
 11
4.866025403784448
 21
6.999999999999971
 31
0.0
  0
LINE
  5
EC6
330
EB4
100
AcDbEntity
  8
LW 3900-STADIP-01
 48
0.0
100
AcDbLine
 10
0.0
 20
8.5
 30
0.0
 11
4.000000000000007
 21
8.5
 31
0.0
  0
LINE
  5
EC7
330
EB4
100
AcDbEntity
  8
LW 3900-STADIP-01
 48
0.0
100
AcDbLine
 10
5.0
 20
11.0
 30
0.0
 11
0.0
 21
16.0
 31
0.0
  0
LINE
  5
EC8
330
EB4
100
AcDbEntity
  8
LW 3900-STADIP-01
 48
0.0
100
AcDbLine
 10
25.52
 20
11.0
 30
0.0
 11
5.0
 21
11.0
 31
0.0
  0
LINE
  5
EC9
330
EB4
100
AcDbEntity
  8
LW 3900-STADIP-01
 48
0.0
100
AcDbLine
 10
25.52
 20
21.99999999999997
 30
0.0
 11
25.52000000000001
 21
11.0
 31
0.0
  0
LINE
  5
ECA
330
EB4
100
AcDbEntity
  8
LW 3900-STADIP-01
 48
0.0
100
AcDbLine
 10
27.52
 20
21.99999999999997
 30
0.0
 11
25.52000000000001
 21
21.99999999999997
 31
0.0
  0
LINE
  5
ECB
330
EB4
100
AcDbEntity
  8
LW 3900-STADIP-01
 48
0.0
100
AcDbLine
 10
27.52
 20
23.0
 30
0.0
 11
27.52
 21
21.99999999999997
 31
0.0
  0
LINE
  5
ECC
330
EB4
100
AcDbEntity
  8
LW 3900-STADIP-01
 48
0.0
100
AcDbLine
 10
34.02
 20
23.0
 30
0.0
 11
27.52
 21
23.0
 31
0.0
  0
LINE
  5
ECD
330
EB4
100
AcDbEntity
  8
LW 3900-STADIP-01
 48
0.0
100
AcDbLine
 10
34.02
 20
16.99999999999997
 30
0.0
 11
34.02
 21
23.0
 31
0.0
  0
LINE
  5
ECE
330
EB4
100
AcDbEntity
  8
LW 3900-STADIP-01
 48
0.0
100
AcDbLine
 10
36.52
 20
15.55662432702593
 30
0.0
 11
34.02
 21
16.99999999999997
 31
0.0
  0
LINE
  5
ECF
330
EB4
100
AcDbEntity
  8
LW 3900-STADIP-01
 48
0.0
100
AcDbLine
 10
39.02
 20
16.99999999999997
 30
0.0
 11
36.52
 21
15.55662432702593
 31
0.0
  0
LINE
  5
ED0
330
EB4
100
AcDbEntity
  8
LW 3900-STADIP-01
 48
0.0
100
AcDbLine
 10
39.02
 20
23.0
 30
0.0
 11
39.02
 21
16.99999999999997
 31
0.0
  0
LINE
  5
ED1
330
EB4
100
AcDbEntity
  8
LW 3900-STADIP-01
 48
0.0
100
AcDbLine
 10
40.31289321881344
 20
23.0
 30
0.0
 11
39.02
 21
23.0
 31
0.0
  0
ARC
  5
ED2
330
EB4
100
AcDbEntity
  8
LW 3900-STADIP-01
 48
0.0
100
AcDbCircle
 10
40.31289321881344
 20
22.5
 30
0.0
 40
0.5000000000000242
100
AcDbArc
 50
45.00000000000102
 51
90.0
  0
LINE
  5
ED3
330
EB4
100
AcDbEntity
  8
LW 3900-STADIP-01
 48
0.0
100
AcDbLine
 10
43.37355339059326
 20
20.14644660940669
 30
0.0
 11
40.66644660940672
 21
22.85355339059328
 31
0.0
  0
ARC
  5
ED4
330
EB4
100
AcDbEntity
  8
LW 3900-STADIP-01
 48
0.0
100
AcDbCircle
 10
43.02000000000002
 20
19.79289321881345
 30
0.0
 40
0.4999999999999716
100
AcDbArc
 50
0.0
 51
45.00000000000448
  0
LINE
  5
ED5
330
EB4
100
AcDbEntity
  8
LW 3900-STADIP-01
 48
0.0
100
AcDbLine
 10
43.52000000000001
 20
8.999999999999971
 30
0.0
 11
43.51999999999999
 21
19.79289321881345
 31
0.0
  0
LINE
  5
ED6
330
EB4
100
AcDbEntity
  8
LW 3900-STADIP-01
 48
0.0
100
AcDbLine
 10
44.49999999999999
 20
9.000000000000028
 30
0.0
 11
43.51999999999999
 21
9.000000000000028
 31
0.0
  0
LINE
  5
ED7
330
EB4
100
AcDbEntity
  8
LW 3900-STADIP-01
 48
0.0
100
AcDbLine
 10
45.49999999999999
 20
8.0
 30
0.0
 11
44.49999999999999
 21
9.000000000000028
 31
0.0
  0
LINE
  5
ED8
330
EB4
100
AcDbEntity
  8
LW 3900-STADIP-01
 48
0.0
100
AcDbLine
 10
26.5
 20
6.053000000000025
 30
0.0
 11
45.49999999999999
 21
6.053000000000025
 31
0.0
  0
LINE
  5
ED9
330
EB4
100
AcDbEntity
  8
LW 3900-STADIP-01
 48
0.0
100
AcDbLine
 10
23.0052988205952
 20
-0.0000000000000071
 30
0.0
 11
26.5
 21
6.053000000000025
 31
0.0
  0
LINE
  5
EDA
330
EB4
100
AcDbEntity
  8
LW 3900-STADIP-01
 48
0.0
100
AcDbLine
 10
26.50000000000002
 20
-6.052999999999997
 30
0.0
 11
23.0052988205952
 21
-0.0000000000000071
 31
0.0
  0
LINE
  5
EDB
330
EB4
100
AcDbEntity
  8
LW 3900-STADIP-01
 48
0.0
100
AcDbLine
 10
45.49999999999999
 20
-6.052999999999997
 30
0.0
 11
26.50000000000002
 21
-6.052999999999997
 31
0.0
  0
LINE
  5
EDC
330
EB4
100
AcDbEntity
  8
LW 3900-STADIP-01
 48
0.0
100
AcDbLine
 10
45.50000000000002
 20
-8.000000000000028
 30
0.0
 11
45.49999999999999
 21
8.0
 31
0.0
  0
LINE
  5
EDD
330
EB4
100
AcDbEntity
  8
LW 3900-STADIP-01
 48
0.0
100
AcDbLine
 10
44.49999999999999
 20
-9.0
 30
0.0
 11
45.49999999999999
 21
-7.999999999999971
 31
0.0
  0
LINE
  5
EDE
330
EB4
100
AcDbEntity
  8
LW 3900-STADIP-01
 48
0.0
100
AcDbLine
 10
43.51999999999999
 20
-9.0
 30
0.0
 11
44.49999999999999
 21
-9.0
 31
0.0
  0
LINE
  5
EDF
330
EB4
100
AcDbEntity
  8
LW 3900-STADIP-01
 48
0.0
100
AcDbLine
 10
43.52000000000002
 20
-19.79289321881345
 30
0.0
 11
43.52000000000001
 21
-9.0
 31
0.0
  0
ARC
  5
EE0
330
EB4
100
AcDbEntity
  8
LW 3900-STADIP-01
 48
0.0
100
AcDbCircle
 10
43.02000000000004
 20
-19.79289321881347
 30
0.0
 40
0.4999999999999708
100
AcDbArc
 50
314.999999999999
 51
0.0
  0
LINE
  5
EE1
330
EB4
100
AcDbEntity
  8
LW 3900-STADIP-01
 48
0.0
100
AcDbLine
 10
40.66644660940674
 20
-22.85355339059325
 30
0.0
 11
43.37355339059327
 21
-20.14644660940672
 31
0.0
  0
ARC
  5
EE2
330
EB4
100
AcDbEntity
  8
LW 3900-STADIP-01
 48
0.0
100
AcDbCircle
 10
40.31289321881347
 20
-22.49999999999997
 30
0.0
 40
0.5000000000000249
100
AcDbArc
 50
270.0
 51
314.999999999999
  0
LINE
  5
EE3
330
EB4
100
AcDbEntity
  8
LW 3900-STADIP-01
 48
0.0
100
AcDbLine
 10
27.52000000000002
 20
-23.0
 30
0.0
 11
40.31289321881347
 21
-23.0
 31
0.0
  0
LINE
  5
EE4
330
EB4
100
AcDbEntity
  8
LW 3900-STADIP-01
 48
0.0
100
AcDbLine
 10
27.52000000000002
 20
-22.0
 30
0.0
 11
27.52000000000002
 21
-23.0
 31
0.0
  0
LINE
  5
EE5
330
EB4
100
AcDbEntity
  8
LW 3900-STADIP-01
 48
0.0
100
AcDbLine
 10
25.52000000000003
 20
-22.0
 30
0.0
 11
27.52000000000002
 21
-22.0
 31
0.0
  0
LINE
  5
EE6
330
EB4
100
AcDbEntity
  8
LW 3900-STADIP-01
 48
0.0
100
AcDbLine
 10
25.52000000000001
 20
-11.0
 30
0.0
 11
25.52000000000001
 21
-22.0
 31
0.0
  0
LINE
  5
EE7
330
EB4
100
AcDbEntity
  8
LW 3900-STADIP-01
 48
0.0
100
AcDbLine
 10
5.000000000000014
 20
-11.0
 30
0.0
 11
25.52000000000001
 21
-11.0
 31
0.0
  0
LINE
  5
EE8
330
EB4
100
AcDbEntity
  8
LW 3900-STADIP-01
 48
0.0
100
AcDbLine
 10
0.0000000000000142
 20
-16.0
 30
0.0
 11
5.000000000000014
 21
-11.0
 31
0.0
  0
LINE
  5
EE9
330
EB4
100
AcDbEntity
  8
LW 3900-STADIP-01
 48
0.0
100
AcDbLine
 10
0.0
 20
16.0
 30
0.0
 11
0.0000000000000142
 21
-16.0
 31
0.0
  0
LINE
  5
EEA
330
EB4
100
AcDbEntity
  8
LW 3900-STADIP-01
 48
0.0
100
AcDbLine
 10
4.000000000000014
 20
-8.5
 30
0.0
 11
0.0000000000000142
 21
-8.5
 31
0.0
  0
LINE
  5
EEB
330
EB4
100
AcDbEntity
  8
LW 3900-STADIP-01
 48
0.0
100
AcDbLine
 10
4.866025403784448
 20
-7.0
 30
0.0
 11
4.000000000000007
 21
-8.5
 31
0.0
  0
LINE
  5
EEC
330
EB4
100
AcDbEntity
  8
LW 3900-STADIP-01
 48
0.0
100
AcDbLine
 10
4.000000000000007
 20
-5.500000000000028
 30
0.0
 11
4.866025403784448
 21
-7.0
 31
0.0
  0
INSERT
  5
EED
330
EB4
100
AcDbEntity
  8
insertpoint_ECKELT
100
AcDbBlockReference
 66
     1
  2
insertpoint-ECKELT
 10
0.0
 20
0.0
 30
0.0
  0
ATTRIB
  5
1421
330
EED
100
AcDbEntity
  8
insertpoint_ECKELT
100
AcDbText
 10
-6.931514324693059
 20
-0.0000000000000284
 30
0.0
 40
0.6
  1
LW 3900/24-01
 72
     2
 11
-1.200000000000017
 21
-0.0000000000000284
 31
0.0
100
AcDbAttribute
  2
LINKS
 70
     0
  0
ATTRIB
  5
1422
330
EED
100
AcDbEntity
  8
insertpoint_ECKELT
100
AcDbText
 10
1.199999999999988
 20
-0.0000000000000284
 30
0.0
 40
0.6
  1

100
AcDbAttribute
  2
RECHTS
 70
     0
  0
SEQEND
  5
1423
330
EED
100
AcDbEntity
  8
insertpoint_ECKELT
  0
LINE
  5
EF1
330
EB4
100
AcDbEntity
  8
LW 3900-STADIP-01
  6
MITTE2
 62
     3
100
AcDbLine
 10
49.18236088981617
 20
0.0
 30
0.0
 11
-4.816740571937998
 21
0.0
 31
0.0
  0
LINE
  5
EF2
330
EB4
100
AcDbEntity
  8
LW 3900-STADIP-01
  6
MITTE2
 62
     3
100
AcDbLine
 10
6.06676842937054
 20
6.999999999999971
 30
0.0
 11
-2.025328589565788
 21
6.999999999999971
 31
0.0
  0
LINE
  5
EF3
330
EB4
100
AcDbEntity
  8
LW 3900-STADIP-01
  6
MITTE2
 62
     3
100
AcDbLine
 10
6.06676842937054
 20
-6.999999999999971
 30
0.0
 11
-2.025328589565788
 21
-6.999999999999971
 31
0.0
  0
LINE
  5
EF4
330
EB4
100
AcDbEntity
  8
LW 3900-STADIP-01
  6
MITTE2
 62
     3
100
AcDbLine
 10
36.52
 20
13.27820912973922
 30
0.0
 11
36.52
 21
25.1521294245251
 31
0.0
  0
HATCH
  5
EF5
330
EB4
100
AcDbEntity
  8
LW 3900-STADIP-01
 62
     1
100
AcDbHatch
 10
0.0
 20
0.0
 30
0.0
210
0.0
220
0.0
230
1.0
  2
SOLID
 70
     1
 71
     0
 91
        5
 92
        7
 72
     0
 73
     1
 93
       76
 10
29.59600150507754
 20
-18.08856979069733
 10
29.62786033445036
 20
-18.03698882885564
 10
29.74601845868165
 20
-17.8857464298396
 10
29.88049653389442
 20
-17.74532229957711
 10
30.02651644035586
 20
-17.61693773786376
 10
30.19018523643786
 20
-17.50003145494807
 10
30.36557218980261
 20
-17.39785357312635
 10
30.54732512240292
 20
-17.30650189354352
 10
30.72849405786866
 20
-17.23698358109735
 10
28.4713561196686
 20
-17.23698358109735
 10
28.25845956726863
 20
-17.24567323629733
 10
28.05642508386865
 20
-17.27174220189735
 10
27.86090784186865
 20
-17.31301806409735
 10
27.67625266886876
 20
-17.36732840909732
 10
27.50028715106862
 20
-17.43684565069733
 10
27.3330112884687
 20
-17.51939737509738
 10
27.18244302592177
 20
-17.61472289264125
 10
27.03973542546874
 20
-17.72143185849737
 10
26.91429416989809
 20
-17.84048013473742
 10
26.80302921782067
 20
-17.96873944548932
 10
26.70301128646872
 20
-18.10594910109731
 10
26.62045956206867
 20
-18.25150082569732
 10
26.55745956186866
 20
-18.40574220549749
 10
26.50749404446873
 20
-18.56650082669725
 10
26.47925266506871
 20
-18.73160427549734
 10
26.47056300986867
 20
-18.90539737949731
 10
26.48142507886871
 20
-19.0791904834974
 10
26.51183887206867
 20
-19.24646634609738
 10
26.5661492170687
 20
-19.40722496729737
 10
26.63566645866865
 20
-19.56363876089736
 10
26.72473542446875
 20
-19.71136289929743
 10
26.83118370066865
 20
-19.85256979629733
 10
26.9538816320927
 20
-19.98378358981736
 10
27.0900806808009
 20
-20.10491738330532
 10
27.23742508126867
 20
-20.21536290089736
 10
27.39818370246871
 20
-20.31312152189733
 10
27.57381032371592
 20
-20.39801945320133
 10
27.75445956566864
 20
-20.47170772929732
 10
27.94563198006875
 20
-20.52819048809735
 10
28.14549404966868
 20
-20.57163876409735
 10
28.35404577446866
 20
-20.59770772969736
 10
28.56476991306863
 20
-20.60639738489735
 10
30.68394099882124
 20
-20.60639738489735
 10
30.52339713476874
 20
-20.54332658116246
 10
30.33983299096633
 20
-20.45270630763972
 10
30.17136658479626
 20
-20.34817661470808
 10
30.00853369003551
 20
-20.23255837628264
 10
29.86462132166531
 20
-20.10276877974277
 10
29.73718542818096
 20
-19.96341509651429
 10
29.62348007343763
 20
-19.81292685180168
 10
29.57150884198905
 20
-19.72874220969734
 10
28.54304577506866
 20
-19.72874220969734
 10
28.41093694706308
 20
-19.72118220967334
 10
28.28018370526866
 20
-19.70084841650535
 10
28.15201129106873
 20
-19.66791462329737
 10
28.03687335966868
 20
-19.62229393349733
 10
27.93192839381828
 20
-19.56581117469736
 10
27.83377873833428
 20
-19.49820565724136
 10
27.74359749666871
 20
-19.42025945009735
 10
27.67190784126871
 20
-19.33553531189736
 10
29.39942915552752
 20
-19.33553531189736
 10
29.38884468825449
 20
-19.30289987113903
 10
29.35273288029004
 20
-19.11752592358792
 10
29.34068922750834
 20
-18.92723620963719
 10
29.35271089993768
 20
-18.73248511628222
 10
29.38901662161299
 20
-18.54611574501567
 10
29.40561532428808
 20
-18.49698358509735
 10
27.6349768066687
 20
-18.49698358509735
 10
27.70449404826866
 20
-18.40139737789744
 10
27.78704577266865
 20
-18.31884565349733
 10
27.88213666952226
 20
-18.24898082568935
 10
27.9847354284687
 20
-18.19067323929735
 10
28.10342742884547
 20
-18.14670358398538
 10
28.22587336026874
 20
-18.11463875629735
 10
28.3627354296687
 20
-18.09508703209738
 10
28.50611474046872
 20
-18.08856979069733
 97
        0
 92
        7
 72
     0
 73
     1
 93
       72
 10
31.32446537010549
 20
-18.10316841143336
 10
31.44732840497829
 20
-18.08509392861734
 10
31.57139061226871
 20
-18.07988013549735
 10
32.84008027146871
 20
-18.07988013549735
 10
31.99283888946866
 20
-18.89453531049733
 10
33.75901130886872
 20
-20.61291462629734
 10
35.07766648546869
 20
-20.61291462629734
 10
33.36363199726868
 20
-18.87063875869737
 10
35.04508027846868
 20
-17.23698358109735
 10
31.60614923306878
 20
-17.23698358109735
 10
31.39816233585662
 20
-17.24775875354535
 10
31.19144412830383
 20
-17.27321944328136
 10
30.98701130006873
 20
-17.31301806409735
 10
30.79366647186868
 20
-17.36950082289738
 10
30.60683888506867
 20
-17.44119047829733
 10
30.43567874659419
 20
-17.52721806477737
 10
30.27011474606871
 20
-17.6236732374974
 10
30.11804578006871
 20
-17.73229392749735
 10
29.98234812446554
 20
-17.85160289339333
 10
29.8573561240687
 20
-17.98212151449738
 10
29.74873543406864
 20
-18.1211559976974
 10
29.65749405446871
 20
-18.26888013609724
 10
29.58580439906871
 20
-18.42312151589729
 10
29.53149405406867
 20
-18.58388013709734
 10
29.49890784706872
 20
-18.75115599969731
 10
29.48804577806868
 20
-18.92712151749745
 10
29.49890784706866
 20
-19.09874220769737
 10
29.53149405406867
 20
-19.26601807029735
 10
29.58363198526866
 20
-19.42677669149734
 10
29.65314922686867
 20
-19.58101807129733
 10
29.74499019267745
 20
-19.7297849683213
 10
29.8503696412879
 20
-19.86925393428143
 10
29.96837515890388
 20
-19.9982953140013
 10
30.10066646966868
 20
-20.11760427989734
 10
30.2527875735999
 20
-20.22561669403339
 10
30.41132164306873
 20
-20.32398359089737
 10
30.58294233326871
 20
-20.40870772909736
 10
30.76542509246866
 20
-20.48039738449737
 10
30.95965626549912
 20
-20.53444703984135
 10
31.15645957646865
 20
-20.57815600549734
 10
31.36501130126874
 20
-20.60422497109735
 10
31.57573543986865
 20
-20.61291462629734
 10
33.47876992866868
 20
-20.61291462629734
 10
32.59242509826868
 20
-19.73960427869733
 10
31.57573543986865
 20
-19.73960427869733
 10
31.50906840517416
 20
-19.73585698575803
 10
31.40812068071591
 20
-19.72587462348136
 10
31.28798619757589
 20
-19.70441117513738
 10
31.17086702479031
 20
-19.67008703709737
 10
31.0693718520543
 20
-19.62915876110534
 10
31.01323667946224
 20
-19.60100427825731
 10
30.95955198963662
 20
-19.5684180712573
 10
30.82699129956069
 20
-19.46909531232134
 10
30.75338992001667
 20
-19.39905669140935
 10
30.6983235750144
 20
-19.33119048429742
 10
30.64961805761829
 20
-19.25863186337736
 10
30.61025391956224
 20
-19.18146772520137
 10
30.58083074705507
 20
-19.10004565597742
 10
30.56013198836865
 20
-19.01288841432134
 10
30.55261543662067
 20
-18.92355875886542
 10
30.55397102283189
 20
-18.86125393108139
 10
30.55997557457511
 20
-18.79912289640148
 10
30.57213240219989
 20
-18.73594910309734
 10
30.5903459194991
 20
-18.67425255117737
 10
30.63399405756866
 20
-18.57553806810543
 10
30.67552191976949
 20
-18.50767186099338
 10
30.73860012686629
 20
-18.42963875729734
 10
30.86800206723109
 20
-18.30311602024372
 10
30.92726992056873
 20
-18.26305806711335
 10
31.00356509322466
 20
-18.21874082559341
 10
31.08758536935346
 20
-18.17659599787336
 10
31.20412233524064
 20
-18.13375599773738
 97
        0
 92
        7
 72
     0
 73
     1
 93
       57
 10
35.88250235009276
 20
-18.12524013564135
 10
36.01397683326872
 20
-18.08526772172135
 10
36.14866648886863
 20
-18.05815599749732
 10
36.29204579966859
 20
-18.04946634229733
 10
37.53249407946869
 20
-18.04946634229733
 10
37.53249407946869
 20
-17.22394909829737
 10
36.29856304106875
 20
-17.22394909829737
 10
36.08783890246872
 20
-17.23263875349735
 10
35.88145959146875
 20
-17.26088013289731
 10
35.68376993566876
 20
-17.30215599509731
 10
35.49476993506875
 20
-17.35646634009734
 10
35.3101147620688
 20
-17.42815599549735
 10
35.14370786498854
 20
-17.51079461644937
 10
34.98488703689822
 20
-17.6072497891694
 10
34.83480800193912
 20
-17.71673944468935
 10
34.7002486911672
 20
-17.8359615140333
 10
34.58018372526875
 20
-17.96474220409734
 10
34.47590786286873
 20
-18.10377668729737
 10
34.39118372466869
 20
-18.24932841189738
 10
34.31949406926868
 20
-18.40356979169738
 10
34.2695285518687
 20
-18.56432841289725
 10
34.23694234486869
 20
-18.73160427549729
 10
34.2260802758687
 20
-18.90539737949731
 10
34.23694234486869
 20
-19.07919048349734
 10
34.2695285518687
 20
-19.24646634609738
 10
34.32166648306868
 20
-19.40722496729737
 10
34.39335613846868
 20
-19.56363876089736
 10
34.48025269046873
 20
-19.71136289929737
 10
34.58909931150385
 20
-19.85091876180937
 10
34.70895572567748
 20
-19.98126358980934
 10
34.8453833123175
 20
-20.10257117640137
 10
34.9929423472687
 20
-20.21319048709736
 10
35.15370096846869
 20
-20.31094910809739
 10
35.32749407246866
 20
-20.39567324629738
 10
35.51214924546867
 20
-20.46953531549732
 10
35.70332165986873
 20
-20.52601807429736
 10
35.90318372946866
 20
-20.56946635029735
 10
36.10956304046869
 20
-20.59336290209737
 10
36.32245959286872
 20
-20.60205255729735
 10
37.53249407946869
 20
-20.60205255729735
 10
37.53249407946869
 20
-19.74394910629738
 10
36.29856304106864
 20
-19.74394910629738
 10
36.16491614409268
 20
-19.73360841660937
 10
36.0326595919487
 20
-19.71162358895336
 10
35.91204717777272
 20
-19.67729945091335
 10
35.79604028085272
 20
-19.62933255420935
 10
35.6863768322287
 20
-19.56841807125735
 10
35.58931338364472
 20
-19.50081255380135
 10
35.5018954523327
 20
-19.42104151906537
 10
35.42742510726868
 20
-19.33553531189736
 10
37.53249407946869
 20
-19.33553531189736
 10
37.53249407946869
 20
-18.50784565409734
 10
35.39049407266868
 20
-18.50784565409734
 10
35.46001131426869
 20
-18.41008703309737
 10
35.54690786626862
 20
-18.32101806729738
 10
35.64805545279672
 20
-18.24472289464134
 10
35.75545959106871
 20
-18.17763875649737
 97
        0
 92
        7
 72
     0
 73
     1
 93
        6
 10
37.76276994226869
 20
-17.23698358109735
 10
37.76276994226869
 20
-20.60639738489735
 10
40.00035615626871
 20
-20.60639738489735
 10
40.00035615626871
 20
-19.73960427869733
 10
38.7859768420687
 20
-19.73960427869733
 10
38.7859768420687
 20
-17.23698358109735
 97
        0
 92
        7
 72
     0
 73
     1
 93
        8
 10
39.0184251186687
 20
-17.23698358109735
 10
39.0184251186687
 20
-18.06250082509737
 10
40.25235615706868
 20
-18.06250082509737
 10
40.25235615706868
 20
-20.61291462629734
 10
41.27773547066869
 20
-20.61291462629734
 10
41.27773547066869
 20
-18.06250082509737
 10
42.52035616426872
 20
-18.06250082509737
 10
42.52035616426872
 20
-17.23698358109735
 97
        0
 75
     0
 76
     1
 47
0.0142553043587597
 98
        5
 10
28.90566163114391
 20
-17.67943325068646
 10
31.17315884448647
 20
-17.82198623569226
 10
35.66537057668803
 20
-17.76496506314456
 10
38.38921966051959
 20
-17.52262483845228
 10
39.80105764274647
 20
-17.62241197086561
  0
LWPOLYLINE
  5
EF6
330
EB4
100
AcDbEntity
  8
LW 3900-STADIP-01
 62
     1
100
AcDbPolyline
 90
        8
 70
     1
 43
0.0
 10
41.27773547066869
 20
-18.06250082509737
 10
41.27773547066869
 20
-20.61291462629734
 10
40.25235615706868
 20
-20.61291462629734
 10
40.25235615706868
 20
-18.06250082509737
 10
39.0184251186687
 20
-18.06250082509737
 10
39.0184251186687
 20
-17.23698358109735
 10
42.52035616426872
 20
-17.23698358109735
 10
42.52035616426872
 20
-18.06250082509737
  0
LWPOLYLINE
  5
EF7
330
EB4
100
AcDbEntity
  8
LW 3900-STADIP-01
 62
     1
100
AcDbPolyline
 90
       73
 70
     1
 43
0.0
 10
31.57573543986871
 20
-19.73960427869733
 10
32.59242509826868
 20
-19.73960427869733
 10
33.47876992866868
 20
-20.61291462629734
 10
31.57573543986871
 20
-20.61291462629734
 10
31.36501130126868
 20
-20.60422497109735
 10
31.15645957646871
 20
-20.57815600549734
 10
30.95965626549912
 20
-20.53444703984135
 10
30.76542509246872
 20
-20.48039738449737
 10
30.58294233326871
 20
-20.40870772909736
 10
30.41132164306868
 20
-20.32398359089737
 10
30.2527875735999
 20
-20.22561669403334
 10
30.10066646966868
 20
-20.11760427989734
 10
29.96837515890388
 20
-19.99829531400135
 10
29.8503696412879
 20
-19.86925393428137
 10
29.74499019267751
 20
-19.72978496832135
 10
29.65314922686867
 20
-19.58101807129733
 10
29.58363198526866
 20
-19.42677669149734
 10
29.53149405406867
 20
-19.26601807029735
 10
29.49890784706866
 20
-19.09874220769737
 10
29.48804577806868
 20
-18.92712151749734
 10
29.49890784706866
 20
-18.75115599969737
 10
29.53149405406867
 20
-18.58388013709734
 10
29.58580439906871
 20
-18.42312151589735
 10
29.65749405446866
 20
-18.26888013609735
 10
29.74873543406869
 20
-18.12115599769734
 10
29.8573561240687
 20
-17.98212151449738
 10
29.98234812446549
 20
-17.85160289339333
 10
30.11804578006866
 20
-17.73229392749735
 10
30.27011474606866
 20
-17.62367323749734
 10
30.43567874659431
 20
-17.52721806477737
 10
30.60683888506867
 20
-17.44119047829738
 10
30.79366647186868
 20
-17.36950082289738
 10
30.98701130006868
 20
-17.31301806409735
 10
31.19144412830389
 20
-17.27321944328136
 10
31.39816233585668
 20
-17.24775875354535
 10
31.60614923306866
 20
-17.23698358109735
 10
35.04508027846868
 20
-17.23698358109735
 10
33.36363199726868
 20
-18.87063875869737
 10
35.07766648546869
 20
-20.61291462629734
 10
33.75901130886872
 20
-20.61291462629734
 10
31.99283888946866
 20
-18.89453531049733
 10
32.84008027146871
 20
-18.07988013549735
 10
31.57139061226871
 20
-18.07988013549735
 10
31.44732840497829
 20
-18.08509392861734
 10
31.32446537010549
 20
-18.10316841143336
 10
31.2041223352407
 20
-18.13375599773738
 10
31.08758536935352
 20
-18.17659599787336
 10
31.00356509322466
 20
-18.21874082559336
 10
30.92726992056868
 20
-18.26305806711335
 10
30.88702812733749
 20
-18.29025668788935
 10
30.84951488583909
 20
-18.32119186040134
 10
30.73860012686629
 20
-18.42963875729734
 10
30.67552191976949
 20
-18.50767186099338
 10
30.63399405756866
 20
-18.57553806810537
 10
30.5903459194991
 20
-18.67425255117737
 10
30.57213240219989
 20
-18.73594910309734
 10
30.55997557457511
 20
-18.79912289640137
 10
30.55397102283189
 20
-18.86125393108133
 10
30.55261543662067
 20
-18.92355875886537
 10
30.56013198836871
 20
-19.01288841432134
 10
30.58083074705507
 20
-19.10004565597737
 10
30.6102539195623
 20
-19.18146772520137
 10
30.64961805761829
 20
-19.25863186337736
 10
30.69832357501429
 20
-19.33119048429736
 10
30.75338992001667
 20
-19.39905669140935
 10
30.82699129956069
 20
-19.46909531232134
 10
30.95955198963668
 20
-19.56841807125735
 10
31.0132366794623
 20
-19.60100427825736
 10
31.0693718520543
 20
-19.62915876110534
 10
31.17086702479031
 20
-19.67008703709737
 10
31.28798619757589
 20
-19.70441117513732
 10
31.40812068071591
 20
-19.72587462348136
 10
31.50906840517428
 20
-19.73585698575803
  0
LWPOLYLINE
  5
EF9
330
EB4
100
AcDbEntity
  8
LW 3900-STADIP-01
 62
     1
100
AcDbPolyline
 90
       76
 70
     1
 43
0.0
 10
30.36557218980261
 20
-17.39785357312635
 10
30.1901852364378
 20
-17.50003145494807
 10
30.02651644035581
 20
-17.61693773786376
 10
29.88049653389442
 20
-17.74532229957711
 10
29.74601845868159
 20
-17.88574642983966
 10
29.62786033445042
 20
-18.03698882885553
 10
29.59600150507754
 20
-18.08856979069733
 10
28.50611474046866
 20
-18.08856979069733
 10
28.3627354296687
 20
-18.09508703209732
 10
28.22587336026868
 20
-18.11463875629735
 10
28.10342742884547
 20
-18.14670358398538
 10
27.9847354284687
 20
-18.19067323929735
 10
27.88213666952231
 20
-18.24898082568935
 10
27.78704577266871
 20
-18.31884565349733
 10
27.70449404826866
 20
-18.40139737789732
 10
27.6349768066687
 20
-18.49698358509735
 10
29.40561532428808
 20
-18.49698358509735
 10
29.38901662161299
 20
-18.54611574501567
 10
29.35271089993768
 20
-18.73248511628228
 10
29.34068922750839
 20
-18.92723620963719
 10
29.35273288029004
 20
-19.11752592358797
 10
29.38884468825455
 20
-19.30289987113897
 10
29.39942915552752
 20
-19.33553531189736
 10
27.67190784126871
 20
-19.33553531189736
 10
27.74359749666871
 20
-19.42025945009735
 10
27.83377873833428
 20
-19.49820565724136
 10
27.93192839381828
 20
-19.56581117469736
 10
28.03687335966868
 20
-19.62229393349733
 10
28.15201129106867
 20
-19.66791462329737
 10
28.28018370526866
 20
-19.70084841650535
 10
28.41093694706308
 20
-19.72118220967334
 10
28.54304577506866
 20
-19.72874220969734
 10
29.57150884198905
 20
-19.72874220969734
 10
29.62348007343763
 20
-19.81292685180162
 10
29.73718542818096
 20
-19.96341509651429
 10
29.86462132166531
 20
-20.10276877974277
 10
30.00853369003551
 20
-20.23255837628259
 10
30.17136658479626
 20
-20.34817661470808
 10
30.33983299096633
 20
-20.45270630763972
 10
30.52339713476874
 20
-20.54332658116246
 10
30.68394099882124
 20
-20.60639738489735
 10
28.56476991306869
 20
-20.60639738489735
 10
28.35404577446866
 20
-20.59770772969736
 10
28.14549404966868
 20
-20.57163876409735
 10
27.9456319800687
 20
-20.52819048809735
 10
27.7544595656687
 20
-20.47170772929738
 10
27.57381032371586
 20
-20.39801945320133
 10
27.39818370246871
 20
-20.31312152189733
 10
27.23742508126867
 20
-20.21536290089736
 10
27.09008068080095
 20
-20.10491738330538
 10
26.9538816320927
 20
-19.98378358981736
 10
26.8311837006687
 20
-19.85256979629733
 10
26.72473542446869
 20
-19.71136289929737
 10
26.63566645866871
 20
-19.56363876089736
 10
26.5661492170687
 20
-19.40722496729737
 10
26.51183887206867
 20
-19.24646634609738
 10
26.48142507886871
 20
-19.07919048349734
 10
26.47056300986867
 20
-18.90539737949737
 10
26.47925266506866
 20
-18.73160427549734
 10
26.50749404446867
 20
-18.56650082669736
 10
26.55745956186866
 20
-18.40574220549737
 10
26.62045956206867
 20
-18.25150082569738
 10
26.70301128646867
 20
-18.10594910109736
 10
26.80302921782067
 20
-17.96873944548937
 10
26.91429416989803
 20
-17.84048013473736
 10
27.03973542546868
 20
-17.72143185849737
 10
27.18244302592172
 20
-17.61472289264137
 10
27.3330112884687
 20
-17.51939737509732
 10
27.50028715106868
 20
-17.43684565069733
 10
27.6762526688687
 20
-17.36732840909732
 10
27.86090784186871
 20
-17.31301806409735
 10
28.05642508386871
 20
-17.27174220189735
 10
28.25845956726869
 20
-17.24567323629733
 10
28.47135611966871
 20
-17.23698358109735
 10
30.72849405786872
 20
-17.23698358109735
 10
30.54732512240292
 20
-17.30650189354352
  0
LWPOLYLINE
  5
EFA
330
EB4
100
AcDbEntity
  8
LW 3900-STADIP-01
 62
     1
100
AcDbPolyline
 90
        6
 70
     1
 43
0.0
 10
40.00035615626871
 20
-20.60639738489735
 10
37.76276994226869
 20
-20.60639738489735
 10
37.76276994226869
 20
-17.23698358109735
 10
38.7859768420687
 20
-17.23698358109735
 10
38.7859768420687
 20
-19.73960427869733
 10
40.00035615626871
 20
-19.73960427869733
  0
LWPOLYLINE
  5
EFB
330
EB4
100
AcDbEntity
  8
LW 3900-STADIP-01
 62
     1
100
AcDbPolyline
 90
       57
 70
     1
 43
0.0
 10
34.70895572567748
 20
-19.98126358980934
 10
34.58909931150391
 20
-19.85091876180937
 10
34.48025269046867
 20
-19.71136289929737
 10
34.39335613846868
 20
-19.56363876089736
 10
34.32166648306868
 20
-19.40722496729737
 10
34.2695285518687
 20
-19.24646634609738
 10
34.23694234486869
 20
-19.07919048349734
 10
34.2260802758687
 20
-18.90539737949737
 10
34.23694234486869
 20
-18.73160427549734
 10
34.2695285518687
 20
-18.56432841289737
 10
34.31949406926868
 20
-18.40356979169738
 10
34.39118372466869
 20
-18.24932841189732
 10
34.47590786286867
 20
-18.10377668729737
 10
34.58018372526869
 20
-17.96474220409734
 10
34.70024869116708
 20
-17.83596151403336
 10
34.83480800193912
 20
-17.71673944468935
 10
34.98488703689828
 20
-17.60724978916934
 10
35.14370786498871
 20
-17.51079461644937
 10
35.31011476206869
 20
-17.42815599549735
 10
35.4947699350687
 20
-17.35646634009734
 10
35.6837699356687
 20
-17.30215599509736
 10
35.88145959146869
 20
-17.26088013289737
 10
36.08783890246867
 20
-17.23263875349735
 10
36.2985630410687
 20
-17.22394909829737
 10
37.53249407946869
 20
-17.22394909829737
 10
37.53249407946869
 20
-18.04946634229733
 10
36.29204579966871
 20
-18.04946634229733
 10
36.14866648886869
 20
-18.05815599749732
 10
36.01397683326867
 20
-18.08526772172135
 10
35.8825023500927
 20
-18.12524013564135
 10
35.75545959106871
 20
-18.17763875649737
 10
35.64805545279672
 20
-18.24472289464134
 10
35.54690786626867
 20
-18.32101806729733
 10
35.46001131426869
 20
-18.41008703309737
 10
35.39049407266868
 20
-18.50784565409734
 10
37.53249407946869
 20
-18.50784565409734
 10
37.53249407946869
 20
-19.33553531189736
 10
35.42742510726868
 20
-19.33553531189736
 10
35.5018954523327
 20
-19.42104151906537
 10
35.58931338364472
 20
-19.50081255380135
 10
35.6863768322287
 20
-19.56841807125735
 10
35.79604028085272
 20
-19.62933255420935
 10
35.91204717777272
 20
-19.67729945091335
 10
36.0326595919487
 20
-19.71162358895336
 10
36.16491614409268
 20
-19.73360841660937
 10
36.2985630410687
 20
-19.74394910629738
 10
37.53249407946869
 20
-19.74394910629738
 10
37.53249407946869
 20
-20.60205255729735
 10
36.32245959286872
 20
-20.60205255729735
 10
36.10956304046869
 20
-20.59336290209737
 10
35.90318372946871
 20
-20.56946635029735
 10
35.70332165986867
 20
-20.52601807429736
 10
35.51214924546867
 20
-20.46953531549732
 10
35.32749407246866
 20
-20.39567324629738
 10
35.15370096846869
 20
-20.31094910809733
 10
34.9929423472687
 20
-20.21319048709736
 10
34.8453833123175
 20
-20.10257117640137
  0
HATCH
  5
13A6
330
EB4
100
AcDbEntity
  8
LW 3900-STADIP-01
 62
     8
100
AcDbHatch
 10
0.0
 20
0.0
 30
0.0
210
0.0
220
0.0
230
1.0
  2
ANSI31
 70
     0
 71
     0
 91
        4
 92
        7
 72
     1
 73
     1
 93
       30
 10
43.51999999999999
 20
19.79289321881345
 42
0.1989123673796531
 10
43.37355339059326
 20
20.14644660940669
 42
0.0
 10
40.66644660940672
 20
22.85355339059328
 42
0.1989123673796607
 10
40.31289321881342
 20
23.0
 42
0.0
 10
39.02
 20
23.0
 42
0.0
 10
39.02
 20
16.99999999999997
 42
0.0
 10
36.51999999999999
 20
15.55662432702593
 42
0.0
 10
34.02
 20
16.99999999999998
 42
0.0
 10
34.01999999999999
 20
23.00000000000001
 42
0.0
 10
27.52
 20
23.0
 42
0.0
 10
27.51999999999999
 20
21.99999999999997
 42
0.0
 10
25.52
 20
21.99999999999997
 42
0.0
 10
25.52000000000001
 20
11.0
 42
0.0
 10
5.0
 20
11.0
 42
0.0
 10
-0.0000000000000001
 20
16.0
 42
0.0
 10
0.0000000000000033
 20
8.5
 42
0.0
 10
4.000000000000007
 20
8.5
 42
0.0
 10
4.866025403784449
 20
6.999999999999971
 42
0.0
 10
4.000000000000007
 20
5.5
 42
0.0
 10
0.0000000000000047
 20
5.5
 42
0.0
 10
0.0000000000000066
 20
1.200000000000002
 42
-0.4142135623730942
 10
1.199999999999999
 20
0.0
 42
0.0
 10
23.00529882059521
 20
0.0
 42
0.0
 10
26.49999999999999
 20
6.053000000000025
 42
0.0
 10
28.50000000000001
 20
6.053000000000018
 42
0.0
 10
28.50000000000001
 20
6.999999999999992
 42
0.0
 10
45.49999999999999
 20
6.999999999999992
 42
0.0
 10
45.49999999999999
 20
8.0
 42
0.0
 10
44.49999999999999
 20
9.000000000000028
 42
0.0
 10
43.52000000000002
 20
9.000000000000028
 42
0.0
 97
        0
 92
       23
 72
     0
 73
     1
 93
        4
 10
45.49999999999999
 20
6.999999999999992
 10
28.50000000000001
 20
7.0
 10
28.50000000000001
 20
6.053000000000025
 10
45.49999999999999
 20
6.053000000000018
 97
        0
 92
        7
 72
     1
 73
     1
 93
       26
 10
43.52
 20
-9.0
 42
0.0
 10
44.49999999999998
 20
-9.0
 42
0.0
 10
45.50000000000002
 20
-7.999999999999943
 42
0.0
 10
45.50000000000002
 20
-6.999999999999985
 42
0.0
 10
28.50000000000002
 20
-6.999999999999985
 42
0.0
 10
28.50000000000002
 20
-6.053000000000011
 42
0.0
 10
26.50000000000002
 20
-6.053000000000011
 42
0.0
 10
23.0052988205952
 20
0.0
 42
0.0
 10
1.199999999999999
 20
0.0
 42
-0.4142135623730958
 10
0.0
 20
-1.200000000000002
 42
0.0
 10
0.0
 20
-1.799999999999997
 42
0.0
 10
0.0000000000000039
 20
-5.500000000000028
 42
0.0
 10
4.000000000000008
 20
-5.500000000000042
 42
0.0
 10
4.866025403784449
 20
-6.999999999999985
 42
0.0
 10
4.000000000000004
 20
-8.499999999999985
 42
0.0
 10
0.0000000000000109
 20
-8.5
 42
0.0
 10
0.0000000000000143
 20
-16.00000000000001
 42
0.0
 10
5.000000000000007
 20
-11.0
 42
0.0
 10
25.52000000000001
 20
-11.0
 42
0.0
 10
25.52000000000001
 20
-22.0
 42
0.0
 10
27.52000000000002
 20
-22.0
 42
0.0
 10
27.52000000000002
 20
-23.0
 42
0.0
 10
40.31289321881347
 20
-23.0
 42
0.1989123673796489
 10
40.66644660940673
 20
-22.85355339059325
 42
0.0
 10
43.37355339059327
 20
-20.14644660940672
 42
0.1989123673796761
 10
43.52000000000002
 20
-19.79289321881345
 42
0.0
 97
        0
 92
        7
 72
     0
 73
     1
 93
        4
 10
45.50000000000003
 20
-6.053000000000011
 10
28.50000000000002
 20
-6.053000000000011
 10
28.50000000000001
 20
-6.999999999999985
 10
45.50000000000003
 20
-6.999999999999985
 97
        0
 75
     0
 76
     1
 52
0.0
 41
0.75
 77
     0
 78
     1
 53
45.0
 43
-0.7463748552439356
 44
62.24389221730262
 45
-1.683798022700465
 46
1.683798022700466
 79
     0
 47
0.0775137555177674
 98
        4
 10
29.61183786252313
 20
11.80100157875635
 10
31.78363376301414
 20
6.452552527610279
 10
33.49004447951544
 20
-12.228262824602
 10
33.25735188752052
 20
-6.492244632820259
1001
ACAD
1010
0.0
1020
0.0
1030
0.0
  0
ENDBLK
  5
EB9
330
EB4
100
AcDbEntity
  8
0
100
AcDbBlockEnd
  0
ENDSEC
  0
SECTION
  2
ENTITIES
  0
MTEXT
  5
3FD
330
1F
100
AcDbEntity
  8
0
100
AcDbMText
 10
57.60203468932677
 20
63.55794465296535
 30
0.0
 40
5.0
 41
57.03130618910018
 71
     1
 72
     5
  1
LW 3900/15-01
 73
     1
 44
1.0
1001
ACAD
1000
ACAD_MTEXT_DEFINED_HEIGHT_BEGIN
1070
    46
1040
0.0
1000
ACAD_MTEXT_DEFINED_HEIGHT_END
1000
MTEXTBEGIN
1070
    73
1070
     1
1070
    44
1040
1.0
1070
    74
1070
     0
1000
MTEXTEND
  0
MTEXT
  5
565
330
1F
100
AcDbEntity
  8
0
100
AcDbMText
 10
57.60203468932677
 20
3.557944652965339
 30
0.0
 40
5.0
 41
57.03130618910018
 71
     1
 72
     5
  1
LW 3900/20-01
 73
     1
 44
1.0
1001
ACAD
1000
ACAD_MTEXT_DEFINED_HEIGHT_BEGIN
1070
    46
1040
0.0
1000
ACAD_MTEXT_DEFINED_HEIGHT_END
1000
MTEXTBEGIN
1070
    73
1070
     1
1070
    44
1040
1.0
1070
    74
1070
     0
1000
MTEXTEND
  0
MTEXT
  5
6D2
330
1F
100
AcDbEntity
  8
0
100
AcDbMText
 10
57.60203468932677
 20
-56.44205534703466
 30
0.0
 40
5.0
 41
57.03130618910018
 71
     1
 72
     5
  1
LW 3900/24-01
 73
     1
 44
1.0
1001
ACAD
1000
ACAD_MTEXT_DEFINED_HEIGHT_BEGIN
1070
    46
1040
0.0
1000
ACAD_MTEXT_DEFINED_HEIGHT_END
1000
MTEXTBEGIN
1070
    73
1070
     1
1070
    44
1040
1.0
1070
    74
1070
     0
1000
MTEXTEND
  0
INSERT
  5
E6A
330
1F
100
AcDbEntity
  8
0
100
AcDbBlockReference
  2
LW 3900-15-01
 10
0.7463748552439356
 20
57.7561077826974
 30
0.0
  0
INSERT
  5
EB3
330
1F
100
AcDbEntity
  8
0
100
AcDbBlockReference
  2
LW 3900-20-01
 10
0.7463748552439356
 20
-2.243892217302608
 30
0.0
  0
INSERT
  5
EFC
330
1F
100
AcDbEntity
  8
0
100
AcDbBlockReference
  2
LW 3900-24-01
 10
0.7463748552439356
 20
-62.24389221730262
 30
0.0
  0
VIEWPORT
  5
26C
102
{ACAD_XDICTIONARY
360
14C3
102
}
330
1B
100
AcDbEntity
 67
     1
  8
0
100
AcDbViewport
 10
144.2296600341797
 20
98.97533035278321
 30
0.0
 40
338.7692671638768
 41
211.6598603888209
 68
     1
 69
     1
 12
144.2296600341797
 22
98.97533035278321
 13
0.0
 23
0.0
 14
10.0
 24
10.0
 15
10.0
 25
10.0
 16
0.0
 26
0.0
 36
1.0
 17
0.0
 27
0.0
 37
0.0
 42
50.0
 43
0.0
 44
0.0
 45
211.6598603888209
 50
0.0
 51
0.0
 72
   100
 90
    32800
  1

281
     0
 71
     1
 74
     0
110
0.0
120
0.0
130
0.0
111
1.0
121
0.0
131
0.0
112
0.0
122
1.0
132
0.0
 79
     0
146
0.0
  0
ENDSEC
  0
SECTION
  2
OBJECTS
  0
DICTIONARY
  5
C
330
0
100
AcDbDictionary
281
     1
  3
ACAD_COLOR
350
36A
  3
ACAD_GROUP
350
D
  3
ACAD_LAYOUT
350
1A
  3
ACAD_MATERIAL
350
369
  3
ACAD_MLINESTYLE
350
17
  3
ACAD_PLOTSETTINGS
350
19
  3
ACAD_PLOTSTYLENAME
350
E
  3
ACAD_TABLESTYLE
350
36B
  3
ACDBHEADERROUNDTRIPXREC
350
14BC
  3
AcDbVariableDictionary
350
25E
  3
DWGPROPS
350
14BB
  0
DICTIONARY
  5
9BC
330
2
100
AcDbDictionary
280
     1
281
     1
  3
ACAD_LAYERFILTERS
360
9C1
  3
ACLYDICTIONARY
360
9C0
  0
DICTIONARY
  5
16B
330
1F
100
AcDbDictionary
280
     1
281
     1
  3
ACAD_LAYOUTSELFREF
360
364
  3
ACAD_SORTENTS
360
522
  0
DICTIONARY
  5
16D
330
1B
100
AcDbDictionary
280
     1
281
     1
  3
ACAD_LAYOUTSELFREF
360
363
  0
DICTIONARY
  5
16F
330
23
100
AcDbDictionary
280
     1
281
     1
  3
ACAD_LAYOUTSELFREF
360
365
  0
DICTIONARY
  5
E23
330
E22
100
AcDbDictionary
280
     1
281
     1
  3
ACAD_SORTENTS
360
1170
  3
AcDbBlockTableRecordData
360
E24
  0
DICTIONARY
  5
E6C
330
E6B
100
AcDbDictionary
280
     1
281
     1
  3
ACAD_SORTENTS
360
14B7
  3
AcDbBlockTableRecordData
360
E6D
  0
DICTIONARY
  5
EB5
330
EB4
100
AcDbDictionary
280
     1
281
     1
  3
ACAD_SORTENTS
360
142F
  3
AcDbBlockTableRecordData
360
EB6
  0
DICTIONARY
  5
14C3
330
26C
100
AcDbDictionary
280
     1
281
     1
  3
ACAD_XREC_ROUNDTRIP
360
14C4
  0
DICTIONARY
  5
36A
102
{ACAD_REACTORS
330
C
102
}
330
C
100
AcDbDictionary
281
     1
  0
DICTIONARY
  5
D
102
{ACAD_REACTORS
330
C
102
}
330
C
100
AcDbDictionary
281
     1
  0
DICTIONARY
  5
1A
102
{ACAD_REACTORS
330
C
102
}
330
C
100
AcDbDictionary
281
     1
  3
Layout1
350
1E
  3
Layout2
350
26
  3
Model
350
22
  0
DICTIONARY
  5
369
102
{ACAD_REACTORS
330
C
102
}
330
C
100
AcDbDictionary
281
     1
  0
DICTIONARY
  5
17
102
{ACAD_REACTORS
330
C
102
}
330
C
100
AcDbDictionary
281
     1
  3
Standard
350
18
  0
DICTIONARY
  5
19
102
{ACAD_REACTORS
330
C
102
}
330
C
100
AcDbDictionary
281
     1
  0
ACDBDICTIONARYWDFLT
  5
E
102
{ACAD_REACTORS
330
C
102
}
330
C
100
AcDbDictionary
281
     1
  3
Normal
350
F
100
AcDbDictionaryWithDefault
340
F
  0
DICTIONARY
  5
36B
102
{ACAD_REACTORS
330
C
102
}
330
C
100
AcDbDictionary
281
     1
  3
Standard
350
36C
  0
DICTIONARY
  5
14BC
102
{ACAD_REACTORS
330
C
102
}
330
C
100
AcDbDictionary
281
     1
  0
DICTIONARY
  5
25E
102
{ACAD_REACTORS
330
C
102
}
330
C
100
AcDbDictionary
281
     1
  3
CTABLESTYLE
350
7F9
  3
DIMASSOC
350
260
  3
HIDETEXT
350
25F
  3
PROJECTNAME
350
9CD
  0
XRECORD
  5
14BB
102
{ACAD_REACTORS
330
C
102
}
330
C
100
AcDbXrecord
280
     1
  1
DWGPROPS COOKIE
  2

  3

  4
Grandl
  6

  7

  8

  9

300
=
301
=
302
=
303
=
304
=
305
=
306
=
307
=
308
=
309
=
 40
0.0410596875
 41
2452768.379173588
 42
2454032.661402685
  1

 90
        0
  0
DICTIONARY
  5
9C1
102
{ACAD_REACTORS
330
9BC
102
}
330
9BC
100
AcDbDictionary
281
     1
  0
DICTIONARY
  5
9C0
102
{ACAD_REACTORS
330
9BC
102
}
330
9BC
100
AcDbDictionary
281
     1
1001
ACAD
1000
<All
  0
XRECORD
  5
364
102
{ACAD_REACTORS
330
16B
102
}
330
16B
100
AcDbXrecord
280
     1
340
1F
  0
SORTENTSTABLE
  5
522
102
{ACAD_REACTORS
330
16B
102
}
330
16B
100
AcDbSortentsTable
330
1F
331
3FD
  5
3FE
331
6D2
  5
6D3
331
565
  5
566
  0
XRECORD
  5
363
102
{ACAD_REACTORS
330
16D
102
}
330
16D
100
AcDbXrecord
280
     1
340
1B
  0
XRECORD
  5
365
102
{ACAD_REACTORS
330
16F
102
}
330
16F
100
AcDbXrecord
280
     1
340
23
  0
SORTENTSTABLE
  5
1170
102
{ACAD_REACTORS
330
E23
102
}
330
E23
100
AcDbSortentsTable
330
E22
331
E58
  5
E59
331
E41
  5
E42
331
E31
  5
E32
331
E68
  5
E69
331
E59
  5
E5A
331
E32
  5
E33
331
E69
  5
116F
331
E42
  5
E43
331
E5A
  5
E5B
331
E43
  5
E44
331
E33
  5
E34
331
E5B
  5
E5F
331
E34
  5
E35
331
E44
  5
E45
331
E45
  5
E46
331
E35
  5
E36
331
E36
  5
E37
331
E46
  5
E47
331
E47
  5
E48
331
E37
  5
E38
331
E5F
  5
E60
331
E38
  5
E39
331
E50
  5
E51
331
E48
  5
E49
331
E29
  5
E2A
331
E60
  5
E61
331
E39
  5
E3A
331
E49
  5
E4A
331
E51
  5
E52
331
E61
  5
E62
331
E3A
  5
E3B
331
E2A
  5
E2B
331
E52
  5
E53
331
E4A
  5
E4B
331
E2B
  5
E2C
331
E62
  5
E63
331
116F
  5
E29
331
E3B
  5
E3C
331
E4B
  5
E4C
331
E53
  5
E54
331
E63
  5
E65
331
E3C
  5
E3D
331
E2C
  5
E2D
331
E54
  5
E55
331
E4C
  5
E4D
331
E2D
  5
E2E
331
E3D
  5
E3E
331
E4D
  5
E4E
331
E55
  5
E56
331
E65
  5
E66
331
E3E
  5
E3F
331
E2E
  5
E2F
331
E56
  5
E57
331
E4E
  5
E4F
331
E2F
  5
E30
331
E66
  5
E67
331
E3F
  5
E40
331
E4F
  5
E50
331
E57
  5
E58
331
E30
  5
E31
331
E67
  5
E68
331
E40
  5
E41
  0
DICTIONARY
  5
E24
102
{ACAD_REACTORS
330
E23
102
}
330
E23
100
AcDbDictionary
280
     1
281
     1
  3
Edit
360
E25
  0
SORTENTSTABLE
  5
14B7
102
{ACAD_REACTORS
330
E6C
102
}
330
E6C
100
AcDbSortentsTable
330
E6B
331
E87
  5
E88
331
E97
  5
E98
331
E78
  5
E79
331
E98
  5
E99
331
E88
  5
E89
331
EA8
  5
EA9
331
E79
  5
E7A
331
E89
  5
E8A
331
E99
  5
E9A
331
12AE
  5
E72
331
EA9
  5
EAA
331
E7A
  5
E7B
331
E9A
  5
E9B
331
E8A
  5
E8B
331
EAA
  5
EAB
331
E7B
  5
E7C
331
E8B
  5
E8C
331
E9B
  5
E9C
331
EAB
  5
EAC
331
E7C
  5
E7D
331
E9C
  5
E9D
331
E8C
  5
E8D
331
E7D
  5
E7E
331
EAC
  5
EAD
331
E8D
  5
E8E
331
E9D
  5
E9E
331
EAD
  5
EAE
331
E7E
  5
E7F
331
E8E
  5
E8F
331
E9E
  5
E9F
331
E7F
  5
E80
331
EAE
  5
EB0
331
E9F
  5
EA0
331
E8F
  5
E90
331
E90
  5
E91
331
E80
  5
E81
331
EB0
  5
EB1
331
EA0
  5
EA1
331
E81
  5
E82
331
E91
  5
E92
331
EA1
  5
EA2
331
E72
  5
E73
331
EB1
  5
EB2
331
E92
  5
E93
331
E82
  5
E83
331
EB2
  5
12AE
331
EA2
  5
EA3
331
E73
  5
E74
331
E83
  5
E84
331
E93
  5
E94
331
EA3
  5
EA4
331
E74
  5
E75
331
E94
  5
E95
331
E84
  5
E85
331
EA4
  5
EA8
331
E75
  5
E76
331
E85
  5
E86
331
E95
  5
E96
331
E76
  5
E77
331
E96
  5
E97
331
E86
  5
E87
331
E77
  5
E78
  0
DICTIONARY
  5
E6D
102
{ACAD_REACTORS
330
E6C
102
}
330
E6C
100
AcDbDictionary
280
     1
281
     1
  3
Edit
360
E6E
  0
SORTENTSTABLE
  5
142F
102
{ACAD_REACTORS
330
EB5
102
}
330
EB5
100
AcDbSortentsTable
330
EB4
331
ECE
  5
ECF
331
EC6
  5
EC7
331
EDE
  5
EDF
331
EC7
  5
EC8
331
ECF
  5
ED0
331
EDF
  5
EE0
331
ED0
  5
ED1
331
EE0
  5
EE1
331
ED1
  5
ED2
331
EE1
  5
EE2
331
EF1
  5
EF2
331
ED2
  5
ED3
331
EF2
  5
EF3
331
EE2
  5
EE3
331
EBB
  5
EBC
331
ED3
  5
ED4
331
EE3
  5
EE4
331
EBC
  5
EBD
331
EF3
  5
EF4
331
ED4
  5
ED5
331
EF4
  5
EF5
331
EE4
  5
EE5
331
EBD
  5
EBE
331
ED5
  5
ED6
331
EE5
  5
EE6
331
EBE
  5
EBF
331
EF5
  5
EF6
331
ED6
  5
ED7
331
EF6
  5
EF7
331
EE6
  5
EE7
331
EBF
  5
EC0
331
ED7
  5
ED8
331
EE7
  5
EE8
331
EC0
  5
EC1
331
EF7
  5
EF9
331
EC8
  5
EC9
331
ED8
  5
ED9
331
EE8
  5
EE9
331
EC1
  5
EC2
331
EC9
  5
ECA
331
EE9
  5
EEA
331
ED9
  5
EDA
331
ECA
  5
ECB
331
EC2
  5
EC3
331
EF9
  5
EFA
331
EDA
  5
EDB
331
EEA
  5
EEB
331
EC3
  5
EC4
331
EFA
  5
EFB
331
ECB
  5
ECC
331
EDB
  5
EDC
331
EEB
  5
EEC
331
ECC
  5
ECD
331
EC4
  5
EC5
331
EFB
  5
13A6
331
EEC
  5
EED
331
EDC
  5
EDD
331
EC5
  5
EC6
331
ECD
  5
ECE
331
EDD
  5
EDE
331
13A6
  5
EBB
331
EED
  5
EF1
  0
DICTIONARY
  5
EB6
102
{ACAD_REACTORS
330
EB5
102
}
330
EB5
100
AcDbDictionary
280
     1
281
     1
  3
Edit
360
EB7
  0
XRECORD
  5
14C4
102
{ACAD_REACTORS
330
14C3
102
}
330
14C3
100
AcDbXrecord
280
     1
102
SHADEPLOT
 70
     0
  0
LAYOUT
  5
1E
102
{ACAD_XDICTIONARY
360
14BD
102
}
102
{ACAD_REACTORS
330
1A
102
}
330
1A
100
AcDbPlotSettings
  1

  2
\\A-SERVER\HP LaserJet 5N - AWT
  4
A4
  6

 40
6.011333465576171
 41
4.233341693878173
 42
6.011322021484375
 43
4.23333740234375
 44
209.9733276367187
 45
296.9259948730469
 46
0.0
 47
0.0
 48
0.0
 49
0.0
140
0.0
141
0.0
142
1.0
143
1.0
 70
   688
 72
     1
 73
     1
 74
     5
  7

 75
    16
147
1.0
148
0.0
149
0.0
100
AcDbLayout
  1
Layout1
 70
     1
 71
     1
 10
-4.23333740234375
 20
-6.011333465576171
 11
292.6926574707031
 21
203.9619941711426
 12
0.0
 22
0.0
 32
0.0
 14
1.000000000000000E+20
 24
1.000000000000000E+20
 34
1.000000000000000E+20
 15
-1.000000000000000E+20
 25
-1.000000000000000E+20
 35
-1.000000000000000E+20
146
0.0
 13
0.0
 23
0.0
 33
0.0
 16
1.0
 26
0.0
 36
0.0
 17
0.0
 27
1.0
 37
0.0
 76
     0
330
1B
331
26C
  0
LAYOUT
  5
26
102
{ACAD_XDICTIONARY
360
14C1
102
}
102
{ACAD_REACTORS
330
1A
102
}
330
1A
100
AcDbPlotSettings
  1

  2

  4

  6

 40
0.0
 41
0.0
 42
0.0
 43
0.0
 44
0.0
 45
0.0
 46
0.0
 47
0.0
 48
0.0
 49
0.0
140
0.0
141
0.0
142
1.0
143
1.0
 70
   688
 72
     0
 73
     0
 74
     5
  7

 75
    16
147
1.0
148
0.0
149
0.0
100
AcDbLayout
  1
Layout2
 70
     1
 71
     2
 10
0.0
 20
0.0
 11
12.0
 21
9.0
 12
0.0
 22
0.0
 32
0.0
 14
0.0
 24
0.0
 34
0.0
 15
0.0
 25
0.0
 35
0.0
146
0.0
 13
0.0
 23
0.0
 33
0.0
 16
1.0
 26
0.0
 36
0.0
 17
0.0
 27
1.0
 37
0.0
 76
     0
330
23
  0
LAYOUT
  5
22
102
{ACAD_XDICTIONARY
360
14BF
102
}
102
{ACAD_REACTORS
330
1A
102
}
330
1A
100
AcDbPlotSettings
  1

  2

  4

  6

 40
0.0
 41
0.0
 42
0.0
 43
0.0
 44
0.0
 45
0.0
 46
0.0
 47
0.0
 48
0.0
 49
0.0
140
0.0
141
0.0
142
1.0
143
1.0
 70
  1712
 72
     0
 73
     0
 74
     0
  7

 75
     0
147
1.0
148
0.0
149
0.0
100
AcDbLayout
  1
Model
 70
     1
 71
     0
 10
0.0
 20
0.0
 11
12.0
 21
9.0
 12
0.0
 22
0.0
 32
0.0
 14
0.0
 24
0.0
 34
0.0
 15
0.0
 25
0.0
 35
0.0
146
0.0
 13
0.0
 23
0.0
 33
0.0
 16
1.0
 26
0.0
 36
0.0
 17
0.0
 27
1.0
 37
0.0
 76
     0
330
1F
  0
MLINESTYLE
  5
18
102
{ACAD_REACTORS
330
17
102
}
330
17
100
AcDbMlineStyle
  2
STANDARD
 70
     0
  3

 62
   256
 51
90.0
 52
90.0
 71
     2
 49
0.5
 62
   256
  6
BYLAYER
 49
-0.5
 62
   256
  6
BYLAYER
  0
ACDBPLACEHOLDER
  5
F
102
{ACAD_REACTORS
330
E
102
}
330
E
  0
TABLESTYLE
  5
36C
102
{ACAD_REACTORS
330
36B
102
}
330
36B
100
AcDbTableStyle
  3
Standard
 70
     0
 71
     0
 40
1.5
 41
1.5
280
     0
281
     0
  7
Standard
140
4.5
170
     2
 62
     0
 63
     7
283
     0
274
    -2
284
     1
 64
     0
275
    -2
285
     1
 65
     0
276
    -2
286
     1
 66
     0
277
    -2
287
     1
 67
     0
278
    -2
288
     1
 68
     0
279
    -2
289
     1
 69
     0
  7
Standard
140
6.0
170
     5
 62
     0
 63
     7
283
     0
274
    -2
284
     1
 64
     0
275
    -2
285
     1
 65
     0
276
    -2
286
     1
 66
     0
277
    -2
287
     1
 67
     0
278
    -2
288
     1
 68
     0
279
    -2
289
     1
 69
     0
  7
Standard
140
4.5
170
     5
 62
     0
 63
     7
283
     0
274
    -2
284
     1
 64
     0
275
    -2
285
     1
 65
     0
276
    -2
286
     1
 66
     0
277
    -2
287
     1
 67
     0
278
    -2
288
     1
 68
     0
279
    -2
289
     1
 69
     0
  0
DICTIONARYVAR
  5
7F9
102
{ACAD_REACTORS
330
25E
102
}
330
25E
100
DictionaryVariables
280
     0
  1
STANDARD
  0
DICTIONARYVAR
  5
260
102
{ACAD_REACTORS
330
25E
102
}
330
25E
100
DictionaryVariables
280
     0
  1
2
  0
DICTIONARYVAR
  5
25F
102
{ACAD_REACTORS
330
25E
102
}
330
25E
100
DictionaryVariables
280
     0
  1
1
  0
DICTIONARYVAR
  5
9CD
102
{ACAD_REACTORS
330
25E
102
}
330
25E
100
DictionaryVariables
280
     0
  1

  0
XRECORD
  5
E25
102
{ACAD_REACTORS
330
E24
102
}
330
E24
100
AcDbXrecord
280
     1
1070
     0
1070
     0
1070
     0
  0
XRECORD
  5
E6E
102
{ACAD_REACTORS
330
E6D
102
}
330
E6D
100
AcDbXrecord
280
     1
1070
     0
1070
     0
1070
     0
  0
XRECORD
  5
EB7
102
{ACAD_REACTORS
330
EB6
102
}
330
EB6
100
AcDbXrecord
280
     1
1070
     0
1070
     0
1070
     0
  0
DICTIONARY
  5
14BD
330
1E
100
AcDbDictionary
280
     1
281
     1
  3
ACAD_XREC_ROUNDTRIP
360
14BE
  0
DICTIONARY
  5
14C1
330
26
100
AcDbDictionary
280
     1
281
     1
  3
ACAD_XREC_ROUNDTRIP
360
14C2
  0
DICTIONARY
  5
14BF
330
22
100
AcDbDictionary
280
     1
281
     1
  3
ACAD_XREC_ROUNDTRIP
360
14C0
  0
XRECORD
  5
14BE
102
{ACAD_REACTORS
330
14BD
102
}
330
14BD
100
AcDbXrecord
280
     1
102
SHADEPLOT
 70
     0
102
SHADEPLOTRESLEVEL
 70
     2
102
SHADEPLOTCUSTOMDPI
 70
   300
  0
XRECORD
  5
14C2
102
{ACAD_REACTORS
330
14C1
102
}
330
14C1
100
AcDbXrecord
280
     1
102
SHADEPLOT
 70
     0
102
SHADEPLOTRESLEVEL
 70
     2
102
SHADEPLOTCUSTOMDPI
 70
   300
  0
XRECORD
  5
14C0
102
{ACAD_REACTORS
330
14BF
102
}
330
14BF
100
AcDbXrecord
280
     1
102
SHADEPLOT
 70
     0
102
SHADEPLOTRESLEVEL
 70
     2
102
SHADEPLOTCUSTOMDPI
 70
   300
  0
ENDSEC
  0
EOF