  0
SECTION
  2
HEADER
  9
$ACADVER
  1
AC1018
  9
$ACADMAINTVER
 70
    76
  9
$DWGCODEPAGE
  3
ANSI_1252
  9
$AUTHOR
  1
Grandl
  9
$CUSTOMPROPERTYTAG
  1
Manager
  9
$CUSTOMPROPERTY
  1

  9
$CUSTOMPROPERTYTAG
  1
Firma
  9
$CUSTOMPROPERTY
  1

  9
$CUSTOMPROPERTYTAG
  1
Kategorie
  9
$CUSTOMPROPERTY
  1

  9
$CUSTOMPROPERTYTAG
  1
Bauteilnummer
  9
$CUSTOMPROPERTY
  1
3500-19-01
  9
$CUSTOMPROPERTYTAG
  1
Bezeichnung
  9
$CUSTOMPROPERTY
  1

  9
$CUSTOMPROPERTYTAG
  1
Projekt
  9
$CUSTOMPROPERTY
  1

  9
$CUSTOMPROPERTYTAG
  1
Konstrukteur
  9
$CUSTOMPROPERTY
  1
Grandl
  9
$CUSTOMPROPERTYTAG
  1
Ingenieur
  9
$CUSTOMPROPERTY
  1

  9
$CUSTOMPROPERTYTAG
  1
Bevollmächtigter
  9
$CUSTOMPROPERTY
  1

  9
$CUSTOMPROPERTYTAG
  1
Kostenstelle
  9
$CUSTOMPROPERTY
  1

  9
$CUSTOMPROPERTYTAG
  1
Händler
  9
$CUSTOMPROPERTY
  1

  9
$CUSTOMPROPERTYTAG
  1
Benutzerstatus
  9
$CUSTOMPROPERTY
  1

  9
$CUSTOMPROPERTYTAG
  1
Konstruktionsstatus
  9
$CUSTOMPROPERTY
  1
InBearbeitung
  9
$CUSTOMPROPERTYTAG
  1
Überprüft von
  9
$CUSTOMPROPERTY
  1

  9
$CUSTOMPROPERTYTAG
  1
Konstruktion genehmigt von
  9
$CUSTOMPROPERTY
  1

  9
$CUSTOMPROPERTYTAG
  1
Fertigung genehmigt von
  9
$CUSTOMPROPERTY
  1

  9
$INSBASE
 10
0.0
 20
0.0
 30
0.0
  9
$EXTMIN
 10
-49.31880293054422
 20
-24.99999999999992
 30
0.0
  9
$EXTMAX
 10
17.39767723909222
 20
25.00000000000003
 30
0.0
  9
$LIMMIN
 10
0.0
 20
0.0
  9
$LIMMAX
 10
840.0
 20
594.0
  9
$ORTHOMODE
 70
     1
  9
$REGENMODE
 70
     1
  9
$FILLMODE
 70
     1
  9
$QTEXTMODE
 70
     0
  9
$MIRRTEXT
 70
     0
  9
$LTSCALE
 40
0.5
  9
$ATTMODE
 70
     1
  9
$TEXTSIZE
 40
0.2
  9
$TRACEWID
 40
0.05
  9
$TEXTSTYLE
  7
Standard
  9
$CLAYER
  8
0
  9
$CELTYPE
  6
ByLayer
  9
$CECOLOR
 62
   256
  9
$CELTSCALE
 40
1.0
  9
$DISPSILH
 70
     0
  9
$DIMSCALE
 40
1.0
  9
$DIMASZ
 40
0.18
  9
$DIMEXO
 40
0.0625
  9
$DIMDLI
 40
0.38
  9
$DIMRND
 40
0.0
  9
$DIMDLE
 40
0.0
  9
$DIMEXE
 40
0.18
  9
$DIMTP
 40
0.0
  9
$DIMTM
 40
0.0
  9
$DIMTXT
 40
0.18
  9
$DIMCEN
 40
0.09
  9
$DIMTSZ
 40
0.0
  9
$DIMTOL
 70
     0
  9
$DIMLIM
 70
     0
  9
$DIMTIH
 70
     1
  9
$DIMTOH
 70
     1
  9
$DIMSE1
 70
     0
  9
$DIMSE2
 70
     0
  9
$DIMTAD
 70
     0
  9
$DIMZIN
 70
     0
  9
$DIMBLK
  1

  9
$DIMASO
 70
     1
  9
$DIMSHO
 70
     1
  9
$DIMPOST
  1

  9
$DIMAPOST
  1

  9
$DIMALT
 70
     0
  9
$DIMALTD
 70
     2
  9
$DIMALTF
 40
25.4
  9
$DIMLFAC
 40
1.0
  9
$DIMTOFL
 70
     0
  9
$DIMTVP
 40
0.0
  9
$DIMTIX
 70
     0
  9
$DIMSOXD
 70
     0
  9
$DIMSAH
 70
     0
  9
$DIMBLK1
  1

  9
$DIMBLK2
  1

  9
$DIMSTYLE
  2
Standard
  9
$DIMCLRD
 70
     0
  9
$DIMCLRE
 70
     0
  9
$DIMCLRT
 70
     0
  9
$DIMTFAC
 40
1.0
  9
$DIMGAP
 40
0.09
  9
$DIMJUST
 70
     0
  9
$DIMSD1
 70
     0
  9
$DIMSD2
 70
     0
  9
$DIMTOLJ
 70
     1
  9
$DIMTZIN
 70
     0
  9
$DIMALTZ
 70
     0
  9
$DIMALTTZ
 70
     0
  9
$DIMUPT
 70
     0
  9
$DIMDEC
 70
     4
  9
$DIMTDEC
 70
     4
  9
$DIMALTU
 70
     2
  9
$DIMALTTD
 70
     2
  9
$DIMTXSTY
  7
Standard
  9
$DIMAUNIT
 70
     0
  9
$DIMADEC
 70
     0
  9
$DIMALTRND
 40
0.0
  9
$DIMAZIN
 70
     0
  9
$DIMDSEP
 70
    46
  9
$DIMATFIT
 70
     3
  9
$DIMFRAC
 70
     0
  9
$DIMLDRBLK
  1

  9
$DIMLUNIT
 70
     2
  9
$DIMLWD
 70
    -2
  9
$DIMLWE
 70
    -2
  9
$DIMTMOVE
 70
     0
  9
$LUNITS
 70
     2
  9
$LUPREC
 70
     4
  9
$SKETCHINC
 40
0.1
  9
$FILLETRAD
 40
0.0
  9
$AUNITS
 70
     0
  9
$AUPREC
 70
     0
  9
$MENU
  1
.
  9
$ELEVATION
 40
0.0
  9
$PELEVATION
 40
0.0
  9
$THICKNESS
 40
0.0
  9
$LIMCHECK
 70
     0
  9
$CHAMFERA
 40
0.0
  9
$CHAMFERB
 40
0.0
  9
$CHAMFERC
 40
0.0
  9
$CHAMFERD
 40
0.0
  9
$SKPOLY
 70
     0
  9
$TDCREATE
 40
2453706.351795776
  9
$TDUCREATE
 40
2453706.310129109
  9
$TDUPDATE
 40
2453711.674772095
  9
$TDUUPDATE
 40
2453711.633105428
  9
$TDINDWG
 40
0.1896355440
  9
$TDUSRTIMER
 40
0.1896355440
  9
$USRTIMER
 70
     1
  9
$ANGBASE
 50
0.0
  9
$ANGDIR
 70
     0
  9
$PDMODE
 70
     0
  9
$PDSIZE
 40
0.0
  9
$PLINEWID
 40
0.0
  9
$SPLFRAME
 70
     0
  9
$SPLINETYPE
 70
     6
  9
$SPLINESEGS
 70
     8
  9
$HANDSEED
  5
30F5
  9
$SURFTAB1
 70
     6
  9
$SURFTAB2
 70
     6
  9
$SURFTYPE
 70
     6
  9
$SURFU
 70
     6
  9
$SURFV
 70
     6
  9
$UCSBASE
  2

  9
$UCSNAME
  2

  9
$UCSORG
 10
0.0
 20
0.0
 30
0.0
  9
$UCSXDIR
 10
1.0
 20
0.0
 30
0.0
  9
$UCSYDIR
 10
0.0
 20
1.0
 30
0.0
  9
$UCSORTHOREF
  2

  9
$UCSORTHOVIEW
 70
     0
  9
$UCSORGTOP
 10
0.0
 20
0.0
 30
0.0
  9
$UCSORGBOTTOM
 10
0.0
 20
0.0
 30
0.0
  9
$UCSORGLEFT
 10
0.0
 20
0.0
 30
0.0
  9
$UCSORGRIGHT
 10
0.0
 20
0.0
 30
0.0
  9
$UCSORGFRONT
 10
0.0
 20
0.0
 30
0.0
  9
$UCSORGBACK
 10
0.0
 20
0.0
 30
0.0
  9
$PUCSBASE
  2

  9
$PUCSNAME
  2

  9
$PUCSORG
 10
0.0
 20
0.0
 30
0.0
  9
$PUCSXDIR
 10
1.0
 20
0.0
 30
0.0
  9
$PUCSYDIR
 10
0.0
 20
1.0
 30
0.0
  9
$PUCSORTHOREF
  2

  9
$PUCSORTHOVIEW
 70
     0
  9
$PUCSORGTOP
 10
0.0
 20
0.0
 30
0.0
  9
$PUCSORGBOTTOM
 10
0.0
 20
0.0
 30
0.0
  9
$PUCSORGLEFT
 10
0.0
 20
0.0
 30
0.0
  9
$PUCSORGRIGHT
 10
0.0
 20
0.0
 30
0.0
  9
$PUCSORGFRONT
 10
0.0
 20
0.0
 30
0.0
  9
$PUCSORGBACK
 10
0.0
 20
0.0
 30
0.0
  9
$USERI1
 70
     0
  9
$USERI2
 70
     0
  9
$USERI3
 70
     0
  9
$USERI4
 70
     0
  9
$USERI5
 70
     0
  9
$USERR1
 40
0.0
  9
$USERR2
 40
0.0
  9
$USERR3
 40
0.0
  9
$USERR4
 40
0.0
  9
$USERR5
 40
0.0
  9
$WORLDVIEW
 70
     1
  9
$SHADEDGE
 70
     3
  9
$SHADEDIF
 70
    70
  9
$TILEMODE
 70
     1
  9
$MAXACTVP
 70
    64
  9
$PINSBASE
 10
0.0
 20
0.0
 30
0.0
  9
$PLIMCHECK
 70
     0
  9
$PEXTMIN
 10
0.0
 20
0.0
 30
0.0
  9
$PEXTMAX
 10
840.0
 20
594.0
 30
0.0
  9
$PLIMMIN
 10
0.0
 20
0.0
  9
$PLIMMAX
 10
840.0
 20
594.0
  9
$UNITMODE
 70
     0
  9
$VISRETAIN
 70
     1
  9
$PLINEGEN
 70
     0
  9
$PSLTSCALE
 70
     1
  9
$TREEDEPTH
 70
  3020
  9
$CMLSTYLE
  2
Standard
  9
$CMLJUST
 70
     0
  9
$CMLSCALE
 40
1.0
  9
$PROXYGRAPHICS
 70
     1
  9
$MEASUREMENT
 70
     1
  9
$CELWEIGHT
370
    -1
  9
$ENDCAPS
280
     0
  9
$JOINSTYLE
280
     0
  9
$LWDISPLAY
290
     0
  9
$INSUNITS
 70
     0
  9
$HYPERLINKBASE
  1

  9
$STYLESHEET
  1

  9
$XEDIT
290
     1
  9
$CEPSNTYPE
380
     0
  9
$PSTYLEMODE
290
     1
  9
$FINGERPRINTGUID
  2
{CD339A04-B85F-4A73-AC85-5D4F30B09856}
  9
$VERSIONGUID
  2
{8C08CF7A-EC9B-42BA-B8AA-227EFC3F70AA}
  9
$EXTNAMES
290
     1
  9
$PSVPSCALE
 40
0.0
  9
$OLESTARTUP
290
     0
  9
$SORTENTS
280
   127
  9
$INDEXCTL
280
     0
  9
$HIDETEXT
280
     1
  9
$XCLIPFRAME
290
     0
  9
$HALOGAP
280
     0
  9
$OBSCOLOR
 70
   257
  9
$OBSLTYPE
280
     0
  9
$INTERSECTIONDISPLAY
280
     0
  9
$INTERSECTIONCOLOR
 70
   257
  9
$DIMASSOC
280
     1
  9
$PROJECTNAME
  1

  0
ENDSEC
  0
SECTION
  2
CLASSES
  0
CLASS
  1
ACDBDICTIONARYWDFLT
  2
AcDbDictionaryWithDefault
  3
ObjectDBX Classes
 90
        0
 91
        1
280
     0
281
     0
  0
CLASS
  1
TABLESTYLE
  2
AcDbTableStyle
  3
ObjectDBX Classes
 90
     2047
 91
        1
280
     0
281
     0
  0
CLASS
  1
DICTIONARYVAR
  2
AcDbDictionaryVar
  3
ObjectDBX Classes
 90
        0
 91
        4
280
     0
281
     0
  0
CLASS
  1
SORTENTSTABLE
  2
AcDbSortentsTable
  3
ObjectDBX Classes
 90
        0
 91
        2
280
     0
281
     0
  0
ENDSEC
  0
SECTION
  2
TABLES
  0
TABLE
  2
VPORT
  5
8
330
0
100
AcDbSymbolTable
 70
     3
  0
VPORT
  5
30F4
330
8
100
AcDbSymbolTableRecord
100
AcDbViewportTableRecord
  2
*Active
 70
     0
 10
0.0
 20
0.0
 11
1.0
 21
1.0
 12
-15.94575066008701
 22
0.0108653678452129
 13
0.0
 23
0.0
 14
1.0
 24
1.0
 15
0.0
 25
0.0
 16
0.0
 26
0.0
 36
1.0
 17
0.0
 27
0.0
 37
0.0
 40
50.50820964551475
 41
1.773333333333333
 42
50.0
 43
0.0
 44
0.0
 50
0.0
 51
0.0
 71
     0
 72
   100
 73
     1
 74
     1
 75
     0
 76
     0
 77
     0
 78
     0
281
     0
 65
     1
110
0.0
120
0.0
130
0.0
111
1.0
121
0.0
131
0.0
112
0.0
122
1.0
132
0.0
 79
     0
146
0.0
  0
ENDTAB
  0
TABLE
  2
LTYPE
  5
5
330
0
100
AcDbSymbolTable
 70
     3
  0
LTYPE
  5
14
330
5
100
AcDbSymbolTableRecord
100
AcDbLinetypeTableRecord
  2
ByBlock
 70
     0
  3

 72
    65
 73
     0
 40
0.0
  0
LTYPE
  5
15
330
5
100
AcDbSymbolTableRecord
100
AcDbLinetypeTableRecord
  2
ByLayer
 70
     0
  3

 72
    65
 73
     0
 40
0.0
  0
LTYPE
  5
16
330
5
100
AcDbSymbolTableRecord
100
AcDbLinetypeTableRecord
  2
Continuous
 70
     0
  3
Solid line
 72
    65
 73
     0
 40
0.0
  0
LTYPE
  5
7E7
330
5
100
AcDbSymbolTableRecord
100
AcDbLinetypeTableRecord
  2
MITTE2
 70
     0
  3
Mitte (.5x) ___ _ ___ _ ___ _ ___ _ ___ _ ___
 72
    65
 73
     4
 40
28.575
 49
19.05
 74
     0
 49
-3.174999999999999
 74
     0
 49
3.174999999999999
 74
     0
 49
-3.174999999999999
 74
     0
  0
LTYPE
  5
3012
330
5
100
AcDbSymbolTableRecord
100
AcDbLinetypeTableRecord
  2
VERDECKT
 70
     0
  3
Verdeckt __ __ __ __ __ __ __ __ __ __ __ __ __
 72
    65
 73
     2
 40
9.524999999999998
 49
6.349999999999999
 74
     0
 49
-3.174999999999999
 74
     0
  0
ENDTAB
  0
TABLE
  2
LAYER
  5
2
102
{ACAD_XDICTIONARY
360
9C6
102
}
330
0
100
AcDbSymbolTable
 70
     3
  0
LAYER
  5
10
330
2
100
AcDbSymbolTableRecord
100
AcDbLayerTableRecord
  2
0
 70
     0
 62
     7
  6
Continuous
370
    -3
390
F
  0
LAYER
  5
7E9
330
2
100
AcDbSymbolTableRecord
100
AcDbLayerTableRecord
  2
LW 3901-00-01
 70
     0
 62
     7
  6
Continuous
370
    -3
390
F
  0
LAYER
  5
7EA
330
2
100
AcDbSymbolTableRecord
100
AcDbLayerTableRecord
  2
insertpoint_ECKELT
 70
     0
 62
   141
  6
Continuous
370
    -3
390
F
  0
ENDTAB
  0
TABLE
  2
STYLE
  5
3
330
0
100
AcDbSymbolTable
 70
     1
  0
STYLE
  5
11
330
3
100
AcDbSymbolTableRecord
100
AcDbTextStyleTableRecord
  2
Standard
 70
     0
 40
0.0
 41
1.0
 50
0.0
 71
     0
 42
0.2
  3
ARIAL.TTF
  4

1001
ACAD
1000
Arial
1071
      256
  0
ENDTAB
  0
TABLE
  2
VIEW
  5
6
330
0
100
AcDbSymbolTable
 70
     0
  0
ENDTAB
  0
TABLE
  2
UCS
  5
7
330
0
100
AcDbSymbolTable
 70
     0
  0
ENDTAB
  0
TABLE
  2
APPID
  5
9
330
0
100
AcDbSymbolTable
 70
     2
  0
APPID
  5
12
330
9
100
AcDbSymbolTableRecord
100
AcDbRegAppTableRecord
  2
ACAD
 70
     0
  0
APPID
  5
A3E
330
9
100
AcDbSymbolTableRecord
100
AcDbRegAppTableRecord
  2
ACAD_PSEXT
 70
     0
  0
ENDTAB
  0
TABLE
  2
DIMSTYLE
  5
A
330
0
100
AcDbSymbolTable
 70
     1
100
AcDbDimStyleTable
 71
     1
340
2B
  0
DIMSTYLE
105
2B
330
A
100
AcDbSymbolTableRecord
100
AcDbDimStyleTableRecord
  2
Standard
 70
     0
340
11
  0
ENDTAB
  0
TABLE
  2
BLOCK_RECORD
  5
1
330
0
100
AcDbSymbolTable
 70
     3
  0
BLOCK_RECORD
  5
23
102
{ACAD_XDICTIONARY
360
9A6
102
}
330
1
100
AcDbSymbolTableRecord
100
AcDbBlockTableRecord
  2
*Model_Space
340
26
  0
BLOCK_RECORD
  5
1F
330
1
100
AcDbSymbolTableRecord
100
AcDbBlockTableRecord
  2
*Paper_Space
340
22
  0
BLOCK_RECORD
  5
27
330
1
100
AcDbSymbolTableRecord
100
AcDbBlockTableRecord
  2
*Paper_Space0
340
2A
  0
BLOCK_RECORD
  5
626
102
{ACAD_XDICTIONARY
360
627
102
}
330
1
100
AcDbSymbolTableRecord
100
AcDbBlockTableRecord
  2
insertpoint-ECKELT
340
0
102
{BLKREFS
331
301D
102
}
  0
BLOCK_RECORD
  5
301A
330
1
100
AcDbSymbolTableRecord
100
AcDbBlockTableRecord
  2
LW 3901-00-01
340
0
310
2800000020000000200000000100080000000000000400000000000000000000000000000000000000000000000080000080000000808000800000008000800080800000C0C0C000C0DCC000F0CAA6000020400000206000002080000020A0000020C0000020E00000400000004020000040400000406000004080000040A0
310
000040C0000040E00000600000006020000060400000606000006080000060A0000060C0000060E00000800000008020000080400000806000008080000080A0000080C0000080E00000A0000000A0200000A0400000A0600000A0800000A0A00000A0C00000A0E00000C0000000C0200000C0400000C0600000C0800000C0
310
A00000C0C00000C0E00000E0000000E0200000E0400000E0600000E0800000E0A00000E0C00000E0E00040000000400020004000400040006000400080004000A0004000C0004000E00040200000402020004020400040206000402080004020A0004020C0004020E000404000004040200040404000404060004040800040
310
40A0004040C0004040E00040600000406020004060400040606000406080004060A0004060C0004060E00040800000408020004080400040806000408080004080A0004080C0004080E00040A0000040A0200040A0400040A0600040A0800040A0A00040A0C00040A0E00040C0000040C0200040C0400040C0600040C08000
310
40C0A00040C0C00040C0E00040E0000040E0200040E0400040E0600040E0800040E0A00040E0C00040E0E00080000000800020008000400080006000800080008000A0008000C0008000E00080200000802020008020400080206000802080008020A0008020C0008020E00080400000804020008040400080406000804080
310
008040A0008040C0008040E00080600000806020008060400080606000806080008060A0008060C0008060E00080800000808020008080400080806000808080008080A0008080C0008080E00080A0000080A0200080A0400080A0600080A0800080A0A00080A0C00080A0E00080C0000080C0200080C0400080C0600080C0
310
800080C0A00080C0C00080C0E00080E0000080E0200080E0400080E0600080E0800080E0A00080E0C00080E0E000C0000000C0002000C0004000C0006000C0008000C000A000C000C000C000E000C0200000C0202000C0204000C0206000C0208000C020A000C020C000C020E000C0400000C0402000C0404000C0406000C0
310
408000C040A000C040C000C040E000C0600000C0602000C0604000C0606000C0608000C060A000C060C000C060E000C0800000C0802000C0804000C0806000C0808000C080A000C080C000C080E000C0A00000C0A02000C0A04000C0A06000C0A08000C0A0A000C0A0C000C0A0E000C0C00000C0C02000C0C04000C0C06000
310
C0C08000C0C0A000F0FBFF00A4A0A000808080000000FF0000FF000000FFFF00FF000000FF00FF00FFFF0000FFFFFF0000000000000000000000000000000000000000000000000000000000000000000000000000000000000000000000000000000000000000000000000000000000000000000000000000000000000000
310
00000000000000000000000000000000000000000000000000000000000000000000000000000000000000000000000000000000000000000000000000000000000000000000000000000000000000000000000000000000000000000000000000FFFFFFFFFFFFFFFFFFFFFF00000000000000000000000000000000000000
310
00FFFF000000000000000000FFFF00000000000000000000000000000000000000FFFF00FDFDFDFDFDFDFDFDFDFD00000000000000000000000000000000000000FFFF00FD00000000000000FFFF00000000000000000000000000000000000000FFFF00FDFDFDFD00000000FFFF0000000000000000000000000000000000
310
0000FFFF00FD0000FDFD000000FFFF00000000000000000000000000000000000000FFFF00FD0000FDFD000000FFFF0000000000000000000000000000000000FFFFFFFF00FD0000FDFDF9F9F9FFFF0000000000000000FAFFFAFAFAFAFAFAFAFA00FFFFFDFD0000FDFDF9F9F9FFFF0000000000000000FFFF000000000000
310
00FAFFFAFF00FD0000FDFDF9F9F9FFFF0000000000FAFAFAFAFAFAFAFAFAFAFAFAFAFAFAFF00FD0909FDFDF9F9F9FFFF0000000000000000FFFF00000000000000FFFAFFFAFAFAFAFAFAFAFAFAFAFAFAFAFAFA0000000000FFFF00000000000000FAFFFAFF00FD0000FDFDF9F9F9FFFF0000000000000000FAFFFAFAFAFAFA
310
FAFAFA00FFFFFDFD0000FDFDF9F9F9FFFF0000000000000000000000000000000000FFFFFFFF00FD0000FDFDF9F900FFFF00000000000000000000000000000000000000FFFF00FDFFFFFDFD000000FFFF00000000000000000000000000000000000000FFFF00FDFFFFFFFD000000FFFF0000000000000000000000000000
310
0000000000FFFF00FDFFFFFD00000000FFFF00000000000000000000000000000000000000FFFF00FD00000000000000FFFF00000000000000000000000000000000000000FFFF00FDFDFDFDFDFDFDFDFDFD00000000000000000000000000000000000000FFFF000000000000000000FFFF00000000000000000000000000
310
00000000000000FFFFFFFFFFFFFFFFFFFFFF00000000000000000000000000000000000000000000000000000000000000000000000000000000000000000000000000000000000000000000000000000000000000000000000000000000000000000000000000000000000000000000000000000000000000000000000000
310
0000000000000000000000000000000000000000000000000000000000000000000000000000000000000000000000000000000000000000
102
{BLKREFS
331
30E4
102
}
  0
ENDTAB
  0
ENDSEC
  0
SECTION
  2
BLOCKS
  0
BLOCK
  5
24
330
23
100
AcDbEntity
  8
0
100
AcDbBlockBegin
  2
*Model_Space
 70
     0
 10
0.0
 20
0.0
 30
0.0
  3
*Model_Space
  1

  0
ENDBLK
  5
25
330
23
100
AcDbEntity
  8
0
100
AcDbBlockEnd
  0
BLOCK
  5
20
330
1F
100
AcDbEntity
 67
     1
  8
0
100
AcDbBlockBegin
  2
*Paper_Space
 70
     0
 10
0.0
 20
0.0
 30
0.0
  3
*Paper_Space
  1

  0
ENDBLK
  5
21
330
1F
100
AcDbEntity
 67
     1
  8
0
100
AcDbBlockEnd
  0
BLOCK
  5
28
330
27
100
AcDbEntity
 67
     1
  8
0
100
AcDbBlockBegin
  2
*Paper_Space0
 70
     0
 10
0.0
 20
0.0
 30
0.0
  3
*Paper_Space0
  1

  0
ENDBLK
  5
29
330
27
100
AcDbEntity
 67
     1
  8
0
100
AcDbBlockEnd
  0
BLOCK
  5
629
330
626
100
AcDbEntity
  8
0
100
AcDbBlockBegin
  2
insertpoint-ECKELT
 70
     2
 10
0.0
 20
0.0
 30
0.0
  3
insertpoint-ECKELT
  1

  0
ATTDEF
  5
62A
330
626
100
AcDbEntity
  8
insertpoint_ECKELT
100
AcDbText
 10
-2.457298772169167
 20
-0.0000000000000284
 30
0.0
 40
0.6
  1
LW
 72
     2
 11
-1.199999999999999
 21
-0.0000000000000284
 31
0.0
100
AcDbAttributeDefinition
  3
Nr. links
  2
LINKS
 70
     0
  0
ATTDEF
  5
62B
330
626
100
AcDbEntity
  8
insertpoint_ECKELT
100
AcDbText
 10
1.199999999999999
 20
-0.0000000000000284
 30
0.0
 40
0.6
  1
LW
100
AcDbAttributeDefinition
  3
Nr. rechts
  2
RECHTS
 70
     0
  0
LINE
  5
62C
102
{ACAD_REACTORS
330
62F
102
}
330
626
100
AcDbEntity
  8
insertpoint_ECKELT
100
AcDbLine
 10
0.0
 20
1.799999999999997
 30
0.0
 11
0.0
 21
-1.799999999999997
 31
0.0
  0
LINE
  5
62D
102
{ACAD_REACTORS
330
62F
102
}
330
626
100
AcDbEntity
  8
insertpoint_ECKELT
100
AcDbLine
 10
-1.8
 20
-0.0000000000000284
 30
0.0
 11
1.8
 21
-0.0000000000000284
 31
0.0
  0
CIRCLE
  5
62E
102
{ACAD_REACTORS
330
62F
102
}
330
626
100
AcDbEntity
  8
insertpoint_ECKELT
100
AcDbCircle
 10
0.0
 20
0.0
 30
0.0
 40
1.199999999999999
  0
HATCH
  5
62F
330
626
100
AcDbEntity
  8
insertpoint_ECKELT
100
AcDbHatch
 10
0.0
 20
0.0
 30
0.0
210
0.0
220
0.0
230
1.0
  2
SOLID
 70
     1
 71
     1
 91
        2
 92
        7
 72
     1
 73
     1
 93
        3
 10
0.0
 20
-0.0000000000000284
 42
0.0
 10
0.0
 20
1.200000000000002
 42
0.4142135623731013
 10
-1.199999999999999
 20
-0.0000000000000284
 42
0.0
 97
        3
330
62E
330
62D
330
62C
 92
        7
 72
     1
 73
     1
 93
        3
 10
1.199999999999999
 20
-0.0000000000000284
 42
0.0
 10
0.0
 20
-0.0000000000000284
 42
0.0
 10
0.0
 20
-1.200000000000002
 42
0.4142135623730888
 97
        3
330
62D
330
62C
330
62E
 75
     0
 76
     1
 47
0.0223086566480813
 98
        2
 10
-0.3163651093721391
 20
0.271413292077348
 10
0.7415965996738798
 20
-0.4513871917946233
450
        0
451
        0
460
0.0
461
0.0
452
        0
462
0.0
453
        0
470

  0
ENDBLK
  5
630
330
626
100
AcDbEntity
  8
0
100
AcDbBlockEnd
  0
BLOCK
  5
301B
330
301A
100
AcDbEntity
  8
0
100
AcDbBlockBegin
  2
LW 3901-00-01
 70
     0
 10
0.0
 20
0.0
 30
0.0
  3
LW 3901-00-01
  1

  0
INSERT
  5
301D
330
301A
100
AcDbEntity
  8
LW 3901-00-01
100
AcDbBlockReference
 66
     1
  2
insertpoint-ECKELT
 10
0.0
 20
0.0
 30
0.0
  0
ATTRIB
  5
301E
330
301D
100
AcDbEntity
  8
insertpoint_ECKELT
100
AcDbText
 10
-6.931514324693087
 20
0.0
 30
0.0
 40
0.6
  1
LW 3901/00-01
 72
     2
 11
-1.200000000000045
 21
0.0
 31
0.0
100
AcDbAttribute
  2
LINKS
 70
     0
  0
ATTRIB
  5
301F
330
301D
100
AcDbEntity
  8
insertpoint_ECKELT
100
AcDbText
 10
1.200000000000045
 20
0.0
 30
0.0
 40
0.6
  1

100
AcDbAttribute
  2
RECHTS
 70
     0
  0
SEQEND
  5
3020
330
301D
100
AcDbEntity
  8
LW 3901-00-01
  0
HATCH
  5
3021
330
301A
100
AcDbEntity
  8
LW 3901-00-01
 62
     1
100
AcDbHatch
 10
0.0
 20
0.0
 30
0.0
210
0.0
220
0.0
230
1.0
  2
SOLID
 70
     1
 71
     0
 91
        5
 92
        7
 72
     0
 73
     1
 93
       76
 10
3.315286851865664
 20
-5.249317842075271
 10
3.26370589002397
 20
-5.217459012702448
 10
3.112463491007986
 20
-5.099300888471276
 10
2.972039360745441
 20
-4.964822813258507
 10
2.843654799032094
 20
-4.818802906796946
 10
2.726748516116344
 20
-4.655134110714953
 10
2.624570634294684
 20
-4.479747157350317
 10
2.533218954711799
 20
-4.297994224749942
 10
2.463700642265621
 20
-4.116825289284207
 10
2.463700642265678
 20
-6.37396322748421
 10
2.472390297465722
 20
-6.586859779884235
 10
2.498459263065683
 20
-6.78889426328422
 10
2.539735125265735
 20
-6.984411505284271
 10
2.594045470265712
 20
-7.169066678284167
 10
2.663562711865722
 20
-7.345032196084304
 10
2.746114436265827
 20
-7.512308058684226
 10
2.84143995380964
 20
-7.662876321231152
 10
2.948148919665754
 20
-7.805583921684075
 10
3.067197195905862
 20
-7.931025177254838
 10
3.195456506657762
 20
-8.042290129332201
 10
3.332666162265752
 20
-8.1423080606842
 10
3.47821788686582
 20
-8.224859785084191
 10
3.632459266665932
 20
-8.287859785284155
 10
3.793217887865694
 20
-8.337825302684024
 10
3.95832133666579
 20
-8.366066682084152
 10
4.132114440665759
 20
-8.374756337284139
 10
4.305907544665842
 20
-8.363894268284099
 10
4.473183407265821
 20
-8.333480475084144
 10
4.633942028465753
 20
-8.279170130084054
 10
4.790355822065805
 20
-8.209652888484157
 10
4.93807996046587
 20
-8.120583922684005
 10
5.079286857465717
 20
-8.014135646484106
 10
5.210500650985807
 20
-7.891437715060106
 10
5.331634444473706
 20
-7.755238666351857
 10
5.442079962065804
 20
-7.607894265884084
 10
5.539838583065659
 20
-7.447135644683982
 10
5.624736514369715
 20
-7.271509023436834
 10
5.698424790465708
 20
-7.090859781484169
 10
5.754907549265737
 20
-6.899687367083998
 10
5.79835582526573
 20
-6.699825297484068
 10
5.824424790865748
 20
-6.49127357268415
 10
5.833114446065735
 20
-6.280549434084178
 10
5.833114446065621
 20
-4.16137834833151
 10
5.770043642330733
 20
-4.321922212383952
 10
5.679423368807988
 20
-4.505486356186366
 10
5.57489367587641
 20
-4.673952762356549
 10
5.459275437450969
 20
-4.836785657117303
 10
5.329485840911104
 20
-4.980698025487441
 10
5.190132157682569
 20
-5.108133918971731
 10
5.039643912970007
 20
-5.221839273715119
 10
4.955459270865674
 20
-5.273810505163766
 10
4.955459270865731
 20
-6.302273572084146
 10
4.947899270841674
 20
-6.434382400089617
 10
4.927565477673738
 20
-6.565135641884154
 10
4.894631684465764
 20
-6.693308056084021
 10
4.849010994665661
 20
-6.80844598748402
 10
4.792528235865745
 20
-6.91339095333447
 10
4.724922718409743
 20
-7.011540608818478
 10
4.646976511265791
 20
-7.101721850484096
 10
4.562252373065746
 20
-7.173411505884047
 10
4.562252373065689
 20
-5.445890191625295
 10
4.529616932307362
 20
-5.456474658898315
 10
4.344242984756249
 20
-5.492586466862718
 10
4.153953270805516
 20
-5.504630119644417
 10
3.959202177450492
 20
-5.492608447215076
 10
3.772832806183998
 20
-5.456302725539813
 10
3.72370064626574
 20
-5.439704022864845
 10
3.72370064626574
 20
-7.210342540484163
 10
3.628114439065825
 20
-7.140825298884152
 10
3.54556271466572
 20
-7.058273574484161
 10
3.475697886857801
 20
-6.963182677630612
 10
3.417390300465683
 20
-6.86058391868417
 10
3.373420645153771
 20
-6.741891918307402
 10
3.341355817465739
 20
-6.61944598688413
 10
3.321804093265768
 20
-6.482583917484163
 10
3.315286851865721
 20
-6.339204606684148
 97
        0
 92
        7
 72
     0
 73
     1
 93
       72
 10
3.329885472601688
 20
-3.520853977047437
 10
3.311810989785669
 20
-3.397990942174629
 10
3.30659719666562
 20
-3.273928734884208
 10
3.306597196665563
 20
-2.005239075684158
 10
4.121252371665491
 20
-2.852480457684151
 10
5.839631687465498
 20
-1.086308038283988
 10
5.839631687465498
 20
0.2323471383158164
 10
4.097355819865526
 20
-1.481687349884083
 10
2.46370064226545
 20
0.199760931315808
 10
2.463700642265621
 20
-3.239170114084146
 10
2.474475814713571
 20
-3.447157011296241
 10
2.499936504449692
 20
-3.653875218849094
 10
2.539735125265622
 20
-3.858308047084193
 10
2.596217884065652
 20
-4.05165287528419
 10
2.667907539465659
 20
-4.238480462084254
 10
2.753935125945645
 20
-4.409640600558674
 10
2.850390298665672
 20
-4.575204601084152
 10
2.959010988665625
 20
-4.727273567084154
 10
3.078319954561663
 20
-4.86297122268732
 10
3.208838575665708
 20
-4.987963223084108
 10
3.347873058865729
 20
-5.096583913084288
 10
3.495597197265567
 20
-5.187825292684152
 10
3.649838577065679
 20
-5.259514948084216
 10
3.810597198265668
 20
-5.313825293084192
 10
3.977873060865704
 20
-5.346411500084087
 10
4.153838578665784
 20
-5.357273569084128
 10
4.325459268865643
 20
-5.346411500084087
 10
4.492735131465622
 20
-5.313825293084079
 10
4.65349375266561
 20
-5.261687361884042
 10
4.807735132465666
 20
-5.192170120284146
 10
4.95650202948957
 20
-5.100329154475303
 10
5.095970995449704
 20
-4.994949705864911
 10
5.225012375169569
 20
-4.876944188248813
 10
5.344321341065608
 20
-4.744652877484128
 10
5.452333755201721
 20
-4.592531773552906
 10
5.5507006520657
 20
-4.433997704084077
 10
5.635424790265631
 20
-4.262377013884048
 10
5.707114445665638
 20
-4.079894254683978
 10
5.761164101009626
 20
-3.885663081653689
 10
5.804873066665663
 20
-3.688859770684103
 10
5.830942032265625
 20
-3.480308045884072
 10
5.839631687465612
 20
-3.269583907284101
 10
5.839631687465498
 20
-1.366549418484083
 10
4.966321339865544
 20
-2.252894248884132
 10
4.966321339865601
 20
-3.269583907284101
 10
4.962574046926306
 20
-3.336250941978647
 10
4.952591684649632
 20
-3.437198666436898
 10
4.931128236305596
 20
-3.557333149576862
 10
4.896804098265704
 20
-3.674452322362441
 10
4.855875822273617
 20
-3.775947495098449
 10
4.827721339425579
 20
-3.832082667690571
 10
4.795135132425514
 20
-3.88576735751613
 10
4.695812373489673
 20
-4.018328047592177
 10
4.625773752577629
 20
-4.091929427136079
 10
4.557907545465752
 20
-4.146995772138467
 10
4.485348924545689
 20
-4.195701289534582
 10
4.408184786369702
 20
-4.235065427590626
 10
4.326762717145697
 20
-4.264488600097735
 10
4.239605475489611
 20
-4.285187358784156
 10
4.150275820033755
 20
-4.292703910532196
 10
4.087970992249665
 20
-4.291348324320921
 10
4.025839957569758
 20
-4.285343772577704
 10
3.962666164265613
 20
-4.273186944952868
 10
3.900969612345647
 20
-4.254973427653709
 10
3.80225512927376
 20
-4.211325289584266
 10
3.734388922161713
 20
-4.169797427383315
 10
3.656355818465669
 20
-4.106719220286578
 10
3.529833081411993
 20
-3.977317279921777
 10
3.489775128281621
 20
-3.918049426584076
 10
3.445457886761687
 20
-3.841754253928144
 10
3.403313059041636
 20
-3.757733977799404
 10
3.360473058905597
 20
-3.641197011912169
 97
        0
 92
        7
 72
     0
 73
     1
 93
       57
 10
3.351957196809394
 20
1.03718300293994
 10
3.311984782889396
 20
1.168657486115847
 10
3.284873058665368
 20
1.303347141715761
 10
3.276183403465438
 20
1.446726452515775
 10
3.276183403465381
 20
2.68717473231581
 10
2.450666159465356
 20
2.68717473231581
 10
2.45066615946547
 20
1.453243693915823
 10
2.459355814665457
 20
1.242519555315851
 10
2.487597194065472
 20
1.036140244315873
 10
2.52887305626541
 20
0.838450588515883
 10
2.583183401265443
 20
0.6494505879158794
 10
2.654873056665451
 20
0.4647954149158693
 10
2.737511677617533
 20
0.2983885178356047
 10
2.83396685033756
 20
0.1395676897453484
 10
2.943456505857511
 20
-0.0105113452137005
 10
3.062678575201459
 20
-0.1450706559856201
 10
3.191459265265507
 20
-0.265135621884184
 10
3.330493748465471
 20
-0.3694114842841429
 10
3.476045473065539
 20
-0.4541356224841877
 10
3.630286852865594
 20
-0.5258252778842519
 10
3.791045474065413
 20
-0.5757907952841208
 10
3.958321336665392
 20
-0.6083770022841293
 10
4.132114440665475
 20
-0.6192390712840563
 10
4.305907544665501
 20
-0.6083770022841293
 10
4.47318340726548
 20
-0.5757907952841208
 10
4.633942028465583
 20
-0.5236528640841982
 10
4.790355822065464
 20
-0.4519632086840204
 10
4.938079960465472
 20
-0.3650666566840357
 10
5.07763582297747
 20
-0.2562200356489086
 10
5.207980650977447
 20
-0.1363636214753399
 10
5.329288237569471
 20
0.000063965164685
 10
5.439907548265523
 20
0.1476230001158854
 10
5.537666169265548
 20
0.3083816213158741
 10
5.622390307465479
 20
0.4821747253158435
 10
5.69625237666537
 20
0.6668298983159673
 10
5.752735135465457
 20
0.8580023127159108
 10
5.796183411465392
 20
1.057864382315955
 10
5.820079963265527
 20
1.264243693315933
 10
5.828769618465457
 20
1.477140245715958
 10
5.8287696184654
 20
2.687174732315924
 10
4.970666167465424
 20
2.687174732315924
 10
4.970666167465481
 20
1.453243693915823
 10
4.96032547777753
 20
1.319596796939862
 10
4.938340650121403
 20
1.18734024479599
 10
4.904016512081454
 20
1.066727830619896
 10
4.856049615377401
 20
0.9507209337000119
 10
4.7951351324254
 20
0.8410574850758791
 10
4.727529614969512
 20
0.7439940364918983
 10
4.647758580233471
 20
0.6565761051799371
 10
4.562252373065462
 20
0.5821057601159226
 10
4.562252373065405
 20
2.687174732315924
 10
3.734562715265383
 20
2.687174732315924
 10
3.734562715265496
 20
0.5451747255158069
 10
3.636804094265471
 20
0.6146919671158173
 10
3.547735128465546
 20
0.701588519115802
 10
3.471439955809444
 20
0.8027361056439019
 10
3.404355817665475
 20
0.9101402439158334
 97
        0
 92
        7
 72
     0
 73
     1
 93
        6
 10
2.463700642265337
 20
2.917450595115923
 10
5.833114446065394
 20
2.917450595115923
 10
5.83311444606528
 20
5.155036809116012
 10
4.96632133986526
 20
5.155036809115898
 10
4.96632133986526
 20
3.940657494915939
 10
2.463700642265337
 20
3.940657494915825
 97
        0
 92
        7
 72
     0
 73
     1
 93
        8
 10
2.463700642265337
 20
4.173105771515764
 10
3.289217886265362
 20
4.173105771515764
 10
3.289217886265248
 20
5.407036809915865
 10
5.839631687465271
 20
5.407036809915979
 10
5.839631687465271
 20
6.432416123515935
 10
3.289217886265305
 20
6.432416123515821
 10
3.289217886265248
 20
7.675036817115795
 10
2.463700642265223
 20
7.675036817115795
 97
        0
 75
     0
 76
     1
 47
0.0142553043587597
 98
        5
 10
2.906150311854787
 20
-5.939657716008952
 10
3.04870329686048
 20
-3.672160502666343
 10
2.99168212431266
 20
0.8200512295352098
 10
2.749341899620219
 20
3.543900313366833
 10
2.849129032033602
 20
4.95573829559359
450
        0
451
        0
460
0.0
461
0.0
452
        0
462
0.0
453
        0
470

  0
LWPOLYLINE
  5
3022
330
301A
100
AcDbEntity
  8
LW 3901-00-01
 62
     1
100
AcDbPolyline
 90
        8
 70
     1
 43
0.0
 10
3.289217886265305
 20
6.432416123515821
 10
5.839631687465271
 20
6.432416123515935
 10
5.839631687465271
 20
5.407036809915979
 10
3.289217886265248
 20
5.407036809915865
 10
3.289217886265362
 20
4.173105771515764
 10
2.463700642265337
 20
4.173105771515764
 10
2.463700642265223
 20
7.675036817115795
 10
3.289217886265248
 20
7.675036817115795
  0
LWPOLYLINE
  5
3023
330
301A
100
AcDbEntity
  8
LW 3901-00-01
 62
     1
100
AcDbPolyline
 90
       73
 70
     1
 43
0.0
 10
4.966321339865601
 20
-3.269583907284101
 10
4.966321339865544
 20
-2.252894248884132
 10
5.839631687465498
 20
-1.366549418484083
 10
5.839631687465669
 20
-3.269583907284101
 10
5.830942032265625
 20
-3.480308045884072
 10
5.804873066665606
 20
-3.688859770684103
 10
5.761164101009626
 20
-3.885663081653689
 10
5.707114445665638
 20
-4.079894254683978
 10
5.635424790265631
 20
-4.262377013884048
 10
5.550700652065643
 20
-4.433997704084077
 10
5.452333755201607
 20
-4.592531773552792
 10
5.344321341065608
 20
-4.744652877484128
 10
5.225012375169683
 20
-4.876944188248927
 10
5.095970995449704
 20
-4.994949705864911
 10
4.956502029489627
 20
-5.100329154475303
 10
4.807735132465666
 20
-5.192170120284146
 10
4.65349375266561
 20
-5.261687361884042
 10
4.492735131465622
 20
-5.313825293084079
 10
4.325459268865643
 20
-5.346411500084087
 10
4.15383857866567
 20
-5.357273569084128
 10
3.977873060865704
 20
-5.346411500084087
 10
3.810597198265668
 20
-5.313825293084192
 10
3.649838577065679
 20
-5.259514948084103
 10
3.495597197265624
 20
-5.187825292684152
 10
3.347873058865673
 20
-5.096583913084174
 10
3.208838575665708
 20
-4.987963223084108
 10
3.078319954561607
 20
-4.86297122268732
 10
2.959010988665681
 20
-4.727273567084267
 10
2.850390298665672
 20
-4.575204601084152
 10
2.753935125945702
 20
-4.40964060055856
 10
2.667907539465716
 20
-4.238480462084254
 10
2.596217884065652
 20
-4.05165287528419
 10
2.539735125265565
 20
-3.858308047084193
 10
2.499936504449635
 20
-3.65387521884898
 10
2.474475814713571
 20
-3.447157011296241
 10
2.463700642265621
 20
-3.239170114084259
 10
2.46370064226545
 20
0.199760931315808
 10
4.097355819865526
 20
-1.481687349884083
 10
5.839631687465498
 20
0.2323471383158164
 10
5.839631687465498
 20
-1.086308038283988
 10
4.121252371665491
 20
-2.852480457684151
 10
3.306597196665563
 20
-2.005239075684158
 10
3.30659719666562
 20
-3.273928734884208
 10
3.311810989785669
 20
-3.397990942174629
 10
3.329885472601688
 20
-3.520853977047437
 10
3.360473058905597
 20
-3.641197011912169
 10
3.403313059041693
 20
-3.757733977799404
 10
3.44545788676163
 20
-3.841754253928257
 10
3.489775128281621
 20
-3.91804942658419
 10
3.516973749057626
 20
-3.958291219815379
 10
3.547908921569614
 20
-3.995804461313724
 10
3.656355818465669
 20
-4.106719220286578
 10
3.734388922161713
 20
-4.169797427383315
 10
3.802255129273646
 20
-4.211325289584152
 10
3.900969612345647
 20
-4.254973427653709
 10
3.962666164265613
 20
-4.273186944952868
 10
4.025839957569644
 20
-4.285343772577704
 10
4.087970992249609
 20
-4.291348324320921
 10
4.150275820033641
 20
-4.292703910532083
 10
4.239605475489611
 20
-4.285187358784156
 10
4.326762717145641
 20
-4.264488600097621
 10
4.408184786369645
 20
-4.235065427590512
 10
4.485348924545689
 20
-4.195701289534582
 10
4.557907545465639
 20
-4.146995772138581
 10
4.625773752577629
 20
-4.091929427136079
 10
4.695812373489673
 20
-4.018328047592177
 10
4.795135132425571
 20
-3.885767357516016
 10
4.827721339425636
 20
-3.832082667690457
 10
4.855875822273617
 20
-3.775947495098449
 10
4.896804098265704
 20
-3.674452322362441
 10
4.931128236305596
 20
-3.557333149576862
 10
4.952591684649632
 20
-3.437198666436898
 10
4.962574046926249
 20
-3.336250941978534
  0
LWPOLYLINE
  5
3024
330
301A
100
AcDbEntity
  8
LW 3901-00-01
 62
     1
100
AcDbPolyline
 90
       76
 70
     1
 43
0.0
 10
2.624570634294684
 20
-4.479747157350317
 10
2.726748516116401
 20
-4.655134110715067
 10
2.843654799032037
 20
-4.81880290679706
 10
2.972039360745441
 20
-4.964822813258507
 10
3.112463491007986
 20
-5.099300888471276
 10
3.263705890023857
 20
-5.217459012702448
 10
3.315286851865664
 20
-5.249317842075271
 10
3.315286851865664
 20
-6.339204606684148
 10
3.321804093265768
 20
-6.482583917484163
 10
3.341355817465739
 20
-6.619445986884244
 10
3.373420645153771
 20
-6.741891918307402
 10
3.417390300465683
 20
-6.86058391868417
 10
3.475697886857744
 20
-6.963182677630499
 10
3.545562714665777
 20
-7.058273574484161
 10
3.628114439065768
 20
-7.140825298884266
 10
3.72370064626574
 20
-7.210342540484163
 10
3.72370064626574
 20
-5.439704022864845
 10
3.772832806183998
 20
-5.456302725539813
 10
3.959202177450606
 20
-5.492608447215189
 10
4.153953270805516
 20
-5.504630119644417
 10
4.344242984756249
 20
-5.492586466862718
 10
4.529616932307305
 20
-5.456474658898201
 10
4.562252373065689
 20
-5.445890191625295
 10
4.562252373065746
 20
-7.173411505884047
 10
4.646976511265791
 20
-7.101721850484096
 10
4.724922718409743
 20
-7.011540608818478
 10
4.792528235865745
 20
-6.91339095333447
 10
4.849010994665661
 20
-6.80844598748402
 10
4.894631684465707
 20
-6.693308056084021
 10
4.927565477673738
 20
-6.565135641884154
 10
4.947899270841674
 20
-6.434382400089617
 10
4.955459270865731
 20
-6.302273572084146
 10
4.955459270865674
 20
-5.273810505163766
 10
5.03964391296995
 20
-5.221839273715119
 10
5.190132157682569
 20
-5.108133918971731
 10
5.329485840911104
 20
-4.980698025487441
 10
5.459275437450855
 20
-4.836785657117189
 10
5.57489367587641
 20
-4.673952762356549
 10
5.679423368807988
 20
-4.505486356186366
 10
5.770043642330733
 20
-4.321922212383952
 10
5.833114446065621
 20
-4.16137834833151
 10
5.833114446065792
 20
-6.280549434084065
 10
5.824424790865748
 20
-6.49127357268415
 10
5.79835582526573
 20
-6.699825297484068
 10
5.754907549265737
 20
-6.899687367084112
 10
5.698424790465821
 20
-7.090859781484056
 10
5.624736514369772
 20
-7.271509023436948
 10
5.539838583065659
 20
-7.447135644683982
 10
5.442079962065804
 20
-7.607894265884084
 10
5.331634444473763
 20
-7.755238666351743
 10
5.210500650985807
 20
-7.891437715060106
 10
5.079286857465774
 20
-8.014135646484106
 10
4.938079960465813
 20
-8.120583922684119
 10
4.790355822065748
 20
-8.209652888484043
 10
4.633942028465753
 20
-8.279170130084054
 10
4.473183407265821
 20
-8.333480475084144
 10
4.305907544665728
 20
-8.363894268284099
 10
4.132114440665816
 20
-8.374756337284139
 10
3.958321336665846
 20
-8.366066682084266
 10
3.79321788786575
 20
-8.337825302684137
 10
3.632459266665819
 20
-8.287859785284155
 10
3.47821788686582
 20
-8.224859785084191
 10
3.332666162265752
 20
-8.1423080606842
 10
3.195456506657762
 20
-8.042290129332087
 10
3.067197195905805
 20
-7.931025177254838
 10
2.948148919665811
 20
-7.805583921684188
 10
2.841439953809754
 20
-7.662876321231152
 10
2.746114436265713
 20
-7.512308058684112
 10
2.663562711865779
 20
-7.34503219608419
 10
2.594045470265712
 20
-7.169066678284167
 10
2.539735125265792
 20
-6.984411505284157
 10
2.498459263065683
 20
-6.78889426328422
 10
2.472390297465722
 20
-6.586859779884235
 10
2.463700642265735
 20
-6.37396322748421
 10
2.463700642265564
 20
-4.116825289284093
 10
2.533218954711799
 20
-4.297994224749942
  0
LWPOLYLINE
  5
3025
330
301A
100
AcDbEntity
  8
LW 3901-00-01
 62
     1
100
AcDbPolyline
 90
        6
 70
     1
 43
0.0
 10
5.83311444606528
 20
5.155036809116012
 10
5.833114446065394
 20
2.917450595115923
 10
2.463700642265337
 20
2.917450595115923
 10
2.463700642265337
 20
3.940657494915825
 10
4.96632133986526
 20
3.940657494915939
 10
4.96632133986526
 20
5.155036809115898
  0
LWPOLYLINE
  5
3026
330
301A
100
AcDbEntity
  8
LW 3901-00-01
 62
     1
100
AcDbPolyline
 90
       57
 70
     1
 43
0.0
 10
5.207980650977447
 20
-0.1363636214753399
 10
5.077635822977526
 20
-0.2562200356489086
 10
4.938079960465529
 20
-0.3650666566841494
 10
4.790355822065464
 20
-0.4519632086840204
 10
4.633942028465583
 20
-0.5236528640841982
 10
4.47318340726548
 20
-0.5757907952841208
 10
4.305907544665501
 20
-0.6083770022841293
 10
4.132114440665475
 20
-0.6192390712840563
 10
3.958321336665449
 20
-0.6083770022841293
 10
3.791045474065526
 20
-0.5757907952841208
 10
3.630286852865594
 20
-0.5258252778842519
 10
3.476045473065482
 20
-0.4541356224841877
 10
3.330493748465585
 20
-0.3694114842842566
 10
3.19145926526545
 20
-0.265135621884184
 10
3.062678575201516
 20
-0.1450706559858474
 10
2.943456505857511
 20
-0.0105113452137005
 10
2.833966850337503
 20
0.1395676897454621
 10
2.737511677617419
 20
0.2983885178359458
 10
2.654873056665451
 20
0.4647954149158693
 10
2.5831834012655
 20
0.6494505879157657
 10
2.52887305626541
 20
0.838450588515883
 10
2.487597194065472
 20
1.036140244315873
 10
2.459355814665457
 20
1.242519555315851
 10
2.45066615946547
 20
1.453243693915823
 10
2.450666159465356
 20
2.68717473231581
 10
3.276183403465381
 20
2.68717473231581
 10
3.276183403465438
 20
1.446726452515889
 10
3.284873058665425
 20
1.303347141715875
 10
3.311984782889396
 20
1.168657486115847
 10
3.351957196809451
 20
1.037183002939826
 10
3.404355817665475
 20
0.9101402439158334
 10
3.471439955809444
 20
0.8027361056439019
 10
3.547735128465433
 20
0.701588519115802
 10
3.636804094265471
 20
0.6146919671158173
 10
3.734562715265496
 20
0.5451747255158069
 10
3.734562715265383
 20
2.687174732315924
 10
4.562252373065405
 20
2.687174732315924
 10
4.562252373065462
 20
0.5821057601159226
 10
4.647758580233471
 20
0.6565761051799371
 10
4.727529614969512
 20
0.7439940364918983
 10
4.7951351324254
 20
0.8410574850758791
 10
4.856049615377401
 20
0.9507209337000119
 10
4.904016512081454
 20
1.066727830619896
 10
4.938340650121403
 20
1.18734024479599
 10
4.96032547777753
 20
1.319596796939862
 10
4.970666167465481
 20
1.453243693915823
 10
4.970666167465424
 20
2.687174732315924
 10
5.8287696184654
 20
2.687174732315924
 10
5.828769618465457
 20
1.477140245715958
 10
5.820079963265527
 20
1.264243693315933
 10
5.796183411465449
 20
1.057864382315955
 10
5.752735135465457
 20
0.8580023127159108
 10
5.69625237666537
 20
0.6668298983159673
 10
5.622390307465479
 20
0.4821747253158435
 10
5.537666169265435
 20
0.3083816213158741
 10
5.439907548265523
 20
0.1476230001158854
 10
5.329288237569471
 20
0.000063965164685
  0
LINE
  5
3027
330
301A
100
AcDbEntity
  8
LW 3901-00-01
100
AcDbLine
 10
-21.0
 20
4.000000000000028
 30
0.0
 11
-17.0
 21
4.000000000000028
 31
0.0
  0
LINE
  5
3028
330
301A
100
AcDbEntity
  8
LW 3901-00-01
100
AcDbLine
 10
-21.0
 20
-4.000000000000028
 30
0.0
 11
-21.0
 21
4.000000000000028
 31
0.0
  0
LINE
  5
3029
330
301A
100
AcDbEntity
  8
LW 3901-00-01
100
AcDbLine
 10
-17.0
 20
-4.000000000000028
 30
0.0
 11
-21.0
 21
-4.000000000000028
 31
0.0
  0
LINE
  5
302A
330
301A
100
AcDbEntity
  8
LW 3901-00-01
100
AcDbLine
 10
-17.0
 20
4.000000000000028
 30
0.0
 11
-17.0
 21
-4.000000000000028
 31
0.0
  0
LINE
  5
302B
330
301A
100
AcDbEntity
  8
LW 3901-00-01
100
AcDbLine
 10
-21.0
 20
3.999999999999971
 30
0.0
 11
-21.0
 21
8.500000000000028
 31
0.0
  0
LINE
  5
302C
330
301A
100
AcDbEntity
  8
LW 3901-00-01
100
AcDbLine
 10
-17.00000000000005
 20
3.999999999999971
 30
0.0
 11
-17.00000000000005
 21
8.499999999999971
 31
0.0
  0
LINE
  5
302D
330
301A
100
AcDbEntity
  8
LW 3901-00-01
100
AcDbLine
 10
-17.00000000000005
 20
-8.500000000000028
 30
0.0
 11
-17.00000000000005
 21
-4.000000000000028
 31
0.0
  0
LINE
  5
302E
330
301A
100
AcDbEntity
  8
LW 3901-00-01
100
AcDbLine
 10
-43.0
 20
-6.000000000000028
 30
0.0
 11
-43.0
 21
6.000000000000028
 31
0.0
  0
LINE
  5
302F
330
301A
100
AcDbEntity
  8
LW 3901-00-01
100
AcDbLine
 10
-42.00000000000005
 20
-7.000000000000028
 30
0.0
 11
-42.00000000000005
 21
6.999999999999971
 31
0.0
  0
LINE
  5
3030
330
301A
100
AcDbEntity
  8
LW 3901-00-01
100
AcDbLine
 10
-21.0
 20
-8.499999999999971
 30
0.0
 11
-21.0
 21
-4.000000000000028
 31
0.0
  0
LINE
  5
3031
330
301A
100
AcDbEntity
  8
LW 3901-00-01
100
AcDbLine
 10
-21.0
 20
8.500000000000028
 30
0.0
 11
-17.0
 21
8.500000000000028
 31
0.0
  0
LINE
  5
3032
330
301A
100
AcDbEntity
  8
LW 3901-00-01
100
AcDbLine
 10
-43.0
 20
6.000000000000028
 30
0.0
 11
-42.00000000000005
 21
6.999999999999971
 31
0.0
  0
LINE
  5
3033
330
301A
100
AcDbEntity
  8
LW 3901-00-01
100
AcDbLine
 10
-43.0
 20
-6.000000000000028
 30
0.0
 11
-42.00000000000005
 21
-7.000000000000028
 31
0.0
  0
LINE
  5
3034
330
301A
100
AcDbEntity
  8
LW 3901-00-01
100
AcDbLine
 10
-42.00000000000005
 20
6.999999999999971
 30
0.0
 11
-21.0
 21
6.999999999999971
 31
0.0
  0
LINE
  5
3035
330
301A
100
AcDbEntity
  8
LW 3901-00-01
100
AcDbLine
 10
-42.00000000000005
 20
-7.000000000000028
 30
0.0
 11
-21.0
 21
-7.000000000000028
 31
0.0
  0
LINE
  5
3036
330
301A
100
AcDbEntity
  8
LW 3901-00-01
100
AcDbLine
 10
-21.0
 20
-8.500000000000028
 30
0.0
 11
-17.0
 21
-8.500000000000028
 31
0.0
  0
LINE
  5
3037
330
301A
100
AcDbEntity
  8
LW 3901-00-01
100
AcDbLine
 10
-17.00000000000005
 20
6.000000000000035
 30
0.0
 11
-16.00000000000011
 21
6.000000000000028
 31
0.0
  0
LINE
  5
3038
330
301A
100
AcDbEntity
  8
LW 3901-00-01
100
AcDbLine
 10
-17.00000000000005
 20
-6.000000000000028
 30
0.0
 11
-16.00000000000011
 21
-6.000000000000028
 31
0.0
  0
LINE
  5
3039
330
301A
100
AcDbEntity
  8
LW 3901-00-01
  6
VERDECKT
 62
     6
100
AcDbLine
 10
-10.0
 20
-16.00000000000003
 30
0.0
 11
-10.0
 21
16.00000000000003
 31
0.0
  0
LINE
  5
303A
330
301A
100
AcDbEntity
  8
LW 3901-00-01
  6
VERDECKT
 62
     6
100
AcDbLine
 10
-4.0
 20
-16.00000000000003
 30
0.0
 11
-4.0
 21
16.00000000000003
 31
0.0
  0
LINE
  5
303B
330
301A
100
AcDbEntity
  8
LW 3901-00-01
  6
VERDECKT
 62
     6
100
AcDbLine
 10
-3.0
 20
-14.00000000000003
 30
0.0
 11
-3.0
 21
14.00000000000003
 31
0.0
  0
LINE
  5
303C
330
301A
100
AcDbEntity
  8
LW 3901-00-01
  6
VERDECKT
 62
     6
100
AcDbLine
 10
0.0
 20
-14.00000000000003
 30
0.0
 11
0.0
 21
14.00000000000003
 31
0.0
  0
LINE
  5
303D
330
301A
100
AcDbEntity
  8
LW 3901-00-01
  6
VERDECKT
 62
     6
100
AcDbLine
 10
-16.0
 20
6.000000000000028
 30
0.0
 11
-10.50000000000006
 21
6.000000000000028
 31
0.0
  0
LINE
  5
303E
330
301A
100
AcDbEntity
  8
LW 3901-00-01
  6
VERDECKT
 62
     6
100
AcDbLine
 10
-16.0
 20
-6.000000000000021
 30
0.0
 11
-10.50000000000006
 21
-6.000000000000028
 31
0.0
  0
ARC
  5
303F
330
301A
100
AcDbEntity
  8
LW 3901-00-01
  6
VERDECKT
 62
     6
100
AcDbCircle
 10
-10.5
 20
-6.500000000000028
 30
0.0
 40
0.5000000000000005
100
AcDbArc
 50
0.0
 51
90.0
  0
ARC
  5
3040
330
301A
100
AcDbEntity
  8
LW 3901-00-01
  6
VERDECKT
 62
     6
100
AcDbCircle
 10
-10.5
 20
6.500000000000028
 30
0.0
 40
0.5000000000000005
100
AcDbArc
 50
270.0
 51
0.0
  0
LINE
  5
3041
330
301A
100
AcDbEntity
  8
LW 3901-00-01
  6
VERDECKT
 62
     6
100
AcDbLine
 10
-10.0
 20
16.00000000000003
 30
0.0
 11
-4.0
 21
16.00000000000003
 31
0.0
  0
LINE
  5
3042
330
301A
100
AcDbEntity
  8
LW 3901-00-01
  6
VERDECKT
 62
     6
100
AcDbLine
 10
-10.0
 20
-16.00000000000003
 30
0.0
 11
-4.0
 21
-16.00000000000003
 31
0.0
  0
LINE
  5
3043
330
301A
100
AcDbEntity
  8
LW 3901-00-01
  6
VERDECKT
 62
     6
100
AcDbLine
 10
-3.0
 20
-14.00000000000003
 30
0.0
 11
-4.0
 21
-15.00000000000003
 31
0.0
  0
LINE
  5
3044
330
301A
100
AcDbEntity
  8
LW 3901-00-01
  6
VERDECKT
 62
     6
100
AcDbLine
 10
-3.0
 20
14.00000000000003
 30
0.0
 11
-4.0
 21
14.99999999999997
 31
0.0
  0
LINE
  5
3045
330
301A
100
AcDbEntity
  8
LW 3901-00-01
  6
VERDECKT
 62
     6
100
AcDbLine
 10
-3.0
 20
14.00000000000003
 30
0.0
 11
0.0
 21
14.00000000000003
 31
0.0
  0
LINE
  5
3046
330
301A
100
AcDbEntity
  8
LW 3901-00-01
  6
VERDECKT
 62
     6
100
AcDbLine
 10
-3.0
 20
-14.00000000000003
 30
0.0
 11
0.0
 21
-14.00000000000003
 31
0.0
  0
LINE
  5
3047
330
301A
100
AcDbEntity
  8
LW 3901-00-01
 62
     3
100
AcDbLine
 10
-21.0
 20
5.794499999999999
 30
0.0
 11
-43.0
 21
5.794499999999992
 31
0.0
  0
LINE
  5
3048
330
301A
100
AcDbEntity
  8
LW 3901-00-01
 62
     3
100
AcDbLine
 10
-43.0
 20
-5.794500000000056
 30
0.0
 11
-21.0
 21
-5.794500000000056
 31
0.0
  0
LINE
  5
3049
330
301A
100
AcDbEntity
  8
LW 3901-00-01
100
AcDbLine
 10
-42.00000000000005
 20
-7.000000000000028
 30
0.0
 11
-42.00000000000005
 21
6.999999999999971
 31
0.0
  0
POLYLINE
  5
304A
330
301A
100
AcDbEntity
  8
LW 3901-00-01
100
AcDb2dPolyline
 66
     1
 10
0.0
 20
0.0
 30
0.0
 70
   128
  0
VERTEX
  5
304B
330
304A
100
AcDbEntity
  8
LW 3901-00-01
100
AcDbVertex
100
AcDb2dVertex
 10
-8.99999904632574
 20
12.50000000000003
 30
0.0
  0
VERTEX
  5
304C
330
304A
100
AcDbEntity
  8
LW 3901-00-01
100
AcDbVertex
100
AcDb2dVertex
 10
-8.978987216949519
 20
12.77545213699343
 30
0.0
  0
VERTEX
  5
304D
330
304A
100
AcDbEntity
  8
LW 3901-00-01
100
AcDbVertex
100
AcDb2dVertex
 10
-8.915658473968562
 20
13.05167794227603
 30
0.0
  0
VERTEX
  5
304E
330
304A
100
AcDbEntity
  8
LW 3901-00-01
100
AcDbVertex
100
AcDb2dVertex
 10
-8.809576511383113
 20
13.31962585449221
 30
0.0
  0
VERTEX
  5
304F
330
304A
100
AcDbEntity
  8
LW 3901-00-01
100
AcDbVertex
100
AcDb2dVertex
 10
-8.661695003509578
 20
13.57088565826419
 30
0.0
  0
VERTEX
  5
3050
330
304A
100
AcDbEntity
  8
LW 3901-00-01
100
AcDbVertex
100
AcDb2dVertex
 10
-8.4784774780274
 20
13.79940271377566
 30
0.0
  0
VERTEX
  5
3051
330
304A
100
AcDbEntity
  8
LW 3901-00-01
100
AcDbVertex
100
AcDb2dVertex
 10
-8.26776552200323
 20
13.99964332580569
 30
0.0
  0
VERTEX
  5
3052
330
304A
100
AcDbEntity
  8
LW 3901-00-01
100
AcDbVertex
100
AcDb2dVertex
 10
-8.027399063110408
 20
14.17419910430911
 30
0.0
  0
VERTEX
  5
3053
330
304A
100
AcDbEntity
  8
LW 3901-00-01
100
AcDbVertex
100
AcDb2dVertex
 10
-7.754761457443294
 20
14.32525992393496
 30
0.0
  0
VERTEX
  5
3054
330
304A
100
AcDbEntity
  8
LW 3901-00-01
100
AcDbVertex
100
AcDb2dVertex
 10
-7.456998109817561
 20
14.44669842720034
 30
0.0
  0
VERTEX
  5
3055
330
304A
100
AcDbEntity
  8
LW 3901-00-01
100
AcDbVertex
100
AcDb2dVertex
 10
-7.14183139801031
 20
14.53354954719546
 30
0.0
  0
VERTEX
  5
3056
330
304A
100
AcDbEntity
  8
LW 3901-00-01
100
AcDbVertex
100
AcDb2dVertex
 10
-6.819292783737239
 20
14.58527922630313
 30
0.0
  0
VERTEX
  5
3057
330
304A
100
AcDbEntity
  8
LW 3901-00-01
100
AcDbVertex
100
AcDb2dVertex
 10
-6.500000238418635
 20
14.60240602493289
 30
0.0
  0
VERTEX
  5
3058
330
304A
100
AcDbEntity
  8
LW 3901-00-01
100
AcDbVertex
100
AcDb2dVertex
 10
-6.180707693100032
 20
14.58527922630313
 30
0.0
  0
VERTEX
  5
3059
330
304A
100
AcDbEntity
  8
LW 3901-00-01
100
AcDbVertex
100
AcDb2dVertex
 10
-5.858169078826961
 20
14.53354954719546
 30
0.0
  0
VERTEX
  5
305A
330
304A
100
AcDbEntity
  8
LW 3901-00-01
100
AcDbVertex
100
AcDb2dVertex
 10
-5.543001174926814
 20
14.44669842720034
 30
0.0
  0
VERTEX
  5
305B
330
304A
100
AcDbEntity
  8
LW 3901-00-01
100
AcDbVertex
100
AcDb2dVertex
 10
-5.245239019393977
 20
14.32525992393496
 30
0.0
  0
VERTEX
  5
305C
330
304A
100
AcDbEntity
  8
LW 3901-00-01
100
AcDbVertex
100
AcDb2dVertex
 10
-4.972600221633967
 20
14.17419910430911
 30
0.0
  0
VERTEX
  5
305D
330
304A
100
AcDbEntity
  8
LW 3901-00-01
100
AcDbVertex
100
AcDb2dVertex
 10
-4.732234954834041
 20
13.99964332580569
 30
0.0
  0
VERTEX
  5
305E
330
304A
100
AcDbEntity
  8
LW 3901-00-01
100
AcDbVertex
100
AcDb2dVertex
 10
-4.521522998809871
 20
13.79940271377566
 30
0.0
  0
VERTEX
  5
305F
330
304A
100
AcDbEntity
  8
LW 3901-00-01
100
AcDbVertex
100
AcDb2dVertex
 10
-4.338304281234798
 20
13.57088565826419
 30
0.0
  0
VERTEX
  5
3060
330
304A
100
AcDbEntity
  8
LW 3901-00-01
100
AcDbVertex
100
AcDb2dVertex
 10
-4.190422773361262
 20
13.31962585449221
 30
0.0
  0
VERTEX
  5
3061
330
304A
100
AcDbEntity
  8
LW 3901-00-01
100
AcDbVertex
100
AcDb2dVertex
 10
-4.084342002868709
 20
13.05167794227603
 30
0.0
  0
VERTEX
  5
3062
330
304A
100
AcDbEntity
  8
LW 3901-00-01
100
AcDbVertex
100
AcDb2dVertex
 10
-4.021013259887752
 20
12.77545213699343
 30
0.0
  0
VERTEX
  5
3063
330
304A
100
AcDbEntity
  8
LW 3901-00-01
100
AcDbVertex
100
AcDb2dVertex
 10
-4.000000238418635
 20
12.50000000000003
 30
0.0
  0
SEQEND
  5
3064
330
304A
100
AcDbEntity
  8
LW 3901-00-01
  0
POLYLINE
  5
3065
330
301A
100
AcDbEntity
  8
LW 3901-00-01
100
AcDb2dPolyline
 66
     1
 10
0.0
 20
0.0
 30
0.0
 70
   128
  0
VERTEX
  5
3066
330
3065
100
AcDbEntity
  8
LW 3901-00-01
100
AcDbVertex
100
AcDb2dVertex
 10
-4.000000238418635
 20
12.50000000000003
 30
0.0
  0
VERTEX
  5
3067
330
3065
100
AcDbEntity
  8
LW 3901-00-01
100
AcDbVertex
100
AcDb2dVertex
 10
-4.021013259887752
 20
12.22241878509524
 30
0.0
  0
VERTEX
  5
3068
330
3065
100
AcDbEntity
  8
LW 3901-00-01
100
AcDbVertex
100
AcDb2dVertex
 10
-4.084342002868709
 20
11.93999171257022
 30
0.0
  0
VERTEX
  5
3069
330
3065
100
AcDbEntity
  8
LW 3901-00-01
100
AcDbVertex
100
AcDb2dVertex
 10
-4.190422773361262
 20
11.66205048561099
 30
0.0
  0
VERTEX
  5
306A
330
3065
100
AcDbEntity
  8
LW 3901-00-01
100
AcDbVertex
100
AcDb2dVertex
 10
-4.338304281234798
 20
11.39756798744204
 30
0.0
  0
VERTEX
  5
306B
330
3065
100
AcDbEntity
  8
LW 3901-00-01
100
AcDbVertex
100
AcDb2dVertex
 10
-4.521522998809871
 20
11.15386009216311
 30
0.0
  0
VERTEX
  5
306C
330
3065
100
AcDbEntity
  8
LW 3901-00-01
100
AcDbVertex
100
AcDb2dVertex
 10
-4.732234954834041
 20
10.93777775764468
 30
0.0
  0
VERTEX
  5
306D
330
3065
100
AcDbEntity
  8
LW 3901-00-01
100
AcDbVertex
100
AcDb2dVertex
 10
-4.972600221633967
 20
10.7473695278168
 30
0.0
  0
VERTEX
  5
306E
330
3065
100
AcDbEntity
  8
LW 3901-00-01
100
AcDbVertex
100
AcDb2dVertex
 10
-5.245239019393977
 20
10.581089258194
 30
0.0
  0
VERTEX
  5
306F
330
3065
100
AcDbEntity
  8
LW 3901-00-01
100
AcDbVertex
100
AcDb2dVertex
 10
-5.543001174926814
 20
10.44638991355899
 30
0.0
  0
VERTEX
  5
3070
330
3065
100
AcDbEntity
  8
LW 3901-00-01
100
AcDbVertex
100
AcDb2dVertex
 10
-5.858169078826961
 20
10.34950613975528
 30
0.0
  0
VERTEX
  5
3071
330
3065
100
AcDbEntity
  8
LW 3901-00-01
100
AcDbVertex
100
AcDb2dVertex
 10
-6.180707693100032
 20
10.29154777526858
 30
0.0
  0
VERTEX
  5
3072
330
3065
100
AcDbEntity
  8
LW 3901-00-01
100
AcDbVertex
100
AcDb2dVertex
 10
-6.500000238418635
 20
10.27227997779849
 30
0.0
  0
VERTEX
  5
3073
330
3065
100
AcDbEntity
  8
LW 3901-00-01
100
AcDbVertex
100
AcDb2dVertex
 10
-6.819292783737239
 20
10.29154777526858
 30
0.0
  0
VERTEX
  5
3074
330
3065
100
AcDbEntity
  8
LW 3901-00-01
100
AcDbVertex
100
AcDb2dVertex
 10
-7.14183139801031
 20
10.34950613975528
 30
0.0
  0
VERTEX
  5
3075
330
3065
100
AcDbEntity
  8
LW 3901-00-01
100
AcDbVertex
100
AcDb2dVertex
 10
-7.456998109817561
 20
10.44638991355899
 30
0.0
  0
VERTEX
  5
3076
330
3065
100
AcDbEntity
  8
LW 3901-00-01
100
AcDbVertex
100
AcDb2dVertex
 10
-7.754761457443294
 20
10.581089258194
 30
0.0
  0
VERTEX
  5
3077
330
3065
100
AcDbEntity
  8
LW 3901-00-01
100
AcDbVertex
100
AcDb2dVertex
 10
-8.027399063110408
 20
10.7473695278168
 30
0.0
  0
VERTEX
  5
3078
330
3065
100
AcDbEntity
  8
LW 3901-00-01
100
AcDbVertex
100
AcDb2dVertex
 10
-8.26776552200323
 20
10.93777775764468
 30
0.0
  0
VERTEX
  5
3079
330
3065
100
AcDbEntity
  8
LW 3901-00-01
100
AcDbVertex
100
AcDb2dVertex
 10
-8.4784774780274
 20
11.15386009216311
 30
0.0
  0
VERTEX
  5
307A
330
3065
100
AcDbEntity
  8
LW 3901-00-01
100
AcDbVertex
100
AcDb2dVertex
 10
-8.661695003509578
 20
11.39756798744204
 30
0.0
  0
VERTEX
  5
307B
330
3065
100
AcDbEntity
  8
LW 3901-00-01
100
AcDbVertex
100
AcDb2dVertex
 10
-8.809576511383113
 20
11.66205048561099
 30
0.0
  0
VERTEX
  5
307C
330
3065
100
AcDbEntity
  8
LW 3901-00-01
100
AcDbVertex
100
AcDb2dVertex
 10
-8.915658473968562
 20
11.93999171257022
 30
0.0
  0
VERTEX
  5
307D
330
3065
100
AcDbEntity
  8
LW 3901-00-01
100
AcDbVertex
100
AcDb2dVertex
 10
-8.978987216949519
 20
12.22241878509524
 30
0.0
  0
VERTEX
  5
307E
330
3065
100
AcDbEntity
  8
LW 3901-00-01
100
AcDbVertex
100
AcDb2dVertex
 10
-8.99999904632574
 20
12.50000000000003
 30
0.0
  0
SEQEND
  5
307F
330
3065
100
AcDbEntity
  8
LW 3901-00-01
  0
POLYLINE
  5
3080
330
301A
100
AcDbEntity
  8
LW 3901-00-01
100
AcDb2dPolyline
 66
     1
 10
0.0
 20
0.0
 30
0.0
 70
   128
  0
VERTEX
  5
3081
330
3080
100
AcDbEntity
  8
LW 3901-00-01
100
AcDbVertex
100
AcDb2dVertex
 10
-6.500000238418635
 20
12.5903928279877
 30
0.0
  0
VERTEX
  5
3082
330
3080
100
AcDbEntity
  8
LW 3901-00-01
100
AcDbVertex
100
AcDb2dVertex
 10
-6.609956502914485
 20
12.58835554122927
 30
0.0
  0
VERTEX
  5
3083
330
3080
100
AcDbEntity
  8
LW 3901-00-01
100
AcDbVertex
100
AcDb2dVertex
 10
-6.721138238906917
 20
12.58222818374636
 30
0.0
  0
VERTEX
  5
3084
330
3080
100
AcDbEntity
  8
LW 3901-00-01
100
AcDbVertex
100
AcDb2dVertex
 10
-6.833098411560115
 20
12.57198929786685
 30
0.0
  0
VERTEX
  5
3085
330
3080
100
AcDbEntity
  8
LW 3901-00-01
100
AcDbVertex
100
AcDb2dVertex
 10
-6.94539117813116
 20
12.55761504173281
 30
0.0
  0
VERTEX
  5
3086
330
3080
100
AcDbEntity
  8
LW 3901-00-01
100
AcDbVertex
100
AcDb2dVertex
 10
-7.057570695877132
 20
12.53908276557925
 30
0.0
  0
VERTEX
  5
3087
330
3080
100
AcDbEntity
  8
LW 3901-00-01
100
AcDbVertex
100
AcDb2dVertex
 10
-7.169193506240901
 20
12.51637101173403
 30
0.0
  0
VERTEX
  5
3088
330
3080
100
AcDbEntity
  8
LW 3901-00-01
100
AcDbVertex
100
AcDb2dVertex
 10
-7.279811382293758
 20
12.48945713043215
 30
0.0
  0
VERTEX
  5
3089
330
3080
100
AcDbEntity
  8
LW 3901-00-01
100
AcDbVertex
100
AcDb2dVertex
 10
-7.388982057571467
 20
12.4583184719086
 30
0.0
  0
VERTEX
  5
308A
330
3080
100
AcDbEntity
  8
LW 3901-00-01
100
AcDbVertex
100
AcDb2dVertex
 10
-7.49625730514532
 20
12.42293238639834
 30
0.0
  0
VERTEX
  5
308B
330
3080
100
AcDbEntity
  8
LW 3901-00-01
100
AcDbVertex
100
AcDb2dVertex
 10
-7.601255655288753
 20
12.3833763599396
 30
0.0
  0
VERTEX
  5
308C
330
3080
100
AcDbEntity
  8
LW 3901-00-01
100
AcDbVertex
100
AcDb2dVertex
 10
-7.703668355941829
 20
12.33988761901858
 30
0.0
  0
VERTEX
  5
308D
330
3080
100
AcDbEntity
  8
LW 3901-00-01
100
AcDbVertex
100
AcDb2dVertex
 10
-7.803198575973567
 20
12.29271769523623
 30
0.0
  0
VERTEX
  5
308E
330
3080
100
AcDbEntity
  8
LW 3901-00-01
100
AcDbVertex
100
AcDb2dVertex
 10
-7.8995459079743
 20
12.24211812019351
 30
0.0
  0
VERTEX
  5
308F
330
3080
100
AcDbEntity
  8
LW 3901-00-01
100
AcDbVertex
100
AcDb2dVertex
 10
-7.992409944534358
 20
12.18834161758425
 30
0.0
  0
VERTEX
  5
3090
330
3080
100
AcDbEntity
  8
LW 3901-00-01
100
AcDbVertex
100
AcDb2dVertex
 10
-8.081493854522761
 20
12.13163852691653
 30
0.0
  0
VERTEX
  5
3091
330
3080
100
AcDbEntity
  8
LW 3901-00-01
100
AcDbVertex
100
AcDb2dVertex
 10
-8.16649484634405
 20
12.07226157188418
 30
0.0
  0
VERTEX
  5
3092
330
3080
100
AcDbEntity
  8
LW 3901-00-01
100
AcDbVertex
100
AcDb2dVertex
 10
-8.247116088867244
 20
12.01046228408816
 30
0.0
  0
VERTEX
  5
3093
330
3080
100
AcDbEntity
  8
LW 3901-00-01
100
AcDbVertex
100
AcDb2dVertex
 10
-8.323698520660457
 20
11.94595932960513
 30
0.0
  0
VERTEX
  5
3094
330
3080
100
AcDbEntity
  8
LW 3901-00-01
100
AcDbVertex
100
AcDb2dVertex
 10
-8.397584438324031
 20
11.87761902809146
 30
0.0
  0
VERTEX
  5
3095
330
3080
100
AcDbEntity
  8
LW 3901-00-01
100
AcDbVertex
100
AcDb2dVertex
 10
-8.468528270721492
 20
11.80559515953067
 30
0.0
  0
VERTEX
  5
3096
330
3080
100
AcDbEntity
  8
LW 3901-00-01
100
AcDbVertex
100
AcDb2dVertex
 10
-8.53620338439947
 20
11.73011779785159
 30
0.0
  0
VERTEX
  5
3097
330
3080
100
AcDbEntity
  8
LW 3901-00-01
100
AcDbVertex
100
AcDb2dVertex
 10
-8.600278377533015
 20
11.65140986442569
 30
0.0
  0
VERTEX
  5
3098
330
3080
100
AcDbEntity
  8
LW 3901-00-01
100
AcDbVertex
100
AcDb2dVertex
 10
-8.660424232482966
 20
11.56970024108889
 30
0.0
  0
VERTEX
  5
3099
330
3080
100
AcDbEntity
  8
LW 3901-00-01
100
AcDbVertex
100
AcDb2dVertex
 10
-8.716311931610164
 20
11.48521423339846
 30
0.0
  0
SEQEND
  5
309A
330
3080
100
AcDbEntity
  8
LW 3901-00-01
  0
POLYLINE
  5
309B
330
301A
100
AcDbEntity
  8
LW 3901-00-01
100
AcDb2dPolyline
 66
     1
 10
0.0
 20
0.0
 30
0.0
 70
   128
  0
VERTEX
  5
309C
330
309B
100
AcDbEntity
  8
LW 3901-00-01
100
AcDbVertex
100
AcDb2dVertex
 10
-4.283687353134212
 20
11.48521423339846
 30
0.0
  0
VERTEX
  5
309D
330
309B
100
AcDbEntity
  8
LW 3901-00-01
100
AcDbVertex
100
AcDb2dVertex
 10
-4.339576244354304
 20
11.56970024108889
 30
0.0
  0
VERTEX
  5
309E
330
309B
100
AcDbEntity
  8
LW 3901-00-01
100
AcDbVertex
100
AcDb2dVertex
 10
-4.399722099304256
 20
11.65140986442569
 30
0.0
  0
VERTEX
  5
309F
330
309B
100
AcDbEntity
  8
LW 3901-00-01
100
AcDbVertex
100
AcDb2dVertex
 10
-4.4637970924378
 20
11.73011779785159
 30
0.0
  0
VERTEX
  5
30A0
330
309B
100
AcDbEntity
  8
LW 3901-00-01
100
AcDbVertex
100
AcDb2dVertex
 10
-4.531471014022883
 20
11.80559515953067
 30
0.0
  0
VERTEX
  5
30A1
330
309B
100
AcDbEntity
  8
LW 3901-00-01
100
AcDbVertex
100
AcDb2dVertex
 10
-4.60241603851324
 20
11.87761902809146
 30
0.0
  0
VERTEX
  5
30A2
330
309B
100
AcDbEntity
  8
LW 3901-00-01
100
AcDbVertex
100
AcDb2dVertex
 10
-4.676301956176814
 20
11.94595932960513
 30
0.0
  0
VERTEX
  5
30A3
330
309B
100
AcDbEntity
  8
LW 3901-00-01
100
AcDbVertex
100
AcDb2dVertex
 10
-4.752884387970027
 20
12.01046228408816
 30
0.0
  0
VERTEX
  5
30A4
330
309B
100
AcDbEntity
  8
LW 3901-00-01
100
AcDbVertex
100
AcDb2dVertex
 10
-4.83350563049322
 20
12.07226157188418
 30
0.0
  0
VERTEX
  5
30A5
330
309B
100
AcDbEntity
  8
LW 3901-00-01
100
AcDbVertex
100
AcDb2dVertex
 10
-4.918506622314509
 20
12.13163852691653
 30
0.0
  0
VERTEX
  5
30A6
330
309B
100
AcDbEntity
  8
LW 3901-00-01
100
AcDbVertex
100
AcDb2dVertex
 10
-5.007589340210017
 20
12.18834161758425
 30
0.0
  0
VERTEX
  5
30A7
330
309B
100
AcDbEntity
  8
LW 3901-00-01
100
AcDbVertex
100
AcDb2dVertex
 10
-5.100454568862971
 20
12.24211812019351
 30
0.0
  0
VERTEX
  5
30A8
330
309B
100
AcDbEntity
  8
LW 3901-00-01
100
AcDbVertex
100
AcDb2dVertex
 10
-5.196801900863704
 20
12.29271769523623
 30
0.0
  0
VERTEX
  5
30A9
330
309B
100
AcDbEntity
  8
LW 3901-00-01
100
AcDbVertex
100
AcDb2dVertex
 10
-5.296330928802547
 20
12.33988761901858
 30
0.0
  0
VERTEX
  5
30AA
330
309B
100
AcDbEntity
  8
LW 3901-00-01
100
AcDbVertex
100
AcDb2dVertex
 10
-5.398744821548518
 20
12.3833763599396
 30
0.0
  0
VERTEX
  5
30AB
330
309B
100
AcDbEntity
  8
LW 3901-00-01
100
AcDbVertex
100
AcDb2dVertex
 10
-5.503741979599055
 20
12.42293238639834
 30
0.0
  0
VERTEX
  5
30AC
330
309B
100
AcDbEntity
  8
LW 3901-00-01
100
AcDbVertex
100
AcDb2dVertex
 10
-5.611018419265803
 20
12.4583184719086
 30
0.0
  0
VERTEX
  5
30AD
330
309B
100
AcDbEntity
  8
LW 3901-00-01
100
AcDbVertex
100
AcDb2dVertex
 10
-5.720187902450618
 20
12.48945713043215
 30
0.0
  0
VERTEX
  5
30AE
330
309B
100
AcDbEntity
  8
LW 3901-00-01
100
AcDbVertex
100
AcDb2dVertex
 10
-5.83080697059637
 20
12.51637101173403
 30
0.0
  0
VERTEX
  5
30AF
330
309B
100
AcDbEntity
  8
LW 3901-00-01
100
AcDbVertex
100
AcDb2dVertex
 10
-5.942428588867244
 20
12.53908276557925
 30
0.0
  0
VERTEX
  5
30B0
330
309B
100
AcDbEntity
  8
LW 3901-00-01
100
AcDbVertex
100
AcDb2dVertex
 10
-6.054609298706111
 20
12.55761504173281
 30
0.0
  0
VERTEX
  5
30B1
330
309B
100
AcDbEntity
  8
LW 3901-00-01
100
AcDbVertex
100
AcDb2dVertex
 10
-6.166902065277156
 20
12.57198929786685
 30
0.0
  0
VERTEX
  5
30B2
330
309B
100
AcDbEntity
  8
LW 3901-00-01
100
AcDbVertex
100
AcDb2dVertex
 10
-6.278862237930354
 20
12.58222818374636
 30
0.0
  0
VERTEX
  5
30B3
330
309B
100
AcDbEntity
  8
LW 3901-00-01
100
AcDbVertex
100
AcDb2dVertex
 10
-6.39004278182989
 20
12.58835554122927
 30
0.0
  0
VERTEX
  5
30B4
330
309B
100
AcDbEntity
  8
LW 3901-00-01
100
AcDbVertex
100
AcDb2dVertex
 10
-6.500000238418635
 20
12.5903928279877
 30
0.0
  0
SEQEND
  5
30B5
330
309B
100
AcDbEntity
  8
LW 3901-00-01
  0
POLYLINE
  5
30B6
330
301A
100
AcDbEntity
  8
LW 3901-00-01
100
AcDb2dPolyline
 66
     1
 10
0.0
 20
0.0
 30
0.0
 70
   128
  0
VERTEX
  5
30B7
330
30B6
100
AcDbEntity
  8
LW 3901-00-01
100
AcDbVertex
100
AcDb2dVertex
 10
-8.99999904632574
 20
-24.99999999999992
 30
0.0
  0
VERTEX
  5
30B8
330
30B6
100
AcDbEntity
  8
LW 3901-00-01
100
AcDbVertex
100
AcDb2dVertex
 10
-8.978987216949519
 20
-24.99787092208854
 30
0.0
  0
VERTEX
  5
30B9
330
30B6
100
AcDbEntity
  8
LW 3901-00-01
100
AcDbVertex
100
AcDb2dVertex
 10
-8.915658473968562
 20
-24.99166965484611
 30
0.0
  0
VERTEX
  5
30BA
330
30B6
100
AcDbEntity
  8
LW 3901-00-01
100
AcDbVertex
100
AcDb2dVertex
 10
-8.809576511383113
 20
-24.98167514801017
 30
0.0
  0
VERTEX
  5
30BB
330
30B6
100
AcDbEntity
  8
LW 3901-00-01
100
AcDbVertex
100
AcDb2dVertex
 10
-8.661695003509578
 20
-24.96845483779899
 30
0.0
  0
VERTEX
  5
30BC
330
30B6
100
AcDbEntity
  8
LW 3901-00-01
100
AcDbVertex
100
AcDb2dVertex
 10
-8.4784774780274
 20
-24.95326280593864
 30
0.0
  0
VERTEX
  5
30BD
330
30B6
100
AcDbEntity
  8
LW 3901-00-01
100
AcDbVertex
100
AcDb2dVertex
 10
-8.26776552200323
 20
-24.93742227554313
 30
0.0
  0
VERTEX
  5
30BE
330
30B6
100
AcDbEntity
  8
LW 3901-00-01
100
AcDbVertex
100
AcDb2dVertex
 10
-8.027399063110408
 20
-24.92156982421867
 30
0.0
  0
VERTEX
  5
30BF
330
30B6
100
AcDbEntity
  8
LW 3901-00-01
100
AcDbVertex
100
AcDb2dVertex
 10
-7.754761457443294
 20
-24.90634918212882
 30
0.0
  0
VERTEX
  5
30C0
330
30B6
100
AcDbEntity
  8
LW 3901-00-01
100
AcDbVertex
100
AcDb2dVertex
 10
-7.456998109817561
 20
-24.89308834075919
 30
0.0
  0
VERTEX
  5
30C1
330
30B6
100
AcDbEntity
  8
LW 3901-00-01
100
AcDbVertex
100
AcDb2dVertex
 10
-7.14183139801031
 20
-24.8830556869506
 30
0.0
  0
VERTEX
  5
30C2
330
30B6
100
AcDbEntity
  8
LW 3901-00-01
100
AcDbVertex
100
AcDb2dVertex
 10
-6.819292783737239
 20
-24.87682580947867
 30
0.0
  0
VERTEX
  5
30C3
330
30B6
100
AcDbEntity
  8
LW 3901-00-01
100
AcDbVertex
100
AcDb2dVertex
 10
-6.500000238418635
 20
-24.87468481063834
 30
0.0
  0
VERTEX
  5
30C4
330
30B6
100
AcDbEntity
  8
LW 3901-00-01
100
AcDbVertex
100
AcDb2dVertex
 10
-6.180707693100032
 20
-24.87682580947867
 30
0.0
  0
VERTEX
  5
30C5
330
30B6
100
AcDbEntity
  8
LW 3901-00-01
100
AcDbVertex
100
AcDb2dVertex
 10
-5.858169078826961
 20
-24.8830556869506
 30
0.0
  0
VERTEX
  5
30C6
330
30B6
100
AcDbEntity
  8
LW 3901-00-01
100
AcDbVertex
100
AcDb2dVertex
 10
-5.543001174926814
 20
-24.89308834075919
 30
0.0
  0
VERTEX
  5
30C7
330
30B6
100
AcDbEntity
  8
LW 3901-00-01
100
AcDbVertex
100
AcDb2dVertex
 10
-5.245239019393977
 20
-24.90634918212882
 30
0.0
  0
VERTEX
  5
30C8
330
30B6
100
AcDbEntity
  8
LW 3901-00-01
100
AcDbVertex
100
AcDb2dVertex
 10
-4.972600221633967
 20
-24.92156982421867
 30
0.0
  0
VERTEX
  5
30C9
330
30B6
100
AcDbEntity
  8
LW 3901-00-01
100
AcDbVertex
100
AcDb2dVertex
 10
-4.732234954834041
 20
-24.93742227554313
 30
0.0
  0
VERTEX
  5
30CA
330
30B6
100
AcDbEntity
  8
LW 3901-00-01
100
AcDbVertex
100
AcDb2dVertex
 10
-4.521522998809871
 20
-24.95326280593864
 30
0.0
  0
VERTEX
  5
30CB
330
30B6
100
AcDbEntity
  8
LW 3901-00-01
100
AcDbVertex
100
AcDb2dVertex
 10
-4.338304281234798
 20
-24.96845483779899
 30
0.0
  0
VERTEX
  5
30CC
330
30B6
100
AcDbEntity
  8
LW 3901-00-01
100
AcDbVertex
100
AcDb2dVertex
 10
-4.190422773361262
 20
-24.98167514801017
 30
0.0
  0
VERTEX
  5
30CD
330
30B6
100
AcDbEntity
  8
LW 3901-00-01
100
AcDbVertex
100
AcDb2dVertex
 10
-4.084342002868709
 20
-24.99166965484611
 30
0.0
  0
VERTEX
  5
30CE
330
30B6
100
AcDbEntity
  8
LW 3901-00-01
100
AcDbVertex
100
AcDb2dVertex
 10
-4.021013259887752
 20
-24.99787092208854
 30
0.0
  0
VERTEX
  5
30CF
330
30B6
100
AcDbEntity
  8
LW 3901-00-01
100
AcDbVertex
100
AcDb2dVertex
 10
-4.000000238418635
 20
-24.99999999999992
 30
0.0
  0
SEQEND
  5
30D0
330
30B6
100
AcDbEntity
  8
LW 3901-00-01
  0
LINE
  5
30D1
330
301A
100
AcDbEntity
  8
LW 3901-00-01
100
AcDbLine
 10
10.0
 20
-24.99999999999992
 30
0.0
 11
10.0
 21
25.00000000000003
 31
0.0
  0
LINE
  5
30D2
330
301A
100
AcDbEntity
  8
LW 3901-00-01
100
AcDbLine
 10
-14.0
 20
-24.99999999999992
 30
0.0
 11
-14.0
 21
25.00000000000003
 31
0.0
  0
LINE
  5
30D3
330
301A
100
AcDbEntity
  8
LW 3901-00-01
100
AcDbLine
 10
11.99999999999994
 20
-22.99999999999986
 30
0.0
 11
11.99999999999994
 21
22.99999999999997
 31
0.0
  0
LINE
  5
30D4
330
301A
100
AcDbEntity
  8
LW 3901-00-01
100
AcDbLine
 10
-16.0
 20
-22.99999999999991
 30
0.0
 11
-16.0
 21
23.00000000000003
 31
0.0
  0
LINE
  5
30D5
330
301A
100
AcDbEntity
  8
LW 3901-00-01
100
AcDbLine
 10
-14.00000000000005
 20
25.00000000000003
 30
0.0
 11
9.999999999999943
 21
25.00000000000003
 31
0.0
  0
LINE
  5
30D6
330
301A
100
AcDbEntity
  8
LW 3901-00-01
100
AcDbLine
 10
-14.0
 20
-24.99999999999992
 30
0.0
 11
-9.0
 21
-24.99999999999992
 31
0.0
  0
LINE
  5
30D7
330
301A
100
AcDbEntity
  8
LW 3901-00-01
100
AcDbLine
 10
-4.0
 20
-24.99999999999992
 30
0.0
 11
10.0
 21
-24.99999999999992
 31
0.0
  0
LINE
  5
30D8
330
301A
100
AcDbEntity
  8
LW 3901-00-01
100
AcDbLine
 10
-16.0
 20
23.00000000000003
 30
0.0
 11
-14.00000000000005
 21
25.00000000000003
 31
0.0
  0
LINE
  5
30D9
330
301A
100
AcDbEntity
  8
LW 3901-00-01
100
AcDbLine
 10
-16.0
 20
-22.99999999999991
 30
0.0
 11
-14.0
 21
-24.99999999999992
 31
0.0
  0
LINE
  5
30DA
330
301A
100
AcDbEntity
  8
LW 3901-00-01
100
AcDbLine
 10
11.99999999999994
 20
-22.99999999999986
 30
0.0
 11
10.0
 21
-24.99999999999992
 31
0.0
  0
LINE
  5
30DB
330
301A
100
AcDbEntity
  8
LW 3901-00-01
100
AcDbLine
 10
11.99999999999994
 20
23.00000000000003
 30
0.0
 11
9.999999999999943
 21
25.00000000000003
 31
0.0
  0
LINE
  5
30DC
330
301A
100
AcDbEntity
  8
LW 3901-00-01
  6
VERDECKT
 62
     6
100
AcDbLine
 10
-10.0
 20
-20.49999999999991
 30
0.0
 11
-10.0
 21
20.50000000000003
 31
0.0
  0
LINE
  5
30DD
330
301A
100
AcDbEntity
  8
LW 3901-00-01
  6
VERDECKT
 62
     6
100
AcDbLine
 10
-9.5
 20
21.00000000000003
 30
0.0
 11
11.99999999999993
 21
21.00000000000001
 31
0.0
  0
LINE
  5
30DE
330
301A
100
AcDbEntity
  8
LW 3901-00-01
  6
VERDECKT
 62
     6
100
AcDbLine
 10
-9.5
 20
-20.99999999999992
 30
0.0
 11
11.99999999999994
 21
-20.99999999999992
 31
0.0
  0
ARC
  5
30DF
330
301A
100
AcDbEntity
  8
LW 3901-00-01
  6
VERDECKT
 62
     6
100
AcDbCircle
 10
-9.5
 20
-20.49999999999991
 30
0.0
 40
0.4999999999999979
100
AcDbArc
 50
180.0
 51
270.0
  0
ARC
  5
30E0
330
301A
100
AcDbEntity
  8
LW 3901-00-01
  6
VERDECKT
 62
     6
100
AcDbCircle
 10
-9.5
 20
20.50000000000003
 30
0.0
 40
0.4999999999999978
100
AcDbArc
 50
90.0
 51
180.0
  0
LINE
  5
30E1
330
301A
100
AcDbEntity
  8
LW 3901-00-01
  6
MITTE2
 62
     3
100
AcDbLine
 10
-49.31880293054422
 20
-0.0000000000000853
 30
0.0
 11
17.39767723909222
 21
0.0000000000000853
 31
0.0
  0
LINE
  5
30E2
330
301A
100
AcDbEntity
  8
LW 3901-00-01
 62
     3
100
AcDbLine
 10
-21.0
 20
3.999999999999971
 30
0.0
 11
-17.00000000000005
 21
-4.000000000000028
 31
0.0
  0
LINE
  5
30E3
330
301A
100
AcDbEntity
  8
LW 3901-00-01
 62
     3
100
AcDbLine
 10
-21.0
 20
-4.000000000000028
 30
0.0
 11
-17.00000000000005
 21
3.999999999999971
 31
0.0
  0
ENDBLK
  5
301C
330
301A
100
AcDbEntity
  8
0
100
AcDbBlockEnd
  0
ENDSEC
  0
SECTION
  2
ENTITIES
  0
INSERT
  5
30E4
330
23
100
AcDbEntity
  8
0
100
AcDbBlockReference
  2
LW 3901-00-01
 10
0.0
 20
0.0
 30
0.0
  0
ENDSEC
  0
SECTION
  2
OBJECTS
  0
DICTIONARY
  5
C
330
0
100
AcDbDictionary
281
     1
  3
ACAD_COLOR
350
1C
  3
ACAD_GROUP
350
D
  3
ACAD_LAYOUT
350
1A
  3
ACAD_MATERIAL
350
1B
  3
ACAD_MLINESTYLE
350
17
  3
ACAD_PLOTSETTINGS
350
19
  3
ACAD_PLOTSTYLENAME
350
E
  3
ACAD_TABLESTYLE
350
1D
  3
AcDbVariableDictionary
350
61C
  0
DICTIONARY
  5
9C6
330
2
100
AcDbDictionary
280
     1
281
     1
  3
ACAD_LAYERFILTERS
360
3018
  3
ACLYDICTIONARY
360
3017
  0
DICTIONARY
  5
9A6
330
23
100
AcDbDictionary
280
     1
281
     1
  3
ACAD_SORTENTS
360
9A7
  0
DICTIONARY
  5
627
330
626
100
AcDbDictionary
280
     1
281
     1
  3
ACAD_SORTENTS
360
628
  0
DICTIONARY
  5
1C
102
{ACAD_REACTORS
330
C
102
}
330
C
100
AcDbDictionary
281
     1
  0
DICTIONARY
  5
D
102
{ACAD_REACTORS
330
C
102
}
330
C
100
AcDbDictionary
281
     1
  0
DICTIONARY
  5
1A
102
{ACAD_REACTORS
330
C
102
}
330
C
100
AcDbDictionary
281
     1
  3
Layout1
350
22
  3
Layout2
350
2A
  3
Model
350
26
  0
DICTIONARY
  5
1B
102
{ACAD_REACTORS
330
C
102
}
330
C
100
AcDbDictionary
281
     1
  0
DICTIONARY
  5
17
102
{ACAD_REACTORS
330
C
102
}
330
C
100
AcDbDictionary
281
     1
  3
Standard
350
18
  0
DICTIONARY
  5
19
102
{ACAD_REACTORS
330
C
102
}
330
C
100
AcDbDictionary
281
     1
  0
ACDBDICTIONARYWDFLT
  5
E
102
{ACAD_REACTORS
330
C
102
}
330
C
100
AcDbDictionary
281
     1
  3
Normal
350
F
100
AcDbDictionaryWithDefault
340
F
  0
DICTIONARY
  5
1D
102
{ACAD_REACTORS
330
C
102
}
330
C
100
AcDbDictionary
281
     1
  3
Standard
350
1E
  0
DICTIONARY
  5
61C
102
{ACAD_REACTORS
330
C
102
}
330
C
100
AcDbDictionary
281
     1
  3
CTABLESTYLE
350
61D
  3
DIMASSOC
350
196F
  3
HIDETEXT
350
196E
  3
PROJECTNAME
350
1970
  0
DICTIONARY
  5
3018
102
{ACAD_REACTORS
330
9C6
102
}
330
9C6
100
AcDbDictionary
281
     1
  0
DICTIONARY
  5
3017
102
{ACAD_REACTORS
330
9C6
102
}
330
9C6
100
AcDbDictionary
281
     1
1001
ACAD
1000
<All
  0
SORTENTSTABLE
  5
9A7
102
{ACAD_REACTORS
330
9A6
102
}
330
9A6
100
AcDbSortentsTable
330
23
  0
SORTENTSTABLE
  5
628
102
{ACAD_REACTORS
330
627
102
}
330
627
100
AcDbSortentsTable
330
626
  0
LAYOUT
  5
22
102
{ACAD_REACTORS
330
1A
102
}
330
1A
100
AcDbPlotSettings
  1

  2

  4

  6

 40
0.0
 41
0.0
 42
0.0
 43
0.0
 44
0.0
 45
0.0
 46
0.0
 47
0.0
 48
0.0
 49
0.0
140
0.0
141
0.0
142
1.0
143
1.0
 70
   688
 72
     0
 73
     0
 74
     5
  7

 75
    16
147
1.0
 76
     0
 77
     2
 78
   300
148
0.0
149
0.0
100
AcDbLayout
  1
Layout1
 70
     1
 71
     1
 10
0.0
 20
0.0
 11
840.0
 21
594.0
 12
0.0
 22
0.0
 32
0.0
 14
0.0
 24
0.0
 34
0.0
 15
840.0
 25
594.0
 35
0.0
146
0.0
 13
0.0
 23
0.0
 33
0.0
 16
1.0
 26
0.0
 36
0.0
 17
0.0
 27
1.0
 37
0.0
 76
     0
330
1F
  0
LAYOUT
  5
2A
102
{ACAD_REACTORS
330
1A
102
}
330
1A
100
AcDbPlotSettings
  1

  2

  4

  6

 40
0.0
 41
0.0
 42
0.0
 43
0.0
 44
0.0
 45
0.0
 46
0.0
 47
0.0
 48
0.0
 49
0.0
140
0.0
141
0.0
142
1.0
143
1.0
 70
   688
 72
     0
 73
     0
 74
     5
  7

 75
    16
147
1.0
 76
     0
 77
     2
 78
   300
148
0.0
149
0.0
100
AcDbLayout
  1
Layout2
 70
     1
 71
     2
 10
0.0
 20
0.0
 11
12.0
 21
9.0
 12
0.0
 22
0.0
 32
0.0
 14
0.0
 24
0.0
 34
0.0
 15
0.0
 25
0.0
 35
0.0
146
0.0
 13
0.0
 23
0.0
 33
0.0
 16
1.0
 26
0.0
 36
0.0
 17
0.0
 27
1.0
 37
0.0
 76
     0
330
27
  0
LAYOUT
  5
26
102
{ACAD_REACTORS
330
1A
102
}
330
1A
100
AcDbPlotSettings
  1

  2

  4

  6

 40
0.0
 41
0.0
 42
0.0
 43
0.0
 44
0.0
 45
0.0
 46
0.0
 47
0.0
 48
0.0
 49
0.0
140
0.0
141
0.0
142
1.0
143
1.0
 70
  1712
 72
     0
 73
     0
 74
     0
  7

 75
     0
147
1.0
 76
     0
 77
     2
 78
   300
148
0.0
149
0.0
100
AcDbLayout
  1
Model
 70
     1
 71
     0
 10
0.0
 20
0.0
 11
12.0
 21
9.0
 12
0.0
 22
0.0
 32
0.0
 14
0.0
 24
0.0
 34
0.0
 15
0.0
 25
0.0
 35
0.0
146
0.0
 13
0.0
 23
0.0
 33
0.0
 16
1.0
 26
0.0
 36
0.0
 17
0.0
 27
1.0
 37
0.0
 76
     0
330
23
  0
MLINESTYLE
  5
18
102
{ACAD_REACTORS
330
17
102
}
330
17
100
AcDbMlineStyle
  2
STANDARD
 70
     0
  3

 62
   256
 51
90.0
 52
90.0
 71
     2
 49
0.5
 62
   256
  6
BYLAYER
 49
-0.5
 62
   256
  6
BYLAYER
  0
ACDBPLACEHOLDER
  5
F
102
{ACAD_REACTORS
330
E
102
}
330
E
  0
TABLESTYLE
  5
1E
102
{ACAD_REACTORS
330
1D
102
}
330
1D
100
AcDbTableStyle
  3
Standard
 70
     0
 71
     0
 40
0.06
 41
0.06
280
     0
281
     0
  7
Standard
140
0.18
170
     2
 62
     0
 63
     7
283
     0
274
    -2
284
     1
 64
     0
275
    -2
285
     1
 65
     0
276
    -2
286
     1
 66
     0
277
    -2
287
     1
 67
     0
278
    -2
288
     1
 68
     0
279
    -2
289
     1
 69
     0
  7
Standard
140
0.25
170
     5
 62
     0
 63
     7
283
     0
274
    -2
284
     1
 64
     0
275
    -2
285
     1
 65
     0
276
    -2
286
     1
 66
     0
277
    -2
287
     1
 67
     0
278
    -2
288
     1
 68
     0
279
    -2
289
     1
 69
     0
  7
Standard
140
0.18
170
     5
 62
     0
 63
     7
283
     0
274
    -2
284
     1
 64
     0
275
    -2
285
     1
 65
     0
276
    -2
286
     1
 66
     0
277
    -2
287
     1
 67
     0
278
    -2
288
     1
 68
     0
279
    -2
289
     1
 69
     0
  0
DICTIONARYVAR
  5
61D
102
{ACAD_REACTORS
330
61C
102
}
330
61C
100
DictionaryVariables
280
     0
  1
STANDARD
  0
DICTIONARYVAR
  5
196F
102
{ACAD_REACTORS
330
61C
102
}
330
61C
100
DictionaryVariables
280
     0
  1
1
  0
DICTIONARYVAR
  5
196E
102
{ACAD_REACTORS
330
61C
102
}
330
61C
100
DictionaryVariables
280
     0
  1
1
  0
DICTIONARYVAR
  5
1970
102
{ACAD_REACTORS
330
61C
102
}
330
61C
100
DictionaryVariables
280
     0
  1

  0
ENDSEC
  0
EOF
