  0
SECTION
  2
HEADER
  9
$ACADVER
  1
AC1018
  9
$ACADMAINTVER
 70
    76
  9
$DWGCODEPAGE
  3
ANSI_1252
  9
$AUTHOR
  1
Grandl
  9
$CUSTOMPROPERTYTAG
  1
Manager
  9
$CUSTOMPROPERTY
  1

  9
$CUSTOMPROPERTYTAG
  1
Firma
  9
$CUSTOMPROPERTY
  1

  9
$CUSTOMPROPERTYTAG
  1
Kategorie
  9
$CUSTOMPROPERTY
  1

  9
$CUSTOMPROPERTYTAG
  1
Bauteilnummer
  9
$CUSTOMPROPERTY
  1
3250-40-00
  9
$CUSTOMPROPERTYTAG
  1
Bezeichnung
  9
$CUSTOMPROPERTY
  1

  9
$CUSTOMPROPERTYTAG
  1
Projekt
  9
$CUSTOMPROPERTY
  1

  9
$CUSTOMPROPERTYTAG
  1
Konstrukteur
  9
$CUSTOMPROPERTY
  1
Grandl
  9
$CUSTOMPROPERTYTAG
  1
Ingenieur
  9
$CUSTOMPROPERTY
  1

  9
$CUSTOMPROPERTYTAG
  1
Bevollmächtigter
  9
$CUSTOMPROPERTY
  1

  9
$CUSTOMPROPERTYTAG
  1
Kostenstelle
  9
$CUSTOMPROPERTY
  1

  9
$CUSTOMPROPERTYTAG
  1
Händler
  9
$CUSTOMPROPERTY
  1

  9
$CUSTOMPROPERTYTAG
  1
Benutzerstatus
  9
$CUSTOMPROPERTY
  1

  9
$CUSTOMPROPERTYTAG
  1
Konstruktionsstatus
  9
$CUSTOMPROPERTY
  1
InBearbeitung
  9
$CUSTOMPROPERTYTAG
  1
Überprüft von
  9
$CUSTOMPROPERTY
  1

  9
$CUSTOMPROPERTYTAG
  1
Konstruktion genehmigt von
  9
$CUSTOMPROPERTY
  1

  9
$CUSTOMPROPERTYTAG
  1
Fertigung genehmigt von
  9
$CUSTOMPROPERTY
  1

  9
$INSBASE
 10
0.0
 20
0.0
 30
0.0
  9
$EXTMIN
 10
-340.782355476051
 20
-37.00000000000006
 30
0.0
  9
$EXTMAX
 10
340.744626397649
 20
244.0345158723449
 30
0.0
  9
$LIMMIN
 10
0.0
 20
0.0
  9
$LIMMAX
 10
2100.0
 20
1485.0
  9
$ORTHOMODE
 70
     1
  9
$REGENMODE
 70
     1
  9
$FILLMODE
 70
     1
  9
$QTEXTMODE
 70
     0
  9
$MIRRTEXT
 70
     0
  9
$LTSCALE
 40
0.5
  9
$ATTMODE
 70
     1
  9
$TEXTSIZE
 40
0.2
  9
$TRACEWID
 40
0.05
  9
$TEXTSTYLE
  7
Standard
  9
$CLAYER
  8
0
  9
$CELTYPE
  6
ByLayer
  9
$CECOLOR
 62
   256
  9
$CELTSCALE
 40
1.0
  9
$DISPSILH
 70
     0
  9
$DIMSCALE
 40
1.0
  9
$DIMASZ
 40
0.18
  9
$DIMEXO
 40
0.0625
  9
$DIMDLI
 40
0.38
  9
$DIMRND
 40
0.0
  9
$DIMDLE
 40
0.0
  9
$DIMEXE
 40
0.18
  9
$DIMTP
 40
0.0
  9
$DIMTM
 40
0.0
  9
$DIMTXT
 40
0.18
  9
$DIMCEN
 40
0.09
  9
$DIMTSZ
 40
0.0
  9
$DIMTOL
 70
     0
  9
$DIMLIM
 70
     0
  9
$DIMTIH
 70
     1
  9
$DIMTOH
 70
     1
  9
$DIMSE1
 70
     0
  9
$DIMSE2
 70
     0
  9
$DIMTAD
 70
     0
  9
$DIMZIN
 70
     0
  9
$DIMBLK
  1

  9
$DIMASO
 70
     1
  9
$DIMSHO
 70
     1
  9
$DIMPOST
  1

  9
$DIMAPOST
  1

  9
$DIMALT
 70
     0
  9
$DIMALTD
 70
     2
  9
$DIMALTF
 40
25.4
  9
$DIMLFAC
 40
1.0
  9
$DIMTOFL
 70
     0
  9
$DIMTVP
 40
0.0
  9
$DIMTIX
 70
     0
  9
$DIMSOXD
 70
     0
  9
$DIMSAH
 70
     0
  9
$DIMBLK1
  1

  9
$DIMBLK2
  1

  9
$DIMSTYLE
  2
Standard
  9
$DIMCLRD
 70
     0
  9
$DIMCLRE
 70
     0
  9
$DIMCLRT
 70
     0
  9
$DIMTFAC
 40
1.0
  9
$DIMGAP
 40
0.09
  9
$DIMJUST
 70
     0
  9
$DIMSD1
 70
     0
  9
$DIMSD2
 70
     0
  9
$DIMTOLJ
 70
     1
  9
$DIMTZIN
 70
     0
  9
$DIMALTZ
 70
     0
  9
$DIMALTTZ
 70
     0
  9
$DIMUPT
 70
     0
  9
$DIMDEC
 70
     4
  9
$DIMTDEC
 70
     4
  9
$DIMALTU
 70
     2
  9
$DIMALTTD
 70
     2
  9
$DIMTXSTY
  7
Standard
  9
$DIMAUNIT
 70
     0
  9
$DIMADEC
 70
     0
  9
$DIMALTRND
 40
0.0
  9
$DIMAZIN
 70
     0
  9
$DIMDSEP
 70
    46
  9
$DIMATFIT
 70
     3
  9
$DIMFRAC
 70
     0
  9
$DIMLDRBLK
  1

  9
$DIMLUNIT
 70
     2
  9
$DIMLWD
 70
    -2
  9
$DIMLWE
 70
    -2
  9
$DIMTMOVE
 70
     0
  9
$LUNITS
 70
     2
  9
$LUPREC
 70
     4
  9
$SKETCHINC
 40
0.1
  9
$FILLETRAD
 40
0.0
  9
$AUNITS
 70
     0
  9
$AUPREC
 70
     0
  9
$MENU
  1
.
  9
$ELEVATION
 40
0.0
  9
$PELEVATION
 40
0.0
  9
$THICKNESS
 40
0.0
  9
$LIMCHECK
 70
     0
  9
$CHAMFERA
 40
0.0
  9
$CHAMFERB
 40
0.0
  9
$CHAMFERC
 40
0.0
  9
$CHAMFERD
 40
0.0
  9
$SKPOLY
 70
     0
  9
$TDCREATE
 40
2453712.483610903
  9
$TDUCREATE
 40
2453712.441944236
  9
$TDUPDATE
 40
2453717.686577812
  9
$TDUUPDATE
 40
2453717.644911146
  9
$TDINDWG
 40
0.1238050463
  9
$TDUSRTIMER
 40
0.1238050463
  9
$USRTIMER
 70
     1
  9
$ANGBASE
 50
0.0
  9
$ANGDIR
 70
     0
  9
$PDMODE
 70
     0
  9
$PDSIZE
 40
0.0
  9
$PLINEWID
 40
0.0
  9
$SPLFRAME
 70
     0
  9
$SPLINETYPE
 70
     6
  9
$SPLINESEGS
 70
     8
  9
$HANDSEED
  5
4DB5
  9
$SURFTAB1
 70
     6
  9
$SURFTAB2
 70
     6
  9
$SURFTYPE
 70
     6
  9
$SURFU
 70
     6
  9
$SURFV
 70
     6
  9
$UCSBASE
  2

  9
$UCSNAME
  2

  9
$UCSORG
 10
0.0
 20
0.0
 30
0.0
  9
$UCSXDIR
 10
1.0
 20
0.0
 30
0.0
  9
$UCSYDIR
 10
0.0
 20
1.0
 30
0.0
  9
$UCSORTHOREF
  2

  9
$UCSORTHOVIEW
 70
     0
  9
$UCSORGTOP
 10
0.0
 20
0.0
 30
0.0
  9
$UCSORGBOTTOM
 10
0.0
 20
0.0
 30
0.0
  9
$UCSORGLEFT
 10
0.0
 20
0.0
 30
0.0
  9
$UCSORGRIGHT
 10
0.0
 20
0.0
 30
0.0
  9
$UCSORGFRONT
 10
0.0
 20
0.0
 30
0.0
  9
$UCSORGBACK
 10
0.0
 20
0.0
 30
0.0
  9
$PUCSBASE
  2

  9
$PUCSNAME
  2

  9
$PUCSORG
 10
0.0
 20
0.0
 30
0.0
  9
$PUCSXDIR
 10
1.0
 20
0.0
 30
0.0
  9
$PUCSYDIR
 10
0.0
 20
1.0
 30
0.0
  9
$PUCSORTHOREF
  2

  9
$PUCSORTHOVIEW
 70
     0
  9
$PUCSORGTOP
 10
0.0
 20
0.0
 30
0.0
  9
$PUCSORGBOTTOM
 10
0.0
 20
0.0
 30
0.0
  9
$PUCSORGLEFT
 10
0.0
 20
0.0
 30
0.0
  9
$PUCSORGRIGHT
 10
0.0
 20
0.0
 30
0.0
  9
$PUCSORGFRONT
 10
0.0
 20
0.0
 30
0.0
  9
$PUCSORGBACK
 10
0.0
 20
0.0
 30
0.0
  9
$USERI1
 70
     0
  9
$USERI2
 70
     0
  9
$USERI3
 70
     0
  9
$USERI4
 70
     0
  9
$USERI5
 70
     0
  9
$USERR1
 40
0.0
  9
$USERR2
 40
0.0
  9
$USERR3
 40
0.0
  9
$USERR4
 40
0.0
  9
$USERR5
 40
0.0
  9
$WORLDVIEW
 70
     1
  9
$SHADEDGE
 70
     3
  9
$SHADEDIF
 70
    70
  9
$TILEMODE
 70
     1
  9
$MAXACTVP
 70
    64
  9
$PINSBASE
 10
0.0
 20
0.0
 30
0.0
  9
$PLIMCHECK
 70
     0
  9
$PEXTMIN
 10
0.0
 20
0.0
 30
0.0
  9
$PEXTMAX
 10
2100.0
 20
1485.0
 30
0.0
  9
$PLIMMIN
 10
0.0
 20
0.0
  9
$PLIMMAX
 10
2100.0
 20
1485.0
  9
$UNITMODE
 70
     0
  9
$VISRETAIN
 70
     1
  9
$PLINEGEN
 70
     0
  9
$PSLTSCALE
 70
     1
  9
$TREEDEPTH
 70
  3020
  9
$CMLSTYLE
  2
Standard
  9
$CMLJUST
 70
     0
  9
$CMLSCALE
 40
1.0
  9
$PROXYGRAPHICS
 70
     1
  9
$MEASUREMENT
 70
     1
  9
$CELWEIGHT
370
    -1
  9
$ENDCAPS
280
     0
  9
$JOINSTYLE
280
     0
  9
$LWDISPLAY
290
     0
  9
$INSUNITS
 70
     0
  9
$HYPERLINKBASE
  1

  9
$STYLESHEET
  1

  9
$XEDIT
290
     1
  9
$CEPSNTYPE
380
     0
  9
$PSTYLEMODE
290
     1
  9
$FINGERPRINTGUID
  2
{C0D17482-A639-492A-87FF-6D529B9E67CF}
  9
$VERSIONGUID
  2
{B8953F6D-4667-4F7E-951D-C57B2D297197}
  9
$EXTNAMES
290
     1
  9
$PSVPSCALE
 40
0.0
  9
$OLESTARTUP
290
     0
  9
$SORTENTS
280
   127
  9
$INDEXCTL
280
     0
  9
$HIDETEXT
280
     1
  9
$XCLIPFRAME
290
     0
  9
$HALOGAP
280
     0
  9
$OBSCOLOR
 70
   257
  9
$OBSLTYPE
280
     0
  9
$INTERSECTIONDISPLAY
280
     0
  9
$INTERSECTIONCOLOR
 70
   257
  9
$DIMASSOC
280
     1
  9
$PROJECTNAME
  1

  0
ENDSEC
  0
SECTION
  2
CLASSES
  0
CLASS
  1
ACDBDICTIONARYWDFLT
  2
AcDbDictionaryWithDefault
  3
ObjectDBX Classes
 90
        0
 91
        1
280
     0
281
     0
  0
CLASS
  1
TABLESTYLE
  2
AcDbTableStyle
  3
ObjectDBX Classes
 90
     2047
 91
        1
280
     0
281
     0
  0
CLASS
  1
DICTIONARYVAR
  2
AcDbDictionaryVar
  3
ObjectDBX Classes
 90
        0
 91
        4
280
     0
281
     0
  0
CLASS
  1
SORTENTSTABLE
  2
AcDbSortentsTable
  3
ObjectDBX Classes
 90
        0
 91
        2
280
     0
281
     0
  0
ENDSEC
  0
SECTION
  2
TABLES
  0
TABLE
  2
VPORT
  5
8
330
0
100
AcDbSymbolTable
 70
     3
  0
VPORT
  5
4DB4
330
8
100
AcDbSymbolTableRecord
100
AcDbViewportTableRecord
  2
*Active
 70
     0
 10
0.0
 20
0.0
 11
1.0
 21
1.0
 12
-0.018393167222655
 22
103.4739139989433
 13
0.0
 23
0.0
 14
1.0
 24
1.0
 15
0.0
 25
0.0
 16
0.0
 26
0.0
 36
1.0
 17
0.0
 27
0.0
 37
0.0
 40
386.4792580269285
 41
1.773333333333333
 42
50.0
 43
0.0
 44
0.0
 50
0.0
 51
0.0
 71
     0
 72
   100
 73
     1
 74
     1
 75
     0
 76
     0
 77
     0
 78
     0
281
     0
 65
     1
110
0.0
120
0.0
130
0.0
111
1.0
121
0.0
131
0.0
112
0.0
122
1.0
132
0.0
 79
     0
146
0.0
  0
ENDTAB
  0
TABLE
  2
LTYPE
  5
5
330
0
100
AcDbSymbolTable
 70
     3
  0
LTYPE
  5
14
330
5
100
AcDbSymbolTableRecord
100
AcDbLinetypeTableRecord
  2
ByBlock
 70
     0
  3

 72
    65
 73
     0
 40
0.0
  0
LTYPE
  5
15
330
5
100
AcDbSymbolTableRecord
100
AcDbLinetypeTableRecord
  2
ByLayer
 70
     0
  3

 72
    65
 73
     0
 40
0.0
  0
LTYPE
  5
16
330
5
100
AcDbSymbolTableRecord
100
AcDbLinetypeTableRecord
  2
Continuous
 70
     0
  3
Solid line
 72
    65
 73
     0
 40
0.0
  0
LTYPE
  5
1309
330
5
100
AcDbSymbolTableRecord
100
AcDbLinetypeTableRecord
  2
MITTE2
 70
     0
  3
Mitte (.5x) ___ _ ___ _ ___ _ ___ _ ___ _ ___
 72
    65
 73
     4
 40
28.575
 49
19.05
 74
     0
 49
-3.174999999999999
 74
     0
 49
3.174999999999999
 74
     0
 49
-3.174999999999999
 74
     0
  0
LTYPE
  5
16DC
330
5
100
AcDbSymbolTableRecord
100
AcDbLinetypeTableRecord
  2
VERDECKT
 70
     0
  3
Verdeckt __ __ __ __ __ __ __ __ __ __ __ __ __
 72
    65
 73
     2
 40
9.524999999999998
 49
6.349999999999999
 74
     0
 49
-3.174999999999999
 74
     0
  0
ENDTAB
  0
TABLE
  2
LAYER
  5
2
102
{ACAD_XDICTIONARY
360
16C1
102
}
330
0
100
AcDbSymbolTable
 70
     4
  0
LAYER
  5
10
330
2
100
AcDbSymbolTableRecord
100
AcDbLayerTableRecord
  2
0
 70
     0
 62
     7
  6
Continuous
370
    -3
390
F
  0
LAYER
  5
646
330
2
100
AcDbSymbolTableRecord
100
AcDbLayerTableRecord
  2
Defpoints
 70
     0
 62
     7
  6
Continuous
290
     0
370
    -3
390
F
  0
LAYER
  5
130A
330
2
100
AcDbSymbolTableRecord
100
AcDbLayerTableRecord
  2
LW 5006-19-01
 70
     0
 62
     7
  6
Continuous
370
    -3
390
F
  0
LAYER
  5
130B
330
2
100
AcDbSymbolTableRecord
100
AcDbLayerTableRecord
  2
insertpoint_ECKELT
 70
     0
 62
   141
  6
Continuous
370
    -3
390
F
  0
ENDTAB
  0
TABLE
  2
STYLE
  5
3
330
0
100
AcDbSymbolTable
 70
     1
  0
STYLE
  5
11
330
3
100
AcDbSymbolTableRecord
100
AcDbTextStyleTableRecord
  2
Standard
 70
     0
 40
0.0
 41
1.0
 50
0.0
 71
     0
 42
0.2
  3
ARIAL.TTF
  4

1001
ACAD
1000
Arial
1071
      256
  0
ENDTAB
  0
TABLE
  2
VIEW
  5
6
330
0
100
AcDbSymbolTable
 70
     0
  0
ENDTAB
  0
TABLE
  2
UCS
  5
7
330
0
100
AcDbSymbolTable
 70
     0
  0
ENDTAB
  0
TABLE
  2
APPID
  5
9
330
0
100
AcDbSymbolTable
 70
     2
  0
APPID
  5
12
330
9
100
AcDbSymbolTableRecord
100
AcDbRegAppTableRecord
  2
ACAD
 70
     0
  0
APPID
  5
15AA
330
9
100
AcDbSymbolTableRecord
100
AcDbRegAppTableRecord
  2
ACAD_EXEMPT_FROM_CAD_STANDARDS
 70
     0
  0
ENDTAB
  0
TABLE
  2
DIMSTYLE
  5
A
330
0
100
AcDbSymbolTable
 70
     1
100
AcDbDimStyleTable
 71
     1
340
2B
  0
DIMSTYLE
105
2B
330
A
100
AcDbSymbolTableRecord
100
AcDbDimStyleTableRecord
  2
Standard
 70
     0
340
11
  0
ENDTAB
  0
TABLE
  2
BLOCK_RECORD
  5
1
330
0
100
AcDbSymbolTable
 70
     6
  0
BLOCK_RECORD
  5
23
102
{ACAD_XDICTIONARY
360
15A2
102
}
330
1
100
AcDbSymbolTableRecord
100
AcDbBlockTableRecord
  2
*Model_Space
340
26
  0
BLOCK_RECORD
  5
1F
330
1
100
AcDbSymbolTableRecord
100
AcDbBlockTableRecord
  2
*Paper_Space
340
22
  0
BLOCK_RECORD
  5
27
330
1
100
AcDbSymbolTableRecord
100
AcDbBlockTableRecord
  2
*Paper_Space0
340
2A
  0
BLOCK_RECORD
  5
106E
102
{ACAD_XDICTIONARY
360
106F
102
}
330
1
100
AcDbSymbolTableRecord
100
AcDbBlockTableRecord
  2
insertpoint-ECKELT
340
0
102
{BLKREFS
331
4A4B
331
4B7B
331
4D7C
331
4D9D
102
}
  0
BLOCK_RECORD
  5
48A3
330
1
100
AcDbSymbolTableRecord
100
AcDbBlockTableRecord
  2
LW 5006-19-01_a
340
0
310
2800000020000000200000000100080000000000000400000000000000000000000000000000000000000000000080000080000000808000800000008000800080800000C0C0C000C0DCC000F0CAA6000020400000206000002080000020A0000020C0000020E00000400000004020000040400000406000004080000040A0
310
000040C0000040E00000600000006020000060400000606000006080000060A0000060C0000060E00000800000008020000080400000806000008080000080A0000080C0000080E00000A0000000A0200000A0400000A0600000A0800000A0A00000A0C00000A0E00000C0000000C0200000C0400000C0600000C0800000C0
310
A00000C0C00000C0E00000E0000000E0200000E0400000E0600000E0800000E0A00000E0C00000E0E00040000000400020004000400040006000400080004000A0004000C0004000E00040200000402020004020400040206000402080004020A0004020C0004020E000404000004040200040404000404060004040800040
310
40A0004040C0004040E00040600000406020004060400040606000406080004060A0004060C0004060E00040800000408020004080400040806000408080004080A0004080C0004080E00040A0000040A0200040A0400040A0600040A0800040A0A00040A0C00040A0E00040C0000040C0200040C0400040C0600040C08000
310
40C0A00040C0C00040C0E00040E0000040E0200040E0400040E0600040E0800040E0A00040E0C00040E0E00080000000800020008000400080006000800080008000A0008000C0008000E00080200000802020008020400080206000802080008020A0008020C0008020E00080400000804020008040400080406000804080
310
008040A0008040C0008040E00080600000806020008060400080606000806080008060A0008060C0008060E00080800000808020008080400080806000808080008080A0008080C0008080E00080A0000080A0200080A0400080A0600080A0800080A0A00080A0C00080A0E00080C0000080C0200080C0400080C0600080C0
310
800080C0A00080C0C00080C0E00080E0000080E0200080E0400080E0600080E0800080E0A00080E0C00080E0E000C0000000C0002000C0004000C0006000C0008000C000A000C000C000C000E000C0200000C0202000C0204000C0206000C0208000C020A000C020C000C020E000C0400000C0402000C0404000C0406000C0
310
408000C040A000C040C000C040E000C0600000C0602000C0604000C0606000C0608000C060A000C060C000C060E000C0800000C0802000C0804000C0806000C0808000C080A000C080C000C080E000C0A00000C0A02000C0A04000C0A06000C0A08000C0A0A000C0A0C000C0A0E000C0C00000C0C02000C0C04000C0C06000
310
C0C08000C0C0A000F0FBFF00A4A0A000808080000000FF0000FF000000FFFF00FF000000FF00FF00FFFF0000FFFFFF0000000000000000000000000000000000000000000000000000000000000000000000000000000000000000000000000000000000000000000000000000000000000000000000000000000000000000
310
00000000000000000000000000000000000000000000000000000000000000000000000000000000000000000000000000000000000000000000000000000000000000000000000000000000000000000000000000000000000000000000000000000000000000000000000000000000000000000000000000000000000000
310
000000000000FF00FAFFFF0000000000000000000000000000FA000000000000000000FFFFFFFF00FAFFFFFFFFFF000000000000000000FFFFFAFFFFFF0000000000FFFF0000FF00FAFFFF0000FFFF0000000000000000FF00FA0000FF0000000000FFFFFF00FFFFFAFFFF00FFFFFF0000000000FFFFFFFF00FA00FFFFFFFF
310
FFFFFFFFFFFF00FAFAFAFAFF00FFFFFF00000000FAFAFAFAFAFAFAFAFAFAFAFAFAFAFAFAFAFAFAFA0909FAFAFAFAFAFAFAFA000000FF0000FF00FA00FFFF0000000000FFFF0000FAFAFAFAFF0000FFFF0000000000FFFFFFFF00FA0000FFFFFFFFFFFFFFFF0000FFFFFAFFFF0000FFFF0000000000000000FF00FA0000FF00
310
00000000FFFF0000FF00FAFFFF0000FFFF0000000000000000FFF9FA0000FF000000000000FFFFFFFF00FAFFFFFFFFFF000000000000000000FFF9FA0000FF000000000000000000FF00FAFFFF000000000000000000000000FFF9FA0000FF0000000000000000000000FA0000000000000000000000000000FF00FA0000FF
310
0000000000000000000000000000000000000000000000000000FF00FA0000FF0000000000000000000000000000000000000000000000000000FDFDFDFDFDFD000000000000000000000000000000000000000000000000000000FAFAFA0000000000000000000000000000000000000000000000000000000000FAFAFA00
310
0000000000000000000000000000000000000000000000000000000000FA00000000000000000000000000000000000000000000000000000000000000FA00000000000000000000000000000000000000000000000000000000000000FA000000000000000000000000000000000000000000000000000000000000000000
310
00000000000000000000000000000000000000000000000000000000000000000000000000000000000000000000000000000000000000000000000000000000000000000000000000000000000000000000000000000000000000000000000000000000000000000000000000000000000000000000000000000000000000
310
0000000000000000000000000000000000000000000000000000000000000000000000000000000000000000000000000000000000000000
102
{BLKREFS
331
4A4F
102
}
  0
BLOCK_RECORD
  5
4A50
330
1
100
AcDbSymbolTableRecord
100
AcDbBlockTableRecord
  2
LW 5006-19-01_b
340
0
310
2800000020000000200000000100080000000000000400000000000000000000000000000000000000000000000080000080000000808000800000008000800080800000C0C0C000C0DCC000F0CAA6000020400000206000002080000020A0000020C0000020E00000400000004020000040400000406000004080000040A0
310
000040C0000040E00000600000006020000060400000606000006080000060A0000060C0000060E00000800000008020000080400000806000008080000080A0000080C0000080E00000A0000000A0200000A0400000A0600000A0800000A0A00000A0C00000A0E00000C0000000C0200000C0400000C0600000C0800000C0
310
A00000C0C00000C0E00000E0000000E0200000E0400000E0600000E0800000E0A00000E0C00000E0E00040000000400020004000400040006000400080004000A0004000C0004000E00040200000402020004020400040206000402080004020A0004020C0004020E000404000004040200040404000404060004040800040
310
40A0004040C0004040E00040600000406020004060400040606000406080004060A0004060C0004060E00040800000408020004080400040806000408080004080A0004080C0004080E00040A0000040A0200040A0400040A0600040A0800040A0A00040A0C00040A0E00040C0000040C0200040C0400040C0600040C08000
310
40C0A00040C0C00040C0E00040E0000040E0200040E0400040E0600040E0800040E0A00040E0C00040E0E00080000000800020008000400080006000800080008000A0008000C0008000E00080200000802020008020400080206000802080008020A0008020C0008020E00080400000804020008040400080406000804080
310
008040A0008040C0008040E00080600000806020008060400080606000806080008060A0008060C0008060E00080800000808020008080400080806000808080008080A0008080C0008080E00080A0000080A0200080A0400080A0600080A0800080A0A00080A0C00080A0E00080C0000080C0200080C0400080C0600080C0
310
800080C0A00080C0C00080C0E00080E0000080E0200080E0400080E0600080E0800080E0A00080E0C00080E0E000C0000000C0002000C0004000C0006000C0008000C000A000C000C000C000E000C0200000C0202000C0204000C0206000C0208000C020A000C020C000C020E000C0400000C0402000C0404000C0406000C0
310
408000C040A000C040C000C040E000C0600000C0602000C0604000C0606000C0608000C060A000C060C000C060E000C0800000C0802000C0804000C0806000C0808000C080A000C080C000C080E000C0A00000C0A02000C0A04000C0A06000C0A08000C0A0A000C0A0C000C0A0E000C0C00000C0C02000C0C04000C0C06000
310
C0C08000C0C0A000F0FBFF00A4A0A000808080000000FF0000FF000000FFFF00FF000000FF00FF00FFFF0000FFFFFF0000000000000000000000000000000000000000000000000000000000000000000000000000000000000000000000000000000000000000000000000000000000000000000000000000000000000000
310
00000000000000000000000000000000000000000000000000000000000000000000000000000000000000000000000000000000000000000000000000000000000000000000000000000000000000000000000000000000000000000000000000000000000000000000000000000000000000000000000000000000000000
310
00000000000000000000000000000000000000000000000000000000000000000000000000000000000000000000000000000000000000000000000000000000000000000000000000000000000000000000000000000000000000000000000000000000000000000000000000000000000000000000000000000000000000
310
000000000000000000FA0000000000000000000000000000000000000000000000000000000000FF00FAFFFF0000000000000000000000000000FA000000000000000000FFFFFFFF00FAFFFFFFFFFF0000000000000000000000FAFF00000000000000FFFF0000FF00FAFFFF00FFFFFF0000000000FFFFFFFFFFFAFFFFFFFF
310
FFFFFFFFFFFF0000FFFFFAFFFF0000FFFF0000000000FF00FF0000FA0000FF0000000000FFFF0000FAFA09FAFF0000FFFF00000000FAFAFAFAFAFAFAFAFAFAF9F9F9F9FAFAFAFAFAFA0909FAFAFAFAFAFAFAFA000000FFFFFFFF00FA00FFFFFFFFFFFFFFFFFF0000FFFFFAFFFF0000FFFF000000000000000000FFFAFF0000
310
0000000000FFFF0000FF00FAFFFF00FFFFFF00000000000000000000FA000000000000000000FFFFFFFF00FAFFFFFFFFFF000000000000000000000000000000000000000000000000FF00FAFFFF0000000000000000000000000000000000000000000000000000000000FA00000000000000000000000000000000000000
310
00000000000000000000000000000000000000000000000000000000000000000000000000000000000000000000000000000000000000000000000000000000000000000000000000000000000000000000000000000000000000000000000000000000000000000000000000000000000000000000000000000000000000
310
00000000000000000000000000000000000000000000000000000000000000000000000000000000000000000000000000000000000000000000000000000000000000000000000000000000000000000000000000000000000000000000000000000000000000000000000000000000000000000000000000000000000000
310
0000000000000000000000000000000000000000000000000000000000000000000000000000000000000000000000000000000000000000
102
{BLKREFS
331
4B7F
102
}
  0
BLOCK_RECORD
  5
4B80
330
1
100
AcDbSymbolTableRecord
100
AcDbBlockTableRecord
  2
LW 5006-19-01_c
340
0
310
2800000020000000200000000100080000000000000400000000000000000000000000000000000000000000000080000080000000808000800000008000800080800000C0C0C000C0DCC000F0CAA6000020400000206000002080000020A0000020C0000020E00000400000004020000040400000406000004080000040A0
310
000040C0000040E00000600000006020000060400000606000006080000060A0000060C0000060E00000800000008020000080400000806000008080000080A0000080C0000080E00000A0000000A0200000A0400000A0600000A0800000A0A00000A0C00000A0E00000C0000000C0200000C0400000C0600000C0800000C0
310
A00000C0C00000C0E00000E0000000E0200000E0400000E0600000E0800000E0A00000E0C00000E0E00040000000400020004000400040006000400080004000A0004000C0004000E00040200000402020004020400040206000402080004020A0004020C0004020E000404000004040200040404000404060004040800040
310
40A0004040C0004040E00040600000406020004060400040606000406080004060A0004060C0004060E00040800000408020004080400040806000408080004080A0004080C0004080E00040A0000040A0200040A0400040A0600040A0800040A0A00040A0C00040A0E00040C0000040C0200040C0400040C0600040C08000
310
40C0A00040C0C00040C0E00040E0000040E0200040E0400040E0600040E0800040E0A00040E0C00040E0E00080000000800020008000400080006000800080008000A0008000C0008000E00080200000802020008020400080206000802080008020A0008020C0008020E00080400000804020008040400080406000804080
310
008040A0008040C0008040E00080600000806020008060400080606000806080008060A0008060C0008060E00080800000808020008080400080806000808080008080A0008080C0008080E00080A0000080A0200080A0400080A0600080A0800080A0A00080A0C00080A0E00080C0000080C0200080C0400080C0600080C0
310
800080C0A00080C0C00080C0E00080E0000080E0200080E0400080E0600080E0800080E0A00080E0C00080E0E000C0000000C0002000C0004000C0006000C0008000C000A000C000C000C000E000C0200000C0202000C0204000C0206000C0208000C020A000C020C000C020E000C0400000C0402000C0404000C0406000C0
310
408000C040A000C040C000C040E000C0600000C0602000C0604000C0606000C0608000C060A000C060C000C060E000C0800000C0802000C0804000C0806000C0808000C080A000C080C000C080E000C0A00000C0A02000C0A04000C0A06000C0A08000C0A0A000C0A0C000C0A0E000C0C00000C0C02000C0C04000C0C06000
310
C0C08000C0C0A000F0FBFF00A4A0A000808080000000FF0000FF000000FFFF00FF000000FF00FF00FFFF0000FFFFFF0000000000000000000000000000000000000000000000000000000000000000000000000000000000000000000000000000000000000000000000000000000000000000000000000000000000000000
310
00000000000000000000000000000000000000000000000000000000000000000000000000000000000000000000000000000000000000000000000000000000000000000000000000000000000000000000000000000000000000000000000000000000000000000000000000000000000000000000000000000000000000
310
00000000000000000000000000000000000000000000000000000000000000000000000000000000000000000000000000000000000000000000000000000000000000000000FFFFFF0000000000000000000000000000000000000000000000000000FFFFFF000000FFFAFF00000000000000000000000000000000000000
310
0000FFFF0000FFFFFAFFFDFA00FF0000000000000000000000FFFFFFFFFFFFFFFFFFFFFFFFFFFFFDFAFFFAFFFFFF0000000000000000000000FF00000000000000FD00FD00FD00FDFA00FAFD00FFFF00000000000000000000FF00000000000000FD00FDFD00FFFDFAFAFFFD00FFFF000000000000FAFAFAFAFF0000000000
310
0000FDFDFD00FFFFFFFAFFFF00FDFF00FF0000000000FFFF0000FF00000000000000FDFDFAFAFAFA0909FAFAFAFAFAFAFAFAFA0000FAFAFAFAFAFAFAFAFAFAFAFAFAFAFAFDFDFF09090900FF00FDFF00FF0000000000FAFAFAFAFF00000000000000FDFDFD00FFFFFFFAFFFF00FDFF00FF000000000000000000FF0000F9F9
310
F9F900FD00FDFD00FFFDFAFAFFFD00FFFF00000000000000000000FF0000F9F9F9F900FD00FD00FD00FDFD00FAFD00FFFF00000000000000000000FFFFFFFFFFFFFFFFFFFFFFFFFFFFFDFDFFFAFFFFFF0000000000000000000000000000000000000000FFFF0000FFFFFAFFFFFA00FF000000000000000000000000000000
310
00000000000000FFFF0000000000FAFF00000000000000000000000000000000000000000000000000FFFFFFFFFF000000000000000000000000000000000000000000000000000000000000000000000000000000000000000000000000000000000000000000000000000000000000000000000000000000000000000000
310
00000000000000000000000000000000000000000000000000000000000000000000000000000000000000000000000000000000000000000000000000000000000000000000000000000000000000000000000000000000000000000000000000000000000000000000000000000000000000000000000000000000000000
310
0000000000000000000000000000000000000000000000000000000000000000000000000000000000000000000000000000000000000000
102
{BLKREFS
331
4D80
102
}
  0
BLOCK_RECORD
  5
4D81
330
1
100
AcDbSymbolTableRecord
100
AcDbBlockTableRecord
  2
LW 5006-19-01_d
340
0
310
2800000020000000200000000100080000000000000400000000000000000000000000000000000000000000000080000080000000808000800000008000800080800000C0C0C000C0DCC000F0CAA6000020400000206000002080000020A0000020C0000020E00000400000004020000040400000406000004080000040A0
310
000040C0000040E00000600000006020000060400000606000006080000060A0000060C0000060E00000800000008020000080400000806000008080000080A0000080C0000080E00000A0000000A0200000A0400000A0600000A0800000A0A00000A0C00000A0E00000C0000000C0200000C0400000C0600000C0800000C0
310
A00000C0C00000C0E00000E0000000E0200000E0400000E0600000E0800000E0A00000E0C00000E0E00040000000400020004000400040006000400080004000A0004000C0004000E00040200000402020004020400040206000402080004020A0004020C0004020E000404000004040200040404000404060004040800040
310
40A0004040C0004040E00040600000406020004060400040606000406080004060A0004060C0004060E00040800000408020004080400040806000408080004080A0004080C0004080E00040A0000040A0200040A0400040A0600040A0800040A0A00040A0C00040A0E00040C0000040C0200040C0400040C0600040C08000
310
40C0A00040C0C00040C0E00040E0000040E0200040E0400040E0600040E0800040E0A00040E0C00040E0E00080000000800020008000400080006000800080008000A0008000C0008000E00080200000802020008020400080206000802080008020A0008020C0008020E00080400000804020008040400080406000804080
310
008040A0008040C0008040E00080600000806020008060400080606000806080008060A0008060C0008060E00080800000808020008080400080806000808080008080A0008080C0008080E00080A0000080A0200080A0400080A0600080A0800080A0A00080A0C00080A0E00080C0000080C0200080C0400080C0600080C0
310
800080C0A00080C0C00080C0E00080E0000080E0200080E0400080E0600080E0800080E0A00080E0C00080E0E000C0000000C0002000C0004000C0006000C0008000C000A000C000C000C000E000C0200000C0202000C0204000C0206000C0208000C020A000C020C000C020E000C0400000C0402000C0404000C0406000C0
310
408000C040A000C040C000C040E000C0600000C0602000C0604000C0606000C0608000C060A000C060C000C060E000C0800000C0802000C0804000C0806000C0808000C080A000C080C000C080E000C0A00000C0A02000C0A04000C0A06000C0A08000C0A0A000C0A0C000C0A0E000C0C00000C0C02000C0C04000C0C06000
310
C0C08000C0C0A000F0FBFF00A4A0A000808080000000FF0000FF000000FFFF00FF000000FF00FF00FFFF0000FFFFFF0000000000000000000000000000000000000000000000000000000000000000000000000000000000000000000000000000000000000000000000000000000000000000000000000000000000000000
310
000000000000000000000000000000000000000000000000000000000000FFFFFFFFFFFF000000000000000000000000000000000000000000000000FFFF000000000000FFFF0000000000000000000000000000000000000000FFFF00000000000000000000FFFF0000000000000000000000000000000000FF00FA000000
310
00FFFFFF0000000000FF000000000000000000000000000000FF000000FAFFFFFF00FA00FFFF00000000FF00000000000000000000000000FF000000FFFF00FDFFFFFA000000FFFF000000FF0000000000000000000000FF0000FFFF00FDFFFF0000FFFFFF000000FF000000FF000000000000000000FF000000FF0000FFFA
310
000000FA0000FF000000FF000000FF0000000000000000FF0000FF0000FF0000FA0000FA000000FFFF0000FF0000FF0000000000000000FF0000FF0000FF0000000000FA0000000000FF00FF0000FF00000000000000FF0000FF0000FF000000000000FA0000000000FF00FF0000FF00000000000000FF0000FF0000FF0000
310
00000000FA000000000000FF00FF0000FF00000000FAFAFFFAFAFFFAFAFFFAFAFAFAFA0909000000000000FFFDFF0000FF000000000000FF0000FF0000FF00000009090909FAFAFAFAFAFAFFFAFFFAFAFFFAFA00000000FF0000FF0000FF0000000000FA00000000000000FF00FF0000FF000000000000FF0000FF0000FF00
310
00F9F9F9F9F9F9F9000000FF0000FF0000FF00000000000000FF0000FF0000FF00F9F9F9F9F9F9F9000000FF00FF0000FF0000000000000000FF0000FF0000FF0000FA00FA0000000000FF0000FF0000FF0000000000000000FF000000FF0000FFFA0000FA000000FFFF0000FF000000FF000000000000000000FF0000FF00
310
00FDFFFF00FA00FFFF000000FF000000FF0000000000000000000000FF0000FFFFFA00FDFFFFFF00000000FF000000FF00000000000000000000000000FF000000FFFFFFFFFA000000FFFF000000FF000000000000000000000000000000FF00FA00000000FFFFFFFF00000000FF0000000000000000000000000000000000
310
FFFF00000000000000000000FFFF0000000000000000000000000000000000000000FFFF000000000000FFFF000000000000000000000000000000000000000000000000FFFFFFFFFFFF0000000000000000000000000000000000000000000000000000000000000000000000000000000000000000000000000000000000
310
0000000000000000000000000000000000000000000000000000000000000000000000000000000000000000000000000000000000000000
102
{BLKREFS
331
4DA4
102
}
  0
ENDTAB
  0
ENDSEC
  0
SECTION
  2
BLOCKS
  0
BLOCK
  5
24
330
23
100
AcDbEntity
  8
0
100
AcDbBlockBegin
  2
*Model_Space
 70
     0
 10
0.0
 20
0.0
 30
0.0
  3
*Model_Space
  1

  0
ENDBLK
  5
25
330
23
100
AcDbEntity
  8
0
100
AcDbBlockEnd
  0
BLOCK
  5
20
330
1F
100
AcDbEntity
 67
     1
  8
0
100
AcDbBlockBegin
  2
*Paper_Space
 70
     0
 10
0.0
 20
0.0
 30
0.0
  3
*Paper_Space
  1

  0
ENDBLK
  5
21
330
1F
100
AcDbEntity
 67
     1
  8
0
100
AcDbBlockEnd
  0
BLOCK
  5
28
330
27
100
AcDbEntity
 67
     1
  8
0
100
AcDbBlockBegin
  2
*Paper_Space0
 70
     0
 10
0.0
 20
0.0
 30
0.0
  3
*Paper_Space0
  1

  0
ENDBLK
  5
29
330
27
100
AcDbEntity
 67
     1
  8
0
100
AcDbBlockEnd
  0
BLOCK
  5
1071
330
106E
100
AcDbEntity
  8
0
100
AcDbBlockBegin
  2
insertpoint-ECKELT
 70
     2
 10
0.0
 20
0.0
 30
0.0
  3
insertpoint-ECKELT
  1

  0
ATTDEF
  5
1072
330
106E
100
AcDbEntity
  8
insertpoint_ECKELT
100
AcDbText
 10
-2.457298772169167
 20
-0.0000000000000284
 30
0.0
 40
0.6
  1
LW
 72
     2
 11
-1.199999999999999
 21
-0.0000000000000284
 31
0.0
100
AcDbAttributeDefinition
  3
Nr. links
  2
LINKS
 70
     0
  0
ATTDEF
  5
1073
330
106E
100
AcDbEntity
  8
insertpoint_ECKELT
100
AcDbText
 10
1.199999999999999
 20
-0.0000000000000284
 30
0.0
 40
0.6
  1
LW
100
AcDbAttributeDefinition
  3
Nr. rechts
  2
RECHTS
 70
     0
  0
LINE
  5
1074
102
{ACAD_REACTORS
330
1077
102
}
330
106E
100
AcDbEntity
  8
insertpoint_ECKELT
100
AcDbLine
 10
0.0
 20
1.799999999999997
 30
0.0
 11
0.0
 21
-1.799999999999997
 31
0.0
  0
LINE
  5
1075
102
{ACAD_REACTORS
330
1077
102
}
330
106E
100
AcDbEntity
  8
insertpoint_ECKELT
100
AcDbLine
 10
-1.8
 20
-0.0000000000000284
 30
0.0
 11
1.8
 21
-0.0000000000000284
 31
0.0
  0
CIRCLE
  5
1076
102
{ACAD_REACTORS
330
1077
102
}
330
106E
100
AcDbEntity
  8
insertpoint_ECKELT
100
AcDbCircle
 10
0.0
 20
0.0
 30
0.0
 40
1.199999999999999
  0
HATCH
  5
1077
330
106E
100
AcDbEntity
  8
insertpoint_ECKELT
100
AcDbHatch
 10
0.0
 20
0.0
 30
0.0
210
0.0
220
0.0
230
1.0
  2
SOLID
 70
     1
 71
     1
 91
        2
 92
        7
 72
     1
 73
     1
 93
        3
 10
0.0
 20
-0.0000000000000284
 42
0.0
 10
0.0
 20
1.200000000000002
 42
0.4142135623731013
 10
-1.199999999999999
 20
-0.0000000000000284
 42
0.0
 97
        3
330
1076
330
1075
330
1074
 92
        7
 72
     1
 73
     1
 93
        3
 10
1.199999999999999
 20
-0.0000000000000284
 42
0.0
 10
0.0
 20
-0.0000000000000284
 42
0.0
 10
0.0
 20
-1.200000000000002
 42
0.4142135623730888
 97
        3
330
1075
330
1074
330
1076
 75
     0
 76
     1
 47
0.0223086566480813
 98
        2
 10
-0.3163651093721391
 20
0.271413292077348
 10
0.7415965996738798
 20
-0.4513871917946233
450
        0
451
        0
460
0.0
461
0.0
452
        0
462
0.0
453
        0
470

  0
ENDBLK
  5
1078
330
106E
100
AcDbEntity
  8
0
100
AcDbBlockEnd
  0
BLOCK
  5
48A4
330
48A3
100
AcDbEntity
  8
0
100
AcDbBlockBegin
  2
LW 5006-19-01_a
 70
     0
 10
0.0
 20
0.0
 30
0.0
  3
LW 5006-19-01_a
  1

  0
ELLIPSE
  5
48A6
330
48A3
100
AcDbEntity
  8
LW 5006-19-01
100
AcDbEllipse
 10
29.50000000000023
 20
-9.499999999999943
 30
0.0
 11
-2.5
 21
0.0000000000002263
 31
0.0
210
0.0
220
0.0
230
1.0
 40
0.866025403784438
 41
0.7560039322268147
 42
2.385588721363198
  0
POLYLINE
  5
48A7
330
48A3
100
AcDbEntity
  8
LW 5006-19-01
100
AcDb2dPolyline
 66
     1
 10
0.0
 20
0.0
 30
0.0
 70
   128
  0
VERTEX
  5
48A8
330
48A7
100
AcDbEntity
  8
LW 5006-19-01
100
AcDbVertex
100
AcDb2dVertex
 10
32.00000000000023
 20
-12.49999999999994
 30
0.0
  0
VERTEX
  5
48A9
330
48A7
100
AcDbEntity
  8
LW 5006-19-01
100
AcDbVertex
100
AcDb2dVertex
 10
31.97898697853111
 20
-12.77545213699335
 30
0.0
  0
VERTEX
  5
48AA
330
48A7
100
AcDbEntity
  8
LW 5006-19-01
100
AcDbVertex
100
AcDb2dVertex
 10
31.91565704345726
 20
-13.05167794227594
 30
0.0
  0
VERTEX
  5
48AB
330
48A7
100
AcDbEntity
  8
LW 5006-19-01
100
AcDbVertex
100
AcDb2dVertex
 10
31.8095774650576
 20
-13.31962585449213
 30
0.0
  0
VERTEX
  5
48AC
330
48A7
100
AcDbEntity
  8
LW 5006-19-01
100
AcDbVertex
100
AcDb2dVertex
 10
31.66169476509117
 20
-13.5708856582641
 30
0.0
  0
VERTEX
  5
48AD
330
48A7
100
AcDbEntity
  8
LW 5006-19-01
100
AcDbVertex
100
AcDb2dVertex
 10
31.47847723960899
 20
-13.79940271377558
 30
0.0
  0
VERTEX
  5
48AE
330
48A7
100
AcDbEntity
  8
LW 5006-19-01
100
AcDbVertex
100
AcDb2dVertex
 10
31.26776528358482
 20
-13.99964332580561
 30
0.0
  0
VERTEX
  5
48AF
330
48A7
100
AcDbEntity
  8
LW 5006-19-01
100
AcDbVertex
100
AcDb2dVertex
 10
31.0274000167849
 20
-14.17419910430902
 30
0.0
  0
VERTEX
  5
48B0
330
48A7
100
AcDbEntity
  8
LW 5006-19-01
100
AcDbVertex
100
AcDb2dVertex
 10
30.75476121902489
 20
-14.32525992393488
 30
0.0
  0
VERTEX
  5
48B1
330
48A7
100
AcDbEntity
  8
LW 5006-19-01
100
AcDbVertex
100
AcDb2dVertex
 10
30.45699787139915
 20
-14.44669842720026
 30
0.0
  0
VERTEX
  5
48B2
330
48A7
100
AcDbEntity
  8
LW 5006-19-01
100
AcDbVertex
100
AcDb2dVertex
 10
30.1418311595919
 20
-14.53354954719538
 30
0.0
  0
VERTEX
  5
48B3
330
48A7
100
AcDbEntity
  8
LW 5006-19-01
100
AcDbVertex
100
AcDb2dVertex
 10
29.81929254531883
 20
-14.58527922630304
 30
0.0
  0
VERTEX
  5
48B4
330
48A7
100
AcDbEntity
  8
LW 5006-19-01
100
AcDbVertex
100
AcDb2dVertex
 10
29.50000000000023
 20
-14.6024060249328
 30
0.0
  0
VERTEX
  5
48B5
330
48A7
100
AcDbEntity
  8
LW 5006-19-01
100
AcDbVertex
100
AcDb2dVertex
 10
29.18070745468162
 20
-14.58527922630304
 30
0.0
  0
VERTEX
  5
48B6
330
48A7
100
AcDbEntity
  8
LW 5006-19-01
100
AcDbVertex
100
AcDb2dVertex
 10
28.85816884040855
 20
-14.53354954719538
 30
0.0
  0
VERTEX
  5
48B7
330
48A7
100
AcDbEntity
  8
LW 5006-19-01
100
AcDbVertex
100
AcDb2dVertex
 10
28.5430021286013
 20
-14.44669842720026
 30
0.0
  0
VERTEX
  5
48B8
330
48A7
100
AcDbEntity
  8
LW 5006-19-01
100
AcDbVertex
100
AcDb2dVertex
 10
28.24523878097557
 20
-14.32525992393488
 30
0.0
  0
VERTEX
  5
48B9
330
48A7
100
AcDbEntity
  8
LW 5006-19-01
100
AcDbVertex
100
AcDb2dVertex
 10
27.97259998321556
 20
-14.17419910430902
 30
0.0
  0
VERTEX
  5
48BA
330
48A7
100
AcDbEntity
  8
LW 5006-19-01
100
AcDbVertex
100
AcDb2dVertex
 10
27.73223471641563
 20
-13.99964332580561
 30
0.0
  0
VERTEX
  5
48BB
330
48A7
100
AcDbEntity
  8
LW 5006-19-01
100
AcDbVertex
100
AcDb2dVertex
 10
27.52152276039146
 20
-13.79940271377558
 30
0.0
  0
VERTEX
  5
48BC
330
48A7
100
AcDbEntity
  8
LW 5006-19-01
100
AcDbVertex
100
AcDb2dVertex
 10
27.33830523490929
 20
-13.5708856582641
 30
0.0
  0
VERTEX
  5
48BD
330
48A7
100
AcDbEntity
  8
LW 5006-19-01
100
AcDbVertex
100
AcDb2dVertex
 10
27.19042253494285
 20
-13.31962585449213
 30
0.0
  0
VERTEX
  5
48BE
330
48A7
100
AcDbEntity
  8
LW 5006-19-01
100
AcDbVertex
100
AcDb2dVertex
 10
27.0843429565432
 20
-13.05167794227594
 30
0.0
  0
VERTEX
  5
48BF
330
48A7
100
AcDbEntity
  8
LW 5006-19-01
100
AcDbVertex
100
AcDb2dVertex
 10
27.02101302146934
 20
-12.77545213699335
 30
0.0
  0
VERTEX
  5
48C0
330
48A7
100
AcDbEntity
  8
LW 5006-19-01
100
AcDbVertex
100
AcDb2dVertex
 10
27.00000000000023
 20
-12.49999999999994
 30
0.0
  0
SEQEND
  5
48C1
330
48A7
100
AcDbEntity
  8
LW 5006-19-01
  0
POLYLINE
  5
48C2
330
48A3
100
AcDbEntity
  8
LW 5006-19-01
100
AcDb2dPolyline
 66
     1
 10
0.0
 20
0.0
 30
0.0
 70
   128
  0
VERTEX
  5
48C3
330
48C2
100
AcDbEntity
  8
LW 5006-19-01
100
AcDbVertex
100
AcDb2dVertex
 10
27.00000000000023
 20
-12.49999999999994
 30
0.0
  0
VERTEX
  5
48C4
330
48C2
100
AcDbEntity
  8
LW 5006-19-01
100
AcDbVertex
100
AcDb2dVertex
 10
27.02101302146934
 20
-12.22241878509516
 30
0.0
  0
VERTEX
  5
48C5
330
48C2
100
AcDbEntity
  8
LW 5006-19-01
100
AcDbVertex
100
AcDb2dVertex
 10
27.0843429565432
 20
-11.93999171257013
 30
0.0
  0
VERTEX
  5
48C6
330
48C2
100
AcDbEntity
  8
LW 5006-19-01
100
AcDbVertex
100
AcDb2dVertex
 10
27.19042253494285
 20
-11.6620504856109
 30
0.0
  0
VERTEX
  5
48C7
330
48C2
100
AcDbEntity
  8
LW 5006-19-01
100
AcDbVertex
100
AcDb2dVertex
 10
27.33830523490929
 20
-11.39756798744196
 30
0.0
  0
VERTEX
  5
48C8
330
48C2
100
AcDbEntity
  8
LW 5006-19-01
100
AcDbVertex
100
AcDb2dVertex
 10
27.52152276039146
 20
-11.15386009216303
 30
0.0
  0
VERTEX
  5
48C9
330
48C2
100
AcDbEntity
  8
LW 5006-19-01
100
AcDbVertex
100
AcDb2dVertex
 10
27.73223471641563
 20
-10.9377777576446
 30
0.0
  0
VERTEX
  5
48CA
330
48C2
100
AcDbEntity
  8
LW 5006-19-01
100
AcDbVertex
100
AcDb2dVertex
 10
27.97259998321556
 20
-10.74736952781671
 30
0.0
  0
VERTEX
  5
48CB
330
48C2
100
AcDbEntity
  8
LW 5006-19-01
100
AcDbVertex
100
AcDb2dVertex
 10
28.24523878097557
 20
-10.58108925819391
 30
0.0
  0
VERTEX
  5
48CC
330
48C2
100
AcDbEntity
  8
LW 5006-19-01
100
AcDbVertex
100
AcDb2dVertex
 10
28.5430021286013
 20
-10.4463899135589
 30
0.0
  0
VERTEX
  5
48CD
330
48C2
100
AcDbEntity
  8
LW 5006-19-01
100
AcDbVertex
100
AcDb2dVertex
 10
28.85816884040855
 20
-10.34950613975519
 30
0.0
  0
VERTEX
  5
48CE
330
48C2
100
AcDbEntity
  8
LW 5006-19-01
100
AcDbVertex
100
AcDb2dVertex
 10
29.18070745468162
 20
-10.2915477752685
 30
0.0
  0
VERTEX
  5
48CF
330
48C2
100
AcDbEntity
  8
LW 5006-19-01
100
AcDbVertex
100
AcDb2dVertex
 10
29.50000000000023
 20
-10.2722799777984
 30
0.0
  0
VERTEX
  5
48D0
330
48C2
100
AcDbEntity
  8
LW 5006-19-01
100
AcDbVertex
100
AcDb2dVertex
 10
29.81929254531883
 20
-10.2915477752685
 30
0.0
  0
VERTEX
  5
48D1
330
48C2
100
AcDbEntity
  8
LW 5006-19-01
100
AcDbVertex
100
AcDb2dVertex
 10
30.1418311595919
 20
-10.34950613975519
 30
0.0
  0
VERTEX
  5
48D2
330
48C2
100
AcDbEntity
  8
LW 5006-19-01
100
AcDbVertex
100
AcDb2dVertex
 10
30.45699787139915
 20
-10.4463899135589
 30
0.0
  0
VERTEX
  5
48D3
330
48C2
100
AcDbEntity
  8
LW 5006-19-01
100
AcDbVertex
100
AcDb2dVertex
 10
30.75476121902489
 20
-10.58108925819391
 30
0.0
  0
VERTEX
  5
48D4
330
48C2
100
AcDbEntity
  8
LW 5006-19-01
100
AcDbVertex
100
AcDb2dVertex
 10
31.0274000167849
 20
-10.74736952781671
 30
0.0
  0
VERTEX
  5
48D5
330
48C2
100
AcDbEntity
  8
LW 5006-19-01
100
AcDbVertex
100
AcDb2dVertex
 10
31.26776528358482
 20
-10.9377777576446
 30
0.0
  0
VERTEX
  5
48D6
330
48C2
100
AcDbEntity
  8
LW 5006-19-01
100
AcDbVertex
100
AcDb2dVertex
 10
31.47847723960899
 20
-11.15386009216303
 30
0.0
  0
VERTEX
  5
48D7
330
48C2
100
AcDbEntity
  8
LW 5006-19-01
100
AcDbVertex
100
AcDb2dVertex
 10
31.66169476509117
 20
-11.39756798744196
 30
0.0
  0
VERTEX
  5
48D8
330
48C2
100
AcDbEntity
  8
LW 5006-19-01
100
AcDbVertex
100
AcDb2dVertex
 10
31.8095774650576
 20
-11.6620504856109
 30
0.0
  0
VERTEX
  5
48D9
330
48C2
100
AcDbEntity
  8
LW 5006-19-01
100
AcDbVertex
100
AcDb2dVertex
 10
31.91565704345726
 20
-11.93999171257013
 30
0.0
  0
VERTEX
  5
48DA
330
48C2
100
AcDbEntity
  8
LW 5006-19-01
100
AcDbVertex
100
AcDb2dVertex
 10
31.97898697853111
 20
-12.22241878509516
 30
0.0
  0
VERTEX
  5
48DB
330
48C2
100
AcDbEntity
  8
LW 5006-19-01
100
AcDbVertex
100
AcDb2dVertex
 10
32.00000000000023
 20
-12.49999999999994
 30
0.0
  0
SEQEND
  5
48DC
330
48C2
100
AcDbEntity
  8
LW 5006-19-01
  0
POLYLINE
  5
48DD
330
48A3
100
AcDbEntity
  8
LW 5006-19-01
100
AcDb2dPolyline
 66
     1
 10
0.0
 20
0.0
 30
0.0
 70
   128
  0
VERTEX
  5
48DE
330
48DD
100
AcDbEntity
  8
LW 5006-19-01
100
AcDbVertex
100
AcDb2dVertex
 10
32.00000000000023
 20
25.00000000000011
 30
0.0
  0
VERTEX
  5
48DF
330
48DD
100
AcDbEntity
  8
LW 5006-19-01
100
AcDbVertex
100
AcDb2dVertex
 10
31.97898697853111
 20
24.99787092208874
 30
0.0
  0
VERTEX
  5
48E0
330
48DD
100
AcDbEntity
  8
LW 5006-19-01
100
AcDbVertex
100
AcDb2dVertex
 10
31.91565704345726
 20
24.99166965484631
 30
0.0
  0
VERTEX
  5
48E1
330
48DD
100
AcDbEntity
  8
LW 5006-19-01
100
AcDbVertex
100
AcDb2dVertex
 10
31.8095774650576
 20
24.98167514801037
 30
0.0
  0
VERTEX
  5
48E2
330
48DD
100
AcDbEntity
  8
LW 5006-19-01
100
AcDbVertex
100
AcDb2dVertex
 10
31.66169476509117
 20
24.96845483779919
 30
0.0
  0
VERTEX
  5
48E3
330
48DD
100
AcDbEntity
  8
LW 5006-19-01
100
AcDbVertex
100
AcDb2dVertex
 10
31.47847723960899
 20
24.95326280593884
 30
0.0
  0
VERTEX
  5
48E4
330
48DD
100
AcDbEntity
  8
LW 5006-19-01
100
AcDbVertex
100
AcDb2dVertex
 10
31.26776528358482
 20
24.93742227554333
 30
0.0
  0
VERTEX
  5
48E5
330
48DD
100
AcDbEntity
  8
LW 5006-19-01
100
AcDbVertex
100
AcDb2dVertex
 10
31.0274000167849
 20
24.92156982421886
 30
0.0
  0
VERTEX
  5
48E6
330
48DD
100
AcDbEntity
  8
LW 5006-19-01
100
AcDbVertex
100
AcDb2dVertex
 10
30.75476121902489
 20
24.90634918212902
 30
0.0
  0
VERTEX
  5
48E7
330
48DD
100
AcDbEntity
  8
LW 5006-19-01
100
AcDbVertex
100
AcDb2dVertex
 10
30.45699787139915
 20
24.89308834075939
 30
0.0
  0
VERTEX
  5
48E8
330
48DD
100
AcDbEntity
  8
LW 5006-19-01
100
AcDbVertex
100
AcDb2dVertex
 10
30.1418311595919
 20
24.8830556869508
 30
0.0
  0
VERTEX
  5
48E9
330
48DD
100
AcDbEntity
  8
LW 5006-19-01
100
AcDbVertex
100
AcDb2dVertex
 10
29.81929254531883
 20
24.87682580947887
 30
0.0
  0
VERTEX
  5
48EA
330
48DD
100
AcDbEntity
  8
LW 5006-19-01
100
AcDbVertex
100
AcDb2dVertex
 10
29.50000000000023
 20
24.87468481063854
 30
0.0
  0
VERTEX
  5
48EB
330
48DD
100
AcDbEntity
  8
LW 5006-19-01
100
AcDbVertex
100
AcDb2dVertex
 10
29.18070745468162
 20
24.87682580947887
 30
0.0
  0
VERTEX
  5
48EC
330
48DD
100
AcDbEntity
  8
LW 5006-19-01
100
AcDbVertex
100
AcDb2dVertex
 10
28.85816884040855
 20
24.8830556869508
 30
0.0
  0
VERTEX
  5
48ED
330
48DD
100
AcDbEntity
  8
LW 5006-19-01
100
AcDbVertex
100
AcDb2dVertex
 10
28.5430021286013
 20
24.89308834075939
 30
0.0
  0
VERTEX
  5
48EE
330
48DD
100
AcDbEntity
  8
LW 5006-19-01
100
AcDbVertex
100
AcDb2dVertex
 10
28.24523878097557
 20
24.90634918212902
 30
0.0
  0
VERTEX
  5
48EF
330
48DD
100
AcDbEntity
  8
LW 5006-19-01
100
AcDbVertex
100
AcDb2dVertex
 10
27.97259998321556
 20
24.92156982421886
 30
0.0
  0
VERTEX
  5
48F0
330
48DD
100
AcDbEntity
  8
LW 5006-19-01
100
AcDbVertex
100
AcDb2dVertex
 10
27.73223471641563
 20
24.93742227554333
 30
0.0
  0
VERTEX
  5
48F1
330
48DD
100
AcDbEntity
  8
LW 5006-19-01
100
AcDbVertex
100
AcDb2dVertex
 10
27.52152276039146
 20
24.95326280593884
 30
0.0
  0
VERTEX
  5
48F2
330
48DD
100
AcDbEntity
  8
LW 5006-19-01
100
AcDbVertex
100
AcDb2dVertex
 10
27.33830523490929
 20
24.96845483779919
 30
0.0
  0
VERTEX
  5
48F3
330
48DD
100
AcDbEntity
  8
LW 5006-19-01
100
AcDbVertex
100
AcDb2dVertex
 10
27.19042253494285
 20
24.98167514801037
 30
0.0
  0
VERTEX
  5
48F4
330
48DD
100
AcDbEntity
  8
LW 5006-19-01
100
AcDbVertex
100
AcDb2dVertex
 10
27.0843429565432
 20
24.99166965484631
 30
0.0
  0
VERTEX
  5
48F5
330
48DD
100
AcDbEntity
  8
LW 5006-19-01
100
AcDbVertex
100
AcDb2dVertex
 10
27.02101302146934
 20
24.99787092208874
 30
0.0
  0
VERTEX
  5
48F6
330
48DD
100
AcDbEntity
  8
LW 5006-19-01
100
AcDbVertex
100
AcDb2dVertex
 10
27.00000000000023
 20
25.00000000000011
 30
0.0
  0
SEQEND
  5
48F7
330
48DD
100
AcDbEntity
  8
LW 5006-19-01
  0
LINE
  5
48F8
330
48A3
100
AcDbEntity
  8
LW 5006-19-01
100
AcDbLine
 10
33.50000000000023
 20
-24.99999999999995
 30
0.0
 11
33.50000000000023
 21
25.00000000000011
 31
0.0
  0
LINE
  5
48F9
330
48A3
100
AcDbEntity
  8
LW 5006-19-01
100
AcDbLine
 10
39.50000000000023
 20
-18.99999999999989
 30
0.0
 11
39.50000000000023
 21
19.00000000000005
 31
0.0
  0
LINE
  5
48FA
330
48A3
100
AcDbEntity
  8
LW 5006-19-01
100
AcDbLine
 10
14.50000000000023
 20
25.00000000000011
 30
0.0
 11
27.00000000000023
 21
25.00000000000011
 31
0.0
  0
LINE
  5
48FB
330
48A3
100
AcDbEntity
  8
LW 5006-19-01
100
AcDbLine
 10
32.00000000000023
 20
25.00000000000011
 30
0.0
 11
33.50000000000023
 21
25.00000000000011
 31
0.0
  0
LINE
  5
48FC
330
48A3
100
AcDbEntity
  8
LW 5006-19-01
100
AcDbLine
 10
14.50000000000023
 20
-24.99999999999995
 30
0.0
 11
33.50000000000023
 21
-24.99999999999995
 31
0.0
  0
LINE
  5
48FD
330
48A3
100
AcDbEntity
  8
LW 5006-19-01
100
AcDbLine
 10
39.50000000000023
 20
-18.99999999999989
 30
0.0
 11
33.50000000000023
 21
-24.99999999999995
 31
0.0
  0
LINE
  5
48FE
330
48A3
100
AcDbEntity
  8
LW 5006-19-01
100
AcDbLine
 10
39.50000000000023
 20
19.00000000000005
 30
0.0
 11
33.50000000000023
 21
25.00000000000011
 31
0.0
  0
ELLIPSE
  5
48FF
330
48A3
100
AcDbEntity
  8
LW 5006-19-01
100
AcDbEllipse
 10
-29.49999999999977
 20
-9.499999999999943
 30
0.0
 11
-2.499999999999999
 21
0.0000000000002233
 31
0.0
210
0.0
220
0.0
230
1.0
 40
0.8660254037844385
 41
0.7560039322268235
 42
2.385588721363198
  0
POLYLINE
  5
4900
330
48A3
100
AcDbEntity
  8
LW 5006-19-01
100
AcDb2dPolyline
 66
     1
 10
0.0
 20
0.0
 30
0.0
 70
   128
  0
VERTEX
  5
4901
330
4900
100
AcDbEntity
  8
LW 5006-19-01
100
AcDbVertex
100
AcDb2dVertex
 10
-31.99999999999977
 20
-12.49999999999994
 30
0.0
  0
VERTEX
  5
4902
330
4900
100
AcDbEntity
  8
LW 5006-19-01
100
AcDbVertex
100
AcDb2dVertex
 10
-31.97898697853066
 20
-12.22241878509516
 30
0.0
  0
VERTEX
  5
4903
330
4900
100
AcDbEntity
  8
LW 5006-19-01
100
AcDbVertex
100
AcDb2dVertex
 10
-31.91565704345681
 20
-11.93999171257013
 30
0.0
  0
VERTEX
  5
4904
330
4900
100
AcDbEntity
  8
LW 5006-19-01
100
AcDbVertex
100
AcDb2dVertex
 10
-31.80957746505715
 20
-11.6620504856109
 30
0.0
  0
VERTEX
  5
4905
330
4900
100
AcDbEntity
  8
LW 5006-19-01
100
AcDbVertex
100
AcDb2dVertex
 10
-31.66169476509072
 20
-11.39756798744196
 30
0.0
  0
VERTEX
  5
4906
330
4900
100
AcDbEntity
  8
LW 5006-19-01
100
AcDbVertex
100
AcDb2dVertex
 10
-31.47847723960854
 20
-11.15386009216303
 30
0.0
  0
VERTEX
  5
4907
330
4900
100
AcDbEntity
  8
LW 5006-19-01
100
AcDbVertex
100
AcDb2dVertex
 10
-31.26776528358437
 20
-10.9377777576446
 30
0.0
  0
VERTEX
  5
4908
330
4900
100
AcDbEntity
  8
LW 5006-19-01
100
AcDbVertex
100
AcDb2dVertex
 10
-31.02740001678444
 20
-10.74736952781671
 30
0.0
  0
VERTEX
  5
4909
330
4900
100
AcDbEntity
  8
LW 5006-19-01
100
AcDbVertex
100
AcDb2dVertex
 10
-30.75476121902443
 20
-10.58108925819391
 30
0.0
  0
VERTEX
  5
490A
330
4900
100
AcDbEntity
  8
LW 5006-19-01
100
AcDbVertex
100
AcDb2dVertex
 10
-30.4569978713987
 20
-10.4463899135589
 30
0.0
  0
VERTEX
  5
490B
330
4900
100
AcDbEntity
  8
LW 5006-19-01
100
AcDbVertex
100
AcDb2dVertex
 10
-30.14183115959145
 20
-10.34950613975519
 30
0.0
  0
VERTEX
  5
490C
330
4900
100
AcDbEntity
  8
LW 5006-19-01
100
AcDbVertex
100
AcDb2dVertex
 10
-29.81929254531838
 20
-10.2915477752685
 30
0.0
  0
VERTEX
  5
490D
330
4900
100
AcDbEntity
  8
LW 5006-19-01
100
AcDbVertex
100
AcDb2dVertex
 10
-29.49999999999977
 20
-10.2722799777984
 30
0.0
  0
VERTEX
  5
490E
330
4900
100
AcDbEntity
  8
LW 5006-19-01
100
AcDbVertex
100
AcDb2dVertex
 10
-29.18070745468117
 20
-10.2915477752685
 30
0.0
  0
VERTEX
  5
490F
330
4900
100
AcDbEntity
  8
LW 5006-19-01
100
AcDbVertex
100
AcDb2dVertex
 10
-28.8581688404081
 20
-10.34950613975519
 30
0.0
  0
VERTEX
  5
4910
330
4900
100
AcDbEntity
  8
LW 5006-19-01
100
AcDbVertex
100
AcDb2dVertex
 10
-28.54300212860085
 20
-10.4463899135589
 30
0.0
  0
VERTEX
  5
4911
330
4900
100
AcDbEntity
  8
LW 5006-19-01
100
AcDbVertex
100
AcDb2dVertex
 10
-28.24523878097512
 20
-10.58108925819391
 30
0.0
  0
VERTEX
  5
4912
330
4900
100
AcDbEntity
  8
LW 5006-19-01
100
AcDbVertex
100
AcDb2dVertex
 10
-27.97259998321511
 20
-10.74736952781671
 30
0.0
  0
VERTEX
  5
4913
330
4900
100
AcDbEntity
  8
LW 5006-19-01
100
AcDbVertex
100
AcDb2dVertex
 10
-27.73223471641518
 20
-10.9377777576446
 30
0.0
  0
VERTEX
  5
4914
330
4900
100
AcDbEntity
  8
LW 5006-19-01
100
AcDbVertex
100
AcDb2dVertex
 10
-27.52152276039101
 20
-11.15386009216303
 30
0.0
  0
VERTEX
  5
4915
330
4900
100
AcDbEntity
  8
LW 5006-19-01
100
AcDbVertex
100
AcDb2dVertex
 10
-27.33830523490883
 20
-11.39756798744196
 30
0.0
  0
VERTEX
  5
4916
330
4900
100
AcDbEntity
  8
LW 5006-19-01
100
AcDbVertex
100
AcDb2dVertex
 10
-27.1904225349424
 20
-11.6620504856109
 30
0.0
  0
VERTEX
  5
4917
330
4900
100
AcDbEntity
  8
LW 5006-19-01
100
AcDbVertex
100
AcDb2dVertex
 10
-27.08434295654274
 20
-11.93999171257013
 30
0.0
  0
VERTEX
  5
4918
330
4900
100
AcDbEntity
  8
LW 5006-19-01
100
AcDbVertex
100
AcDb2dVertex
 10
-27.02101302146889
 20
-12.22241878509516
 30
0.0
  0
VERTEX
  5
4919
330
4900
100
AcDbEntity
  8
LW 5006-19-01
100
AcDbVertex
100
AcDb2dVertex
 10
-26.99999999999977
 20
-12.49999999999994
 30
0.0
  0
SEQEND
  5
491A
330
4900
100
AcDbEntity
  8
LW 5006-19-01
  0
POLYLINE
  5
491B
330
48A3
100
AcDbEntity
  8
LW 5006-19-01
100
AcDb2dPolyline
 66
     1
 10
0.0
 20
0.0
 30
0.0
 70
   128
  0
VERTEX
  5
491C
330
491B
100
AcDbEntity
  8
LW 5006-19-01
100
AcDbVertex
100
AcDb2dVertex
 10
-26.99999999999977
 20
-12.49999999999994
 30
0.0
  0
VERTEX
  5
491D
330
491B
100
AcDbEntity
  8
LW 5006-19-01
100
AcDbVertex
100
AcDb2dVertex
 10
-27.02101302146889
 20
-12.77545213699335
 30
0.0
  0
VERTEX
  5
491E
330
491B
100
AcDbEntity
  8
LW 5006-19-01
100
AcDbVertex
100
AcDb2dVertex
 10
-27.08434295654274
 20
-13.05167794227594
 30
0.0
  0
VERTEX
  5
491F
330
491B
100
AcDbEntity
  8
LW 5006-19-01
100
AcDbVertex
100
AcDb2dVertex
 10
-27.1904225349424
 20
-13.31962585449213
 30
0.0
  0
VERTEX
  5
4920
330
491B
100
AcDbEntity
  8
LW 5006-19-01
100
AcDbVertex
100
AcDb2dVertex
 10
-27.33830523490883
 20
-13.5708856582641
 30
0.0
  0
VERTEX
  5
4921
330
491B
100
AcDbEntity
  8
LW 5006-19-01
100
AcDbVertex
100
AcDb2dVertex
 10
-27.52152276039101
 20
-13.79940271377558
 30
0.0
  0
VERTEX
  5
4922
330
491B
100
AcDbEntity
  8
LW 5006-19-01
100
AcDbVertex
100
AcDb2dVertex
 10
-27.73223471641518
 20
-13.99964332580561
 30
0.0
  0
VERTEX
  5
4923
330
491B
100
AcDbEntity
  8
LW 5006-19-01
100
AcDbVertex
100
AcDb2dVertex
 10
-27.97259998321511
 20
-14.17419910430902
 30
0.0
  0
VERTEX
  5
4924
330
491B
100
AcDbEntity
  8
LW 5006-19-01
100
AcDbVertex
100
AcDb2dVertex
 10
-28.24523878097512
 20
-14.32525992393488
 30
0.0
  0
VERTEX
  5
4925
330
491B
100
AcDbEntity
  8
LW 5006-19-01
100
AcDbVertex
100
AcDb2dVertex
 10
-28.54300212860085
 20
-14.44669842720026
 30
0.0
  0
VERTEX
  5
4926
330
491B
100
AcDbEntity
  8
LW 5006-19-01
100
AcDbVertex
100
AcDb2dVertex
 10
-28.8581688404081
 20
-14.53354954719538
 30
0.0
  0
VERTEX
  5
4927
330
491B
100
AcDbEntity
  8
LW 5006-19-01
100
AcDbVertex
100
AcDb2dVertex
 10
-29.18070745468117
 20
-14.58527922630304
 30
0.0
  0
VERTEX
  5
4928
330
491B
100
AcDbEntity
  8
LW 5006-19-01
100
AcDbVertex
100
AcDb2dVertex
 10
-29.49999999999977
 20
-14.6024060249328
 30
0.0
  0
VERTEX
  5
4929
330
491B
100
AcDbEntity
  8
LW 5006-19-01
100
AcDbVertex
100
AcDb2dVertex
 10
-29.81929254531838
 20
-14.58527922630304
 30
0.0
  0
VERTEX
  5
492A
330
491B
100
AcDbEntity
  8
LW 5006-19-01
100
AcDbVertex
100
AcDb2dVertex
 10
-30.14183115959145
 20
-14.53354954719538
 30
0.0
  0
VERTEX
  5
492B
330
491B
100
AcDbEntity
  8
LW 5006-19-01
100
AcDbVertex
100
AcDb2dVertex
 10
-30.4569978713987
 20
-14.44669842720026
 30
0.0
  0
VERTEX
  5
492C
330
491B
100
AcDbEntity
  8
LW 5006-19-01
100
AcDbVertex
100
AcDb2dVertex
 10
-30.75476121902443
 20
-14.32525992393488
 30
0.0
  0
VERTEX
  5
492D
330
491B
100
AcDbEntity
  8
LW 5006-19-01
100
AcDbVertex
100
AcDb2dVertex
 10
-31.02740001678444
 20
-14.17419910430902
 30
0.0
  0
VERTEX
  5
492E
330
491B
100
AcDbEntity
  8
LW 5006-19-01
100
AcDbVertex
100
AcDb2dVertex
 10
-31.26776528358437
 20
-13.99964332580561
 30
0.0
  0
VERTEX
  5
492F
330
491B
100
AcDbEntity
  8
LW 5006-19-01
100
AcDbVertex
100
AcDb2dVertex
 10
-31.47847723960854
 20
-13.79940271377558
 30
0.0
  0
VERTEX
  5
4930
330
491B
100
AcDbEntity
  8
LW 5006-19-01
100
AcDbVertex
100
AcDb2dVertex
 10
-31.66169476509072
 20
-13.5708856582641
 30
0.0
  0
VERTEX
  5
4931
330
491B
100
AcDbEntity
  8
LW 5006-19-01
100
AcDbVertex
100
AcDb2dVertex
 10
-31.80957746505715
 20
-13.31962585449213
 30
0.0
  0
VERTEX
  5
4932
330
491B
100
AcDbEntity
  8
LW 5006-19-01
100
AcDbVertex
100
AcDb2dVertex
 10
-31.91565704345681
 20
-13.05167794227594
 30
0.0
  0
VERTEX
  5
4933
330
491B
100
AcDbEntity
  8
LW 5006-19-01
100
AcDbVertex
100
AcDb2dVertex
 10
-31.97898697853066
 20
-12.77545213699335
 30
0.0
  0
VERTEX
  5
4934
330
491B
100
AcDbEntity
  8
LW 5006-19-01
100
AcDbVertex
100
AcDb2dVertex
 10
-31.99999999999977
 20
-12.49999999999994
 30
0.0
  0
SEQEND
  5
4935
330
491B
100
AcDbEntity
  8
LW 5006-19-01
  0
POLYLINE
  5
4936
330
48A3
100
AcDbEntity
  8
LW 5006-19-01
100
AcDb2dPolyline
 66
     1
 10
0.0
 20
0.0
 30
0.0
 70
   128
  0
VERTEX
  5
4937
330
4936
100
AcDbEntity
  8
LW 5006-19-01
100
AcDbVertex
100
AcDb2dVertex
 10
-26.99999999999977
 20
25.00000000000011
 30
0.0
  0
VERTEX
  5
4938
330
4936
100
AcDbEntity
  8
LW 5006-19-01
100
AcDbVertex
100
AcDb2dVertex
 10
-27.02101302146889
 20
24.99787092208874
 30
0.0
  0
VERTEX
  5
4939
330
4936
100
AcDbEntity
  8
LW 5006-19-01
100
AcDbVertex
100
AcDb2dVertex
 10
-27.08434295654274
 20
24.99166965484631
 30
0.0
  0
VERTEX
  5
493A
330
4936
100
AcDbEntity
  8
LW 5006-19-01
100
AcDbVertex
100
AcDb2dVertex
 10
-27.1904225349424
 20
24.98167514801037
 30
0.0
  0
VERTEX
  5
493B
330
4936
100
AcDbEntity
  8
LW 5006-19-01
100
AcDbVertex
100
AcDb2dVertex
 10
-27.33830523490883
 20
24.96845483779919
 30
0.0
  0
VERTEX
  5
493C
330
4936
100
AcDbEntity
  8
LW 5006-19-01
100
AcDbVertex
100
AcDb2dVertex
 10
-27.52152276039101
 20
24.95326280593884
 30
0.0
  0
VERTEX
  5
493D
330
4936
100
AcDbEntity
  8
LW 5006-19-01
100
AcDbVertex
100
AcDb2dVertex
 10
-27.73223471641518
 20
24.93742227554333
 30
0.0
  0
VERTEX
  5
493E
330
4936
100
AcDbEntity
  8
LW 5006-19-01
100
AcDbVertex
100
AcDb2dVertex
 10
-27.97259998321511
 20
24.92156982421886
 30
0.0
  0
VERTEX
  5
493F
330
4936
100
AcDbEntity
  8
LW 5006-19-01
100
AcDbVertex
100
AcDb2dVertex
 10
-28.24523878097512
 20
24.90634918212902
 30
0.0
  0
VERTEX
  5
4940
330
4936
100
AcDbEntity
  8
LW 5006-19-01
100
AcDbVertex
100
AcDb2dVertex
 10
-28.54300212860085
 20
24.89308834075939
 30
0.0
  0
VERTEX
  5
4941
330
4936
100
AcDbEntity
  8
LW 5006-19-01
100
AcDbVertex
100
AcDb2dVertex
 10
-28.8581688404081
 20
24.8830556869508
 30
0.0
  0
VERTEX
  5
4942
330
4936
100
AcDbEntity
  8
LW 5006-19-01
100
AcDbVertex
100
AcDb2dVertex
 10
-29.18070745468117
 20
24.87682580947887
 30
0.0
  0
VERTEX
  5
4943
330
4936
100
AcDbEntity
  8
LW 5006-19-01
100
AcDbVertex
100
AcDb2dVertex
 10
-29.49999999999977
 20
24.87468481063854
 30
0.0
  0
VERTEX
  5
4944
330
4936
100
AcDbEntity
  8
LW 5006-19-01
100
AcDbVertex
100
AcDb2dVertex
 10
-29.81929254531838
 20
24.87682580947887
 30
0.0
  0
VERTEX
  5
4945
330
4936
100
AcDbEntity
  8
LW 5006-19-01
100
AcDbVertex
100
AcDb2dVertex
 10
-30.14183115959145
 20
24.8830556869508
 30
0.0
  0
VERTEX
  5
4946
330
4936
100
AcDbEntity
  8
LW 5006-19-01
100
AcDbVertex
100
AcDb2dVertex
 10
-30.4569978713987
 20
24.89308834075939
 30
0.0
  0
VERTEX
  5
4947
330
4936
100
AcDbEntity
  8
LW 5006-19-01
100
AcDbVertex
100
AcDb2dVertex
 10
-30.75476121902443
 20
24.90634918212902
 30
0.0
  0
VERTEX
  5
4948
330
4936
100
AcDbEntity
  8
LW 5006-19-01
100
AcDbVertex
100
AcDb2dVertex
 10
-31.02740001678444
 20
24.92156982421886
 30
0.0
  0
VERTEX
  5
4949
330
4936
100
AcDbEntity
  8
LW 5006-19-01
100
AcDbVertex
100
AcDb2dVertex
 10
-31.26776528358437
 20
24.93742227554333
 30
0.0
  0
VERTEX
  5
494A
330
4936
100
AcDbEntity
  8
LW 5006-19-01
100
AcDbVertex
100
AcDb2dVertex
 10
-31.47847723960854
 20
24.95326280593884
 30
0.0
  0
VERTEX
  5
494B
330
4936
100
AcDbEntity
  8
LW 5006-19-01
100
AcDbVertex
100
AcDb2dVertex
 10
-31.66169476509072
 20
24.96845483779919
 30
0.0
  0
VERTEX
  5
494C
330
4936
100
AcDbEntity
  8
LW 5006-19-01
100
AcDbVertex
100
AcDb2dVertex
 10
-31.80957746505715
 20
24.98167514801037
 30
0.0
  0
VERTEX
  5
494D
330
4936
100
AcDbEntity
  8
LW 5006-19-01
100
AcDbVertex
100
AcDb2dVertex
 10
-31.91565704345681
 20
24.99166965484631
 30
0.0
  0
VERTEX
  5
494E
330
4936
100
AcDbEntity
  8
LW 5006-19-01
100
AcDbVertex
100
AcDb2dVertex
 10
-31.97898697853066
 20
24.99787092208874
 30
0.0
  0
VERTEX
  5
494F
330
4936
100
AcDbEntity
  8
LW 5006-19-01
100
AcDbVertex
100
AcDb2dVertex
 10
-31.99999999999977
 20
25.00000000000011
 30
0.0
  0
SEQEND
  5
4950
330
4936
100
AcDbEntity
  8
LW 5006-19-01
  0
LINE
  5
4951
330
48A3
100
AcDbEntity
  8
LW 5006-19-01
100
AcDbLine
 10
-33.49999999999977
 20
25.00000000000011
 30
0.0
 11
-33.49999999999977
 21
-24.99999999999995
 31
0.0
  0
LINE
  5
4952
330
48A3
100
AcDbEntity
  8
LW 5006-19-01
100
AcDbLine
 10
-39.49999999999977
 20
19.00000000000005
 30
0.0
 11
-39.49999999999977
 21
-18.99999999999989
 31
0.0
  0
LINE
  5
4953
330
48A3
100
AcDbEntity
  8
LW 5006-19-01
100
AcDbLine
 10
-133.5
 20
10.00000000000011
 30
0.0
 11
-133.5
 21
-9.999999999999943
 31
0.0
  0
LINE
  5
4954
330
48A3
100
AcDbEntity
  8
LW 5006-19-01
100
AcDbLine
 10
-134.5
 20
9.000000000000113
 30
0.0
 11
-134.5
 21
-8.999999999999943
 31
0.0
  0
LINE
  5
4955
330
48A3
100
AcDbEntity
  8
LW 5006-19-01
100
AcDbLine
 10
-14.49999999999977
 20
-24.99999999999995
 30
0.0
 11
-33.49999999999977
 21
-24.99999999999995
 31
0.0
  0
LINE
  5
4956
330
48A3
100
AcDbEntity
  8
LW 5006-19-01
100
AcDbLine
 10
-14.49999999999977
 20
25.00000000000011
 30
0.0
 11
-26.99999999999977
 21
25.00000000000011
 31
0.0
  0
LINE
  5
4957
330
48A3
100
AcDbEntity
  8
LW 5006-19-01
100
AcDbLine
 10
-31.99999999999977
 20
25.00000000000011
 30
0.0
 11
-33.49999999999977
 21
25.00000000000011
 31
0.0
  0
LINE
  5
4958
330
48A3
100
AcDbEntity
  8
LW 5006-19-01
100
AcDbLine
 10
-39.49999999999977
 20
19.00000000000005
 30
0.0
 11
-33.49999999999977
 21
25.00000000000011
 31
0.0
  0
LINE
  5
4959
330
48A3
100
AcDbEntity
  8
LW 5006-19-01
100
AcDbLine
 10
-39.49999999999977
 20
-18.99999999999989
 30
0.0
 11
-33.49999999999977
 21
-24.99999999999995
 31
0.0
  0
ARC
  5
495A
330
48A3
100
AcDbEntity
  8
LW 5006-19-01
100
AcDbCircle
 10
-40.49999999999999
 20
11.00000000000011
 30
0.0
 40
1.000000000000002
100
AcDbArc
 50
270.0
 51
0.0
  0
ARC
  5
495B
330
48A3
100
AcDbEntity
  8
LW 5006-19-01
100
AcDbCircle
 10
-40.49999999999999
 20
-10.99999999999994
 30
0.0
 40
1.000000000000002
100
AcDbArc
 50
0.0
 51
90.0
  0
LINE
  5
495C
330
48A3
100
AcDbEntity
  8
LW 5006-19-01
100
AcDbLine
 10
-40.49999999999999
 20
-9.999999999999943
 30
0.0
 11
-82.33558024260242
 21
-9.999999999999943
 31
0.0
  0
LINE
  5
495D
330
48A3
100
AcDbEntity
  8
LW 5006-19-01
100
AcDbLine
 10
-116.6644197573973
 20
-9.999999999999943
 30
0.0
 11
-133.5
 21
-9.999999999999943
 31
0.0
  0
LINE
  5
495E
330
48A3
100
AcDbEntity
  8
LW 5006-19-01
100
AcDbLine
 10
-40.49999999999999
 20
10.00000000000011
 30
0.0
 11
-82.33558024260242
 21
10.00000000000011
 31
0.0
  0
LINE
  5
495F
330
48A3
100
AcDbEntity
  8
LW 5006-19-01
100
AcDbLine
 10
-116.6644197573971
 20
10.00000000000011
 30
0.0
 11
-133.5
 21
10.00000000000011
 31
0.0
  0
LINE
  5
4960
330
48A3
100
AcDbEntity
  8
LW 5006-19-01
100
AcDbLine
 10
-134.5
 20
9.000000000000056
 30
0.0
 11
-133.5
 21
10.00000000000011
 31
0.0
  0
LINE
  5
4961
330
48A3
100
AcDbEntity
  8
LW 5006-19-01
100
AcDbLine
 10
-134.5
 20
-8.999999999999943
 30
0.0
 11
-133.5
 21
-9.999999999999943
 31
0.0
  0
POLYLINE
  5
4962
330
48A3
100
AcDbEntity
  8
LW 5006-19-01
100
AcDb2dPolyline
 66
     1
 10
0.0
 20
0.0
 30
0.0
 70
   128
  0
VERTEX
  5
4963
330
4962
100
AcDbEntity
  8
LW 5006-19-01
100
AcDbVertex
100
AcDb2dVertex
 10
-82.11466145515419
 20
-10.1000022888183
 30
0.0
  0
VERTEX
  5
4964
330
4962
100
AcDbEntity
  8
LW 5006-19-01
100
AcDbVertex
100
AcDb2dVertex
 10
-82.20413041114785
 20
-10.07736206054682
 30
0.0
  0
VERTEX
  5
4965
330
4962
100
AcDbEntity
  8
LW 5006-19-01
100
AcDbVertex
100
AcDb2dVertex
 10
-82.32033085823037
 20
-10.00996589660639
 30
0.0
  0
VERTEX
  5
4966
330
4962
100
AcDbEntity
  8
LW 5006-19-01
100
AcDbVertex
100
AcDb2dVertex
 10
-82.46185731887795
 20
-9.898595809936466
 30
0.0
  0
VERTEX
  5
4967
330
4962
100
AcDbEntity
  8
LW 5006-19-01
100
AcDbVertex
100
AcDb2dVertex
 10
-82.627301931381
 20
-9.744029045104923
 30
0.0
  0
VERTEX
  5
4968
330
4962
100
AcDbEntity
  8
LW 5006-19-01
100
AcDbVertex
100
AcDb2dVertex
 10
-82.81525921821572
 20
-9.547052383422794
 30
0.0
  0
VERTEX
  5
4969
330
4962
100
AcDbEntity
  8
LW 5006-19-01
100
AcDbVertex
100
AcDb2dVertex
 10
-83.0243213176725
 20
-9.308433532714786
 30
0.0
  0
VERTEX
  5
496A
330
4962
100
AcDbEntity
  8
LW 5006-19-01
100
AcDbVertex
100
AcDb2dVertex
 10
-83.25239968299843
 20
-9.029560089111271
 30
0.0
  0
VERTEX
  5
496B
330
4962
100
AcDbEntity
  8
LW 5006-19-01
100
AcDbVertex
100
AcDb2dVertex
 10
-83.49558186531044
 20
-8.71396064758295
 30
0.0
  0
VERTEX
  5
496C
330
4962
100
AcDbEntity
  8
LW 5006-19-01
100
AcDbVertex
100
AcDb2dVertex
 10
-83.74983859062172
 20
-8.365621566772404
 30
0.0
  0
VERTEX
  5
496D
330
4962
100
AcDbEntity
  8
LW 5006-19-01
100
AcDbVertex
100
AcDb2dVertex
 10
-84.01114296913124
 20
-7.988529205322208
 30
0.0
  0
VERTEX
  5
496E
330
4962
100
AcDbEntity
  8
LW 5006-19-01
100
AcDbVertex
100
AcDb2dVertex
 10
-84.27546930313088
 20
-7.586660385131779
 30
0.0
  0
VERTEX
  5
496F
330
4962
100
AcDbEntity
  8
LW 5006-19-01
100
AcDbVertex
100
AcDb2dVertex
 10
-84.5387907028196
 20
-7.164006233215275
 30
0.0
  0
VERTEX
  5
4970
330
4962
100
AcDbEntity
  8
LW 5006-19-01
100
AcDbVertex
100
AcDb2dVertex
 10
-84.80210256576516
 20
-6.716151237487736
 30
0.0
  0
VERTEX
  5
4971
330
4962
100
AcDbEntity
  8
LW 5006-19-01
100
AcDbVertex
100
AcDb2dVertex
 10
-85.06862115859963
 20
-6.232929229736271
 30
0.0
  0
VERTEX
  5
4972
330
4962
100
AcDbEntity
  8
LW 5006-19-01
100
AcDbVertex
100
AcDb2dVertex
 10
-85.33308696746804
 20
-5.716900825500431
 30
0.0
  0
VERTEX
  5
4973
330
4962
100
AcDbEntity
  8
LW 5006-19-01
100
AcDbVertex
100
AcDb2dVertex
 10
-85.59013199806191
 20
-5.170793533325138
 30
0.0
  0
VERTEX
  5
4974
330
4962
100
AcDbEntity
  8
LW 5006-19-01
100
AcDbVertex
100
AcDb2dVertex
 10
-85.83438706397988
 20
-4.597344398498478
 30
0.0
  0
VERTEX
  5
4975
330
4962
100
AcDbEntity
  8
LW 5006-19-01
100
AcDbVertex
100
AcDb2dVertex
 10
-86.06048536300637
 20
-3.999280929565372
 30
0.0
  0
VERTEX
  5
4976
330
4962
100
AcDbEntity
  8
LW 5006-19-01
100
AcDbVertex
100
AcDb2dVertex
 10
-86.2629277706144
 20
-3.379426002502384
 30
0.0
  0
VERTEX
  5
4977
330
4962
100
AcDbEntity
  8
LW 5006-19-01
100
AcDbVertex
100
AcDb2dVertex
 10
-86.43658947944619
 20
-2.74159908294672
 30
0.0
  0
VERTEX
  5
4978
330
4962
100
AcDbEntity
  8
LW 5006-19-01
100
AcDbVertex
100
AcDb2dVertex
 10
-86.57674741744973
 20
-2.090067863464298
 30
0.0
  0
VERTEX
  5
4979
330
4962
100
AcDbEntity
  8
LW 5006-19-01
100
AcDbVertex
100
AcDb2dVertex
 10
-86.67899799346901
 20
-1.429209709167423
 30
0.0
  0
VERTEX
  5
497A
330
4962
100
AcDbEntity
  8
LW 5006-19-01
100
AcDbVertex
100
AcDb2dVertex
 10
-86.74124193191506
 20
-0.7640886306762127
 30
0.0
  0
VERTEX
  5
497B
330
4962
100
AcDbEntity
  8
LW 5006-19-01
100
AcDbVertex
100
AcDb2dVertex
 10
-86.76226091384865
 20
-0.1000022888183025
 30
0.0
  0
SEQEND
  5
497C
330
4962
100
AcDbEntity
  8
LW 5006-19-01
  0
POLYLINE
  5
497D
330
48A3
100
AcDbEntity
  8
LW 5006-19-01
100
AcDb2dPolyline
 66
     1
 10
0.0
 20
0.0
 30
0.0
 70
   128
  0
VERTEX
  5
497E
330
497D
100
AcDbEntity
  8
LW 5006-19-01
100
AcDbVertex
100
AcDb2dVertex
 10
-112.2377390861509
 20
-0.1000022888183025
 30
0.0
  0
VERTEX
  5
497F
330
497D
100
AcDbEntity
  8
LW 5006-19-01
100
AcDbVertex
100
AcDb2dVertex
 10
-112.2587580680845
 20
-0.7640886306762127
 30
0.0
  0
VERTEX
  5
4980
330
497D
100
AcDbEntity
  8
LW 5006-19-01
100
AcDbVertex
100
AcDb2dVertex
 10
-112.3210020065305
 20
-1.429209709167423
 30
0.0
  0
VERTEX
  5
4981
330
497D
100
AcDbEntity
  8
LW 5006-19-01
100
AcDbVertex
100
AcDb2dVertex
 10
-112.4232525825498
 20
-2.090067863464298
 30
0.0
  0
VERTEX
  5
4982
330
497D
100
AcDbEntity
  8
LW 5006-19-01
100
AcDbVertex
100
AcDb2dVertex
 10
-112.5634105205533
 20
-2.74159908294672
 30
0.0
  0
VERTEX
  5
4983
330
497D
100
AcDbEntity
  8
LW 5006-19-01
100
AcDbVertex
100
AcDb2dVertex
 10
-112.7370722293851
 20
-3.379426002502384
 30
0.0
  0
VERTEX
  5
4984
330
497D
100
AcDbEntity
  8
LW 5006-19-01
100
AcDbVertex
100
AcDb2dVertex
 10
-112.9395146369932
 20
-3.999280929565372
 30
0.0
  0
VERTEX
  5
4985
330
497D
100
AcDbEntity
  8
LW 5006-19-01
100
AcDbVertex
100
AcDb2dVertex
 10
-113.1656129360196
 20
-4.597344398498478
 30
0.0
  0
VERTEX
  5
4986
330
497D
100
AcDbEntity
  8
LW 5006-19-01
100
AcDbVertex
100
AcDb2dVertex
 10
-113.4098680019376
 20
-5.170793533325138
 30
0.0
  0
VERTEX
  5
4987
330
497D
100
AcDbEntity
  8
LW 5006-19-01
100
AcDbVertex
100
AcDb2dVertex
 10
-113.6669130325315
 20
-5.716900825500431
 30
0.0
  0
VERTEX
  5
4988
330
497D
100
AcDbEntity
  8
LW 5006-19-01
100
AcDbVertex
100
AcDb2dVertex
 10
-113.9313788413999
 20
-6.232929229736271
 30
0.0
  0
VERTEX
  5
4989
330
497D
100
AcDbEntity
  8
LW 5006-19-01
100
AcDbVertex
100
AcDb2dVertex
 10
-114.1978974342344
 20
-6.716151237487736
 30
0.0
  0
VERTEX
  5
498A
330
497D
100
AcDbEntity
  8
LW 5006-19-01
100
AcDbVertex
100
AcDb2dVertex
 10
-114.4612092971799
 20
-7.164006233215275
 30
0.0
  0
VERTEX
  5
498B
330
497D
100
AcDbEntity
  8
LW 5006-19-01
100
AcDbVertex
100
AcDb2dVertex
 10
-114.7245306968686
 20
-7.586660385131779
 30
0.0
  0
VERTEX
  5
498C
330
497D
100
AcDbEntity
  8
LW 5006-19-01
100
AcDbVertex
100
AcDb2dVertex
 10
-114.9888570308683
 20
-7.988529205322208
 30
0.0
  0
VERTEX
  5
498D
330
497D
100
AcDbEntity
  8
LW 5006-19-01
100
AcDbVertex
100
AcDb2dVertex
 10
-115.2501614093778
 20
-8.365621566772404
 30
0.0
  0
VERTEX
  5
498E
330
497D
100
AcDbEntity
  8
LW 5006-19-01
100
AcDbVertex
100
AcDb2dVertex
 10
-115.5044181346891
 20
-8.71396064758295
 30
0.0
  0
VERTEX
  5
498F
330
497D
100
AcDbEntity
  8
LW 5006-19-01
100
AcDbVertex
100
AcDb2dVertex
 10
-115.7476003170011
 20
-9.029560089111271
 30
0.0
  0
VERTEX
  5
4990
330
497D
100
AcDbEntity
  8
LW 5006-19-01
100
AcDbVertex
100
AcDb2dVertex
 10
-115.975678682327
 20
-9.308433532714786
 30
0.0
  0
VERTEX
  5
4991
330
497D
100
AcDbEntity
  8
LW 5006-19-01
100
AcDbVertex
100
AcDb2dVertex
 10
-116.1847407817838
 20
-9.547052383422794
 30
0.0
  0
VERTEX
  5
4992
330
497D
100
AcDbEntity
  8
LW 5006-19-01
100
AcDbVertex
100
AcDb2dVertex
 10
-116.3726980686185
 20
-9.744029045104923
 30
0.0
  0
VERTEX
  5
4993
330
497D
100
AcDbEntity
  8
LW 5006-19-01
100
AcDbVertex
100
AcDb2dVertex
 10
-116.5381426811216
 20
-9.898595809936466
 30
0.0
  0
VERTEX
  5
4994
330
497D
100
AcDbEntity
  8
LW 5006-19-01
100
AcDbVertex
100
AcDb2dVertex
 10
-116.6796691417692
 20
-10.00996589660639
 30
0.0
  0
VERTEX
  5
4995
330
497D
100
AcDbEntity
  8
LW 5006-19-01
100
AcDbVertex
100
AcDb2dVertex
 10
-116.7958695888517
 20
-10.07736206054682
 30
0.0
  0
VERTEX
  5
4996
330
497D
100
AcDbEntity
  8
LW 5006-19-01
100
AcDbVertex
100
AcDb2dVertex
 10
-116.8853385448453
 20
-10.1000022888183
 30
0.0
  0
SEQEND
  5
4997
330
497D
100
AcDbEntity
  8
LW 5006-19-01
  0
LINE
  5
4998
330
48A3
100
AcDbEntity
  8
LW 5006-19-01
100
AcDbLine
 10
-86.76226079714274
 20
-0.0999999999999659
 30
0.0
 11
-86.76226079714274
 21
0.1000000000000796
 31
0.0
  0
POLYLINE
  5
4999
330
48A3
100
AcDbEntity
  8
LW 5006-19-01
100
AcDb2dPolyline
 66
     1
 10
0.0
 20
0.0
 30
0.0
 70
   128
  0
VERTEX
  5
499A
330
4999
100
AcDbEntity
  8
LW 5006-19-01
100
AcDbVertex
100
AcDb2dVertex
 10
-116.8853385448453
 20
10.10000228881847
 30
0.0
  0
VERTEX
  5
499B
330
4999
100
AcDbEntity
  8
LW 5006-19-01
100
AcDbVertex
100
AcDb2dVertex
 10
-116.7958695888517
 20
10.07736206054699
 30
0.0
  0
VERTEX
  5
499C
330
4999
100
AcDbEntity
  8
LW 5006-19-01
100
AcDbVertex
100
AcDb2dVertex
 10
-116.6796691417692
 20
10.00996589660656
 30
0.0
  0
VERTEX
  5
499D
330
4999
100
AcDbEntity
  8
LW 5006-19-01
100
AcDbVertex
100
AcDb2dVertex
 10
-116.5381426811216
 20
9.898595809936637
 30
0.0
  0
VERTEX
  5
499E
330
4999
100
AcDbEntity
  8
LW 5006-19-01
100
AcDbVertex
100
AcDb2dVertex
 10
-116.3726980686185
 20
9.744029045105094
 30
0.0
  0
VERTEX
  5
499F
330
4999
100
AcDbEntity
  8
LW 5006-19-01
100
AcDbVertex
100
AcDb2dVertex
 10
-116.1847407817838
 20
9.547052383422965
 30
0.0
  0
VERTEX
  5
49A0
330
4999
100
AcDbEntity
  8
LW 5006-19-01
100
AcDbVertex
100
AcDb2dVertex
 10
-115.975678682327
 20
9.308433532714957
 30
0.0
  0
VERTEX
  5
49A1
330
4999
100
AcDbEntity
  8
LW 5006-19-01
100
AcDbVertex
100
AcDb2dVertex
 10
-115.7476003170011
 20
9.029560089111441
 30
0.0
  0
VERTEX
  5
49A2
330
4999
100
AcDbEntity
  8
LW 5006-19-01
100
AcDbVertex
100
AcDb2dVertex
 10
-115.5044181346891
 20
8.713960647583121
 30
0.0
  0
VERTEX
  5
49A3
330
4999
100
AcDbEntity
  8
LW 5006-19-01
100
AcDbVertex
100
AcDb2dVertex
 10
-115.2501614093778
 20
8.365621566772574
 30
0.0
  0
VERTEX
  5
49A4
330
4999
100
AcDbEntity
  8
LW 5006-19-01
100
AcDbVertex
100
AcDb2dVertex
 10
-114.9888570308683
 20
7.988529205322379
 30
0.0
  0
VERTEX
  5
49A5
330
4999
100
AcDbEntity
  8
LW 5006-19-01
100
AcDbVertex
100
AcDb2dVertex
 10
-114.7245306968686
 20
7.586660385131949
 30
0.0
  0
VERTEX
  5
49A6
330
4999
100
AcDbEntity
  8
LW 5006-19-01
100
AcDbVertex
100
AcDb2dVertex
 10
-114.4612092971799
 20
7.164006233215445
 30
0.0
  0
VERTEX
  5
49A7
330
4999
100
AcDbEntity
  8
LW 5006-19-01
100
AcDbVertex
100
AcDb2dVertex
 10
-114.1978974342344
 20
6.716151237487906
 30
0.0
  0
VERTEX
  5
49A8
330
4999
100
AcDbEntity
  8
LW 5006-19-01
100
AcDbVertex
100
AcDb2dVertex
 10
-113.9313788413999
 20
6.232929229736441
 30
0.0
  0
VERTEX
  5
49A9
330
4999
100
AcDbEntity
  8
LW 5006-19-01
100
AcDbVertex
100
AcDb2dVertex
 10
-113.6669130325315
 20
5.716900825500601
 30
0.0
  0
VERTEX
  5
49AA
330
4999
100
AcDbEntity
  8
LW 5006-19-01
100
AcDbVertex
100
AcDb2dVertex
 10
-113.4098680019376
 20
5.170793533325308
 30
0.0
  0
VERTEX
  5
49AB
330
4999
100
AcDbEntity
  8
LW 5006-19-01
100
AcDbVertex
100
AcDb2dVertex
 10
-113.1656129360196
 20
4.597344398498648
 30
0.0
  0
VERTEX
  5
49AC
330
4999
100
AcDbEntity
  8
LW 5006-19-01
100
AcDbVertex
100
AcDb2dVertex
 10
-112.9395146369932
 20
3.999280929565543
 30
0.0
  0
VERTEX
  5
49AD
330
4999
100
AcDbEntity
  8
LW 5006-19-01
100
AcDbVertex
100
AcDb2dVertex
 10
-112.7370722293851
 20
3.379426002502555
 30
0.0
  0
VERTEX
  5
49AE
330
4999
100
AcDbEntity
  8
LW 5006-19-01
100
AcDbVertex
100
AcDb2dVertex
 10
-112.5634105205533
 20
2.741599082946891
 30
0.0
  0
VERTEX
  5
49AF
330
4999
100
AcDbEntity
  8
LW 5006-19-01
100
AcDbVertex
100
AcDb2dVertex
 10
-112.4232525825498
 20
2.090067863464469
 30
0.0
  0
VERTEX
  5
49B0
330
4999
100
AcDbEntity
  8
LW 5006-19-01
100
AcDbVertex
100
AcDb2dVertex
 10
-112.3210020065305
 20
1.429209709167594
 30
0.0
  0
VERTEX
  5
49B1
330
4999
100
AcDbEntity
  8
LW 5006-19-01
100
AcDbVertex
100
AcDb2dVertex
 10
-112.2587580680845
 20
0.7640886306763264
 30
0.0
  0
VERTEX
  5
49B2
330
4999
100
AcDbEntity
  8
LW 5006-19-01
100
AcDbVertex
100
AcDb2dVertex
 10
-112.2377390861509
 20
0.1000022888184162
 30
0.0
  0
SEQEND
  5
49B3
330
4999
100
AcDbEntity
  8
LW 5006-19-01
  0
POLYLINE
  5
49B4
330
48A3
100
AcDbEntity
  8
LW 5006-19-01
100
AcDb2dPolyline
 66
     1
 10
0.0
 20
0.0
 30
0.0
 70
   128
  0
VERTEX
  5
49B5
330
49B4
100
AcDbEntity
  8
LW 5006-19-01
100
AcDbVertex
100
AcDb2dVertex
 10
-86.76226091384865
 20
0.1000022888184162
 30
0.0
  0
VERTEX
  5
49B6
330
49B4
100
AcDbEntity
  8
LW 5006-19-01
100
AcDbVertex
100
AcDb2dVertex
 10
-86.74124193191506
 20
0.7640886306763264
 30
0.0
  0
VERTEX
  5
49B7
330
49B4
100
AcDbEntity
  8
LW 5006-19-01
100
AcDbVertex
100
AcDb2dVertex
 10
-86.67899799346901
 20
1.429209709167594
 30
0.0
  0
VERTEX
  5
49B8
330
49B4
100
AcDbEntity
  8
LW 5006-19-01
100
AcDbVertex
100
AcDb2dVertex
 10
-86.57674741744973
 20
2.090067863464469
 30
0.0
  0
VERTEX
  5
49B9
330
49B4
100
AcDbEntity
  8
LW 5006-19-01
100
AcDbVertex
100
AcDb2dVertex
 10
-86.43658947944619
 20
2.741599082946891
 30
0.0
  0
VERTEX
  5
49BA
330
49B4
100
AcDbEntity
  8
LW 5006-19-01
100
AcDbVertex
100
AcDb2dVertex
 10
-86.2629277706144
 20
3.379426002502555
 30
0.0
  0
VERTEX
  5
49BB
330
49B4
100
AcDbEntity
  8
LW 5006-19-01
100
AcDbVertex
100
AcDb2dVertex
 10
-86.06048536300637
 20
3.999280929565543
 30
0.0
  0
VERTEX
  5
49BC
330
49B4
100
AcDbEntity
  8
LW 5006-19-01
100
AcDbVertex
100
AcDb2dVertex
 10
-85.83438706397988
 20
4.597344398498648
 30
0.0
  0
VERTEX
  5
49BD
330
49B4
100
AcDbEntity
  8
LW 5006-19-01
100
AcDbVertex
100
AcDb2dVertex
 10
-85.59013199806191
 20
5.170793533325308
 30
0.0
  0
VERTEX
  5
49BE
330
49B4
100
AcDbEntity
  8
LW 5006-19-01
100
AcDbVertex
100
AcDb2dVertex
 10
-85.33308696746804
 20
5.716900825500601
 30
0.0
  0
VERTEX
  5
49BF
330
49B4
100
AcDbEntity
  8
LW 5006-19-01
100
AcDbVertex
100
AcDb2dVertex
 10
-85.06862115859963
 20
6.232929229736441
 30
0.0
  0
VERTEX
  5
49C0
330
49B4
100
AcDbEntity
  8
LW 5006-19-01
100
AcDbVertex
100
AcDb2dVertex
 10
-84.80210256576516
 20
6.716151237487906
 30
0.0
  0
VERTEX
  5
49C1
330
49B4
100
AcDbEntity
  8
LW 5006-19-01
100
AcDbVertex
100
AcDb2dVertex
 10
-84.5387907028196
 20
7.164006233215445
 30
0.0
  0
VERTEX
  5
49C2
330
49B4
100
AcDbEntity
  8
LW 5006-19-01
100
AcDbVertex
100
AcDb2dVertex
 10
-84.27546930313088
 20
7.586660385131949
 30
0.0
  0
VERTEX
  5
49C3
330
49B4
100
AcDbEntity
  8
LW 5006-19-01
100
AcDbVertex
100
AcDb2dVertex
 10
-84.01114296913124
 20
7.988529205322379
 30
0.0
  0
VERTEX
  5
49C4
330
49B4
100
AcDbEntity
  8
LW 5006-19-01
100
AcDbVertex
100
AcDb2dVertex
 10
-83.74983859062172
 20
8.365621566772574
 30
0.0
  0
VERTEX
  5
49C5
330
49B4
100
AcDbEntity
  8
LW 5006-19-01
100
AcDbVertex
100
AcDb2dVertex
 10
-83.49558186531044
 20
8.713960647583121
 30
0.0
  0
VERTEX
  5
49C6
330
49B4
100
AcDbEntity
  8
LW 5006-19-01
100
AcDbVertex
100
AcDb2dVertex
 10
-83.25239968299843
 20
9.029560089111441
 30
0.0
  0
VERTEX
  5
49C7
330
49B4
100
AcDbEntity
  8
LW 5006-19-01
100
AcDbVertex
100
AcDb2dVertex
 10
-83.0243213176725
 20
9.308433532714957
 30
0.0
  0
VERTEX
  5
49C8
330
49B4
100
AcDbEntity
  8
LW 5006-19-01
100
AcDbVertex
100
AcDb2dVertex
 10
-82.81525921821572
 20
9.547052383422965
 30
0.0
  0
VERTEX
  5
49C9
330
49B4
100
AcDbEntity
  8
LW 5006-19-01
100
AcDbVertex
100
AcDb2dVertex
 10
-82.627301931381
 20
9.744029045105094
 30
0.0
  0
VERTEX
  5
49CA
330
49B4
100
AcDbEntity
  8
LW 5006-19-01
100
AcDbVertex
100
AcDb2dVertex
 10
-82.46185731887795
 20
9.898595809936637
 30
0.0
  0
VERTEX
  5
49CB
330
49B4
100
AcDbEntity
  8
LW 5006-19-01
100
AcDbVertex
100
AcDb2dVertex
 10
-82.32033085823037
 20
10.00996589660656
 30
0.0
  0
VERTEX
  5
49CC
330
49B4
100
AcDbEntity
  8
LW 5006-19-01
100
AcDbVertex
100
AcDb2dVertex
 10
-82.20413041114785
 20
10.07736206054699
 30
0.0
  0
VERTEX
  5
49CD
330
49B4
100
AcDbEntity
  8
LW 5006-19-01
100
AcDbVertex
100
AcDb2dVertex
 10
-82.11466145515419
 20
10.10000228881847
 30
0.0
  0
SEQEND
  5
49CE
330
49B4
100
AcDbEntity
  8
LW 5006-19-01
  0
LINE
  5
49CF
330
48A3
100
AcDbEntity
  8
LW 5006-19-01
100
AcDbLine
 10
-112.2377392028568
 20
0.1000000000000796
 30
0.0
 11
-112.2377392028568
 21
-0.0999999999999659
 31
0.0
  0
LINE
  5
49D0
330
48A3
100
AcDbEntity
  8
LW 5006-19-01
100
AcDbLine
 10
-82.11466134928604
 20
-10.09999999999996
 30
0.0
 11
-81.99999999999977
 21
-10.09999999999996
 31
0.0
  0
LINE
  5
49D1
330
48A3
100
AcDbEntity
  8
LW 5006-19-01
100
AcDbLine
 10
-116.9999999999997
 20
-10.09999999999996
 30
0.0
 11
-116.8853386507135
 21
-10.09999999999996
 31
0.0
  0
LINE
  5
49D2
330
48A3
100
AcDbEntity
  8
LW 5006-19-01
100
AcDbLine
 10
-81.99999999999977
 20
10.10000000000008
 30
0.0
 11
-82.11466134928604
 21
10.10000000000008
 31
0.0
  0
LINE
  5
49D3
330
48A3
100
AcDbEntity
  8
LW 5006-19-01
100
AcDbLine
 10
-116.8853386507135
 20
10.10000000000008
 30
0.0
 11
-116.9999999999997
 21
10.10000000000008
 31
0.0
  0
LINE
  5
49D4
330
48A3
100
AcDbEntity
  8
LW 5006-19-01
100
AcDbLine
 10
-116.9999999999997
 20
60.87500000000005
 30
0.0
 11
-81.99999999999977
 21
60.87500000000005
 31
0.0
  0
LINE
  5
49D5
330
48A3
100
AcDbEntity
  8
LW 5006-19-01
100
AcDbLine
 10
-115.4999999999998
 20
-19.99999999999994
 30
0.0
 11
-83.49999999999978
 21
-19.99999999999994
 31
0.0
  0
LINE
  5
49D6
330
48A3
100
AcDbEntity
  8
LW 5006-19-01
100
AcDbLine
 10
-81.99999999999977
 20
60.87500000000005
 30
0.0
 11
-81.99999999999977
 21
10.10000000000008
 31
0.0
  0
LINE
  5
49D7
330
48A3
100
AcDbEntity
  8
LW 5006-19-01
100
AcDbLine
 10
-81.99999999999977
 20
-10.09999999999996
 30
0.0
 11
-81.99999999999977
 21
-18.49999999999994
 31
0.0
  0
LINE
  5
49D8
330
48A3
100
AcDbEntity
  8
LW 5006-19-01
100
AcDbLine
 10
-116.9999999999997
 20
60.87500000000005
 30
0.0
 11
-116.9999999999997
 21
10.10000000000008
 31
0.0
  0
LINE
  5
49D9
330
48A3
100
AcDbEntity
  8
LW 5006-19-01
100
AcDbLine
 10
-116.9999999999997
 20
-10.09999999999996
 30
0.0
 11
-116.9999999999997
 21
-18.49999999999994
 31
0.0
  0
ARC
  5
49DA
330
48A3
100
AcDbEntity
  8
LW 5006-19-01
100
AcDbCircle
 10
-115.4999999999998
 20
-18.49999999999994
 30
0.0
 40
1.500000000000012
100
AcDbArc
 50
180.0
 51
270.0
  0
ARC
  5
49DB
330
48A3
100
AcDbEntity
  8
LW 5006-19-01
100
AcDbCircle
 10
-83.49999999999978
 20
-18.49999999999994
 30
0.0
 40
1.500000000000012
100
AcDbArc
 50
270.0
 51
0.0
  0
POLYLINE
  5
49DC
330
48A3
100
AcDbEntity
  8
LW 5006-19-01
100
AcDb2dPolyline
 66
     1
 10
0.0
 20
0.0
 30
0.0
 70
   128
  0
VERTEX
  5
49DD
330
49DC
100
AcDbEntity
  8
LW 5006-19-01
100
AcDbVertex
100
AcDb2dVertex
 10
-101.4892890751359
 20
-2.245292663574161
 30
0.0
  0
VERTEX
  5
49DE
330
49DC
100
AcDbEntity
  8
LW 5006-19-01
100
AcDbVertex
100
AcDb2dVertex
 10
-101.352521151304
 20
-2.358942031860294
 30
0.0
  0
VERTEX
  5
49DF
330
49DC
100
AcDbEntity
  8
LW 5006-19-01
100
AcDbVertex
100
AcDb2dVertex
 10
-101.2074277997014
 20
-2.465748786926212
 30
0.0
  0
VERTEX
  5
49E0
330
49DC
100
AcDbEntity
  8
LW 5006-19-01
100
AcDbVertex
100
AcDb2dVertex
 10
-101.0548388659952
 20
-2.564802169799747
 30
0.0
  0
VERTEX
  5
49E1
330
49DC
100
AcDbEntity
  8
LW 5006-19-01
100
AcDbVertex
100
AcDb2dVertex
 10
-100.895584195852
 20
-2.655181884765568
 30
0.0
  0
VERTEX
  5
49E2
330
49DC
100
AcDbEntity
  8
LW 5006-19-01
100
AcDbVertex
100
AcDb2dVertex
 10
-100.7304932624099
 20
-2.735972404479923
 30
0.0
  0
VERTEX
  5
49E3
330
49DC
100
AcDbEntity
  8
LW 5006-19-01
100
AcDbVertex
100
AcDb2dVertex
 10
-100.5604043304918
 20
-2.806267738342228
 30
0.0
  0
VERTEX
  5
49E4
330
49DC
100
AcDbEntity
  8
LW 5006-19-01
100
AcDbVertex
100
AcDb2dVertex
 10
-100.3863525837657
 20
-2.865643501281681
 30
0.0
  0
VERTEX
  5
49E5
330
49DC
100
AcDbEntity
  8
LW 5006-19-01
100
AcDbVertex
100
AcDb2dVertex
 10
-100.2095715403554
 20
-2.914128303527775
 30
0.0
  0
VERTEX
  5
49E6
330
49DC
100
AcDbEntity
  8
LW 5006-19-01
100
AcDbVertex
100
AcDb2dVertex
 10
-100.0313034728167
 20
-2.951765060424747
 30
0.0
  0
VERTEX
  5
49E7
330
49DC
100
AcDbEntity
  8
LW 5006-19-01
100
AcDbVertex
100
AcDb2dVertex
 10
-99.85279069095827
 20
-2.978591918945255
 30
0.0
  0
VERTEX
  5
49E8
330
49DC
100
AcDbEntity
  8
LW 5006-19-01
100
AcDbVertex
100
AcDb2dVertex
 10
-99.67527543008305
 20
-2.994656562805118
 30
0.0
  0
VERTEX
  5
49E9
330
49DC
100
AcDbEntity
  8
LW 5006-19-01
100
AcDbVertex
100
AcDb2dVertex
 10
-99.49999999999977
 20
-3.000001907348575
 30
0.0
  0
VERTEX
  5
49EA
330
49DC
100
AcDbEntity
  8
LW 5006-19-01
100
AcDbVertex
100
AcDb2dVertex
 10
-99.3247245699165
 20
-2.994656562805118
 30
0.0
  0
VERTEX
  5
49EB
330
49DC
100
AcDbEntity
  8
LW 5006-19-01
100
AcDbVertex
100
AcDb2dVertex
 10
-99.14720930904127
 20
-2.978591918945255
 30
0.0
  0
VERTEX
  5
49EC
330
49DC
100
AcDbEntity
  8
LW 5006-19-01
100
AcDbVertex
100
AcDb2dVertex
 10
-98.96869652718283
 20
-2.951765060424747
 30
0.0
  0
VERTEX
  5
49ED
330
49DC
100
AcDbEntity
  8
LW 5006-19-01
100
AcDbVertex
100
AcDb2dVertex
 10
-98.79042845964409
 20
-2.914128303527775
 30
0.0
  0
VERTEX
  5
49EE
330
49DC
100
AcDbEntity
  8
LW 5006-19-01
100
AcDbVertex
100
AcDb2dVertex
 10
-98.61364741623379
 20
-2.865643501281681
 30
0.0
  0
VERTEX
  5
49EF
330
49DC
100
AcDbEntity
  8
LW 5006-19-01
100
AcDbVertex
100
AcDb2dVertex
 10
-98.43959566950776
 20
-2.806267738342228
 30
0.0
  0
VERTEX
  5
49F0
330
49DC
100
AcDbEntity
  8
LW 5006-19-01
100
AcDbVertex
100
AcDb2dVertex
 10
-98.26950673758961
 20
-2.735972404479923
 30
0.0
  0
VERTEX
  5
49F1
330
49DC
100
AcDbEntity
  8
LW 5006-19-01
100
AcDbVertex
100
AcDb2dVertex
 10
-98.1044158041475
 20
-2.655181884765568
 30
0.0
  0
VERTEX
  5
49F2
330
49DC
100
AcDbEntity
  8
LW 5006-19-01
100
AcDbVertex
100
AcDb2dVertex
 10
-97.94516113400437
 20
-2.564802169799747
 30
0.0
  0
VERTEX
  5
49F3
330
49DC
100
AcDbEntity
  8
LW 5006-19-01
100
AcDbVertex
100
AcDb2dVertex
 10
-97.79257220029808
 20
-2.465748786926212
 30
0.0
  0
VERTEX
  5
49F4
330
49DC
100
AcDbEntity
  8
LW 5006-19-01
100
AcDbVertex
100
AcDb2dVertex
 10
-97.64747884869553
 20
-2.358942031860294
 30
0.0
  0
VERTEX
  5
49F5
330
49DC
100
AcDbEntity
  8
LW 5006-19-01
100
AcDbVertex
100
AcDb2dVertex
 10
-97.51071092486359
 20
-2.245292663574161
 30
0.0
  0
SEQEND
  5
49F6
330
49DC
100
AcDbEntity
  8
LW 5006-19-01
  0
POLYLINE
  5
49F7
330
48A3
100
AcDbEntity
  8
LW 5006-19-01
100
AcDb2dPolyline
 66
     1
 10
0.0
 20
0.0
 30
0.0
 70
   128
  0
VERTEX
  5
49F8
330
49F7
100
AcDbEntity
  8
LW 5006-19-01
100
AcDbVertex
100
AcDb2dVertex
 10
-98.97905547916867
 20
2.954421043396109
 30
0.0
  0
VERTEX
  5
49F9
330
49F7
100
AcDbEntity
  8
LW 5006-19-01
100
AcDbVertex
100
AcDb2dVertex
 10
-99.09025546908356
 20
2.971868515014762
 30
0.0
  0
VERTEX
  5
49FA
330
49F7
100
AcDbEntity
  8
LW 5006-19-01
100
AcDbVertex
100
AcDb2dVertex
 10
-99.20123874023534
 20
2.985053062439078
 30
0.0
  0
VERTEX
  5
49FB
330
49F7
100
AcDbEntity
  8
LW 5006-19-01
100
AcDbVertex
100
AcDb2dVertex
 10
-99.31169180944539
 20
2.994055747985953
 30
0.0
  0
VERTEX
  5
49FC
330
49F7
100
AcDbEntity
  8
LW 5006-19-01
100
AcDbVertex
100
AcDb2dVertex
 10
-99.42130121216155
 20
2.998957633972281
 30
0.0
  0
VERTEX
  5
49FD
330
49F7
100
AcDbEntity
  8
LW 5006-19-01
100
AcDbVertex
100
AcDb2dVertex
 10
-99.52985737053655
 20
2.999844551086539
 30
0.0
  0
VERTEX
  5
49FE
330
49F7
100
AcDbEntity
  8
LW 5006-19-01
100
AcDbVertex
100
AcDb2dVertex
 10
-99.63896403834201
 20
2.99663066864025
 30
0.0
  0
VERTEX
  5
49FF
330
49F7
100
AcDbEntity
  8
LW 5006-19-01
100
AcDbVertex
100
AcDb2dVertex
 10
-99.74903791025258
 20
2.989268302917594
 30
0.0
  0
VERTEX
  5
4A00
330
49F7
100
AcDbEntity
  8
LW 5006-19-01
100
AcDbVertex
100
AcDb2dVertex
 10
-99.85977926105238
 20
2.977743148803824
 30
0.0
  0
VERTEX
  5
4A01
330
49F7
100
AcDbEntity
  8
LW 5006-19-01
100
AcDbVertex
100
AcDb2dVertex
 10
-99.9708883911369
 20
2.962045669555777
 30
0.0
  0
VERTEX
  5
4A02
330
49F7
100
AcDbEntity
  8
LW 5006-19-01
100
AcDbVertex
100
AcDb2dVertex
 10
-100.0820654705164
 20
2.942166328430289
 30
0.0
  0
VERTEX
  5
4A03
330
49F7
100
AcDbEntity
  8
LW 5006-19-01
100
AcDbVertex
100
AcDb2dVertex
 10
-100.1930108368394
 20
2.918090820312613
 30
0.0
  0
VERTEX
  5
4A04
330
49F7
100
AcDbEntity
  8
LW 5006-19-01
100
AcDbVertex
100
AcDb2dVertex
 10
-100.3034247159955
 20
2.889814376831168
 30
0.0
  0
VERTEX
  5
4A05
330
49F7
100
AcDbEntity
  8
LW 5006-19-01
100
AcDbVertex
100
AcDb2dVertex
 10
-100.4130074083803
 20
2.857322692871207
 30
0.0
  0
VERTEX
  5
4A06
330
49F7
100
AcDbEntity
  8
LW 5006-19-01
100
AcDbVertex
100
AcDb2dVertex
 10
-100.5214591771362
 20
2.820611000061148
 30
0.0
  0
VERTEX
  5
4A07
330
49F7
100
AcDbEntity
  8
LW 5006-19-01
100
AcDbVertex
100
AcDb2dVertex
 10
-100.6284802109
 20
2.779660224914664
 30
0.0
  0
VERTEX
  5
4A08
330
49F7
100
AcDbEntity
  8
LW 5006-19-01
100
AcDbVertex
100
AcDb2dVertex
 10
-100.7337806075809
 20
2.7344846725465
 30
0.0
  0
VERTEX
  5
4A09
330
49F7
100
AcDbEntity
  8
LW 5006-19-01
100
AcDbVertex
100
AcDb2dVertex
 10
-100.8371343910692
 20
2.685241699218863
 30
0.0
  0
VERTEX
  5
4A0A
330
49F7
100
AcDbEntity
  8
LW 5006-19-01
100
AcDbVertex
100
AcDb2dVertex
 10
-100.93834143877
 20
2.632155418396109
 30
0.0
  0
VERTEX
  5
4A0B
330
49F7
100
AcDbEntity
  8
LW 5006-19-01
100
AcDbVertex
100
AcDb2dVertex
 10
-101.0372014045713
 20
2.575445175171012
 30
0.0
  0
VERTEX
  5
4A0C
330
49F7
100
AcDbEntity
  8
LW 5006-19-01
100
AcDbVertex
100
AcDb2dVertex
 10
-101.1335141658781
 20
2.515335083007926
 30
0.0
  0
VERTEX
  5
4A0D
330
49F7
100
AcDbEntity
  8
LW 5006-19-01
100
AcDbVertex
100
AcDb2dVertex
 10
-101.2270796000955
 20
2.452039718628043
 30
0.0
  0
VERTEX
  5
4A0E
330
49F7
100
AcDbEntity
  8
LW 5006-19-01
100
AcDbVertex
100
AcDb2dVertex
 10
-101.3176972866056
 20
2.385787963867301
 30
0.0
  0
VERTEX
  5
4A0F
330
49F7
100
AcDbEntity
  8
LW 5006-19-01
100
AcDbVertex
100
AcDb2dVertex
 10
-101.4051672518251
 20
2.316799163818473
 30
0.0
  0
VERTEX
  5
4A10
330
49F7
100
AcDbEntity
  8
LW 5006-19-01
100
AcDbVertex
100
AcDb2dVertex
 10
-101.4892890751359
 20
2.245292663574332
 30
0.0
  0
SEQEND
  5
4A11
330
49F7
100
AcDbEntity
  8
LW 5006-19-01
  0
ARC
  5
4A12
330
48A3
100
AcDbEntity
  8
LW 5006-19-01
100
AcDbCircle
 10
-99.49999999999977
 20
0.0000000000000568
 30
0.0
 40
3.000000000000003
100
AcDbArc
 50
131.5403479572199
 51
228.4596520427801
  0
ARC
  5
4A13
330
48A3
100
AcDbEntity
  8
LW 5006-19-01
100
AcDbCircle
 10
-99.49999999999977
 20
0.0000000000000568
 30
0.0
 40
3.000000000000001
100
AcDbArc
 50
311.5403479572178
 51
48.45965204278008
  0
CIRCLE
  5
4A14
330
48A3
100
AcDbEntity
  8
LW 5006-19-01
100
AcDbCircle
 10
-99.49999999999977
 20
0.0000000000000568
 30
0.0
 40
2.645824477365627
  0
LINE
  5
4A15
330
48A3
100
AcDbEntity
  8
LW 5006-19-01
100
AcDbLine
 10
-99.82356666283841
 20
-1.701559465519551
 30
0.0
 11
-101.1353770546091
 21
-0.5705627829236733
 31
0.0
  0
LINE
  5
4A16
330
48A3
100
AcDbEntity
  8
LW 5006-19-01
100
AcDbLine
 10
-101.1353770546091
 20
-0.5705627829236733
 30
0.0
 11
-100.8118103917704
 21
1.130996682595934
 31
0.0
  0
LINE
  5
4A17
330
48A3
100
AcDbEntity
  8
LW 5006-19-01
100
AcDbLine
 10
-100.8118103917704
 20
1.130996682595934
 30
0.0
 11
-99.17643333716114
 21
1.701559465519721
 31
0.0
  0
LINE
  5
4A18
330
48A3
100
AcDbEntity
  8
LW 5006-19-01
100
AcDbLine
 10
-99.17643333716114
 20
1.701559465519721
 30
0.0
 11
-97.8646229453907
 21
0.5705627829238438
 31
0.0
  0
LINE
  5
4A19
330
48A3
100
AcDbEntity
  8
LW 5006-19-01
100
AcDbLine
 10
-98.18818960822932
 20
-1.130996682595764
 30
0.0
 11
-99.82356666283841
 21
-1.701559465519551
 31
0.0
  0
LINE
  5
4A1A
330
48A3
100
AcDbEntity
  8
LW 5006-19-01
100
AcDbLine
 10
-97.8646229453907
 20
0.5705627829238438
 30
0.0
 11
-98.18818960822932
 21
-1.130996682595764
 31
0.0
  0
LINE
  5
4A1B
330
48A3
100
AcDbEntity
  8
LW 5006-19-01
100
AcDbLine
 10
-105.2730999999999
 20
77.00000000000006
 30
0.0
 11
-93.72689999999989
 21
77.00000000000006
 31
0.0
  0
LINE
  5
4A1C
330
48A3
100
AcDbEntity
  8
LW 5006-19-01
100
AcDbLine
 10
-92.49999999999976
 20
75.77310000000017
 30
0.0
 11
-106.4999999999997
 21
75.77310000000017
 31
0.0
  0
LINE
  5
4A1D
330
48A3
100
AcDbEntity
  8
LW 5006-19-01
100
AcDbLine
 10
-93.72689999999989
 20
77.00000000000006
 30
0.0
 11
-92.49999999999976
 21
75.77310000000017
 31
0.0
  0
LINE
  5
4A1E
330
48A3
100
AcDbEntity
  8
LW 5006-19-01
100
AcDbLine
 10
-105.2730999999999
 20
77.00000000000006
 30
0.0
 11
-106.4999999999997
 21
75.77310000000017
 31
0.0
  0
LINE
  5
4A1F
330
48A3
100
AcDbEntity
  8
LW 5006-19-01
100
AcDbLine
 10
-92.49999999999976
 20
75.77310000000017
 30
0.0
 11
-92.49999999999976
 21
60.87500000000005
 31
0.0
  0
LINE
  5
4A20
330
48A3
100
AcDbEntity
  8
LW 5006-19-01
100
AcDbLine
 10
-106.4999999999997
 20
75.77310000000017
 30
0.0
 11
-106.4999999999997
 21
60.87500000000005
 31
0.0
  0
LINE
  5
4A21
330
48A3
100
AcDbEntity
  8
LW 5006-19-01
 62
     3
100
AcDbLine
 10
-93.7054999999998
 20
60.87500000000005
 30
0.0
 11
-93.7054999999998
 21
76.97860000000009
 31
0.0
  0
LINE
  5
4A22
330
48A3
100
AcDbEntity
  8
LW 5006-19-01
 62
     3
100
AcDbLine
 10
-105.2944999999997
 20
76.97860000000009
 30
0.0
 11
-105.2944999999997
 21
60.87500000000005
 31
0.0
  0
LINE
  5
4A23
330
48A3
100
AcDbEntity
  8
LW 5006-19-01
100
AcDbLine
 10
6.5
 20
12.00000000000005
 30
0.0
 11
6.5
 21
-11.99999999999994
 31
0.0
  0
LINE
  5
4A24
330
48A3
100
AcDbEntity
  8
LW 5006-19-01
100
AcDbLine
 10
-6.5
 20
12.00000000000005
 30
0.0
 11
-6.5
 21
-11.99999999999994
 31
0.0
  0
LINE
  5
4A25
330
48A3
100
AcDbEntity
  8
LW 5006-19-01
100
AcDbLine
 10
-6.5
 20
12.00000000000005
 30
0.0
 11
6.5
 21
12.00000000000005
 31
0.0
  0
LINE
  5
4A26
330
48A3
100
AcDbEntity
  8
LW 5006-19-01
100
AcDbLine
 10
-6.5
 20
-11.99999999999994
 30
0.0
 11
6.5
 21
-11.99999999999994
 31
0.0
  0
LINE
  5
4A27
330
48A3
100
AcDbEntity
  8
LW 5006-19-01
100
AcDbLine
 10
-11.49999999999977
 20
32.50000000000006
 30
0.0
 11
-11.49999999999977
 21
-32.49999999999995
 31
0.0
  0
LINE
  5
4A28
330
48A3
100
AcDbEntity
  8
LW 5006-19-01
100
AcDbLine
 10
-14.49999999999977
 20
32.50000000000006
 30
0.0
 11
-14.49999999999977
 21
-32.49999999999995
 31
0.0
  0
LINE
  5
4A29
330
48A3
100
AcDbEntity
  8
LW 5006-19-01
100
AcDbLine
 10
-14.49999999999977
 20
32.50000000000006
 30
0.0
 11
-11.49999999999977
 21
32.50000000000006
 31
0.0
  0
LINE
  5
4A2A
330
48A3
100
AcDbEntity
  8
LW 5006-19-01
100
AcDbLine
 10
-14.49999999999977
 20
-32.49999999999995
 30
0.0
 11
-11.49999999999977
 21
-32.49999999999995
 31
0.0
  0
LINE
  5
4A2B
330
48A3
100
AcDbEntity
  8
LW 5006-19-01
100
AcDbLine
 10
11.50000000000023
 20
-32.49999999999995
 30
0.0
 11
11.50000000000023
 21
32.50000000000006
 31
0.0
  0
LINE
  5
4A2C
330
48A3
100
AcDbEntity
  8
LW 5006-19-01
100
AcDbLine
 10
14.50000000000023
 20
-32.49999999999995
 30
0.0
 11
14.50000000000023
 21
32.50000000000006
 31
0.0
  0
LINE
  5
4A2D
330
48A3
100
AcDbEntity
  8
LW 5006-19-01
100
AcDbLine
 10
14.50000000000023
 20
-32.49999999999995
 30
0.0
 11
11.50000000000023
 21
-32.49999999999995
 31
0.0
  0
LINE
  5
4A2E
330
48A3
100
AcDbEntity
  8
LW 5006-19-01
100
AcDbLine
 10
14.50000000000023
 20
32.50000000000006
 30
0.0
 11
11.50000000000023
 21
32.50000000000006
 31
0.0
  0
LINE
  5
4A2F
330
48A3
100
AcDbEntity
  8
LW 5006-19-01
100
AcDbLine
 10
-9.499999999999772
 20
32.00000000000006
 30
0.0
 11
-9.499999999999772
 21
-31.99999999999994
 31
0.0
  0
LINE
  5
4A30
330
48A3
100
AcDbEntity
  8
LW 5006-19-01
100
AcDbLine
 10
-11.49999999999977
 20
32.00000000000006
 30
0.0
 11
-9.499999999999772
 21
32.00000000000006
 31
0.0
  0
LINE
  5
4A31
330
48A3
100
AcDbEntity
  8
LW 5006-19-01
100
AcDbLine
 10
-11.49999999999977
 20
-31.99999999999994
 30
0.0
 11
-9.499999999999772
 21
-31.99999999999994
 31
0.0
  0
LINE
  5
4A32
330
48A3
100
AcDbEntity
  8
LW 5006-19-01
100
AcDbLine
 10
9.500000000000227
 20
-31.99999999999994
 30
0.0
 11
9.500000000000227
 21
32.00000000000006
 31
0.0
  0
LINE
  5
4A33
330
48A3
100
AcDbEntity
  8
LW 5006-19-01
100
AcDbLine
 10
11.50000000000023
 20
-31.99999999999994
 30
0.0
 11
9.500000000000227
 21
-31.99999999999994
 31
0.0
  0
LINE
  5
4A34
330
48A3
100
AcDbEntity
  8
LW 5006-19-01
100
AcDbLine
 10
11.50000000000023
 20
32.00000000000006
 30
0.0
 11
9.500000000000227
 21
32.00000000000006
 31
0.0
  0
LINE
  5
4A35
330
48A3
100
AcDbEntity
  8
LW 5006-19-01
100
AcDbLine
 10
9.500000000000227
 20
-6.999999999999943
 30
0.0
 11
6.5
 21
-6.999999999999943
 31
0.0
  0
LINE
  5
4A36
330
48A3
100
AcDbEntity
  8
LW 5006-19-01
100
AcDbLine
 10
-6.499999999999772
 20
-6.999999999999943
 30
0.0
 11
-9.499999999999772
 21
-6.999999999999943
 31
0.0
  0
LINE
  5
4A37
330
48A3
100
AcDbEntity
  8
LW 5006-19-01
100
AcDbLine
 10
9.500000000000227
 20
7.000000000000056
 30
0.0
 11
6.5
 21
7.000000000000056
 31
0.0
  0
LINE
  5
4A38
330
48A3
100
AcDbEntity
  8
LW 5006-19-01
100
AcDbLine
 10
-6.499999999999772
 20
7.000000000000056
 30
0.0
 11
-9.499999999999772
 21
7.000000000000056
 31
0.0
  0
LINE
  5
4A39
330
48A3
100
AcDbEntity
  8
LW 5006-19-01
 62
     3
100
AcDbLine
 10
-9.499999999999772
 20
-5.794499999999914
 30
0.0
 11
-6.499999999999772
 21
-5.794499999999914
 31
0.0
  0
LINE
  5
4A3A
330
48A3
100
AcDbEntity
  8
LW 5006-19-01
 62
     3
100
AcDbLine
 10
6.5
 20
-5.794499999999914
 30
0.0
 11
9.500000000000227
 21
-5.794499999999914
 31
0.0
  0
LINE
  5
4A3B
330
48A3
100
AcDbEntity
  8
LW 5006-19-01
 62
     3
100
AcDbLine
 10
9.500000000000227
 20
5.794500000000084
 30
0.0
 11
6.5
 21
5.794500000000084
 31
0.0
  0
LINE
  5
4A3C
330
48A3
100
AcDbEntity
  8
LW 5006-19-01
 62
     3
100
AcDbLine
 10
-6.5
 20
5.794500000000084
 30
0.0
 11
-9.499999999999772
 21
5.794500000000084
 31
0.0
  0
LINE
  5
4A3D
330
48A3
100
AcDbEntity
  8
LW 5006-19-01
  6
MITTE2
 62
     3
100
AcDbLine
 10
-99.49999999999977
 20
96.48528480478473
 30
0.0
 11
-99.49999999999977
 21
-28.08786257571905
 31
0.0
  0
LINE
  5
4A3E
330
48A3
100
AcDbEntity
  8
LW 5006-19-01
  6
MITTE2
 62
     3
100
AcDbLine
 10
53.4212863273749
 20
0.0
 30
0.0
 11
-138.4212863273749
 21
0.0
 31
0.0
  0
LINE
  5
4A3F
330
48A3
100
AcDbEntity
  8
LW 5006-19-01
  6
VERDECKT
 62
     6
100
AcDbLine
 10
-114.160108542738
 20
60.00000000000437
 30
0.0
 11
-84.83989145726196
 21
59.99999999999573
 31
0.0
  0
ARC
  5
4A40
330
48A3
100
AcDbEntity
  8
LW 5006-19-01
  6
VERDECKT
 62
     6
100
AcDbCircle
 10
-114.1601085427376
 20
62.00000000000438
 30
0.0
 40
2.0
100
AcDbArc
 50
250.7099537807859
 51
270.0
  0
ARC
  5
4A41
330
48A3
100
AcDbEntity
  8
LW 5006-19-01
  6
VERDECKT
 62
     6
100
AcDbCircle
 10
-84.8398914572615
 20
61.99999999999573
 30
0.0
 40
2.0
100
AcDbArc
 50
270.0
 51
289.2900462191729
  0
LINE
  5
4A42
330
48A3
100
AcDbEntity
  8
LW 5006-19-01
  6
VERDECKT
 62
     6
100
AcDbLine
 10
-114.8208093921942
 20
60.11228328727276
 30
0.0
 11
-116.9999999999997
 21
60.87500000000528
 31
0.0
  0
LINE
  5
4A43
330
48A3
100
AcDbEntity
  8
LW 5006-19-01
  6
VERDECKT
 62
     6
100
AcDbLine
 10
-84.17919060780581
 20
60.11228328726367
 30
0.0
 11
-81.99999999999977
 21
60.87499999999483
 31
0.0
  0
HATCH
  5
4A44
330
48A3
100
AcDbEntity
  8
LW 5006-19-01
 62
     1
100
AcDbHatch
 10
0.0
 20
0.0
 30
0.0
210
0.0
220
0.0
230
1.0
  2
SOLID
 70
     1
 71
     0
 91
        5
 92
        7
 72
     0
 73
     1
 93
       76
 10
-107.9849828252545
 20
27.54233513799324
 10
-108.0365637870964
 20
27.57419396736606
 10
-108.1878061861121
 20
27.69235209159734
 10
-108.3282303163746
 20
27.82683016681
 10
-108.4566148780882
 20
27.97285007327156
 10
-108.573521161004
 20
28.13651886935355
 10
-108.6756990428255
 20
28.3119058227183
 10
-108.7670507224084
 20
28.49365875531868
 10
-108.8365690348546
 20
28.6748276907843
 10
-108.8365690348546
 20
26.41768975258429
 10
-108.8278793796544
 20
26.20479320018427
 10
-108.8018104140547
 20
26.00275871678429
 10
-108.7605345518545
 20
25.80724147478424
 10
-108.7062242068546
 20
25.62258630178445
 10
-108.6367069652544
 20
25.4466207839842
 10
-108.5541552408544
 20
25.27934492138439
 10
-108.4588297233104
 20
25.12877665883735
 10
-108.3521207574545
 20
24.98606905838443
 10
-108.2330724812143
 20
24.86062780281378
 10
-108.1048131704624
 20
24.74936285073642
 10
-107.9676035148545
 20
24.64934491938431
 10
-107.8220517902543
 20
24.56679319498431
 10
-107.6678104104544
 20
24.50379319478435
 10
-107.5070517892545
 20
24.45382767738448
 10
-107.3419483404545
 20
24.42558629798447
 10
-107.1681552364543
 20
24.41689664278448
 10
-106.9943621324541
 20
24.42775871178452
 10
-106.8270862698543
 20
24.45817250498436
 10
-106.6663276486542
 20
24.51248284998456
 10
-106.5099138550545
 20
24.58200009158446
 10
-106.3621897166544
 20
24.67106905738461
 10
-106.2209828196546
 20
24.77751733358451
 10
-106.0897690261345
 20
24.90021526500851
 10
-105.9686352326466
 20
25.03641431371676
 10
-105.8581897150543
 20
25.18375871418454
 10
-105.7604310940546
 20
25.34451733538464
 10
-105.6755331627505
 20
25.52014395663178
 10
-105.6018448866543
 20
25.70079319858434
 10
-105.5453621278543
 20
25.89196561298451
 10
-105.5019138518546
 20
26.09182768258444
 10
-105.4758448862544
 20
26.30037940738436
 10
-105.4671552310544
 20
26.51110354598433
 10
-105.4671552310546
 20
28.630274631737
 10
-105.5302260347894
 20
28.46973076768455
 10
-105.6208463083121
 20
28.28616662388214
 10
-105.7253760012436
 20
28.11770021771196
 10
-105.8409942396693
 20
27.95486732295132
 10
-105.9707838362092
 20
27.81095495458118
 10
-106.1101375194375
 20
27.68351906109689
 10
-106.26062576415
 20
27.5698137063535
 10
-106.3448104062545
 20
27.51784247490474
 10
-106.3448104062545
 20
26.48937940798447
 10
-106.3523704062786
 20
26.35727057997889
 10
-106.3727041994466
 20
26.22651733818435
 10
-106.4056379926544
 20
26.0983449239846
 10
-106.4512586824544
 20
25.98320699258449
 10
-106.5077414412544
 20
25.87826202673415
 10
-106.5753469587102
 20
25.78011237125003
 10
-106.6532931658544
 20
25.68993112958452
 10
-106.7380173040544
 20
25.61824147418457
 10
-106.7380173040546
 20
27.34576278844321
 10
-106.7706527448126
 20
27.33517832117019
 10
-106.956026692364
 20
27.2990665132059
 10
-107.1463164063148
 20
27.28702286042409
 10
-107.3410674996698
 20
27.29904453285354
 10
-107.527436870936
 20
27.3353502545288
 10
-107.5765690308544
 20
27.35194895720366
 10
-107.5765690308544
 20
25.58131043958435
 10
-107.6721552380545
 20
25.65082768118447
 10
-107.7547069624543
 20
25.73337940558446
 10
-107.8245717902623
 20
25.82847030243789
 10
-107.8828793766545
 20
25.93106906138434
 10
-107.9268490319664
 20
26.0497610617611
 10
-107.9589138596543
 20
26.17220699318437
 10
-107.9784655838543
 20
26.30906906258434
 10
-107.9849828252545
 20
26.45244837338447
 97
        0
 92
        7
 72
     0
 73
     1
 93
       72
 10
-107.9703842045185
 20
29.27079900302107
 10
-107.9884586873345
 20
29.39366203789388
 10
-107.9936724804547
 20
29.51772424518441
 10
-107.9936724804547
 20
30.78641390438435
 10
-107.1790173054546
 20
29.93917252238436
 10
-105.4606379896545
 20
31.70534494178452
 10
-105.4606379896545
 20
33.02400011838432
 10
-107.2029138572548
 20
31.30996563018454
 10
-108.8365690348546
 20
32.99141391138443
 10
-108.8365690348546
 20
29.55248286598436
 10
-108.8257938624065
 20
29.34449596877227
 10
-108.8003331726704
 20
29.13777776121952
 10
-108.7605345518545
 20
28.93334493298431
 10
-108.7040517930545
 20
28.74000010478432
 10
-108.6323621376546
 20
28.55317251798425
 10
-108.5463345511743
 20
28.38201237950995
 10
-108.4498793784546
 20
28.21644837898436
 10
-108.3412586884547
 20
28.06437941298447
 10
-108.2219497225585
 20
27.92868175738119
 10
-108.0914311014544
 20
27.8036897569844
 10
-107.9523966182546
 20
27.69506906698422
 10
-107.8046724798546
 20
27.60382768738447
 10
-107.6504311000544
 20
27.53213803198429
 10
-107.4896724788545
 20
27.47782768698431
 10
-107.3223966162545
 20
27.44524147998442
 10
-107.1464310984543
 20
27.43437941098438
 10
-106.9748104082546
 20
27.44524147998442
 10
-106.8075345456545
 20
27.47782768698454
 10
-106.6467759244547
 20
27.52996561818446
 10
-106.4925345446545
 20
27.59948285978436
 10
-106.3437676476305
 20
27.6913238255932
 10
-106.2042986816704
 20
27.7967032742036
 10
-106.0752573019506
 20
27.91470879181981
 10
-105.9559483360544
 20
28.04700010258449
 10
-105.8479359219186
 20
28.19912120651571
 10
-105.7495690250543
 20
28.35765527598443
 10
-105.6648448868545
 20
28.52927596618457
 10
-105.5931552314546
 20
28.71175872538453
 10
-105.5391055761106
 20
28.90598989841493
 10
-105.4953966104544
 20
29.1027932093844
 10
-105.4693276448547
 20
29.31134493418455
 10
-105.4606379896545
 20
29.52206907278452
 10
-105.4606379896545
 20
31.42510356158442
 10
-106.3339483372547
 20
30.53875873118438
 10
-106.3339483372547
 20
29.52206907278452
 10
-106.337695630194
 20
29.45540203808997
 10
-106.3476779924704
 20
29.35445431363161
 10
-106.3691414408145
 20
29.23431983049165
 10
-106.4034655788546
 20
29.11720065770607
 10
-106.4443938548465
 20
29.01570548497017
 10
-106.4725483376946
 20
28.95957031237805
 10
-106.5051345446945
 20
28.90588562255249
 10
-106.6044573036306
 20
28.77332493247633
 10
-106.6744959245425
 20
28.69972355293254
 10
-106.7423621316543
 20
28.64465720793015
 10
-106.8149207525743
 20
28.59595169053392
 10
-106.8920848907505
 20
28.55658755247788
 10
-106.9735069599746
 20
28.52716437997088
 10
-107.0606642016305
 20
28.50646562128446
 10
-107.1499938570864
 20
28.49894906953642
 10
-107.2122986848703
 20
28.5003046557477
 10
-107.2744297195504
 20
28.50630920749092
 10
-107.3376035128544
 20
28.51846603511564
 10
-107.3993000647747
 20
28.53667955241491
 10
-107.4980145478464
 20
28.58032769048424
 10
-107.5658807549584
 20
28.6218555526853
 10
-107.6439138586545
 20
28.68493375978193
 10
-107.7704365957083
 20
28.81433570014684
 10
-107.8104945488385
 20
28.87360355348443
 10
-107.8548117903583
 20
28.94989872614047
 10
-107.8969566180785
 20
29.03391900226921
 10
-107.9397966182146
 20
29.15045596815645
 97
        0
 92
        7
 72
     0
 73
     1
 93
       57
 10
-107.9483124803109
 20
33.82883598300856
 10
-107.9882848942306
 20
33.96031046618447
 10
-108.0153966184548
 20
34.09500012178438
 10
-108.0240862736546
 20
34.23837943258428
 10
-108.0240862736548
 20
35.47882771238443
 10
-108.8496035176549
 20
35.47882771238443
 10
-108.8496035176547
 20
34.24489667398444
 10
-108.8409138624547
 20
34.03417253538447
 10
-108.8126724830547
 20
33.82779322438438
 10
-108.7713966208548
 20
33.6301035685845
 10
-108.7170862758548
 20
33.44110356798438
 10
-108.6453966204549
 20
33.25644839498437
 10
-108.5627579995025
 20
33.09004149790423
 10
-108.4663028267828
 20
32.93122066981397
 10
-108.3568131712627
 20
32.78114163485481
 10
-108.2375911019187
 20
32.64658232408289
 10
-108.1088104118548
 20
32.52651735818432
 10
-107.9697759286546
 20
32.42224149578448
 10
-107.8242242040546
 20
32.33751735758443
 10
-107.6699828242545
 20
32.26582770218425
 10
-107.5092242030546
 20
32.21586218478439
 10
-107.3419483404548
 20
32.18327597778449
 10
-107.1681552364548
 20
32.17241390878445
 10
-106.9943621324546
 20
32.18327597778449
 10
-106.8270862698546
 20
32.21586218478439
 10
-106.6663276486547
 20
32.26800011598431
 10
-106.5099138550547
 20
32.33968977138449
 10
-106.3621897166547
 20
32.42658632338458
 10
-106.2226338541427
 20
32.53543294441971
 10
-106.0922890261426
 20
32.65528935859317
 10
-105.9709814395505
 20
32.79171694523331
 10
-105.8603621288548
 20
32.93927598018451
 10
-105.7626035078547
 20
33.10003460138438
 10
-105.6778793696548
 20
33.27382770538435
 10
-105.6040173004548
 20
33.45848287838459
 10
-105.5475345416548
 20
33.64965529278453
 10
-105.5040862656547
 20
33.84951736238446
 10
-105.4801897138545
 20
34.05589667338456
 10
-105.4715000586547
 20
34.26879322578458
 10
-105.4715000586547
 20
35.47882771238443
 10
-106.3296035096546
 20
35.47882771238443
 10
-106.3296035096546
 20
34.24489667398444
 10
-106.3399441993426
 20
34.11124977700848
 10
-106.3619290269989
 20
33.97899322486461
 10
-106.3962531650386
 20
33.85838081068852
 10
-106.4442200617427
 20
33.74237391376852
 10
-106.5051345446948
 20
33.63271046514439
 10
-106.5727400621508
 20
33.53564701656052
 10
-106.6525110968869
 20
33.44822908524844
 10
-106.7380173040546
 20
33.37375874018454
 10
-106.7380173040546
 20
35.47882771238443
 10
-107.5657069618546
 20
35.47882771238443
 10
-107.5657069618546
 20
33.33682770558431
 10
-107.6634655828548
 20
33.40634494718444
 10
-107.7525345486547
 20
33.49324149918431
 10
-107.8288297213107
 20
33.59438908571252
 10
-107.8959138594546
 20
33.70179322398445
 97
        0
 92
        7
 72
     0
 73
     1
 93
        6
 10
-108.8365690348548
 20
35.70910357518443
 10
-105.4671552310546
 20
35.70910357518443
 10
-105.4671552310549
 20
37.94668978918463
 10
-106.3339483372549
 20
37.94668978918441
 10
-106.3339483372549
 20
36.73231047498445
 10
-108.8365690348548
 20
36.73231047498445
 97
        0
 92
        7
 72
     0
 73
     1
 93
        8
 10
-108.8365690348548
 20
36.96475875158427
 10
-108.0110517908547
 20
36.96475875158427
 10
-108.0110517908549
 20
38.19868978998449
 10
-105.4606379896549
 20
38.19868978998449
 10
-105.4606379896549
 20
39.22406910358456
 10
-108.0110517908547
 20
39.22406910358433
 10
-108.0110517908549
 20
40.4666897971843
 10
-108.8365690348551
 20
40.4666897971843
 97
        0
 75
     0
 76
     1
 47
0.0142553043587597
 98
        5
 10
-108.3941193652654
 20
26.85199526405956
 10
-108.2515663802596
 20
29.11949247740228
 10
-108.3085875528077
 20
33.61170420960372
 10
-108.5509277774999
 20
36.33555329343546
 10
-108.4511406450865
 20
37.7473912756621
450
        0
451
        0
460
0.0
461
0.0
452
        0
462
0.0
453
        0
470

  0
LWPOLYLINE
  5
4A45
330
48A3
100
AcDbEntity
  8
LW 5006-19-01
 62
     1
100
AcDbPolyline
 90
        8
 70
     1
 43
0.0
 10
-108.0110517908547
 20
39.22406910358433
 10
-105.4606379896549
 20
39.22406910358456
 10
-105.4606379896549
 20
38.19868978998449
 10
-108.0110517908549
 20
38.19868978998449
 10
-108.0110517908547
 20
36.96475875158427
 10
-108.8365690348548
 20
36.96475875158427
 10
-108.8365690348551
 20
40.4666897971843
 10
-108.0110517908549
 20
40.4666897971843
  0
LWPOLYLINE
  5
4A46
330
48A3
100
AcDbEntity
  8
LW 5006-19-01
 62
     1
100
AcDbPolyline
 90
       73
 70
     1
 43
0.0
 10
-106.3339483372547
 20
29.52206907278452
 10
-106.3339483372547
 20
30.53875873118438
 10
-105.4606379896545
 20
31.42510356158442
 10
-105.4606379896545
 20
29.52206907278452
 10
-105.4693276448547
 20
29.31134493418455
 10
-105.4953966104544
 20
29.1027932093844
 10
-105.5391055761106
 20
28.90598989841493
 10
-105.5931552314546
 20
28.71175872538453
 10
-105.6648448868545
 20
28.52927596618457
 10
-105.7495690250543
 20
28.35765527598443
 10
-105.8479359219186
 20
28.19912120651571
 10
-105.9559483360544
 20
28.04700010258449
 10
-106.0752573019504
 20
27.91470879181958
 10
-106.2042986816704
 20
27.7967032742036
 10
-106.3437676476305
 20
27.6913238255932
 10
-106.4925345446545
 20
27.59948285978436
 10
-106.6467759244547
 20
27.52996561818446
 10
-106.8075345456545
 20
27.47782768698454
 10
-106.9748104082546
 20
27.44524147998442
 10
-107.1464310984545
 20
27.43437941098438
 10
-107.3223966162545
 20
27.44524147998442
 10
-107.4896724788545
 20
27.47782768698431
 10
-107.6504311000544
 20
27.53213803198452
 10
-107.8046724798546
 20
27.60382768738447
 10
-107.9523966182546
 20
27.69506906698445
 10
-108.0914311014544
 20
27.8036897569844
 10
-108.2219497225587
 20
27.92868175738119
 10
-108.3412586884547
 20
28.06437941298424
 10
-108.4498793784546
 20
28.21644837898436
 10
-108.5463345511743
 20
28.38201237950995
 10
-108.6323621376546
 20
28.55317251798425
 10
-108.7040517930545
 20
28.74000010478432
 10
-108.7605345518545
 20
28.93334493298431
 10
-108.8003331726704
 20
29.13777776121952
 10
-108.8257938624065
 20
29.34449596877227
 10
-108.8365690348546
 20
29.55248286598436
 10
-108.8365690348546
 20
32.99141391138443
 10
-107.2029138572548
 20
31.30996563018454
 10
-105.4606379896545
 20
33.02400011838432
 10
-105.4606379896545
 20
31.70534494178452
 10
-107.1790173054546
 20
29.93917252238436
 10
-107.9936724804547
 20
30.78641390438435
 10
-107.9936724804547
 20
29.51772424518441
 10
-107.9884586873345
 20
29.39366203789388
 10
-107.9703842045185
 20
29.27079900302107
 10
-107.9397966182146
 20
29.15045596815645
 10
-107.8969566180785
 20
29.03391900226921
 10
-107.8548117903585
 20
28.94989872614025
 10
-107.8104945488385
 20
28.87360355348443
 10
-107.7832959280627
 20
28.83336176025324
 10
-107.7523607555504
 20
28.7958485187549
 10
-107.6439138586545
 20
28.68493375978193
 10
-107.5658807549584
 20
28.6218555526853
 10
-107.4980145478466
 20
28.58032769048447
 10
-107.3993000647747
 20
28.53667955241491
 10
-107.3376035128544
 20
28.51846603511564
 10
-107.2744297195504
 20
28.50630920749092
 10
-107.2122986848706
 20
28.5003046557477
 10
-107.1499938570864
 20
28.49894906953642
 10
-107.0606642016305
 20
28.50646562128446
 10
-106.9735069599746
 20
28.52716437997088
 10
-106.8920848907505
 20
28.55658755247811
 10
-106.8149207525743
 20
28.59595169053392
 10
-106.7423621316545
 20
28.64465720792992
 10
-106.6744959245425
 20
28.69972355293254
 10
-106.6044573036306
 20
28.77332493247633
 10
-106.5051345446945
 20
28.90588562255249
 10
-106.4725483376946
 20
28.95957031237805
 10
-106.4443938548465
 20
29.01570548497017
 10
-106.4034655788546
 20
29.11720065770607
 10
-106.3691414408145
 20
29.23431983049165
 10
-106.3476779924704
 20
29.35445431363161
 10
-106.337695630194
 20
29.45540203808997
  0
LWPOLYLINE
  5
4A47
330
48A3
100
AcDbEntity
  8
LW 5006-19-01
 62
     1
100
AcDbPolyline
 90
       76
 70
     1
 43
0.0
 10
-108.6756990428255
 20
28.3119058227183
 10
-108.5735211610038
 20
28.13651886935355
 10
-108.4566148780882
 20
27.97285007327156
 10
-108.3282303163746
 20
27.82683016681
 10
-108.1878061861121
 20
27.69235209159734
 10
-108.0365637870964
 20
27.57419396736606
 10
-107.9849828252545
 20
27.54233513799324
 10
-107.9849828252545
 20
26.45244837338447
 10
-107.9784655838543
 20
26.30906906258434
 10
-107.9589138596543
 20
26.17220699318437
 10
-107.9268490319664
 20
26.0497610617611
 10
-107.8828793766545
 20
25.93106906138434
 10
-107.8245717902623
 20
25.82847030243812
 10
-107.7547069624543
 20
25.73337940558446
 10
-107.6721552380545
 20
25.65082768118424
 10
-107.5765690308544
 20
25.58131043958435
 10
-107.5765690308544
 20
27.35194895720366
 10
-107.527436870936
 20
27.3353502545288
 10
-107.3410674996694
 20
27.29904453285332
 10
-107.1463164063148
 20
27.28702286042409
 10
-106.956026692364
 20
27.2990665132059
 10
-106.7706527448128
 20
27.33517832117042
 10
-106.7380173040546
 20
27.34576278844321
 10
-106.7380173040544
 20
25.61824147418457
 10
-106.6532931658544
 20
25.68993112958452
 10
-106.5753469587102
 20
25.78011237125003
 10
-106.5077414412544
 20
25.87826202673415
 10
-106.4512586824544
 20
25.98320699258449
 10
-106.4056379926546
 20
26.0983449239846
 10
-106.3727041994466
 20
26.22651733818435
 10
-106.3523704062786
 20
26.35727057997889
 10
-106.3448104062545
 20
26.48937940798447
 10
-106.3448104062545
 20
27.51784247490474
 10
-106.26062576415
 20
27.5698137063535
 10
-106.1101375194375
 20
27.68351906109689
 10
-105.9707838362092
 20
27.81095495458118
 10
-105.8409942396693
 20
27.95486732295132
 10
-105.7253760012436
 20
28.11770021771196
 10
-105.6208463083121
 20
28.28616662388214
 10
-105.5302260347894
 20
28.46973076768455
 10
-105.4671552310546
 20
28.630274631737
 10
-105.4671552310542
 20
26.51110354598456
 10
-105.4758448862544
 20
26.30037940738436
 10
-105.5019138518546
 20
26.09182768258444
 10
-105.5453621278543
 20
25.89196561298451
 10
-105.6018448866543
 20
25.70079319858456
 10
-105.6755331627505
 20
25.52014395663156
 10
-105.7604310940546
 20
25.34451733538464
 10
-105.8581897150543
 20
25.18375871418454
 10
-105.9686352326464
 20
25.03641431371676
 10
-106.0897690261345
 20
24.90021526500851
 10
-106.2209828196544
 20
24.77751733358451
 10
-106.3621897166544
 20
24.67106905738439
 10
-106.5099138550545
 20
24.58200009158446
 10
-106.6663276486542
 20
24.51248284998456
 10
-106.8270862698543
 20
24.45817250498436
 10
-106.9943621324546
 20
24.42775871178452
 10
-107.1681552364543
 20
24.41689664278448
 10
-107.3419483404543
 20
24.42558629798424
 10
-107.5070517892545
 20
24.45382767738448
 10
-107.6678104104544
 20
24.50379319478435
 10
-107.8220517902543
 20
24.56679319498431
 10
-107.9676035148545
 20
24.64934491938431
 10
-108.1048131704624
 20
24.74936285073642
 10
-108.2330724812145
 20
24.86062780281378
 10
-108.3521207574545
 20
24.98606905838443
 10
-108.4588297233104
 20
25.12877665883735
 10
-108.5541552408544
 20
25.27934492138439
 10
-108.6367069652542
 20
25.44662078398443
 10
-108.7062242068546
 20
25.62258630178445
 10
-108.7605345518545
 20
25.80724147478446
 10
-108.8018104140547
 20
26.00275871678429
 10
-108.8278793796544
 20
26.20479320018427
 10
-108.8365690348546
 20
26.41768975258429
 10
-108.8365690348546
 20
28.67482769078453
 10
-108.7670507224084
 20
28.49365875531868
  0
LWPOLYLINE
  5
4A48
330
48A3
100
AcDbEntity
  8
LW 5006-19-01
 62
     1
100
AcDbPolyline
 90
        6
 70
     1
 43
0.0
 10
-105.4671552310549
 20
37.94668978918463
 10
-105.4671552310546
 20
35.70910357518443
 10
-108.8365690348548
 20
35.70910357518443
 10
-108.8365690348548
 20
36.73231047498445
 10
-106.3339483372549
 20
36.73231047498445
 10
-106.3339483372549
 20
37.94668978918441
  0
LWPOLYLINE
  5
4A49
330
48A3
100
AcDbEntity
  8
LW 5006-19-01
 62
     1
100
AcDbPolyline
 90
       57
 70
     1
 43
0.0
 10
-106.0922890261426
 20
32.65528935859317
 10
-106.2226338541427
 20
32.53543294441971
 10
-106.3621897166544
 20
32.42658632338436
 10
-106.5099138550547
 20
32.33968977138449
 10
-106.6663276486547
 20
32.26800011598431
 10
-106.8270862698546
 20
32.21586218478439
 10
-106.9943621324546
 20
32.18327597778449
 10
-107.1681552364548
 20
32.17241390878445
 10
-107.3419483404545
 20
32.18327597778449
 10
-107.5092242030546
 20
32.21586218478439
 10
-107.6699828242545
 20
32.26582770218425
 10
-107.8242242040546
 20
32.33751735758443
 10
-107.9697759286546
 20
32.42224149578425
 10
-108.1088104118548
 20
32.52651735818432
 10
-108.2375911019185
 20
32.64658232408266
 10
-108.3568131712627
 20
32.78114163485481
 10
-108.4663028267828
 20
32.93122066981397
 10
-108.5627579995027
 20
33.09004149790445
 10
-108.6453966204549
 20
33.25644839498437
 10
-108.7170862758548
 20
33.44110356798438
 10
-108.7713966208548
 20
33.6301035685845
 10
-108.8126724830547
 20
33.82779322438438
 10
-108.8409138624547
 20
34.03417253538447
 10
-108.8496035176547
 20
34.24489667398444
 10
-108.8496035176549
 20
35.47882771238443
 10
-108.0240862736548
 20
35.47882771238443
 10
-108.0240862736546
 20
34.23837943258451
 10
-108.0153966184548
 20
34.09500012178438
 10
-107.9882848942306
 20
33.96031046618447
 10
-107.9483124803107
 20
33.82883598300833
 10
-107.8959138594546
 20
33.70179322398445
 10
-107.8288297213107
 20
33.59438908571252
 10
-107.7525345486547
 20
33.49324149918431
 10
-107.6634655828548
 20
33.40634494718444
 10
-107.5657069618546
 20
33.33682770558431
 10
-107.5657069618546
 20
35.47882771238443
 10
-106.7380173040546
 20
35.47882771238443
 10
-106.7380173040546
 20
33.37375874018454
 10
-106.6525110968869
 20
33.44822908524844
 10
-106.5727400621508
 20
33.53564701656052
 10
-106.5051345446948
 20
33.63271046514439
 10
-106.4442200617427
 20
33.74237391376852
 10
-106.3962531650386
 20
33.85838081068852
 10
-106.3619290269989
 20
33.97899322486461
 10
-106.3399441993426
 20
34.11124977700848
 10
-106.3296035096546
 20
34.24489667398444
 10
-106.3296035096546
 20
35.47882771238443
 10
-105.4715000586547
 20
35.47882771238443
 10
-105.4715000586547
 20
34.26879322578458
 10
-105.4801897138545
 20
34.05589667338456
 10
-105.5040862656547
 20
33.84951736238446
 10
-105.5475345416548
 20
33.64965529278453
 10
-105.6040173004548
 20
33.45848287838459
 10
-105.6778793696548
 20
33.27382770538435
 10
-105.7626035078547
 20
33.10003460138438
 10
-105.8603621288548
 20
32.93927598018451
 10
-105.9709814395505
 20
32.79171694523331
  0
LINE
  5
4A4A
330
48A3
100
AcDbEntity
  8
LW 5006-19-01
  6
MITTE2
 62
     3
100
AcDbLine
 10
0.0
 20
37.00000000000006
 30
0.0
 11
0.0
 21
-37.00000000000006
 31
0.0
  0
INSERT
  5
4A4B
330
48A3
100
AcDbEntity
  8
LW 5006-19-01
100
AcDbBlockReference
 66
     1
  2
insertpoint-ECKELT
 10
0.0
 20
0.0
 30
0.0
  0
ATTRIB
  5
4A4C
330
4A4B
100
AcDbEntity
  8
insertpoint_ECKELT
100
AcDbText
 10
-6.93151432469286
 20
0.0
 30
0.0
 40
0.6
  1
LW 5006/19-01
 72
     2
 11
-1.199999999999818
 21
0.0
 31
0.0
100
AcDbAttribute
  2
LINKS
 70
     0
  0
ATTRIB
  5
4A4D
330
4A4B
100
AcDbEntity
  8
insertpoint_ECKELT
100
AcDbText
 10
1.199999999999818
 20
0.0
 30
0.0
 40
0.6
  1

100
AcDbAttribute
  2
RECHTS
 70
     0
  0
SEQEND
  5
4A4E
330
4A4B
100
AcDbEntity
  8
LW 5006-19-01
  0
ENDBLK
  5
48A5
330
48A3
100
AcDbEntity
  8
0
100
AcDbBlockEnd
  0
BLOCK
  5
4A51
330
4A50
100
AcDbEntity
  8
0
100
AcDbBlockBegin
  2
LW 5006-19-01_b
 70
     0
 10
0.0
 20
0.0
 30
0.0
  3
LW 5006-19-01_b
  1

  0
POLYLINE
  5
4A53
330
4A50
100
AcDbEntity
  8
LW 5006-19-01
100
AcDb2dPolyline
 66
     1
 10
0.0
 20
0.0
 30
0.0
 70
   128
  0
VERTEX
  5
4A54
330
4A53
100
AcDbEntity
  8
LW 5006-19-01
100
AcDbVertex
100
AcDb2dVertex
 10
32.0
 20
-21.65063619614023
 30
0.0
  0
VERTEX
  5
4A55
330
4A53
100
AcDbEntity
  8
LW 5006-19-01
100
AcDbVertex
100
AcDb2dVertex
 10
31.97898697853089
 20
-21.80843830109006
 30
0.0
  0
VERTEX
  5
4A56
330
4A53
100
AcDbEntity
  8
LW 5006-19-01
100
AcDbVertex
100
AcDb2dVertex
 10
31.91565704345703
 20
-21.96433782577878
 30
0.0
  0
VERTEX
  5
4A57
330
4A53
100
AcDbEntity
  8
LW 5006-19-01
100
AcDbVertex
100
AcDb2dVertex
 10
31.80957746505737
 20
-22.11326599121457
 30
0.0
  0
VERTEX
  5
4A58
330
4A53
100
AcDbEntity
  8
LW 5006-19-01
100
AcDbVertex
100
AcDb2dVertex
 10
31.66169476509094
 20
-22.25069761276586
 30
0.0
  0
VERTEX
  5
4A59
330
4A53
100
AcDbEntity
  8
LW 5006-19-01
100
AcDbVertex
100
AcDb2dVertex
 10
31.47847723960877
 20
-22.37386226654394
 30
0.0
  0
VERTEX
  5
4A5A
330
4A53
100
AcDbEntity
  8
LW 5006-19-01
100
AcDbVertex
100
AcDb2dVertex
 10
31.2677652835846
 20
-22.48032569885595
 30
0.0
  0
VERTEX
  5
4A5B
330
4A53
100
AcDbEntity
  8
LW 5006-19-01
100
AcDbVertex
100
AcDb2dVertex
 10
31.02740001678467
 20
-22.57195234299024
 30
0.0
  0
VERTEX
  5
4A5C
330
4A53
100
AcDbEntity
  8
LW 5006-19-01
100
AcDbVertex
100
AcDb2dVertex
 10
30.75476121902466
 20
-22.6503801345857
 30
0.0
  0
VERTEX
  5
4A5D
330
4A53
100
AcDbEntity
  8
LW 5006-19-01
100
AcDbVertex
100
AcDb2dVertex
 10
30.45699787139893
 20
-22.71283626556715
 30
0.0
  0
VERTEX
  5
4A5E
330
4A53
100
AcDbEntity
  8
LW 5006-19-01
100
AcDbVertex
100
AcDb2dVertex
 10
30.14183115959168
 20
-22.75718688965162
 30
0.0
  0
VERTEX
  5
4A5F
330
4A53
100
AcDbEntity
  8
LW 5006-19-01
100
AcDbVertex
100
AcDb2dVertex
 10
29.8192925453186
 20
-22.78345584869703
 30
0.0
  0
VERTEX
  5
4A60
330
4A53
100
AcDbEntity
  8
LW 5006-19-01
100
AcDbVertex
100
AcDb2dVertex
 10
29.5
 20
-22.79211044311842
 30
0.0
  0
VERTEX
  5
4A61
330
4A53
100
AcDbEntity
  8
LW 5006-19-01
100
AcDbVertex
100
AcDb2dVertex
 10
29.1807074546814
 20
-22.78345584869703
 30
0.0
  0
VERTEX
  5
4A62
330
4A53
100
AcDbEntity
  8
LW 5006-19-01
100
AcDbVertex
100
AcDb2dVertex
 10
28.85816884040833
 20
-22.75718688965162
 30
0.0
  0
VERTEX
  5
4A63
330
4A53
100
AcDbEntity
  8
LW 5006-19-01
100
AcDbVertex
100
AcDb2dVertex
 10
28.54300212860108
 20
-22.71283626556715
 30
0.0
  0
VERTEX
  5
4A64
330
4A53
100
AcDbEntity
  8
LW 5006-19-01
100
AcDbVertex
100
AcDb2dVertex
 10
28.24523878097534
 20
-22.6503801345857
 30
0.0
  0
VERTEX
  5
4A65
330
4A53
100
AcDbEntity
  8
LW 5006-19-01
100
AcDbVertex
100
AcDb2dVertex
 10
27.97259998321533
 20
-22.57195234299024
 30
0.0
  0
VERTEX
  5
4A66
330
4A53
100
AcDbEntity
  8
LW 5006-19-01
100
AcDbVertex
100
AcDb2dVertex
 10
27.73223471641541
 20
-22.48032569885595
 30
0.0
  0
VERTEX
  5
4A67
330
4A53
100
AcDbEntity
  8
LW 5006-19-01
100
AcDbVertex
100
AcDb2dVertex
 10
27.52152276039124
 20
-22.37386226654394
 30
0.0
  0
VERTEX
  5
4A68
330
4A53
100
AcDbEntity
  8
LW 5006-19-01
100
AcDbVertex
100
AcDb2dVertex
 10
27.33830523490906
 20
-22.25069761276586
 30
0.0
  0
VERTEX
  5
4A69
330
4A53
100
AcDbEntity
  8
LW 5006-19-01
100
AcDbVertex
100
AcDb2dVertex
 10
27.19042253494263
 20
-22.11326599121457
 30
0.0
  0
VERTEX
  5
4A6A
330
4A53
100
AcDbEntity
  8
LW 5006-19-01
100
AcDbVertex
100
AcDb2dVertex
 10
27.08434295654297
 20
-21.96433782577878
 30
0.0
  0
VERTEX
  5
4A6B
330
4A53
100
AcDbEntity
  8
LW 5006-19-01
100
AcDbVertex
100
AcDb2dVertex
 10
27.02101302146912
 20
-21.80843830109006
 30
0.0
  0
VERTEX
  5
4A6C
330
4A53
100
AcDbEntity
  8
LW 5006-19-01
100
AcDbVertex
100
AcDb2dVertex
 10
27.0
 20
-21.65063619614023
 30
0.0
  0
SEQEND
  5
4A6D
330
4A53
100
AcDbEntity
  8
LW 5006-19-01
  0
POLYLINE
  5
4A6E
330
4A50
100
AcDbEntity
  8
LW 5006-19-01
100
AcDb2dPolyline
 66
     1
 10
0.0
 20
0.0
 30
0.0
 70
   128
  0
VERTEX
  5
4A6F
330
4A6E
100
AcDbEntity
  8
LW 5006-19-01
100
AcDbVertex
100
AcDb2dVertex
 10
27.0
 20
-21.65063619614023
 30
0.0
  0
VERTEX
  5
4A70
330
4A6E
100
AcDbEntity
  8
LW 5006-19-01
100
AcDbVertex
100
AcDb2dVertex
 10
27.02101302146912
 20
-21.48914575577169
 30
0.0
  0
VERTEX
  5
4A71
330
4A6E
100
AcDbEntity
  8
LW 5006-19-01
100
AcDbVertex
100
AcDb2dVertex
 10
27.08434295654297
 20
-21.32250547409455
 30
0.0
  0
VERTEX
  5
4A72
330
4A6E
100
AcDbEntity
  8
LW 5006-19-01
100
AcDbVertex
100
AcDb2dVertex
 10
27.19042253494263
 20
-21.15626573563031
 30
0.0
  0
VERTEX
  5
4A73
330
4A6E
100
AcDbEntity
  8
LW 5006-19-01
100
AcDbVertex
100
AcDb2dVertex
 10
27.33830523490906
 20
-20.9959340095561
 30
0.0
  0
VERTEX
  5
4A74
330
4A6E
100
AcDbEntity
  8
LW 5006-19-01
100
AcDbVertex
100
AcDb2dVertex
 10
27.52152276039124
 20
-20.84645748138848
 30
0.0
  0
VERTEX
  5
4A75
330
4A6E
100
AcDbEntity
  8
LW 5006-19-01
100
AcDbVertex
100
AcDb2dVertex
 10
27.73223471641541
 20
-20.71255683899346
 30
0.0
  0
VERTEX
  5
4A76
330
4A6E
100
AcDbEntity
  8
LW 5006-19-01
100
AcDbVertex
100
AcDb2dVertex
 10
27.97259998321533
 20
-20.59347152710393
 30
0.0
  0
VERTEX
  5
4A77
330
4A6E
100
AcDbEntity
  8
LW 5006-19-01
100
AcDbVertex
100
AcDb2dVertex
 10
28.24523878097534
 20
-20.48868179321721
 30
0.0
  0
VERTEX
  5
4A78
330
4A6E
100
AcDbEntity
  8
LW 5006-19-01
100
AcDbVertex
100
AcDb2dVertex
 10
28.54300212860108
 20
-20.40325641632512
 30
0.0
  0
VERTEX
  5
4A79
330
4A6E
100
AcDbEntity
  8
LW 5006-19-01
100
AcDbVertex
100
AcDb2dVertex
 10
28.85816884040833
 20
-20.34152984619573
 30
0.0
  0
VERTEX
  5
4A7A
330
4A6E
100
AcDbEntity
  8
LW 5006-19-01
100
AcDbVertex
100
AcDb2dVertex
 10
29.1807074546814
 20
-20.30447006226018
 30
0.0
  0
VERTEX
  5
4A7B
330
4A6E
100
AcDbEntity
  8
LW 5006-19-01
100
AcDbVertex
100
AcDb2dVertex
 10
29.5
 20
-20.29211044311955
 30
0.0
  0
VERTEX
  5
4A7C
330
4A6E
100
AcDbEntity
  8
LW 5006-19-01
100
AcDbVertex
100
AcDb2dVertex
 10
29.8192925453186
 20
-20.30447006226018
 30
0.0
  0
VERTEX
  5
4A7D
330
4A6E
100
AcDbEntity
  8
LW 5006-19-01
100
AcDbVertex
100
AcDb2dVertex
 10
30.14183115959168
 20
-20.34152984619573
 30
0.0
  0
VERTEX
  5
4A7E
330
4A6E
100
AcDbEntity
  8
LW 5006-19-01
100
AcDbVertex
100
AcDb2dVertex
 10
30.45699787139893
 20
-20.40325641632512
 30
0.0
  0
VERTEX
  5
4A7F
330
4A6E
100
AcDbEntity
  8
LW 5006-19-01
100
AcDbVertex
100
AcDb2dVertex
 10
30.75476121902466
 20
-20.48868179321721
 30
0.0
  0
VERTEX
  5
4A80
330
4A6E
100
AcDbEntity
  8
LW 5006-19-01
100
AcDbVertex
100
AcDb2dVertex
 10
31.02740001678467
 20
-20.59347152710393
 30
0.0
  0
VERTEX
  5
4A81
330
4A6E
100
AcDbEntity
  8
LW 5006-19-01
100
AcDbVertex
100
AcDb2dVertex
 10
31.2677652835846
 20
-20.71255683899346
 30
0.0
  0
VERTEX
  5
4A82
330
4A6E
100
AcDbEntity
  8
LW 5006-19-01
100
AcDbVertex
100
AcDb2dVertex
 10
31.47847723960877
 20
-20.84645748138848
 30
0.0
  0
VERTEX
  5
4A83
330
4A6E
100
AcDbEntity
  8
LW 5006-19-01
100
AcDbVertex
100
AcDb2dVertex
 10
31.66169476509094
 20
-20.9959340095561
 30
0.0
  0
VERTEX
  5
4A84
330
4A6E
100
AcDbEntity
  8
LW 5006-19-01
100
AcDbVertex
100
AcDb2dVertex
 10
31.80957746505737
 20
-21.15626573563031
 30
0.0
  0
VERTEX
  5
4A85
330
4A6E
100
AcDbEntity
  8
LW 5006-19-01
100
AcDbVertex
100
AcDb2dVertex
 10
31.91565704345703
 20
-21.32250547409455
 30
0.0
  0
VERTEX
  5
4A86
330
4A6E
100
AcDbEntity
  8
LW 5006-19-01
100
AcDbVertex
100
AcDb2dVertex
 10
31.97898697853089
 20
-21.48914575577169
 30
0.0
  0
VERTEX
  5
4A87
330
4A6E
100
AcDbEntity
  8
LW 5006-19-01
100
AcDbVertex
100
AcDb2dVertex
 10
32.0
 20
-21.65063619614023
 30
0.0
  0
SEQEND
  5
4A88
330
4A6E
100
AcDbEntity
  8
LW 5006-19-01
  0
POLYLINE
  5
4A89
330
4A50
100
AcDbEntity
  8
LW 5006-19-01
100
AcDb2dPolyline
 66
     1
 10
0.0
 20
0.0
 30
0.0
 70
   128
  0
VERTEX
  5
4A8A
330
4A89
100
AcDbEntity
  8
LW 5006-19-01
100
AcDbVertex
100
AcDb2dVertex
 10
32.0
 20
21.65063619613272
 30
0.0
  0
VERTEX
  5
4A8B
330
4A89
100
AcDbEntity
  8
LW 5006-19-01
100
AcDbVertex
100
AcDb2dVertex
 10
31.97898697853089
 20
21.48914575576396
 30
0.0
  0
VERTEX
  5
4A8C
330
4A89
100
AcDbEntity
  8
LW 5006-19-01
100
AcDbVertex
100
AcDb2dVertex
 10
31.91565704345703
 20
21.3225054740866
 30
0.0
  0
VERTEX
  5
4A8D
330
4A89
100
AcDbEntity
  8
LW 5006-19-01
100
AcDbVertex
100
AcDb2dVertex
 10
31.80957746505737
 20
21.15626573562213
 30
0.0
  0
VERTEX
  5
4A8E
330
4A89
100
AcDbEntity
  8
LW 5006-19-01
100
AcDbVertex
100
AcDb2dVertex
 10
31.66169476509094
 20
20.99593400954791
 30
0.0
  0
VERTEX
  5
4A8F
330
4A89
100
AcDbEntity
  8
LW 5006-19-01
100
AcDbVertex
100
AcDb2dVertex
 10
31.47847723960877
 20
20.84645748138007
 30
0.0
  0
VERTEX
  5
4A90
330
4A89
100
AcDbEntity
  8
LW 5006-19-01
100
AcDbVertex
100
AcDb2dVertex
 10
31.2677652835846
 20
20.71255683898505
 30
0.0
  0
VERTEX
  5
4A91
330
4A89
100
AcDbEntity
  8
LW 5006-19-01
100
AcDbVertex
100
AcDb2dVertex
 10
31.02740001678467
 20
20.59347152709529
 30
0.0
  0
VERTEX
  5
4A92
330
4A89
100
AcDbEntity
  8
LW 5006-19-01
100
AcDbVertex
100
AcDb2dVertex
 10
30.75476121902466
 20
20.48868179320857
 30
0.0
  0
VERTEX
  5
4A93
330
4A89
100
AcDbEntity
  8
LW 5006-19-01
100
AcDbVertex
100
AcDb2dVertex
 10
30.45699787139893
 20
20.40325641631648
 30
0.0
  0
VERTEX
  5
4A94
330
4A89
100
AcDbEntity
  8
LW 5006-19-01
100
AcDbVertex
100
AcDb2dVertex
 10
30.14183115959168
 20
20.34152984618708
 30
0.0
  0
VERTEX
  5
4A95
330
4A89
100
AcDbEntity
  8
LW 5006-19-01
100
AcDbVertex
100
AcDb2dVertex
 10
29.8192925453186
 20
20.30447006225154
 30
0.0
  0
VERTEX
  5
4A96
330
4A89
100
AcDbEntity
  8
LW 5006-19-01
100
AcDbVertex
100
AcDb2dVertex
 10
29.5
 20
20.29211044311091
 30
0.0
  0
VERTEX
  5
4A97
330
4A89
100
AcDbEntity
  8
LW 5006-19-01
100
AcDbVertex
100
AcDb2dVertex
 10
29.1807074546814
 20
20.30447006225154
 30
0.0
  0
VERTEX
  5
4A98
330
4A89
100
AcDbEntity
  8
LW 5006-19-01
100
AcDbVertex
100
AcDb2dVertex
 10
28.85816884040833
 20
20.34152984618708
 30
0.0
  0
VERTEX
  5
4A99
330
4A89
100
AcDbEntity
  8
LW 5006-19-01
100
AcDbVertex
100
AcDb2dVertex
 10
28.54300212860108
 20
20.40325641631648
 30
0.0
  0
VERTEX
  5
4A9A
330
4A89
100
AcDbEntity
  8
LW 5006-19-01
100
AcDbVertex
100
AcDb2dVertex
 10
28.24523878097534
 20
20.48868179320857
 30
0.0
  0
VERTEX
  5
4A9B
330
4A89
100
AcDbEntity
  8
LW 5006-19-01
100
AcDbVertex
100
AcDb2dVertex
 10
27.97259998321533
 20
20.59347152709529
 30
0.0
  0
VERTEX
  5
4A9C
330
4A89
100
AcDbEntity
  8
LW 5006-19-01
100
AcDbVertex
100
AcDb2dVertex
 10
27.73223471641541
 20
20.71255683898505
 30
0.0
  0
VERTEX
  5
4A9D
330
4A89
100
AcDbEntity
  8
LW 5006-19-01
100
AcDbVertex
100
AcDb2dVertex
 10
27.52152276039124
 20
20.84645748138007
 30
0.0
  0
VERTEX
  5
4A9E
330
4A89
100
AcDbEntity
  8
LW 5006-19-01
100
AcDbVertex
100
AcDb2dVertex
 10
27.33830523490906
 20
20.99593400954791
 30
0.0
  0
VERTEX
  5
4A9F
330
4A89
100
AcDbEntity
  8
LW 5006-19-01
100
AcDbVertex
100
AcDb2dVertex
 10
27.19042253494263
 20
21.15626573562213
 30
0.0
  0
VERTEX
  5
4AA0
330
4A89
100
AcDbEntity
  8
LW 5006-19-01
100
AcDbVertex
100
AcDb2dVertex
 10
27.08434295654297
 20
21.3225054740866
 30
0.0
  0
VERTEX
  5
4AA1
330
4A89
100
AcDbEntity
  8
LW 5006-19-01
100
AcDbVertex
100
AcDb2dVertex
 10
27.02101302146912
 20
21.48914575576396
 30
0.0
  0
VERTEX
  5
4AA2
330
4A89
100
AcDbEntity
  8
LW 5006-19-01
100
AcDbVertex
100
AcDb2dVertex
 10
27.0
 20
21.65063619613272
 30
0.0
  0
SEQEND
  5
4AA3
330
4A89
100
AcDbEntity
  8
LW 5006-19-01
  0
POLYLINE
  5
4AA4
330
4A50
100
AcDbEntity
  8
LW 5006-19-01
100
AcDb2dPolyline
 66
     1
 10
0.0
 20
0.0
 30
0.0
 70
   128
  0
VERTEX
  5
4AA5
330
4AA4
100
AcDbEntity
  8
LW 5006-19-01
100
AcDbVertex
100
AcDb2dVertex
 10
27.0
 20
21.65063619613272
 30
0.0
  0
VERTEX
  5
4AA6
330
4AA4
100
AcDbEntity
  8
LW 5006-19-01
100
AcDbVertex
100
AcDb2dVertex
 10
27.02101302146912
 20
21.80843830108279
 30
0.0
  0
VERTEX
  5
4AA7
330
4AA4
100
AcDbEntity
  8
LW 5006-19-01
100
AcDbVertex
100
AcDb2dVertex
 10
27.08434295654297
 20
21.96433782577151
 30
0.0
  0
VERTEX
  5
4AA8
330
4AA4
100
AcDbEntity
  8
LW 5006-19-01
100
AcDbVertex
100
AcDb2dVertex
 10
27.19042253494263
 20
22.1132659912073
 30
0.0
  0
VERTEX
  5
4AA9
330
4AA4
100
AcDbEntity
  8
LW 5006-19-01
100
AcDbVertex
100
AcDb2dVertex
 10
27.33830523490906
 20
22.25069761275904
 30
0.0
  0
VERTEX
  5
4AAA
330
4AA4
100
AcDbEntity
  8
LW 5006-19-01
100
AcDbVertex
100
AcDb2dVertex
 10
27.52152276039124
 20
22.37386226653712
 30
0.0
  0
VERTEX
  5
4AAB
330
4AA4
100
AcDbEntity
  8
LW 5006-19-01
100
AcDbVertex
100
AcDb2dVertex
 10
27.73223471641541
 20
22.48032569884913
 30
0.0
  0
VERTEX
  5
4AAC
330
4AA4
100
AcDbEntity
  8
LW 5006-19-01
100
AcDbVertex
100
AcDb2dVertex
 10
27.97259998321533
 20
22.57195234298388
 30
0.0
  0
VERTEX
  5
4AAD
330
4AA4
100
AcDbEntity
  8
LW 5006-19-01
100
AcDbVertex
100
AcDb2dVertex
 10
28.24523878097534
 20
22.65038013457933
 30
0.0
  0
VERTEX
  5
4AAE
330
4AA4
100
AcDbEntity
  8
LW 5006-19-01
100
AcDbVertex
100
AcDb2dVertex
 10
28.54300212860108
 20
22.71283626556078
 30
0.0
  0
VERTEX
  5
4AAF
330
4AA4
100
AcDbEntity
  8
LW 5006-19-01
100
AcDbVertex
100
AcDb2dVertex
 10
28.85816884040833
 20
22.75718688964525
 30
0.0
  0
VERTEX
  5
4AB0
330
4AA4
100
AcDbEntity
  8
LW 5006-19-01
100
AcDbVertex
100
AcDb2dVertex
 10
29.1807074546814
 20
22.78345584869066
 30
0.0
  0
VERTEX
  5
4AB1
330
4AA4
100
AcDbEntity
  8
LW 5006-19-01
100
AcDbVertex
100
AcDb2dVertex
 10
29.5
 20
22.79211044311205
 30
0.0
  0
VERTEX
  5
4AB2
330
4AA4
100
AcDbEntity
  8
LW 5006-19-01
100
AcDbVertex
100
AcDb2dVertex
 10
29.8192925453186
 20
22.78345584869066
 30
0.0
  0
VERTEX
  5
4AB3
330
4AA4
100
AcDbEntity
  8
LW 5006-19-01
100
AcDbVertex
100
AcDb2dVertex
 10
30.14183115959168
 20
22.75718688964525
 30
0.0
  0
VERTEX
  5
4AB4
330
4AA4
100
AcDbEntity
  8
LW 5006-19-01
100
AcDbVertex
100
AcDb2dVertex
 10
30.45699787139893
 20
22.71283626556078
 30
0.0
  0
VERTEX
  5
4AB5
330
4AA4
100
AcDbEntity
  8
LW 5006-19-01
100
AcDbVertex
100
AcDb2dVertex
 10
30.75476121902466
 20
22.65038013457933
 30
0.0
  0
VERTEX
  5
4AB6
330
4AA4
100
AcDbEntity
  8
LW 5006-19-01
100
AcDbVertex
100
AcDb2dVertex
 10
31.02740001678467
 20
22.57195234298388
 30
0.0
  0
VERTEX
  5
4AB7
330
4AA4
100
AcDbEntity
  8
LW 5006-19-01
100
AcDbVertex
100
AcDb2dVertex
 10
31.2677652835846
 20
22.48032569884913
 30
0.0
  0
VERTEX
  5
4AB8
330
4AA4
100
AcDbEntity
  8
LW 5006-19-01
100
AcDbVertex
100
AcDb2dVertex
 10
31.47847723960877
 20
22.37386226653712
 30
0.0
  0
VERTEX
  5
4AB9
330
4AA4
100
AcDbEntity
  8
LW 5006-19-01
100
AcDbVertex
100
AcDb2dVertex
 10
31.66169476509094
 20
22.25069761275904
 30
0.0
  0
VERTEX
  5
4ABA
330
4AA4
100
AcDbEntity
  8
LW 5006-19-01
100
AcDbVertex
100
AcDb2dVertex
 10
31.80957746505737
 20
22.1132659912073
 30
0.0
  0
VERTEX
  5
4ABB
330
4AA4
100
AcDbEntity
  8
LW 5006-19-01
100
AcDbVertex
100
AcDb2dVertex
 10
31.91565704345703
 20
21.96433782577151
 30
0.0
  0
VERTEX
  5
4ABC
330
4AA4
100
AcDbEntity
  8
LW 5006-19-01
100
AcDbVertex
100
AcDb2dVertex
 10
31.97898697853089
 20
21.80843830108279
 30
0.0
  0
VERTEX
  5
4ABD
330
4AA4
100
AcDbEntity
  8
LW 5006-19-01
100
AcDbVertex
100
AcDb2dVertex
 10
32.0
 20
21.65063619613272
 30
0.0
  0
SEQEND
  5
4ABE
330
4AA4
100
AcDbEntity
  8
LW 5006-19-01
  0
LINE
  5
4ABF
330
4A50
100
AcDbEntity
  8
LW 5006-19-01
100
AcDbLine
 10
33.5
 20
-25.0
 30
0.0
 11
33.5
 21
25.0
 31
0.0
  0
LINE
  5
4AC0
330
4A50
100
AcDbEntity
  8
LW 5006-19-01
100
AcDbLine
 10
39.5
 20
-19.0
 30
0.0
 11
39.5
 21
19.0
 31
0.0
  0
LINE
  5
4AC1
330
4A50
100
AcDbEntity
  8
LW 5006-19-01
100
AcDbLine
 10
14.5
 20
25.0
 30
0.0
 11
33.5
 21
25.0
 31
0.0
  0
LINE
  5
4AC2
330
4A50
100
AcDbEntity
  8
LW 5006-19-01
100
AcDbLine
 10
14.5
 20
-25.0
 30
0.0
 11
33.5
 21
-25.0
 31
0.0
  0
LINE
  5
4AC3
330
4A50
100
AcDbEntity
  8
LW 5006-19-01
100
AcDbLine
 10
39.5
 20
-19.0
 30
0.0
 11
33.5
 21
-25.0
 31
0.0
  0
LINE
  5
4AC4
330
4A50
100
AcDbEntity
  8
LW 5006-19-01
100
AcDbLine
 10
39.5
 20
19.0
 30
0.0
 11
33.5
 21
25.0
 31
0.0
  0
POLYLINE
  5
4AC5
330
4A50
100
AcDbEntity
  8
LW 5006-19-01
100
AcDb2dPolyline
 66
     1
 10
0.0
 20
0.0
 30
0.0
 70
   128
  0
VERTEX
  5
4AC6
330
4AC5
100
AcDbEntity
  8
LW 5006-19-01
100
AcDbVertex
100
AcDb2dVertex
 10
-32.0
 20
21.65063619613272
 30
0.0
  0
VERTEX
  5
4AC7
330
4AC5
100
AcDbEntity
  8
LW 5006-19-01
100
AcDbVertex
100
AcDb2dVertex
 10
-31.97898697853089
 20
21.80843830108279
 30
0.0
  0
VERTEX
  5
4AC8
330
4AC5
100
AcDbEntity
  8
LW 5006-19-01
100
AcDbVertex
100
AcDb2dVertex
 10
-31.91565704345703
 20
21.96433782577151
 30
0.0
  0
VERTEX
  5
4AC9
330
4AC5
100
AcDbEntity
  8
LW 5006-19-01
100
AcDbVertex
100
AcDb2dVertex
 10
-31.80957746505737
 20
22.1132659912073
 30
0.0
  0
VERTEX
  5
4ACA
330
4AC5
100
AcDbEntity
  8
LW 5006-19-01
100
AcDbVertex
100
AcDb2dVertex
 10
-31.66169476509094
 20
22.25069761275904
 30
0.0
  0
VERTEX
  5
4ACB
330
4AC5
100
AcDbEntity
  8
LW 5006-19-01
100
AcDbVertex
100
AcDb2dVertex
 10
-31.47847723960877
 20
22.37386226653712
 30
0.0
  0
VERTEX
  5
4ACC
330
4AC5
100
AcDbEntity
  8
LW 5006-19-01
100
AcDbVertex
100
AcDb2dVertex
 10
-31.2677652835846
 20
22.48032569884913
 30
0.0
  0
VERTEX
  5
4ACD
330
4AC5
100
AcDbEntity
  8
LW 5006-19-01
100
AcDbVertex
100
AcDb2dVertex
 10
-31.02740001678467
 20
22.57195234298388
 30
0.0
  0
VERTEX
  5
4ACE
330
4AC5
100
AcDbEntity
  8
LW 5006-19-01
100
AcDbVertex
100
AcDb2dVertex
 10
-30.75476121902466
 20
22.65038013457933
 30
0.0
  0
VERTEX
  5
4ACF
330
4AC5
100
AcDbEntity
  8
LW 5006-19-01
100
AcDbVertex
100
AcDb2dVertex
 10
-30.45699787139893
 20
22.71283626556078
 30
0.0
  0
VERTEX
  5
4AD0
330
4AC5
100
AcDbEntity
  8
LW 5006-19-01
100
AcDbVertex
100
AcDb2dVertex
 10
-30.14183115959168
 20
22.75718688964525
 30
0.0
  0
VERTEX
  5
4AD1
330
4AC5
100
AcDbEntity
  8
LW 5006-19-01
100
AcDbVertex
100
AcDb2dVertex
 10
-29.8192925453186
 20
22.78345584869066
 30
0.0
  0
VERTEX
  5
4AD2
330
4AC5
100
AcDbEntity
  8
LW 5006-19-01
100
AcDbVertex
100
AcDb2dVertex
 10
-29.5
 20
22.79211044311205
 30
0.0
  0
VERTEX
  5
4AD3
330
4AC5
100
AcDbEntity
  8
LW 5006-19-01
100
AcDbVertex
100
AcDb2dVertex
 10
-29.1807074546814
 20
22.78345584869066
 30
0.0
  0
VERTEX
  5
4AD4
330
4AC5
100
AcDbEntity
  8
LW 5006-19-01
100
AcDbVertex
100
AcDb2dVertex
 10
-28.85816884040833
 20
22.75718688964525
 30
0.0
  0
VERTEX
  5
4AD5
330
4AC5
100
AcDbEntity
  8
LW 5006-19-01
100
AcDbVertex
100
AcDb2dVertex
 10
-28.54300212860108
 20
22.71283626556078
 30
0.0
  0
VERTEX
  5
4AD6
330
4AC5
100
AcDbEntity
  8
LW 5006-19-01
100
AcDbVertex
100
AcDb2dVertex
 10
-28.24523878097534
 20
22.65038013457933
 30
0.0
  0
VERTEX
  5
4AD7
330
4AC5
100
AcDbEntity
  8
LW 5006-19-01
100
AcDbVertex
100
AcDb2dVertex
 10
-27.97259998321533
 20
22.57195234298388
 30
0.0
  0
VERTEX
  5
4AD8
330
4AC5
100
AcDbEntity
  8
LW 5006-19-01
100
AcDbVertex
100
AcDb2dVertex
 10
-27.73223471641541
 20
22.48032569884913
 30
0.0
  0
VERTEX
  5
4AD9
330
4AC5
100
AcDbEntity
  8
LW 5006-19-01
100
AcDbVertex
100
AcDb2dVertex
 10
-27.52152276039124
 20
22.37386226653712
 30
0.0
  0
VERTEX
  5
4ADA
330
4AC5
100
AcDbEntity
  8
LW 5006-19-01
100
AcDbVertex
100
AcDb2dVertex
 10
-27.33830523490906
 20
22.25069761275904
 30
0.0
  0
VERTEX
  5
4ADB
330
4AC5
100
AcDbEntity
  8
LW 5006-19-01
100
AcDbVertex
100
AcDb2dVertex
 10
-27.19042253494263
 20
22.1132659912073
 30
0.0
  0
VERTEX
  5
4ADC
330
4AC5
100
AcDbEntity
  8
LW 5006-19-01
100
AcDbVertex
100
AcDb2dVertex
 10
-27.08434295654297
 20
21.96433782577151
 30
0.0
  0
VERTEX
  5
4ADD
330
4AC5
100
AcDbEntity
  8
LW 5006-19-01
100
AcDbVertex
100
AcDb2dVertex
 10
-27.02101302146912
 20
21.80843830108279
 30
0.0
  0
VERTEX
  5
4ADE
330
4AC5
100
AcDbEntity
  8
LW 5006-19-01
100
AcDbVertex
100
AcDb2dVertex
 10
-27.0
 20
21.65063619613272
 30
0.0
  0
SEQEND
  5
4ADF
330
4AC5
100
AcDbEntity
  8
LW 5006-19-01
  0
POLYLINE
  5
4AE0
330
4A50
100
AcDbEntity
  8
LW 5006-19-01
100
AcDb2dPolyline
 66
     1
 10
0.0
 20
0.0
 30
0.0
 70
   128
  0
VERTEX
  5
4AE1
330
4AE0
100
AcDbEntity
  8
LW 5006-19-01
100
AcDbVertex
100
AcDb2dVertex
 10
-27.0
 20
21.65063619613272
 30
0.0
  0
VERTEX
  5
4AE2
330
4AE0
100
AcDbEntity
  8
LW 5006-19-01
100
AcDbVertex
100
AcDb2dVertex
 10
-27.02101302146912
 20
21.48914575576396
 30
0.0
  0
VERTEX
  5
4AE3
330
4AE0
100
AcDbEntity
  8
LW 5006-19-01
100
AcDbVertex
100
AcDb2dVertex
 10
-27.08434295654297
 20
21.3225054740866
 30
0.0
  0
VERTEX
  5
4AE4
330
4AE0
100
AcDbEntity
  8
LW 5006-19-01
100
AcDbVertex
100
AcDb2dVertex
 10
-27.19042253494263
 20
21.15626573562213
 30
0.0
  0
VERTEX
  5
4AE5
330
4AE0
100
AcDbEntity
  8
LW 5006-19-01
100
AcDbVertex
100
AcDb2dVertex
 10
-27.33830523490906
 20
20.99593400954791
 30
0.0
  0
VERTEX
  5
4AE6
330
4AE0
100
AcDbEntity
  8
LW 5006-19-01
100
AcDbVertex
100
AcDb2dVertex
 10
-27.52152276039124
 20
20.84645748138007
 30
0.0
  0
VERTEX
  5
4AE7
330
4AE0
100
AcDbEntity
  8
LW 5006-19-01
100
AcDbVertex
100
AcDb2dVertex
 10
-27.73223471641541
 20
20.71255683898494
 30
0.0
  0
VERTEX
  5
4AE8
330
4AE0
100
AcDbEntity
  8
LW 5006-19-01
100
AcDbVertex
100
AcDb2dVertex
 10
-27.97259998321533
 20
20.59347152709529
 30
0.0
  0
VERTEX
  5
4AE9
330
4AE0
100
AcDbEntity
  8
LW 5006-19-01
100
AcDbVertex
100
AcDb2dVertex
 10
-28.24523878097534
 20
20.48868179320857
 30
0.0
  0
VERTEX
  5
4AEA
330
4AE0
100
AcDbEntity
  8
LW 5006-19-01
100
AcDbVertex
100
AcDb2dVertex
 10
-28.54300212860108
 20
20.40325641631648
 30
0.0
  0
VERTEX
  5
4AEB
330
4AE0
100
AcDbEntity
  8
LW 5006-19-01
100
AcDbVertex
100
AcDb2dVertex
 10
-28.85816884040833
 20
20.34152984618708
 30
0.0
  0
VERTEX
  5
4AEC
330
4AE0
100
AcDbEntity
  8
LW 5006-19-01
100
AcDbVertex
100
AcDb2dVertex
 10
-29.1807074546814
 20
20.30447006225154
 30
0.0
  0
VERTEX
  5
4AED
330
4AE0
100
AcDbEntity
  8
LW 5006-19-01
100
AcDbVertex
100
AcDb2dVertex
 10
-29.5
 20
20.29211044311091
 30
0.0
  0
VERTEX
  5
4AEE
330
4AE0
100
AcDbEntity
  8
LW 5006-19-01
100
AcDbVertex
100
AcDb2dVertex
 10
-29.8192925453186
 20
20.30447006225154
 30
0.0
  0
VERTEX
  5
4AEF
330
4AE0
100
AcDbEntity
  8
LW 5006-19-01
100
AcDbVertex
100
AcDb2dVertex
 10
-30.14183115959168
 20
20.34152984618708
 30
0.0
  0
VERTEX
  5
4AF0
330
4AE0
100
AcDbEntity
  8
LW 5006-19-01
100
AcDbVertex
100
AcDb2dVertex
 10
-30.45699787139893
 20
20.40325641631648
 30
0.0
  0
VERTEX
  5
4AF1
330
4AE0
100
AcDbEntity
  8
LW 5006-19-01
100
AcDbVertex
100
AcDb2dVertex
 10
-30.75476121902466
 20
20.48868179320857
 30
0.0
  0
VERTEX
  5
4AF2
330
4AE0
100
AcDbEntity
  8
LW 5006-19-01
100
AcDbVertex
100
AcDb2dVertex
 10
-31.02740001678467
 20
20.59347152709529
 30
0.0
  0
VERTEX
  5
4AF3
330
4AE0
100
AcDbEntity
  8
LW 5006-19-01
100
AcDbVertex
100
AcDb2dVertex
 10
-31.2677652835846
 20
20.71255683898494
 30
0.0
  0
VERTEX
  5
4AF4
330
4AE0
100
AcDbEntity
  8
LW 5006-19-01
100
AcDbVertex
100
AcDb2dVertex
 10
-31.47847723960877
 20
20.84645748138007
 30
0.0
  0
VERTEX
  5
4AF5
330
4AE0
100
AcDbEntity
  8
LW 5006-19-01
100
AcDbVertex
100
AcDb2dVertex
 10
-31.66169476509094
 20
20.99593400954791
 30
0.0
  0
VERTEX
  5
4AF6
330
4AE0
100
AcDbEntity
  8
LW 5006-19-01
100
AcDbVertex
100
AcDb2dVertex
 10
-31.80957746505737
 20
21.15626573562213
 30
0.0
  0
VERTEX
  5
4AF7
330
4AE0
100
AcDbEntity
  8
LW 5006-19-01
100
AcDbVertex
100
AcDb2dVertex
 10
-31.91565704345703
 20
21.3225054740866
 30
0.0
  0
VERTEX
  5
4AF8
330
4AE0
100
AcDbEntity
  8
LW 5006-19-01
100
AcDbVertex
100
AcDb2dVertex
 10
-31.97898697853089
 20
21.48914575576396
 30
0.0
  0
VERTEX
  5
4AF9
330
4AE0
100
AcDbEntity
  8
LW 5006-19-01
100
AcDbVertex
100
AcDb2dVertex
 10
-32.0
 20
21.65063619613272
 30
0.0
  0
SEQEND
  5
4AFA
330
4AE0
100
AcDbEntity
  8
LW 5006-19-01
  0
POLYLINE
  5
4AFB
330
4A50
100
AcDbEntity
  8
LW 5006-19-01
100
AcDb2dPolyline
 66
     1
 10
0.0
 20
0.0
 30
0.0
 70
   128
  0
VERTEX
  5
4AFC
330
4AFB
100
AcDbEntity
  8
LW 5006-19-01
100
AcDbVertex
100
AcDb2dVertex
 10
-32.0
 20
-21.65063619614023
 30
0.0
  0
VERTEX
  5
4AFD
330
4AFB
100
AcDbEntity
  8
LW 5006-19-01
100
AcDbVertex
100
AcDb2dVertex
 10
-31.97898697853089
 20
-21.48914575577169
 30
0.0
  0
VERTEX
  5
4AFE
330
4AFB
100
AcDbEntity
  8
LW 5006-19-01
100
AcDbVertex
100
AcDb2dVertex
 10
-31.91565704345703
 20
-21.32250547409455
 30
0.0
  0
VERTEX
  5
4AFF
330
4AFB
100
AcDbEntity
  8
LW 5006-19-01
100
AcDbVertex
100
AcDb2dVertex
 10
-31.80957746505737
 20
-21.15626573563031
 30
0.0
  0
VERTEX
  5
4B00
330
4AFB
100
AcDbEntity
  8
LW 5006-19-01
100
AcDbVertex
100
AcDb2dVertex
 10
-31.66169476509094
 20
-20.9959340095561
 30
0.0
  0
VERTEX
  5
4B01
330
4AFB
100
AcDbEntity
  8
LW 5006-19-01
100
AcDbVertex
100
AcDb2dVertex
 10
-31.47847723960877
 20
-20.84645748138848
 30
0.0
  0
VERTEX
  5
4B02
330
4AFB
100
AcDbEntity
  8
LW 5006-19-01
100
AcDbVertex
100
AcDb2dVertex
 10
-31.2677652835846
 20
-20.71255683899358
 30
0.0
  0
VERTEX
  5
4B03
330
4AFB
100
AcDbEntity
  8
LW 5006-19-01
100
AcDbVertex
100
AcDb2dVertex
 10
-31.02740001678467
 20
-20.59347152710393
 30
0.0
  0
VERTEX
  5
4B04
330
4AFB
100
AcDbEntity
  8
LW 5006-19-01
100
AcDbVertex
100
AcDb2dVertex
 10
-30.75476121902466
 20
-20.48868179321721
 30
0.0
  0
VERTEX
  5
4B05
330
4AFB
100
AcDbEntity
  8
LW 5006-19-01
100
AcDbVertex
100
AcDb2dVertex
 10
-30.45699787139893
 20
-20.40325641632512
 30
0.0
  0
VERTEX
  5
4B06
330
4AFB
100
AcDbEntity
  8
LW 5006-19-01
100
AcDbVertex
100
AcDb2dVertex
 10
-30.14183115959168
 20
-20.34152984619573
 30
0.0
  0
VERTEX
  5
4B07
330
4AFB
100
AcDbEntity
  8
LW 5006-19-01
100
AcDbVertex
100
AcDb2dVertex
 10
-29.8192925453186
 20
-20.30447006226018
 30
0.0
  0
VERTEX
  5
4B08
330
4AFB
100
AcDbEntity
  8
LW 5006-19-01
100
AcDbVertex
100
AcDb2dVertex
 10
-29.5
 20
-20.29211044311955
 30
0.0
  0
VERTEX
  5
4B09
330
4AFB
100
AcDbEntity
  8
LW 5006-19-01
100
AcDbVertex
100
AcDb2dVertex
 10
-29.1807074546814
 20
-20.30447006226018
 30
0.0
  0
VERTEX
  5
4B0A
330
4AFB
100
AcDbEntity
  8
LW 5006-19-01
100
AcDbVertex
100
AcDb2dVertex
 10
-28.85816884040833
 20
-20.34152984619573
 30
0.0
  0
VERTEX
  5
4B0B
330
4AFB
100
AcDbEntity
  8
LW 5006-19-01
100
AcDbVertex
100
AcDb2dVertex
 10
-28.54300212860108
 20
-20.40325641632512
 30
0.0
  0
VERTEX
  5
4B0C
330
4AFB
100
AcDbEntity
  8
LW 5006-19-01
100
AcDbVertex
100
AcDb2dVertex
 10
-28.24523878097534
 20
-20.48868179321721
 30
0.0
  0
VERTEX
  5
4B0D
330
4AFB
100
AcDbEntity
  8
LW 5006-19-01
100
AcDbVertex
100
AcDb2dVertex
 10
-27.97259998321533
 20
-20.59347152710393
 30
0.0
  0
VERTEX
  5
4B0E
330
4AFB
100
AcDbEntity
  8
LW 5006-19-01
100
AcDbVertex
100
AcDb2dVertex
 10
-27.73223471641541
 20
-20.71255683899358
 30
0.0
  0
VERTEX
  5
4B0F
330
4AFB
100
AcDbEntity
  8
LW 5006-19-01
100
AcDbVertex
100
AcDb2dVertex
 10
-27.52152276039124
 20
-20.84645748138848
 30
0.0
  0
VERTEX
  5
4B10
330
4AFB
100
AcDbEntity
  8
LW 5006-19-01
100
AcDbVertex
100
AcDb2dVertex
 10
-27.33830523490906
 20
-20.9959340095561
 30
0.0
  0
VERTEX
  5
4B11
330
4AFB
100
AcDbEntity
  8
LW 5006-19-01
100
AcDbVertex
100
AcDb2dVertex
 10
-27.19042253494263
 20
-21.15626573563031
 30
0.0
  0
VERTEX
  5
4B12
330
4AFB
100
AcDbEntity
  8
LW 5006-19-01
100
AcDbVertex
100
AcDb2dVertex
 10
-27.08434295654297
 20
-21.32250547409455
 30
0.0
  0
VERTEX
  5
4B13
330
4AFB
100
AcDbEntity
  8
LW 5006-19-01
100
AcDbVertex
100
AcDb2dVertex
 10
-27.02101302146912
 20
-21.48914575577169
 30
0.0
  0
VERTEX
  5
4B14
330
4AFB
100
AcDbEntity
  8
LW 5006-19-01
100
AcDbVertex
100
AcDb2dVertex
 10
-27.0
 20
-21.65063619614023
 30
0.0
  0
SEQEND
  5
4B15
330
4AFB
100
AcDbEntity
  8
LW 5006-19-01
  0
POLYLINE
  5
4B16
330
4A50
100
AcDbEntity
  8
LW 5006-19-01
100
AcDb2dPolyline
 66
     1
 10
0.0
 20
0.0
 30
0.0
 70
   128
  0
VERTEX
  5
4B17
330
4B16
100
AcDbEntity
  8
LW 5006-19-01
100
AcDbVertex
100
AcDb2dVertex
 10
-27.0
 20
-21.65063619614023
 30
0.0
  0
VERTEX
  5
4B18
330
4B16
100
AcDbEntity
  8
LW 5006-19-01
100
AcDbVertex
100
AcDb2dVertex
 10
-27.02101302146912
 20
-21.80843830109006
 30
0.0
  0
VERTEX
  5
4B19
330
4B16
100
AcDbEntity
  8
LW 5006-19-01
100
AcDbVertex
100
AcDb2dVertex
 10
-27.08434295654297
 20
-21.96433782577878
 30
0.0
  0
VERTEX
  5
4B1A
330
4B16
100
AcDbEntity
  8
LW 5006-19-01
100
AcDbVertex
100
AcDb2dVertex
 10
-27.19042253494263
 20
-22.11326599121457
 30
0.0
  0
VERTEX
  5
4B1B
330
4B16
100
AcDbEntity
  8
LW 5006-19-01
100
AcDbVertex
100
AcDb2dVertex
 10
-27.33830523490906
 20
-22.25069761276586
 30
0.0
  0
VERTEX
  5
4B1C
330
4B16
100
AcDbEntity
  8
LW 5006-19-01
100
AcDbVertex
100
AcDb2dVertex
 10
-27.52152276039124
 20
-22.37386226654394
 30
0.0
  0
VERTEX
  5
4B1D
330
4B16
100
AcDbEntity
  8
LW 5006-19-01
100
AcDbVertex
100
AcDb2dVertex
 10
-27.73223471641541
 20
-22.48032569885595
 30
0.0
  0
VERTEX
  5
4B1E
330
4B16
100
AcDbEntity
  8
LW 5006-19-01
100
AcDbVertex
100
AcDb2dVertex
 10
-27.97259998321533
 20
-22.57195234299024
 30
0.0
  0
VERTEX
  5
4B1F
330
4B16
100
AcDbEntity
  8
LW 5006-19-01
100
AcDbVertex
100
AcDb2dVertex
 10
-28.24523878097534
 20
-22.6503801345857
 30
0.0
  0
VERTEX
  5
4B20
330
4B16
100
AcDbEntity
  8
LW 5006-19-01
100
AcDbVertex
100
AcDb2dVertex
 10
-28.54300212860108
 20
-22.71283626556715
 30
0.0
  0
VERTEX
  5
4B21
330
4B16
100
AcDbEntity
  8
LW 5006-19-01
100
AcDbVertex
100
AcDb2dVertex
 10
-28.85816884040833
 20
-22.75718688965162
 30
0.0
  0
VERTEX
  5
4B22
330
4B16
100
AcDbEntity
  8
LW 5006-19-01
100
AcDbVertex
100
AcDb2dVertex
 10
-29.1807074546814
 20
-22.78345584869703
 30
0.0
  0
VERTEX
  5
4B23
330
4B16
100
AcDbEntity
  8
LW 5006-19-01
100
AcDbVertex
100
AcDb2dVertex
 10
-29.5
 20
-22.79211044311842
 30
0.0
  0
VERTEX
  5
4B24
330
4B16
100
AcDbEntity
  8
LW 5006-19-01
100
AcDbVertex
100
AcDb2dVertex
 10
-29.8192925453186
 20
-22.78345584869703
 30
0.0
  0
VERTEX
  5
4B25
330
4B16
100
AcDbEntity
  8
LW 5006-19-01
100
AcDbVertex
100
AcDb2dVertex
 10
-30.14183115959168
 20
-22.75718688965162
 30
0.0
  0
VERTEX
  5
4B26
330
4B16
100
AcDbEntity
  8
LW 5006-19-01
100
AcDbVertex
100
AcDb2dVertex
 10
-30.45699787139893
 20
-22.71283626556715
 30
0.0
  0
VERTEX
  5
4B27
330
4B16
100
AcDbEntity
  8
LW 5006-19-01
100
AcDbVertex
100
AcDb2dVertex
 10
-30.75476121902466
 20
-22.6503801345857
 30
0.0
  0
VERTEX
  5
4B28
330
4B16
100
AcDbEntity
  8
LW 5006-19-01
100
AcDbVertex
100
AcDb2dVertex
 10
-31.02740001678467
 20
-22.57195234299024
 30
0.0
  0
VERTEX
  5
4B29
330
4B16
100
AcDbEntity
  8
LW 5006-19-01
100
AcDbVertex
100
AcDb2dVertex
 10
-31.2677652835846
 20
-22.48032569885595
 30
0.0
  0
VERTEX
  5
4B2A
330
4B16
100
AcDbEntity
  8
LW 5006-19-01
100
AcDbVertex
100
AcDb2dVertex
 10
-31.47847723960877
 20
-22.37386226654394
 30
0.0
  0
VERTEX
  5
4B2B
330
4B16
100
AcDbEntity
  8
LW 5006-19-01
100
AcDbVertex
100
AcDb2dVertex
 10
-31.66169476509094
 20
-22.25069761276586
 30
0.0
  0
VERTEX
  5
4B2C
330
4B16
100
AcDbEntity
  8
LW 5006-19-01
100
AcDbVertex
100
AcDb2dVertex
 10
-31.80957746505737
 20
-22.11326599121457
 30
0.0
  0
VERTEX
  5
4B2D
330
4B16
100
AcDbEntity
  8
LW 5006-19-01
100
AcDbVertex
100
AcDb2dVertex
 10
-31.91565704345703
 20
-21.96433782577878
 30
0.0
  0
VERTEX
  5
4B2E
330
4B16
100
AcDbEntity
  8
LW 5006-19-01
100
AcDbVertex
100
AcDb2dVertex
 10
-31.97898697853089
 20
-21.80843830109006
 30
0.0
  0
VERTEX
  5
4B2F
330
4B16
100
AcDbEntity
  8
LW 5006-19-01
100
AcDbVertex
100
AcDb2dVertex
 10
-32.0
 20
-21.65063619614023
 30
0.0
  0
SEQEND
  5
4B30
330
4B16
100
AcDbEntity
  8
LW 5006-19-01
  0
LINE
  5
4B31
330
4A50
100
AcDbEntity
  8
LW 5006-19-01
100
AcDbLine
 10
-33.5
 20
25.0
 30
0.0
 11
-33.5
 21
-25.0
 31
0.0
  0
LINE
  5
4B32
330
4A50
100
AcDbEntity
  8
LW 5006-19-01
100
AcDbLine
 10
-39.5
 20
19.0
 30
0.0
 11
-39.5
 21
-19.0
 31
0.0
  0
LINE
  5
4B33
330
4A50
100
AcDbEntity
  8
LW 5006-19-01
100
AcDbLine
 10
-133.5
 20
10.0
 30
0.0
 11
-133.5
 21
-10.0
 31
0.0
  0
LINE
  5
4B34
330
4A50
100
AcDbEntity
  8
LW 5006-19-01
100
AcDbLine
 10
-134.5
 20
9.0
 30
0.0
 11
-134.5
 21
-9.0
 31
0.0
  0
LINE
  5
4B35
330
4A50
100
AcDbEntity
  8
LW 5006-19-01
100
AcDbLine
 10
-14.5
 20
-25.0
 30
0.0
 11
-33.5
 21
-25.0
 31
0.0
  0
LINE
  5
4B36
330
4A50
100
AcDbEntity
  8
LW 5006-19-01
100
AcDbLine
 10
-14.5
 20
25.0
 30
0.0
 11
-33.5
 21
25.0
 31
0.0
  0
LINE
  5
4B37
330
4A50
100
AcDbEntity
  8
LW 5006-19-01
100
AcDbLine
 10
-39.5
 20
19.0
 30
0.0
 11
-33.5
 21
25.0
 31
0.0
  0
LINE
  5
4B38
330
4A50
100
AcDbEntity
  8
LW 5006-19-01
100
AcDbLine
 10
-39.5
 20
-19.0
 30
0.0
 11
-33.5
 21
-25.0
 31
0.0
  0
ARC
  5
4B39
330
4A50
100
AcDbEntity
  8
LW 5006-19-01
100
AcDbCircle
 10
-40.49999999999999
 20
11.0
 30
0.0
 40
1.000000000000002
100
AcDbArc
 50
270.0
 51
0.0
  0
ARC
  5
4B3A
330
4A50
100
AcDbEntity
  8
LW 5006-19-01
100
AcDbCircle
 10
-40.49999999999999
 20
-11.0
 30
0.0
 40
1.000000000000002
100
AcDbArc
 50
0.0
 51
90.0
  0
LINE
  5
4B3B
330
4A50
100
AcDbEntity
  8
LW 5006-19-01
100
AcDbLine
 10
-40.49999999999999
 20
-10.0
 30
0.0
 11
-85.13859338365501
 21
-10.0
 31
0.0
  0
LINE
  5
4B3C
330
4A50
100
AcDbEntity
  8
LW 5006-19-01
100
AcDbLine
 10
-113.861406616345
 20
-10.0
 30
0.0
 11
-133.5
 21
-10.0
 31
0.0
  0
LINE
  5
4B3D
330
4A50
100
AcDbEntity
  8
LW 5006-19-01
100
AcDbLine
 10
-40.49999999999999
 20
10.0
 30
0.0
 11
-85.13859338365501
 21
10.0
 31
0.0
  0
LINE
  5
4B3E
330
4A50
100
AcDbEntity
  8
LW 5006-19-01
100
AcDbLine
 10
-113.8614066163452
 20
10.0
 30
0.0
 11
-133.5
 21
10.0
 31
0.0
  0
LINE
  5
4B3F
330
4A50
100
AcDbEntity
  8
LW 5006-19-01
100
AcDbLine
 10
-134.5
 20
9.0
 30
0.0
 11
-133.5
 21
10.0
 31
0.0
  0
LINE
  5
4B40
330
4A50
100
AcDbEntity
  8
LW 5006-19-01
100
AcDbLine
 10
-134.5
 20
-9.0
 30
0.0
 11
-133.5
 21
-10.0
 31
0.0
  0
CIRCLE
  5
4B41
330
4A50
100
AcDbEntity
  8
LW 5006-19-01
100
AcDbCircle
 10
-99.50000000000001
 20
-0.000000000005457
 30
0.0
 40
17.50000000000001
  0
LINE
  5
4B42
330
4A50
100
AcDbEntity
  8
LW 5006-19-01
100
AcDbLine
 10
-97.51055809396234
 20
-17.38655000000074
 30
0.0
 11
-96.5
 21
-17.38655000000017
 31
0.0
  0
LINE
  5
4B43
330
4A50
100
AcDbEntity
  8
LW 5006-19-01
100
AcDbLine
 10
-102.5
 20
-17.38655000000017
 30
0.0
 11
-101.4894419060376
 21
-17.38655000000074
 31
0.0
  0
LINE
  5
4B44
330
4A50
100
AcDbEntity
  8
LW 5006-19-01
100
AcDbLine
 10
-96.85417552263448
 20
-18.0
 30
0.0
 11
-102.1458244773657
 21
-18.0
 31
0.0
  0
LINE
  5
4B45
330
4A50
100
AcDbEntity
  8
LW 5006-19-01
100
AcDbLine
 10
-102.1458244773657
 20
-18.0
 30
0.0
 11
-102.5
 21
-17.38655000000017
 31
0.0
  0
LINE
  5
4B46
330
4A50
100
AcDbEntity
  8
LW 5006-19-01
100
AcDbLine
 10
-96.85417552263425
 20
-18.00000000000011
 30
0.0
 11
-96.5
 21
-17.38655000000017
 31
0.0
  0
LINE
  5
4B47
330
4A50
100
AcDbEntity
  8
LW 5006-19-01
100
AcDbLine
 10
-96.5
 20
-17.24093964956671
 30
0.0
 11
-96.5
 21
-17.38655000000017
 31
0.0
  0
LINE
  5
4B48
330
4A50
100
AcDbEntity
  8
LW 5006-19-01
100
AcDbLine
 10
-102.5
 20
-17.24093964956671
 30
0.0
 11
-102.5
 21
-17.38655000000017
 31
0.0
  0
LINE
  5
4B49
330
4A50
100
AcDbEntity
  8
LW 5006-19-01
100
AcDbLine
 10
-97.09899999999993
 20
-17.38655000000017
 30
0.0
 11
-97.09899999999993
 21
-17.33450890564836
 31
0.0
  0
LINE
  5
4B4A
330
4A50
100
AcDbEntity
  8
LW 5006-19-01
100
AcDbLine
 10
-101.901
 20
-17.33450890564836
 30
0.0
 11
-101.901
 21
-17.38655000000017
 31
0.0
  0
LINE
  5
4B4B
330
4A50
100
AcDbEntity
  8
LW 5006-19-01
100
AcDbLine
 10
-97.51055809396234
 20
-17.38655000000074
 30
0.0
 11
-96.5
 21
-17.38655000000017
 31
0.0
  0
LINE
  5
4B4C
330
4A50
100
AcDbEntity
  8
LW 5006-19-01
100
AcDbLine
 10
-102.5
 20
-17.38655000000017
 30
0.0
 11
-101.4894419060376
 21
-17.38655000000074
 31
0.0
  0
LINE
  5
4B4D
330
4A50
100
AcDbEntity
  8
LW 5006-19-01
100
AcDbLine
 10
-101.4894419060381
 20
17.38654999999926
 30
0.0
 11
-102.5
 21
17.38654999999994
 31
0.0
  0
LINE
  5
4B4E
330
4A50
100
AcDbEntity
  8
LW 5006-19-01
100
AcDbLine
 10
-96.5
 20
17.38654999999994
 30
0.0
 11
-97.51055809396167
 21
17.38654999999926
 31
0.0
  0
LINE
  5
4B4F
330
4A50
100
AcDbEntity
  8
LW 5006-19-01
100
AcDbLine
 10
-102.1458244773657
 20
17.99999999999988
 30
0.0
 11
-96.85417552263448
 21
17.99999999999988
 31
0.0
  0
LINE
  5
4B50
330
4A50
100
AcDbEntity
  8
LW 5006-19-01
100
AcDbLine
 10
-96.85417552263448
 20
17.99999999999988
 30
0.0
 11
-96.5
 21
17.38654999999994
 31
0.0
  0
LINE
  5
4B51
330
4A50
100
AcDbEntity
  8
LW 5006-19-01
100
AcDbLine
 10
-102.1458244773657
 20
17.99999999999988
 30
0.0
 11
-102.5
 21
17.38654999999994
 31
0.0
  0
LINE
  5
4B52
330
4A50
100
AcDbEntity
  8
LW 5006-19-01
100
AcDbLine
 10
-102.5
 20
17.2409396495666
 30
0.0
 11
-102.5
 21
17.38654999999994
 31
0.0
  0
LINE
  5
4B53
330
4A50
100
AcDbEntity
  8
LW 5006-19-01
100
AcDbLine
 10
-96.5
 20
17.2409396495666
 30
0.0
 11
-96.5
 21
17.38654999999994
 31
0.0
  0
LINE
  5
4B54
330
4A50
100
AcDbEntity
  8
LW 5006-19-01
100
AcDbLine
 10
-101.901
 20
17.38654999999994
 30
0.0
 11
-101.901
 21
17.33450890564825
 31
0.0
  0
LINE
  5
4B55
330
4A50
100
AcDbEntity
  8
LW 5006-19-01
100
AcDbLine
 10
-97.09900000000017
 20
17.33450890564825
 30
0.0
 11
-97.09900000000017
 21
17.38654999999994
 31
0.0
  0
LINE
  5
4B56
330
4A50
100
AcDbEntity
  8
LW 5006-19-01
100
AcDbLine
 10
-101.4894419060381
 20
17.38654999999926
 30
0.0
 11
-102.5
 21
17.38654999999994
 31
0.0
  0
LINE
  5
4B57
330
4A50
100
AcDbEntity
  8
LW 5006-19-01
100
AcDbLine
 10
-96.5
 20
17.38654999999994
 30
0.0
 11
-97.51055809396167
 21
17.38654999999926
 31
0.0
  0
LINE
  5
4B58
330
4A50
100
AcDbEntity
  8
LW 5006-19-01
100
AcDbLine
 10
6.5
 20
12.0
 30
0.0
 11
6.5
 21
-12.00000000000011
 31
0.0
  0
LINE
  5
4B59
330
4A50
100
AcDbEntity
  8
LW 5006-19-01
100
AcDbLine
 10
-6.5
 20
12.0
 30
0.0
 11
-6.5
 21
-12.00000000000011
 31
0.0
  0
LINE
  5
4B5A
330
4A50
100
AcDbEntity
  8
LW 5006-19-01
100
AcDbLine
 10
-6.5
 20
12.0
 30
0.0
 11
6.5
 21
12.0
 31
0.0
  0
LINE
  5
4B5B
330
4A50
100
AcDbEntity
  8
LW 5006-19-01
100
AcDbLine
 10
-6.5
 20
-12.00000000000011
 30
0.0
 11
6.5
 21
-12.00000000000011
 31
0.0
  0
LINE
  5
4B5C
330
4A50
100
AcDbEntity
  8
LW 5006-19-01
100
AcDbLine
 10
-11.5
 20
32.5
 30
0.0
 11
-11.5
 21
-32.5
 31
0.0
  0
LINE
  5
4B5D
330
4A50
100
AcDbEntity
  8
LW 5006-19-01
100
AcDbLine
 10
-14.5
 20
32.5
 30
0.0
 11
-14.5
 21
-32.5
 31
0.0
  0
LINE
  5
4B5E
330
4A50
100
AcDbEntity
  8
LW 5006-19-01
100
AcDbLine
 10
-14.5
 20
32.5
 30
0.0
 11
-11.5
 21
32.5
 31
0.0
  0
LINE
  5
4B5F
330
4A50
100
AcDbEntity
  8
LW 5006-19-01
100
AcDbLine
 10
-14.5
 20
-32.5
 30
0.0
 11
-11.5
 21
-32.5
 31
0.0
  0
LINE
  5
4B60
330
4A50
100
AcDbEntity
  8
LW 5006-19-01
100
AcDbLine
 10
11.5
 20
-32.5
 30
0.0
 11
11.5
 21
32.5
 31
0.0
  0
LINE
  5
4B61
330
4A50
100
AcDbEntity
  8
LW 5006-19-01
100
AcDbLine
 10
14.5
 20
-32.5
 30
0.0
 11
14.5
 21
32.5
 31
0.0
  0
LINE
  5
4B62
330
4A50
100
AcDbEntity
  8
LW 5006-19-01
100
AcDbLine
 10
14.5
 20
-32.5
 30
0.0
 11
11.5
 21
-32.5
 31
0.0
  0
LINE
  5
4B63
330
4A50
100
AcDbEntity
  8
LW 5006-19-01
100
AcDbLine
 10
14.5
 20
32.5
 30
0.0
 11
11.5
 21
32.5
 31
0.0
  0
LINE
  5
4B64
330
4A50
100
AcDbEntity
  8
LW 5006-19-01
100
AcDbLine
 10
-9.5
 20
32.0
 30
0.0
 11
-9.5
 21
-32.00000000000012
 31
0.0
  0
LINE
  5
4B65
330
4A50
100
AcDbEntity
  8
LW 5006-19-01
100
AcDbLine
 10
-11.5
 20
32.0
 30
0.0
 11
-9.5
 21
32.0
 31
0.0
  0
LINE
  5
4B66
330
4A50
100
AcDbEntity
  8
LW 5006-19-01
100
AcDbLine
 10
-11.5
 20
-32.0
 30
0.0
 11
-9.5
 21
-32.0
 31
0.0
  0
LINE
  5
4B67
330
4A50
100
AcDbEntity
  8
LW 5006-19-01
100
AcDbLine
 10
9.5
 20
-32.00000000000012
 30
0.0
 11
9.5
 21
32.0
 31
0.0
  0
LINE
  5
4B68
330
4A50
100
AcDbEntity
  8
LW 5006-19-01
100
AcDbLine
 10
11.5
 20
-32.0
 30
0.0
 11
9.5
 21
-32.0
 31
0.0
  0
LINE
  5
4B69
330
4A50
100
AcDbEntity
  8
LW 5006-19-01
100
AcDbLine
 10
11.5
 20
32.0
 30
0.0
 11
9.5
 21
32.0
 31
0.0
  0
LINE
  5
4B6A
330
4A50
100
AcDbEntity
  8
LW 5006-19-01
100
AcDbLine
 10
9.5
 20
-7.000000000000113
 30
0.0
 11
6.5
 21
-7.000000000000113
 31
0.0
  0
LINE
  5
4B6B
330
4A50
100
AcDbEntity
  8
LW 5006-19-01
100
AcDbLine
 10
-6.5
 20
-7.000000000000113
 30
0.0
 11
-9.5
 21
-7.000000000000113
 31
0.0
  0
LINE
  5
4B6C
330
4A50
100
AcDbEntity
  8
LW 5006-19-01
100
AcDbLine
 10
9.5
 20
7.0
 30
0.0
 11
6.5
 21
7.0
 31
0.0
  0
LINE
  5
4B6D
330
4A50
100
AcDbEntity
  8
LW 5006-19-01
100
AcDbLine
 10
-6.5
 20
7.0
 30
0.0
 11
-9.5
 21
7.0
 31
0.0
  0
LINE
  5
4B6E
330
4A50
100
AcDbEntity
  8
LW 5006-19-01
 62
     3
100
AcDbLine
 10
-9.5
 20
-5.794500000000084
 30
0.0
 11
-6.5
 21
-5.794500000000084
 31
0.0
  0
LINE
  5
4B6F
330
4A50
100
AcDbEntity
  8
LW 5006-19-01
 62
     3
100
AcDbLine
 10
6.5
 20
-5.794500000000084
 30
0.0
 11
9.5
 21
-5.794500000000084
 31
0.0
  0
LINE
  5
4B70
330
4A50
100
AcDbEntity
  8
LW 5006-19-01
 62
     3
100
AcDbLine
 10
9.5
 20
5.79449999999997
 30
0.0
 11
6.5
 21
5.79449999999997
 31
0.0
  0
LINE
  5
4B71
330
4A50
100
AcDbEntity
  8
LW 5006-19-01
 62
     3
100
AcDbLine
 10
-6.500000000000227
 20
5.79449999999997
 30
0.0
 11
-9.5
 21
5.79449999999997
 31
0.0
  0
LINE
  5
4B72
330
4A50
100
AcDbEntity
  8
LW 5006-19-01
  6
MITTE2
 62
     3
100
AcDbLine
 10
-99.50000000000001
 20
22.49999999999454
 30
0.0
 11
-99.50000000000001
 21
-22.50000000000546
 31
0.0
  0
LINE
  5
4B73
330
4A50
100
AcDbEntity
  8
LW 5006-19-01
  6
MITTE2
 62
     3
100
AcDbLine
 10
52.84430348519641
 20
0.0
 30
0.0
 11
-137.8443034851966
 21
0.0
 31
0.0
  0
HATCH
  5
4B74
330
4A50
100
AcDbEntity
  8
LW 5006-19-01
 62
     1
100
AcDbHatch
 10
0.0
 20
0.0
 30
0.0
210
0.0
220
0.0
230
1.0
  2
SOLID
 70
     1
 71
     0
 91
        5
 92
        7
 72
     0
 73
     1
 93
       76
 10
-68.38161583989881
 20
5.869698514444621
 10
-68.34975701052599
 20
5.921279476286372
 10
-68.2315988862947
 20
6.0725218753023
 10
-68.09712081108205
 20
6.212946005564845
 10
-67.95110090462049
 20
6.341330567278191
 10
-67.7874321085385
 20
6.458236850193998
 10
-67.61204515517374
 20
6.560414732015601
 10
-67.43029222257337
 20
6.651766411598487
 10
-67.24912328710775
 20
6.721284724044608
 10
-69.50626122530775
 20
6.721284724044608
 10
-69.71915777770778
 20
6.71259506884462
 10
-69.92119226110776
 20
6.686526103244659
 10
-70.11670950310781
 20
6.64525024104455
 10
-70.30136467610759
 20
6.590939896044574
 10
-70.47733019390785
 20
6.521422654444563
 10
-70.64460605650765
 20
6.438870930044458
 10
-70.79517431905469
 20
6.343545412500589
 10
-70.93788191950761
 20
6.236836446644474
 10
-71.06332317507827
 20
6.117788170404423
 10
-71.17458812715563
 20
5.989528859652523
 10
-71.27460605850775
 20
5.852319204044533
 10
-71.35715778290773
 20
5.706767479444465
 10
-71.4201577831077
 20
5.55252609964441
 10
-71.47012330050756
 20
5.391767478444535
 10
-71.49836467990758
 20
5.226664029644553
 10
-71.50705433510757
 20
5.052870925644583
 10
-71.49619226610752
 20
4.879077821644386
 10
-71.46577847290768
 20
4.711801959044464
 10
-71.41146812790748
 20
4.551043337844475
 10
-71.34195088630758
 20
4.39462954424448
 10
-71.25288192050743
 20
4.246905405844472
 10
-71.14643364430754
 20
4.105698508844625
 10
-71.02373571288353
 20
3.974484715324479
 10
-70.88753666417528
 20
3.853350921836636
 10
-70.74019226370751
 20
3.742905404244538
 10
-70.57943364250741
 20
3.645146783244626
 10
-70.40380702126026
 20
3.560248851940514
 10
-70.22315777930771
 20
3.486560575844578
 10
-70.03198536490754
 20
3.430077817044548
 10
-69.83212329530761
 20
3.386629541044612
 10
-69.62357157050769
 20
3.360560575444537
 10
-69.41284743190772
 20
3.35187092024455
 10
-67.29367634615505
 20
3.351870920244664
 10
-67.4542202102075
 20
3.414941723979609
 10
-67.63778435400991
 20
3.505561997502354
 10
-67.80625076018009
 20
3.610091690433819
 10
-67.96908365494073
 20
3.725709928859259
 10
-68.11299602331087
 20
3.855499525399181
 10
-68.24043191679516
 20
3.994853208627773
 10
-68.35413727153855
 20
4.145341453340279
 10
-68.4061085029873
 20
4.229526095444612
 10
-69.43457156990757
 20
4.229526095444498
 10
-69.56668039791316
 20
4.237086095468612
 10
-69.6974336397077
 20
4.257419888636604
 10
-69.82560605390744
 20
4.290353681844521
 10
-69.94074398530756
 20
4.335974371644624
 10
-70.0456889511579
 20
4.39245713044454
 10
-70.14383860664202
 20
4.460062647900485
 10
-70.23401984830752
 20
4.538008855044495
 10
-70.30570950370748
 20
4.62273299324454
 10
-68.57818818944884
 20
4.622732993244653
 10
-68.58877265672186
 20
4.655368434002866
 10
-68.62488446468614
 20
4.840742381554036
 10
-68.63692811746796
 20
5.03103209550477
 10
-68.6249064450385
 20
5.22578318885985
 10
-68.58860072336324
 20
5.412152560126287
 10
-68.57200202068838
 20
5.461284720044545
 10
-70.34264053830771
 20
5.461284720044545
 10
-70.27312329670758
 20
5.556870927244517
 10
-70.19057157230759
 20
5.639422651644508
 10
-70.09548067545416
 20
5.709287479452541
 10
-69.99288191650771
 20
5.767595065844602
 10
-69.87418991613094
 20
5.811564721156514
 10
-69.75174398470767
 20
5.843629548844546
 10
-69.6148819153077
 20
5.863181273044574
 10
-69.47150260450758
 20
5.869698514444507
 97
        0
 92
        7
 72
     0
 73
     1
 93
       72
 10
-66.65315197487098
 20
5.855099893708597
 10
-66.53028893999817
 20
5.873174376524616
 10
-66.40622673270764
 20
5.878388169644722
 10
-65.1375370735077
 20
5.878388169644722
 10
-65.98477845550769
 20
5.063732994644851
 10
-64.21860603610753
 20
3.34535367884473
 10
-62.89995085950772
 20
3.34535367884473
 10
-64.61398534770751
 20
5.087629546444759
 10
-62.93253706650762
 20
6.721284724044835
 10
-66.37146811190769
 20
6.721284724044608
 10
-66.57945500911978
 20
6.710509551596715
 10
-66.78617321667252
 20
6.68504886186065
 10
-66.99060604490774
 20
6.645250241044664
 10
-67.18395087310773
 20
6.588767482244634
 10
-67.37077845990779
 20
6.51707782684457
 10
-67.5419385983821
 20
6.431050240364584
 10
-67.70750259890769
 20
6.334595067644613
 10
-67.85957156490758
 20
6.225974377644661
 10
-67.99526922051086
 20
6.106665411748622
 10
-68.12026122090765
 20
5.976146790644634
 10
-68.22888191090783
 20
5.837112307444613
 10
-68.32012329050758
 20
5.689388169044718
 10
-68.39181294590776
 20
5.535146789244663
 10
-68.44612329090773
 20
5.374388168044561
 10
-68.47870949790763
 20
5.207112305444525
 10
-68.48957156690767
 20
5.031146787644502
 10
-68.47870949790763
 20
4.859526097444586
 10
-68.4461232909075
 20
4.692250234844664
 10
-68.39398535970758
 20
4.531491613644675
 10
-68.32446811810768
 20
4.37725023384462
 10
-68.23262715229884
 20
4.228483336820772
 10
-68.12724770368845
 20
4.089014370860581
 10
-68.00924218607224
 20
3.959972991140716
 10
-67.87695087530756
 20
3.840664025244677
 10
-67.72482977137634
 20
3.732651611108622
 10
-67.56629570190762
 20
3.634284714244586
 10
-67.39467501170747
 20
3.549560576044655
 10
-67.21219225250752
 20
3.477870920644591
 10
-67.01796107947711
 20
3.423821265300603
 10
-66.82115776850764
 20
3.380112299644679
 10
-66.6126060437075
 20
3.354043334044717
 10
-66.40188190510753
 20
3.34535367884473
 10
-64.49884741630762
 20
3.34535367884473
 10
-65.38519224670768
 20
4.218664026444685
 10
-66.40188190510753
 20
4.218664026444685
 10
-66.46854893980208
 20
4.222411319384036
 10
-66.56949666426044
 20
4.232393681660596
 10
-66.68963114740041
 20
4.253857130004689
 10
-66.80675032018598
 20
4.288181268044581
 10
-66.90824549292187
 20
4.329109544036668
 10
-66.964380665514
 20
4.357264026884649
 10
-67.01806535533956
 20
4.389850233884772
 10
-67.15062604541572
 20
4.489172992820613
 10
-67.2242274249595
 20
4.559211613732713
 10
-67.2792937699619
 20
4.627077820844533
 10
-67.32799928735812
 20
4.699636441764596
 10
-67.36736342541417
 20
4.776800579940527
 10
-67.39678659792116
 20
4.858222649164645
 10
-67.41748535660758
 20
4.945379890820731
 10
-67.42500190835563
 20
5.034709546276531
 10
-67.42364632214435
 20
5.097014374060563
 10
-67.41764177040113
 20
5.159145408740528
 10
-67.40548494277641
 20
5.222319202044673
 10
-67.38727142547713
 20
5.284015753964695
 10
-67.34362328740781
 20
5.382730237036525
 10
-67.30209542520674
 20
5.450596444148573
 10
-67.23901721811012
 20
5.528629547844616
 10
-67.10961527774521
 20
5.655152284898349
 10
-67.05034742440762
 20
5.695210238028721
 10
-66.97405225175157
 20
5.739527479548542
 10
-66.89003197562283
 20
5.78167230726865
 10
-66.77349500973559
 20
5.824512307404688
 97
        0
 92
        7
 72
     0
 73
     1
 93
       57
 10
-62.09511499488349
 20
5.833028169500948
 10
-61.96364051170758
 20
5.873000583420889
 10
-61.82895085610766
 20
5.900112307644917
 10
-61.68557154530777
 20
5.90880196284479
 10
-60.44512326550762
 20
5.908801962844904
 10
-60.44512326550762
 20
6.734319206844929
 10
-61.6790543039076
 20
6.734319206844816
 10
-61.88977844250757
 20
6.725629551644829
 10
-62.09615775350767
 20
6.697388172244814
 10
-62.29384740930754
 20
6.656112310044818
 10
-62.48284740990766
 20
6.601801965044842
 10
-62.66750258290767
 20
6.530112309644891
 10
-62.83390947998782
 20
6.447473688692753
 10
-62.99273030807808
 20
6.351018515972782
 10
-63.14280934303724
 20
6.241528860452717
 10
-63.27736865380916
 20
6.122306791108826
 10
-63.39743361970772
 20
5.993526101044835
 10
-63.50170948210757
 20
5.854491617844814
 10
-63.58643362030761
 20
5.708939893244746
 10
-63.65812327570779
 20
5.554698513444691
 10
-63.70808879310766
 20
5.393939892244816
 10
-63.74067500010756
 20
5.226664029644894
 10
-63.7515370691076
 20
5.05287092564481
 10
-63.74067500010756
 20
4.879077821644841
 10
-63.70808879310766
 20
4.711801959044805
 10
-63.65595086190774
 20
4.551043337844703
 10
-63.58426120650756
 20
4.394629544244821
 10
-63.49736465450746
 20
4.246905405844813
 10
-63.38851803347234
 20
4.107349543332816
 10
-63.26866161929888
 20
3.977004715332896
 10
-63.13223403265874
 20
3.855697128740757
 10
-62.98467499770755
 20
3.745077818044819
 10
-62.82391637650767
 20
3.64731919704468
 10
-62.6501232725077
 20
3.562595058844863
 10
-62.46546809950746
 20
3.488732989644859
 10
-62.27429568510752
 20
3.432250230844829
 10
-62.07443361550758
 20
3.388801954844893
 10
-61.8680543045075
 20
3.364905403044758
 10
-61.65515775210747
 20
3.356215747844771
 10
-60.44512326550762
 20
3.356215747844885
 10
-60.44512326550762
 20
4.214319198844805
 10
-61.6790543039076
 20
4.214319198844805
 10
-61.81270120088356
 20
4.224659888532755
 10
-61.94495775302744
 20
4.246644716188939
 10
-62.06557016720353
 20
4.280968854228831
 10
-62.18157706412353
 20
4.328935750932942
 10
-62.29124051274766
 20
4.389850233884885
 10
-62.38830396133153
 20
4.45745575134083
 10
-62.4757218926436
 20
4.537226786076871
 10
-62.55019223770751
 20
4.622732993244881
 10
-60.44512326550762
 20
4.622732993244881
 10
-60.44512326550762
 20
5.450422651044846
 10
-62.58712327230774
 20
5.450422651044846
 10
-62.51760603070761
 20
5.548181272044757
 10
-62.43070947870774
 20
5.637250237844682
 10
-62.32956189217953
 20
5.713545410500842
 10
-62.22215775390759
 20
5.78062954864481
 97
        0
 92
        7
 72
     0
 73
     1
 93
        6
 10
-60.21484740270762
 20
6.721284724044949
 10
-60.21484740270762
 20
3.351870920244891
 10
-57.97726118870741
 20
3.351870920245005
 10
-57.97726118870764
 20
4.218664026445026
 10
-59.1916405029076
 20
4.218664026445026
 10
-59.1916405029076
 20
6.721284724044949
 97
        0
 92
        7
 72
     0
 73
     1
 93
        8
 10
-58.95919222630777
 20
6.721284724044949
 10
-58.95919222630777
 20
5.895767480044924
 10
-57.72526118790756
 20
5.895767480045037
 10
-57.72526118790756
 20
3.345353678844958
 10
-56.6998818743075
 20
3.345353678844958
 10
-56.69988187430772
 20
5.895767480044924
 10
-55.45726118070774
 20
5.895767480045037
 10
-55.45726118070774
 20
6.721284724045062
 97
        0
 75
     0
 76
     1
 47
0.0142553043587597
 98
        5
 10
-69.07195571383249
 20
6.278835054455498
 10
-66.80445850048977
 20
6.136282069449862
 10
-62.31224676828833
 20
6.193303241997682
 10
-59.5883976844566
 20
6.435643466690066
 10
-58.17655970222995
 20
6.335856334276741
450
        0
451
        0
460
0.0
461
0.0
452
        0
462
0.0
453
        0
470

  0
LWPOLYLINE
  5
4B75
330
4A50
100
AcDbEntity
  8
LW 5006-19-01
 62
     1
100
AcDbPolyline
 90
        8
 70
     1
 43
0.0
 10
-56.69988187430772
 20
5.895767480044924
 10
-56.6998818743075
 20
3.345353678844958
 10
-57.72526118790756
 20
3.345353678844958
 10
-57.72526118790756
 20
5.895767480045037
 10
-58.95919222630777
 20
5.895767480044924
 10
-58.95919222630777
 20
6.721284724044949
 10
-55.45726118070774
 20
6.721284724045062
 10
-55.45726118070774
 20
5.895767480045037
  0
LWPOLYLINE
  5
4B76
330
4A50
100
AcDbEntity
  8
LW 5006-19-01
 62
     1
100
AcDbPolyline
 90
       73
 70
     1
 43
0.0
 10
-66.40188190510753
 20
4.218664026444685
 10
-65.38519224670768
 20
4.218664026444685
 10
-64.49884741630762
 20
3.34535367884473
 10
-66.40188190510753
 20
3.345353678844617
 10
-66.6126060437075
 20
3.354043334044717
 10
-66.82115776850764
 20
3.380112299644679
 10
-67.01796107947711
 20
3.423821265300603
 10
-67.21219225250752
 20
3.477870920644591
 10
-67.39467501170747
 20
3.549560576044655
 10
-67.56629570190762
 20
3.634284714244586
 10
-67.72482977137634
 20
3.732651611108622
 10
-67.87695087530756
 20
3.840664025244677
 10
-68.00924218607247
 20
3.959972991140602
 10
-68.12724770368845
 20
4.089014370860581
 10
-68.23262715229884
 20
4.228483336820659
 10
-68.32446811810768
 20
4.37725023384462
 10
-68.39398535970758
 20
4.531491613644675
 10
-68.4461232909075
 20
4.692250234844664
 10
-68.47870949790763
 20
4.859526097444586
 10
-68.48957156690767
 20
5.031146787644615
 10
-68.47870949790763
 20
5.207112305444525
 10
-68.44612329090773
 20
5.374388168044561
 10
-68.39181294590753
 20
5.535146789244663
 10
-68.32012329050758
 20
5.689388169044605
 10
-68.2288819109076
 20
5.837112307444613
 10
-68.12026122090765
 20
5.976146790644634
 10
-67.99526922051086
 20
6.106665411748736
 10
-67.85957156490781
 20
6.225974377644661
 10
-67.70750259890769
 20
6.334595067644613
 10
-67.5419385983821
 20
6.431050240364584
 10
-67.37077845990779
 20
6.51707782684457
 10
-67.18395087310773
 20
6.588767482244634
 10
-66.99060604490774
 20
6.645250241044777
 10
-66.78617321667252
 20
6.68504886186065
 10
-66.57945500911978
 20
6.710509551596715
 10
-66.37146811190769
 20
6.721284724044608
 10
-62.93253706650762
 20
6.721284724044835
 10
-64.61398534770751
 20
5.087629546444759
 10
-62.89995085950772
 20
3.34535367884473
 10
-64.21860603610753
 20
3.34535367884473
 10
-65.98477845550769
 20
5.063732994644851
 10
-65.1375370735077
 20
5.878388169644722
 10
-66.40622673270764
 20
5.878388169644722
 10
-66.53028893999817
 20
5.873174376524616
 10
-66.65315197487098
 20
5.855099893708597
 10
-66.77349500973559
 20
5.824512307404688
 10
-66.89003197562283
 20
5.781672307268536
 10
-66.9740522517518
 20
5.739527479548655
 10
-67.05034742440762
 20
5.695210238028721
 10
-67.0905892176388
 20
5.668011617252659
 10
-67.12810245913715
 20
5.637076444740614
 10
-67.23901721811012
 20
5.528629547844616
 10
-67.30209542520674
 20
5.450596444148573
 10
-67.34362328740758
 20
5.382730237036639
 10
-67.38727142547713
 20
5.284015753964695
 10
-67.40548494277641
 20
5.222319202044673
 10
-67.41764177040113
 20
5.159145408740641
 10
-67.42364632214435
 20
5.097014374060677
 10
-67.42500190835563
 20
5.034709546276644
 10
-67.41748535660758
 20
4.945379890820731
 10
-67.39678659792116
 20
4.858222649164645
 10
-67.36736342541394
 20
4.776800579940641
 10
-67.32799928735812
 20
4.699636441764596
 10
-67.27929376996212
 20
4.627077820844647
 10
-67.2242274249595
 20
4.559211613732713
 10
-67.15062604541572
 20
4.489172992820613
 10
-67.01806535533956
 20
4.389850233884772
 10
-66.964380665514
 20
4.357264026884649
 10
-66.90824549292187
 20
4.329109544036668
 10
-66.80675032018598
 20
4.288181268044581
 10
-66.68963114740041
 20
4.253857130004689
 10
-66.56949666426044
 20
4.232393681660596
 10
-66.46854893980208
 20
4.222411319384036
  0
LWPOLYLINE
  5
4B77
330
4A50
100
AcDbEntity
  8
LW 5006-19-01
 62
     1
100
AcDbPolyline
 90
       76
 70
     1
 43
0.0
 10
-67.61204515517374
 20
6.560414732015601
 10
-67.7874321085385
 20
6.458236850193884
 10
-67.95110090462049
 20
6.341330567278191
 10
-68.09712081108205
 20
6.212946005564845
 10
-68.2315988862947
 20
6.0725218753023
 10
-68.34975701052599
 20
5.921279476286372
 10
-68.38161583989881
 20
5.869698514444621
 10
-69.47150260450758
 20
5.869698514444621
 10
-69.6148819153077
 20
5.863181273044574
 10
-69.75174398470767
 20
5.843629548844546
 10
-69.87418991613094
 20
5.811564721156514
 10
-69.99288191650771
 20
5.767595065844602
 10
-70.09548067545392
 20
5.709287479452541
 10
-70.19057157230759
 20
5.639422651644508
 10
-70.27312329670781
 20
5.556870927244517
 10
-70.34264053830771
 20
5.461284720044545
 10
-68.57200202068838
 20
5.461284720044545
 10
-68.58860072336324
 20
5.412152560126287
 10
-68.62490644503873
 20
5.225783188859622
 10
-68.63692811746796
 20
5.03103209550477
 10
-68.62488446468614
 20
4.840742381554036
 10
-68.58877265672163
 20
4.65536843400298
 10
-68.57818818944884
 20
4.622732993244653
 10
-70.30570950370748
 20
4.62273299324454
 10
-70.23401984830752
 20
4.538008855044495
 10
-70.14383860664202
 20
4.460062647900485
 10
-70.0456889511579
 20
4.39245713044454
 10
-69.94074398530756
 20
4.335974371644624
 10
-69.82560605390744
 20
4.290353681844635
 10
-69.6974336397077
 20
4.257419888636604
 10
-69.56668039791316
 20
4.237086095468612
 10
-69.43457156990757
 20
4.229526095444498
 10
-68.4061085029873
 20
4.229526095444612
 10
-68.35413727153855
 20
4.145341453340279
 10
-68.24043191679516
 20
3.994853208627773
 10
-68.11299602331087
 20
3.855499525399181
 10
-67.96908365494073
 20
3.725709928859487
 10
-67.80625076018009
 20
3.610091690433819
 10
-67.63778435400991
 20
3.505561997502354
 10
-67.4542202102075
 20
3.414941723979609
 10
-67.29367634615505
 20
3.351870920244664
 10
-69.41284743190749
 20
3.351870920244437
 10
-69.62357157050769
 20
3.360560575444537
 10
-69.83212329530761
 20
3.386629541044612
 10
-70.03198536490754
 20
3.430077817044548
 10
-70.22315777930749
 20
3.486560575844464
 10
-70.40380702126049
 20
3.560248851940514
 10
-70.57943364250741
 20
3.645146783244626
 10
-70.74019226370751
 20
3.742905404244538
 10
-70.88753666417528
 20
3.853350921836522
 10
-71.02373571288353
 20
3.974484715324479
 10
-71.14643364430754
 20
4.105698508844511
 10
-71.25288192050766
 20
4.246905405844472
 10
-71.34195088630758
 20
4.39462954424448
 10
-71.41146812790748
 20
4.551043337844475
 10
-71.46577847290768
 20
4.711801959044464
 10
-71.49619226610752
 20
4.879077821644614
 10
-71.50705433510757
 20
5.052870925644469
 10
-71.4983646799078
 20
5.226664029644439
 10
-71.47012330050756
 20
5.391767478444535
 10
-71.4201577831077
 20
5.55252609964441
 10
-71.35715778290773
 20
5.706767479444465
 10
-71.27460605850775
 20
5.852319204044533
 10
-71.17458812715563
 20
5.989528859652523
 10
-71.06332317507827
 20
6.117788170404537
 10
-70.93788191950761
 20
6.236836446644474
 10
-70.79517431905469
 20
6.343545412500589
 10
-70.64460605650765
 20
6.438870930044572
 10
-70.47733019390761
 20
6.52142265444445
 10
-70.30136467610759
 20
6.590939896044574
 10
-70.11670950310758
 20
6.64525024104455
 10
-69.92119226110776
 20
6.686526103244659
 10
-69.71915777770778
 20
6.71259506884462
 10
-69.50626122530775
 20
6.721284724044608
 10
-67.24912328710752
 20
6.721284724044721
 10
-67.43029222257337
 20
6.651766411598487
  0
LWPOLYLINE
  5
4B78
330
4A50
100
AcDbEntity
  8
LW 5006-19-01
 62
     1
100
AcDbPolyline
 90
        6
 70
     1
 43
0.0
 10
-57.97726118870741
 20
3.351870920245005
 10
-60.21484740270762
 20
3.351870920244891
 10
-60.21484740270762
 20
6.721284724044949
 10
-59.1916405029076
 20
6.721284724044949
 10
-59.1916405029076
 20
4.218664026445026
 10
-57.97726118870764
 20
4.218664026445026
  0
LWPOLYLINE
  5
4B79
330
4A50
100
AcDbEntity
  8
LW 5006-19-01
 62
     1
100
AcDbPolyline
 90
       57
 70
     1
 43
0.0
 10
-63.26866161929888
 20
3.977004715332896
 10
-63.38851803347234
 20
4.107349543332702
 10
-63.49736465450769
 20
4.246905405844699
 10
-63.58426120650756
 20
4.394629544244821
 10
-63.65595086190774
 20
4.551043337844703
 10
-63.70808879310766
 20
4.711801959044805
 10
-63.74067500010756
 20
4.879077821644841
 10
-63.7515370691076
 20
5.05287092564481
 10
-63.74067500010756
 20
5.22666402964478
 10
-63.70808879310766
 20
5.393939892244816
 10
-63.65812327570779
 20
5.554698513444691
 10
-63.58643362030761
 20
5.70893989324486
 10
-63.5017094821078
 20
5.854491617844701
 10
-63.39743361970772
 20
5.993526101044835
 10
-63.27736865380939
 20
6.122306791108712
 10
-63.14280934303724
 20
6.241528860452717
 10
-62.99273030807808
 20
6.351018515972782
 10
-62.8339094799876
 20
6.447473688692866
 10
-62.66750258290767
 20
6.530112309644891
 10
-62.48284740990766
 20
6.601801965044842
 10
-62.29384740930754
 20
6.656112310044818
 10
-62.09615775350767
 20
6.697388172244814
 10
-61.88977844250757
 20
6.725629551644829
 10
-61.6790543039076
 20
6.734319206844816
 10
-60.44512326550762
 20
6.734319206844929
 10
-60.44512326550762
 20
5.908801962844904
 10
-61.68557154530754
 20
5.90880196284479
 10
-61.82895085610766
 20
5.900112307644803
 10
-61.96364051170758
 20
5.873000583420889
 10
-62.09511499488371
 20
5.833028169500835
 10
-62.22215775390759
 20
5.78062954864481
 10
-62.32956189217953
 20
5.713545410500842
 10
-62.43070947870774
 20
5.637250237844909
 10
-62.51760603070761
 20
5.548181272044757
 10
-62.58712327230774
 20
5.450422651044846
 10
-60.44512326550762
 20
5.450422651044846
 10
-60.44512326550762
 20
4.622732993244881
 10
-62.55019223770751
 20
4.622732993244881
 10
-62.4757218926436
 20
4.537226786076871
 10
-62.38830396133153
 20
4.45745575134083
 10
-62.29124051274766
 20
4.389850233884885
 10
-62.18157706412353
 20
4.328935750932942
 10
-62.06557016720353
 20
4.280968854228831
 10
-61.94495775302744
 20
4.246644716188939
 10
-61.81270120088356
 20
4.224659888532755
 10
-61.6790543039076
 20
4.214319198844805
 10
-60.44512326550762
 20
4.214319198844805
 10
-60.44512326550762
 20
3.356215747844885
 10
-61.65515775210747
 20
3.356215747844771
 10
-61.8680543045075
 20
3.364905403044758
 10
-62.07443361550758
 20
3.388801954844893
 10
-62.27429568510752
 20
3.432250230844829
 10
-62.46546809950746
 20
3.488732989644859
 10
-62.6501232725077
 20
3.562595058844863
 10
-62.82391637650767
 20
3.647319197044907
 10
-62.98467499770755
 20
3.745077818044819
 10
-63.13223403265874
 20
3.855697128740757
  0
LINE
  5
4B7A
330
4A50
100
AcDbEntity
  8
LW 5006-19-01
  6
MITTE2
 62
     3
100
AcDbLine
 10
0.0
 20
37.0
 30
0.0
 11
0.0
 21
-37.00000000000012
 31
0.0
  0
INSERT
  5
4B7B
330
4A50
100
AcDbEntity
  8
LW 5006-19-01
100
AcDbBlockReference
 66
     1
  2
insertpoint-ECKELT
 10
0.0
 20
0.0
 30
0.0
  0
ATTRIB
  5
4B7C
330
4B7B
100
AcDbEntity
  8
insertpoint_ECKELT
100
AcDbText
 10
-6.93151432469286
 20
0.0
 30
0.0
 40
0.6
  1
LW 5006/19-01
 72
     2
 11
-1.199999999999818
 21
0.0
 31
0.0
100
AcDbAttribute
  2
LINKS
 70
     0
  0
ATTRIB
  5
4B7D
330
4B7B
100
AcDbEntity
  8
insertpoint_ECKELT
100
AcDbText
 10
1.199999999999818
 20
0.0
 30
0.0
 40
0.6
  1

100
AcDbAttribute
  2
RECHTS
 70
     0
  0
SEQEND
  5
4B7E
330
4B7B
100
AcDbEntity
  8
LW 5006-19-01
  0
ENDBLK
  5
4A52
330
4A50
100
AcDbEntity
  8
0
100
AcDbBlockEnd
  0
BLOCK
  5
4B81
330
4B80
100
AcDbEntity
  8
0
100
AcDbBlockBegin
  2
LW 5006-19-01_c
 70
     0
 10
0.0
 20
0.0
 30
0.0
  3
LW 5006-19-01_c
  1

  0
LINE
  5
4B83
330
4B80
100
AcDbEntity
  8
LW 5006-19-01
  6
VERDECKT
 62
     6
100
AcDbLine
 10
7.334936490539348
 20
17.70448267190204
 30
0.0
 11
11.6650635094611
 21
15.2044826719009
 31
0.0
  0
LINE
  5
4B84
330
4B80
100
AcDbEntity
  8
LW 5006-19-01
  6
VERDECKT
 62
     6
100
AcDbLine
 10
11.66506350945201
 20
-15.20448267190795
 30
0.0
 11
7.334936490528889
 21
-17.70448267190659
 31
0.0
  0
LINE
  5
4B85
330
4B80
100
AcDbEntity
  8
LW 5006-19-01
  6
VERDECKT
 62
     6
100
AcDbLine
 10
8.748924226215422
 20
15.1535812713729
 30
0.0
 11
7.334936490539348
 21
17.70448267190204
 31
0.0
  0
LINE
  5
4B86
330
4B80
100
AcDbEntity
  8
LW 5006-19-01
  6
VERDECKT
 62
     6
100
AcDbLine
 10
8.748924226215422
 20
15.1535812713729
 30
0.0
 11
11.6650635094611
 21
15.2044826719009
 31
0.0
  0
LINE
  5
4B87
330
4B80
100
AcDbEntity
  8
LW 5006-19-01
  6
VERDECKT
 62
     6
100
AcDbLine
 10
14.6024064732951
 20
20.29210992451317
 30
0.0
 11
11.6650635094611
 21
15.20448267190068
 31
0.0
  0
LINE
  5
4B88
330
4B80
100
AcDbEntity
  8
LW 5006-19-01
  6
VERDECKT
 62
     6
100
AcDbLine
 10
10.2722794543738
 20
22.79210992451453
 30
0.0
 11
7.334936490539348
 21
17.70448267190204
 31
0.0
  0
LINE
  5
4B89
330
4B80
100
AcDbEntity
  8
LW 5006-19-01
  6
VERDECKT
 62
     6
100
AcDbLine
 10
8.748924226206327
 20
-15.15358127137824
 30
0.0
 11
11.66506350945201
 21
-15.20448267190795
 31
0.0
  0
LINE
  5
4B8A
330
4B80
100
AcDbEntity
  8
LW 5006-19-01
  6
VERDECKT
 62
     6
100
AcDbLine
 10
8.748924226206327
 20
-15.15358127137824
 30
0.0
 11
7.334936490528889
 21
-17.70448267190659
 31
0.0
  0
LINE
  5
4B8B
330
4B80
100
AcDbEntity
  8
LW 5006-19-01
  6
VERDECKT
 62
     6
100
AcDbLine
 10
10.27227945436016
 20
-22.79210992452068
 30
0.0
 11
7.334936490528889
 21
-17.70448267190659
 31
0.0
  0
LINE
  5
4B8C
330
4B80
100
AcDbEntity
  8
LW 5006-19-01
  6
VERDECKT
 62
     6
100
AcDbLine
 10
14.60240647328328
 20
-20.29210992452204
 30
0.0
 11
11.66506350945201
 21
-15.20448267190795
 31
0.0
  0
LINE
  5
4B8D
330
4B80
100
AcDbEntity
  8
LW 5006-19-01
  6
VERDECKT
 62
     6
100
AcDbLine
 10
-19.00000000000545
 20
-2.499999999994543
 30
0.0
 11
-19.00000000000409
 21
2.500000000005456
 31
0.0
  0
LINE
  5
4B8E
330
4B80
100
AcDbEntity
  8
LW 5006-19-01
  6
VERDECKT
 62
     6
100
AcDbLine
 10
-17.49784845243584
 20
0.0000000000051159
 30
0.0
 11
-19.00000000000545
 21
-2.499999999994543
 31
0.0
  0
LINE
  5
4B8F
330
4B80
100
AcDbEntity
  8
LW 5006-19-01
  6
VERDECKT
 62
     6
100
AcDbLine
 10
-17.49784845243584
 20
0.0000000000051159
 30
0.0
 11
-19.00000000000409
 21
2.500000000005456
 31
0.0
  0
LINE
  5
4B90
330
4B80
100
AcDbEntity
  8
LW 5006-19-01
  6
VERDECKT
 62
     6
100
AcDbLine
 10
-24.87468592766936
 20
2.500000000007275
 30
0.0
 11
-19.00000000000409
 21
2.500000000005456
 31
0.0
  0
LINE
  5
4B91
330
4B80
100
AcDbEntity
  8
LW 5006-19-01
  6
VERDECKT
 62
     6
100
AcDbLine
 10
-24.87468592767072
 20
-2.499999999992724
 30
0.0
 11
-19.00000000000545
 21
-2.499999999994543
 31
0.0
  0
ARC
  5
4B92
330
4B80
100
AcDbEntity
  8
LW 5006-19-01
100
AcDbCircle
 10
-0.0000000000059117
 20
0.0
 30
0.0
 40
25.0
100
AcDbArc
 50
224.4270040007897
 51
315.5729959991723
  0
ARC
  5
4B93
330
4B80
100
AcDbEntity
  8
LW 5006-19-01
100
AcDbCircle
 10
-0.0000000000059117
 20
0.0
 30
0.0
 40
25.0
100
AcDbArc
 50
323.1301023541312
 51
36.86989764582579
  0
ARC
  5
4B94
330
4B80
100
AcDbEntity
  8
LW 5006-19-01
100
AcDbCircle
 10
-0.0000000000059117
 20
0.0
 30
0.0
 40
25.0
100
AcDbArc
 50
44.42700400078962
 51
135.5729959991758
  0
ARC
  5
4B95
330
4B80
100
AcDbEntity
  8
LW 5006-19-01
100
AcDbCircle
 10
-0.0000000000077307
 20
0.0
 30
0.0
 40
19.00000000000001
100
AcDbArc
 50
247.0804578484147
 51
292.9195421515569
  0
ARC
  5
4B96
330
4B80
100
AcDbEntity
  8
LW 5006-19-01
100
AcDbCircle
 10
-0.0000000000077307
 20
0.0
 30
0.0
 40
19.0
100
AcDbArc
 50
67.0804578484147
 51
112.9195421515568
  0
CIRCLE
  5
4B97
330
4B80
100
AcDbEntity
  8
LW 5006-19-01
100
AcDbCircle
 10
-0.0000000000354703
 20
0.0
 30
0.0
 40
10.00000000000001
  0
CIRCLE
  5
4B98
330
4B80
100
AcDbEntity
  8
LW 5006-19-01
100
AcDbCircle
 10
-0.000000000035925
 20
0.0
 30
0.0
 40
9.000000000000008
  0
ARC
  5
4B99
330
4B80
100
AcDbEntity
  8
LW 5006-19-01
  6
VERDECKT
 62
     6
100
AcDbCircle
 10
-0.0000000000050022
 20
-0.0000000000005684
 30
0.0
 40
24.99999999999923
100
AcDbArc
 50
315.5729959991723
 51
323.1301023541312
  0
ARC
  5
4B9A
330
4B80
100
AcDbEntity
  8
LW 5006-19-01
  6
VERDECKT
 62
     6
100
AcDbCircle
 10
-0.000000000005457
 20
0.0000000000002274
 30
0.0
 40
24.99999999999958
100
AcDbArc
 50
36.86989764582579
 51
44.42700400078962
  0
ARC
  5
4B9B
330
4B80
100
AcDbEntity
  8
LW 5006-19-01
  6
VERDECKT
 62
     6
100
AcDbCircle
 10
-0.0000000000059117
 20
0.0
 30
0.0
 40
25.00000000000001
100
AcDbArc
 50
135.5729959991758
 51
224.4270040007897
  0
ARC
  5
4B9C
330
4B80
100
AcDbEntity
  8
LW 5006-19-01
  6
VERDECKT
 62
     6
100
AcDbCircle
 10
-0.0000000000077307
 20
0.0
 30
0.0
 40
19.0
100
AcDbArc
 50
292.9195421515569
 51
67.0804578484147
  0
ARC
  5
4B9D
330
4B80
100
AcDbEntity
  8
LW 5006-19-01
  6
VERDECKT
 62
     6
100
AcDbCircle
 10
-0.0000000000077307
 20
0.0
 30
0.0
 40
19.0
100
AcDbArc
 50
112.9195421515568
 51
247.0804578484147
  0
POLYLINE
  5
4B9E
330
4B80
100
AcDbEntity
  8
LW 5006-19-01
100
AcDb2dPolyline
 66
     1
 10
0.0
 20
0.0
 30
0.0
 70
   128
  0
VERTEX
  5
4B9F
330
4B9E
100
AcDbEntity
  8
LW 5006-19-01
100
AcDbVertex
100
AcDb2dVertex
 10
-0.0000000000286491
 20
-17.3264467716217
 30
0.0
  0
VERTEX
  5
4BA0
330
4B9E
100
AcDbEntity
  8
LW 5006-19-01
100
AcDbVertex
100
AcDb2dVertex
 10
0.1560449599933236
 20
-17.32719898223877
 30
0.0
  0
VERTEX
  5
4BA1
330
4B9E
100
AcDbEntity
  8
LW 5006-19-01
100
AcDbVertex
100
AcDb2dVertex
 10
0.3141689300250618
 20
-17.32942223548912
 30
0.0
  0
VERTEX
  5
4BA2
330
4B9E
100
AcDbEntity
  8
LW 5006-19-01
100
AcDbVertex
100
AcDb2dVertex
 10
0.4730701446246713
 20
-17.33306407928489
 30
0.0
  0
VERTEX
  5
4BA3
330
4B9E
100
AcDbEntity
  8
LW 5006-19-01
100
AcDbVertex
100
AcDb2dVertex
 10
0.6314468383502572
 20
-17.33807563781761
 30
0.0
  0
VERTEX
  5
4BA4
330
4B9E
100
AcDbEntity
  8
LW 5006-19-01
100
AcDbVertex
100
AcDb2dVertex
 10
0.7879877090167611
 20
-17.34440565109276
 30
0.0
  0
VERTEX
  5
4BA5
330
4B9E
100
AcDbEntity
  8
LW 5006-19-01
100
AcDbVertex
100
AcDb2dVertex
 10
0.9413909911822884
 20
-17.35200285911594
 30
0.0
  0
VERTEX
  5
4BA6
330
4B9E
100
AcDbEntity
  8
LW 5006-19-01
100
AcDbVertex
100
AcDb2dVertex
 10
1.090421676607093
 20
-17.36074566841159
 30
0.0
  0
VERTEX
  5
4BA7
330
4B9E
100
AcDbEntity
  8
LW 5006-19-01
100
AcDbVertex
100
AcDb2dVertex
 10
1.234145164461097
 20
-17.37039446830795
 30
0.0
  0
VERTEX
  5
4BA8
330
4B9E
100
AcDbEntity
  8
LW 5006-19-01
100
AcDbVertex
100
AcDb2dVertex
 10
1.371684074373206
 20
-17.38071799278305
 30
0.0
  0
VERTEX
  5
4BA9
330
4B9E
100
AcDbEntity
  8
LW 5006-19-01
100
AcDbVertex
100
AcDb2dVertex
 10
1.502156257600745
 20
-17.39148736000106
 30
0.0
  0
VERTEX
  5
4BAA
330
4B9E
100
AcDbEntity
  8
LW 5006-19-01
100
AcDbVertex
100
AcDb2dVertex
 10
1.624689102144202
 20
-17.40247011184738
 30
0.0
  0
VERTEX
  5
4BAB
330
4B9E
100
AcDbEntity
  8
LW 5006-19-01
100
AcDbVertex
100
AcDb2dVertex
 10
1.738414764375647
 20
-17.41343855857906
 30
0.0
  0
VERTEX
  5
4BAC
330
4B9E
100
AcDbEntity
  8
LW 5006-19-01
100
AcDbVertex
100
AcDb2dVertex
 10
1.844868659944495
 20
-17.42439985275325
 30
0.0
  0
VERTEX
  5
4BAD
330
4B9E
100
AcDbEntity
  8
LW 5006-19-01
100
AcDbVertex
100
AcDb2dVertex
 10
1.945543289155921
 20
-17.43536114692756
 30
0.0
  0
VERTEX
  5
4BAE
330
4B9E
100
AcDbEntity
  8
LW 5006-19-01
100
AcDbVertex
100
AcDb2dVertex
 10
2.03946590420719
 20
-17.44609594345161
 30
0.0
  0
VERTEX
  5
4BAF
330
4B9E
100
AcDbEntity
  8
LW 5006-19-01
100
AcDbVertex
100
AcDb2dVertex
 10
2.125682830781897
 20
-17.45637536048957
 30
0.0
  0
VERTEX
  5
4BB0
330
4B9E
100
AcDbEntity
  8
LW 5006-19-01
100
AcDbVertex
100
AcDb2dVertex
 10
2.203221321077307
 20
-17.46597290039131
 30
0.0
  0
VERTEX
  5
4BB1
330
4B9E
100
AcDbEntity
  8
LW 5006-19-01
100
AcDbVertex
100
AcDb2dVertex
 10
2.27111816403385
 20
-17.47466087341377
 30
0.0
  0
VERTEX
  5
4BB2
330
4B9E
100
AcDbEntity
  8
LW 5006-19-01
100
AcDbVertex
100
AcDb2dVertex
 10
2.328581809969364
 20
-17.48220205307075
 30
0.0
  0
VERTEX
  5
4BB3
330
4B9E
100
AcDbEntity
  8
LW 5006-19-01
100
AcDbVertex
100
AcDb2dVertex
 10
2.375483512850223
 20
-17.4884808063515
 30
0.0
  0
VERTEX
  5
4BB4
330
4B9E
100
AcDbEntity
  8
LW 5006-19-01
100
AcDbVertex
100
AcDb2dVertex
 10
2.411880493135868
 20
-17.49344706535419
 30
0.0
  0
VERTEX
  5
4BB5
330
4B9E
100
AcDbEntity
  8
LW 5006-19-01
100
AcDbVertex
100
AcDb2dVertex
 10
2.437810897798954
 20
-17.49705553054889
 30
0.0
  0
VERTEX
  5
4BB6
330
4B9E
100
AcDbEntity
  8
LW 5006-19-01
100
AcDbVertex
100
AcDb2dVertex
 10
2.453336715670047
 20
-17.499256134034
 30
0.0
  0
VERTEX
  5
4BB7
330
4B9E
100
AcDbEntity
  8
LW 5006-19-01
100
AcDbVertex
100
AcDb2dVertex
 10
2.458500862093387
 20
-17.50000000000079
 30
0.0
  0
SEQEND
  5
4BB8
330
4B9E
100
AcDbEntity
  8
LW 5006-19-01
  0
POLYLINE
  5
4BB9
330
4B80
100
AcDbEntity
  8
LW 5006-19-01
100
AcDb2dPolyline
 66
     1
 10
0.0
 20
0.0
 30
0.0
 70
   128
  0
VERTEX
  5
4BBA
330
4BB9
100
AcDbEntity
  8
LW 5006-19-01
100
AcDbVertex
100
AcDb2dVertex
 10
-2.458500862149776
 20
-17.49999999999932
 30
0.0
  0
VERTEX
  5
4BBB
330
4BB9
100
AcDbEntity
  8
LW 5006-19-01
100
AcDbVertex
100
AcDb2dVertex
 10
-2.453336715726436
 20
-17.49925613403252
 30
0.0
  0
VERTEX
  5
4BBC
330
4BB9
100
AcDbEntity
  8
LW 5006-19-01
100
AcDbVertex
100
AcDb2dVertex
 10
-2.437810897855342
 20
-17.49705553054741
 30
0.0
  0
VERTEX
  5
4BBD
330
4BB9
100
AcDbEntity
  8
LW 5006-19-01
100
AcDbVertex
100
AcDb2dVertex
 10
-2.411880493192256
 20
-17.49344706535271
 30
0.0
  0
VERTEX
  5
4BBE
330
4BB9
100
AcDbEntity
  8
LW 5006-19-01
100
AcDbVertex
100
AcDb2dVertex
 10
-2.375483512906612
 20
-17.48848080635002
 30
0.0
  0
VERTEX
  5
4BBF
330
4BB9
100
AcDbEntity
  8
LW 5006-19-01
100
AcDbVertex
100
AcDb2dVertex
 10
-2.328581810025752
 20
-17.48220205306938
 30
0.0
  0
VERTEX
  5
4BC0
330
4BB9
100
AcDbEntity
  8
LW 5006-19-01
100
AcDbVertex
100
AcDb2dVertex
 10
-2.271118164091149
 20
-17.4746608734124
 30
0.0
  0
VERTEX
  5
4BC1
330
4BB9
100
AcDbEntity
  8
LW 5006-19-01
100
AcDbVertex
100
AcDb2dVertex
 10
-2.203221321134606
 20
-17.46597290038994
 30
0.0
  0
VERTEX
  5
4BC2
330
4BB9
100
AcDbEntity
  8
LW 5006-19-01
100
AcDbVertex
100
AcDb2dVertex
 10
-2.125682830839195
 20
-17.45637536048832
 30
0.0
  0
VERTEX
  5
4BC3
330
4BB9
100
AcDbEntity
  8
LW 5006-19-01
100
AcDbVertex
100
AcDb2dVertex
 10
-2.039465904264488
 20
-17.44609594345036
 30
0.0
  0
VERTEX
  5
4BC4
330
4BB9
100
AcDbEntity
  8
LW 5006-19-01
100
AcDbVertex
100
AcDb2dVertex
 10
-1.945543289213219
 20
-17.43536114692631
 30
0.0
  0
VERTEX
  5
4BC5
330
4BB9
100
AcDbEntity
  8
LW 5006-19-01
100
AcDbVertex
100
AcDb2dVertex
 10
-1.844868660001793
 20
-17.42439985275223
 30
0.0
  0
VERTEX
  5
4BC6
330
4BB9
100
AcDbEntity
  8
LW 5006-19-01
100
AcDbVertex
100
AcDb2dVertex
 10
-1.738414764432945
 20
-17.41343855857804
 30
0.0
  0
VERTEX
  5
4BC7
330
4BB9
100
AcDbEntity
  8
LW 5006-19-01
100
AcDbVertex
100
AcDb2dVertex
 10
-1.6246891022015
 20
-17.40247011184647
 30
0.0
  0
VERTEX
  5
4BC8
330
4BB9
100
AcDbEntity
  8
LW 5006-19-01
100
AcDbVertex
100
AcDb2dVertex
 10
-1.502156257658043
 20
-17.39148736000015
 30
0.0
  0
VERTEX
  5
4BC9
330
4BB9
100
AcDbEntity
  8
LW 5006-19-01
100
AcDbVertex
100
AcDb2dVertex
 10
-1.371684074430504
 20
-17.38071799278225
 30
0.0
  0
VERTEX
  5
4BCA
330
4BB9
100
AcDbEntity
  8
LW 5006-19-01
100
AcDbVertex
100
AcDb2dVertex
 10
-1.234145164518395
 20
-17.37039446830715
 30
0.0
  0
VERTEX
  5
4BCB
330
4BB9
100
AcDbEntity
  8
LW 5006-19-01
100
AcDbVertex
100
AcDb2dVertex
 10
-1.090421676664391
 20
-17.36074566841103
 30
0.0
  0
VERTEX
  5
4BCC
330
4BB9
100
AcDbEntity
  8
LW 5006-19-01
100
AcDbVertex
100
AcDb2dVertex
 10
-0.9413909912395865
 20
-17.35200285911537
 30
0.0
  0
VERTEX
  5
4BCD
330
4BB9
100
AcDbEntity
  8
LW 5006-19-01
100
AcDbVertex
100
AcDb2dVertex
 10
-0.7879877090740593
 20
-17.3444056510923
 30
0.0
  0
VERTEX
  5
4BCE
330
4BB9
100
AcDbEntity
  8
LW 5006-19-01
100
AcDbVertex
100
AcDb2dVertex
 10
-0.6314468384075554
 20
-17.33807563781715
 30
0.0
  0
VERTEX
  5
4BCF
330
4BB9
100
AcDbEntity
  8
LW 5006-19-01
100
AcDbVertex
100
AcDb2dVertex
 10
-0.4730701446819694
 20
-17.33306407928467
 30
0.0
  0
VERTEX
  5
4BD0
330
4BB9
100
AcDbEntity
  8
LW 5006-19-01
100
AcDbVertex
100
AcDb2dVertex
 10
-0.31416893008236
 20
-17.32942223548889
 30
0.0
  0
VERTEX
  5
4BD1
330
4BB9
100
AcDbEntity
  8
LW 5006-19-01
100
AcDbVertex
100
AcDb2dVertex
 10
-0.1560449600506217
 20
-17.32719898223877
 30
0.0
  0
VERTEX
  5
4BD2
330
4BB9
100
AcDbEntity
  8
LW 5006-19-01
100
AcDbVertex
100
AcDb2dVertex
 10
-0.0000000000286491
 20
-17.3264467716217
 30
0.0
  0
SEQEND
  5
4BD3
330
4BB9
100
AcDbEntity
  8
LW 5006-19-01
  0
POLYLINE
  5
4BD4
330
4B80
100
AcDbEntity
  8
LW 5006-19-01
100
AcDb2dPolyline
 66
     1
 10
0.0
 20
0.0
 30
0.0
 70
   128
  0
VERTEX
  5
4BD5
330
4BD4
100
AcDbEntity
  8
LW 5006-19-01
100
AcDbVertex
100
AcDb2dVertex
 10
2.458500862103846
 20
17.4999999999992
 30
0.0
  0
VERTEX
  5
4BD6
330
4BD4
100
AcDbEntity
  8
LW 5006-19-01
100
AcDbVertex
100
AcDb2dVertex
 10
2.437810897809413
 20
17.4970555305473
 30
0.0
  0
VERTEX
  5
4BD7
330
4BD4
100
AcDbEntity
  8
LW 5006-19-01
100
AcDbVertex
100
AcDb2dVertex
 10
2.375483512860682
 20
17.48848080634991
 30
0.0
  0
VERTEX
  5
4BD8
330
4BD4
100
AcDbEntity
  8
LW 5006-19-01
100
AcDbVertex
100
AcDb2dVertex
 10
2.27111816404431
 20
17.4746608734124
 30
0.0
  0
VERTEX
  5
4BD9
330
4BD4
100
AcDbEntity
  8
LW 5006-19-01
100
AcDbVertex
100
AcDb2dVertex
 10
2.125682830792356
 20
17.45637536048821
 30
0.0
  0
VERTEX
  5
4BDA
330
4BD4
100
AcDbEntity
  8
LW 5006-19-01
100
AcDbVertex
100
AcDb2dVertex
 10
1.94554328916638
 20
17.4353611469262
 30
0.0
  0
VERTEX
  5
4BDB
330
4BD4
100
AcDbEntity
  8
LW 5006-19-01
100
AcDbVertex
100
AcDb2dVertex
 10
1.738414764386106
 20
17.41343855857792
 30
0.0
  0
VERTEX
  5
4BDC
330
4BD4
100
AcDbEntity
  8
LW 5006-19-01
100
AcDbVertex
100
AcDb2dVertex
 10
1.502156257611204
 20
17.39148736000015
 30
0.0
  0
VERTEX
  5
4BDD
330
4BD4
100
AcDbEntity
  8
LW 5006-19-01
100
AcDbVertex
100
AcDb2dVertex
 10
1.234145164471101
 20
17.37039446830704
 30
0.0
  0
VERTEX
  5
4BDE
330
4BD4
100
AcDbEntity
  8
LW 5006-19-01
100
AcDbVertex
100
AcDb2dVertex
 10
0.9413909911922928
 20
17.35200285911526
 30
0.0
  0
VERTEX
  5
4BDF
330
4BD4
100
AcDbEntity
  8
LW 5006-19-01
100
AcDbVertex
100
AcDb2dVertex
 10
0.6314468383602616
 20
17.33807563781715
 30
0.0
  0
VERTEX
  5
4BE0
330
4BD4
100
AcDbEntity
  8
LW 5006-19-01
100
AcDbVertex
100
AcDb2dVertex
 10
0.3141689300350663
 20
17.32942223548866
 30
0.0
  0
VERTEX
  5
4BE1
330
4BD4
100
AcDbEntity
  8
LW 5006-19-01
100
AcDbVertex
100
AcDb2dVertex
 10
-0.0000000000186446
 20
17.3264467716217
 30
0.0
  0
VERTEX
  5
4BE2
330
4BD4
100
AcDbEntity
  8
LW 5006-19-01
100
AcDbVertex
100
AcDb2dVertex
 10
-0.3141689300723556
 20
17.32942223548889
 30
0.0
  0
VERTEX
  5
4BE3
330
4BD4
100
AcDbEntity
  8
LW 5006-19-01
100
AcDbVertex
100
AcDb2dVertex
 10
-0.6314468383975509
 20
17.33807563781761
 30
0.0
  0
VERTEX
  5
4BE4
330
4BD4
100
AcDbEntity
  8
LW 5006-19-01
100
AcDbVertex
100
AcDb2dVertex
 10
-0.9413909912295821
 20
17.35200285911583
 30
0.0
  0
VERTEX
  5
4BE5
330
4BD4
100
AcDbEntity
  8
LW 5006-19-01
100
AcDbVertex
100
AcDb2dVertex
 10
-1.23414516450839
 20
17.37039446830783
 30
0.0
  0
VERTEX
  5
4BE6
330
4BD4
100
AcDbEntity
  8
LW 5006-19-01
100
AcDbVertex
100
AcDb2dVertex
 10
-1.502156257647584
 20
17.39148736000106
 30
0.0
  0
VERTEX
  5
4BE7
330
4BD4
100
AcDbEntity
  8
LW 5006-19-01
100
AcDbVertex
100
AcDb2dVertex
 10
-1.738414764422486
 20
17.41343855857894
 30
0.0
  0
VERTEX
  5
4BE8
330
4BD4
100
AcDbEntity
  8
LW 5006-19-01
100
AcDbVertex
100
AcDb2dVertex
 10
-1.94554328920276
 20
17.43536114692745
 30
0.0
  0
VERTEX
  5
4BE9
330
4BD4
100
AcDbEntity
  8
LW 5006-19-01
100
AcDbVertex
100
AcDb2dVertex
 10
-2.125682830828736
 20
17.45637536048946
 30
0.0
  0
VERTEX
  5
4BEA
330
4BD4
100
AcDbEntity
  8
LW 5006-19-01
100
AcDbVertex
100
AcDb2dVertex
 10
-2.271118164080689
 20
17.47466087341377
 30
0.0
  0
VERTEX
  5
4BEB
330
4BD4
100
AcDbEntity
  8
LW 5006-19-01
100
AcDbVertex
100
AcDb2dVertex
 10
-2.375483512896153
 20
17.48848080635139
 30
0.0
  0
VERTEX
  5
4BEC
330
4BD4
100
AcDbEntity
  8
LW 5006-19-01
100
AcDbVertex
100
AcDb2dVertex
 10
-2.437810897844883
 20
17.49705553054878
 30
0.0
  0
VERTEX
  5
4BED
330
4BD4
100
AcDbEntity
  8
LW 5006-19-01
100
AcDbVertex
100
AcDb2dVertex
 10
-2.458500862139317
 20
17.50000000000068
 30
0.0
  0
SEQEND
  5
4BEE
330
4BD4
100
AcDbEntity
  8
LW 5006-19-01
  0
LINE
  5
4BEF
330
4B80
100
AcDbEntity
  8
LW 5006-19-01
  6
VERDECKT
 62
     6
100
AcDbLine
 10
-2.458500000028379
 20
-17.49999999999932
 30
0.0
 11
-2.45850000002656
 21
-11.71789471799252
 31
0.0
  0
LINE
  5
4BF0
330
4B80
100
AcDbEntity
  8
LW 5006-19-01
  6
VERDECKT
 62
     6
100
AcDbLine
 10
2.458499999971991
 20
-17.50000000000079
 30
0.0
 11
2.45849999997381
 21
-11.717894717994
 31
0.0
  0
LINE
  5
4BF1
330
4B80
100
AcDbEntity
  8
LW 5006-19-01
  6
VERDECKT
 62
     6
100
AcDbLine
 10
-2.458500000019284
 20
11.71789471799388
 30
0.0
 11
-2.458500000017465
 21
17.50000000000068
 31
0.0
  0
LINE
  5
4BF2
330
4B80
100
AcDbEntity
  8
LW 5006-19-01
  6
VERDECKT
 62
     6
100
AcDbLine
 10
2.458499999980631
 20
11.71789471799252
 30
0.0
 11
2.458499999981995
 21
17.4999999999992
 31
0.0
  0
POLYLINE
  5
4BF3
330
4B80
100
AcDbEntity
  8
LW 5006-19-01
100
AcDb2dPolyline
 66
     1
 10
0.0
 20
0.0
 30
0.0
 70
   128
  0
VERTEX
  5
4BF4
330
4BF3
100
AcDbEntity
  8
LW 5006-19-01
100
AcDbVertex
100
AcDb2dVertex
 10
0.1000022887951673
 20
12.00000047683716
 30
0.0
  0
VERTEX
  5
4BF5
330
4BF3
100
AcDbEntity
  8
LW 5006-19-01
100
AcDbVertex
100
AcDb2dVertex
 10
0.7640886306530775
 20
11.97779297828651
 30
0.0
  0
VERTEX
  5
4BF6
330
4BF3
100
AcDbEntity
  8
LW 5006-19-01
100
AcDbVertex
100
AcDb2dVertex
 10
1.429209709144288
 20
11.91113829612686
 30
0.0
  0
VERTEX
  5
4BF7
330
4BF3
100
AcDbEntity
  8
LW 5006-19-01
100
AcDbVertex
100
AcDb2dVertex
 10
2.090067863441163
 20
11.79998040199211
 30
0.0
  0
VERTEX
  5
4BF8
330
4BF3
100
AcDbEntity
  8
LW 5006-19-01
100
AcDbVertex
100
AcDb2dVertex
 10
2.741599082923585
 20
11.64467811584382
 30
0.0
  0
VERTEX
  5
4BF9
330
4BF3
100
AcDbEntity
  8
LW 5006-19-01
100
AcDbVertex
100
AcDb2dVertex
 10
3.379426002479249
 20
11.44687294959908
 30
0.0
  0
VERTEX
  5
4BFA
330
4BF3
100
AcDbEntity
  8
LW 5006-19-01
100
AcDbVertex
100
AcDb2dVertex
 10
3.999280929541782
 20
11.20844960212594
 30
0.0
  0
VERTEX
  5
4BFB
330
4BF3
100
AcDbEntity
  8
LW 5006-19-01
100
AcDbVertex
100
AcDb2dVertex
 10
4.597344398474888
 20
10.93087315559251
 30
0.0
  0
VERTEX
  5
4BFC
330
4BF3
100
AcDbEntity
  8
LW 5006-19-01
100
AcDbVertex
100
AcDb2dVertex
 10
5.170793533301093
 20
10.61711549758752
 30
0.0
  0
VERTEX
  5
4BFD
330
4BF3
100
AcDbEntity
  8
LW 5006-19-01
100
AcDbVertex
100
AcDb2dVertex
 10
5.716900825476386
 20
10.27107715606519
 30
0.0
  0
VERTEX
  5
4BFE
330
4BF3
100
AcDbEntity
  8
LW 5006-19-01
100
AcDbVertex
100
AcDb2dVertex
 10
6.232929229712226
 20
9.896658062932942
 30
0.0
  0
VERTEX
  5
4BFF
330
4BF3
100
AcDbEntity
  8
LW 5006-19-01
100
AcDbVertex
100
AcDb2dVertex
 10
6.716151237463236
 20
9.49775576591287
 30
0.0
  0
VERTEX
  5
4C00
330
4BF3
100
AcDbEntity
  8
LW 5006-19-01
100
AcDbVertex
100
AcDb2dVertex
 10
7.16400623319032
 20
9.078100323674789
 30
0.0
  0
VERTEX
  5
4C01
330
4BF3
100
AcDbEntity
  8
LW 5006-19-01
100
AcDbVertex
100
AcDb2dVertex
 10
7.586660385106824
 20
8.628254532811752
 30
0.0
  0
VERTEX
  5
4C02
330
4BF3
100
AcDbEntity
  8
LW 5006-19-01
100
AcDbVertex
100
AcDb2dVertex
 10
7.988529205297254
 20
8.142867088315369
 30
0.0
  0
VERTEX
  5
4C03
330
4BF3
100
AcDbEntity
  8
LW 5006-19-01
100
AcDbVertex
100
AcDb2dVertex
 10
8.365621566747449
 20
7.624608874318482
 30
0.0
  0
VERTEX
  5
4C04
330
4BF3
100
AcDbEntity
  8
LW 5006-19-01
100
AcDbVertex
100
AcDb2dVertex
 10
8.713960647557541
 20
7.076148986813791
 30
0.0
  0
VERTEX
  5
4C05
330
4BF3
100
AcDbEntity
  8
LW 5006-19-01
100
AcDbVertex
100
AcDb2dVertex
 10
9.029560089085407
 20
6.500160098073138
 30
0.0
  0
VERTEX
  5
4C06
330
4BF3
100
AcDbEntity
  8
LW 5006-19-01
100
AcDbVertex
100
AcDb2dVertex
 10
9.308433532688923
 20
5.899311304089678
 30
0.0
  0
VERTEX
  5
4C07
330
4BF3
100
AcDbEntity
  8
LW 5006-19-01
100
AcDbVertex
100
AcDb2dVertex
 10
9.547052383396476
 20
5.276503562924403
 30
0.0
  0
VERTEX
  5
4C08
330
4BF3
100
AcDbEntity
  8
LW 5006-19-01
100
AcDbVertex
100
AcDb2dVertex
 10
9.74402904507815
 20
4.636221230027103
 30
0.0
  0
VERTEX
  5
4C09
330
4BF3
100
AcDbEntity
  8
LW 5006-19-01
100
AcDbVertex
100
AcDb2dVertex
 10
9.898595809909693
 20
3.983446657654667
 30
0.0
  0
VERTEX
  5
4C0A
330
4BF3
100
AcDbEntity
  8
LW 5006-19-01
100
AcDbVertex
100
AcDb2dVertex
 10
10.00996589657961
 20
3.323163092133427
 30
0.0
  0
VERTEX
  5
4C0B
330
4BF3
100
AcDbEntity
  8
LW 5006-19-01
100
AcDbVertex
100
AcDb2dVertex
 10
10.07736206051959
 20
2.660353183743268
 30
0.0
  0
VERTEX
  5
4C0C
330
4BF3
100
AcDbEntity
  8
LW 5006-19-01
100
AcDbVertex
100
AcDb2dVertex
 10
10.10000228879062
 20
2.000000029799252
 30
0.0
  0
SEQEND
  5
4C0D
330
4BF3
100
AcDbEntity
  8
LW 5006-19-01
  0
POLYLINE
  5
4C0E
330
4B80
100
AcDbEntity
  8
LW 5006-19-01
100
AcDb2dPolyline
 66
     1
 10
0.0
 20
0.0
 30
0.0
 70
   128
  0
VERTEX
  5
4C0F
330
4C0E
100
AcDbEntity
  8
LW 5006-19-01
100
AcDbVertex
100
AcDb2dVertex
 10
10.10000228878971
 20
-2.000000029805391
 30
0.0
  0
VERTEX
  5
4C10
330
4C0E
100
AcDbEntity
  8
LW 5006-19-01
100
AcDbVertex
100
AcDb2dVertex
 10
10.07736206051822
 20
-2.660353183749407
 30
0.0
  0
VERTEX
  5
4C11
330
4C0E
100
AcDbEntity
  8
LW 5006-19-01
100
AcDbVertex
100
AcDb2dVertex
 10
10.00996589657734
 20
-3.323163092139338
 30
0.0
  0
VERTEX
  5
4C12
330
4C0E
100
AcDbEntity
  8
LW 5006-19-01
100
AcDbVertex
100
AcDb2dVertex
 10
9.898595809907419
 20
-3.983446657660579
 30
0.0
  0
VERTEX
  5
4C13
330
4C0E
100
AcDbEntity
  8
LW 5006-19-01
100
AcDbVertex
100
AcDb2dVertex
 10
9.744029045075421
 20
-4.636221230033015
 30
0.0
  0
VERTEX
  5
4C14
330
4C0E
100
AcDbEntity
  8
LW 5006-19-01
100
AcDbVertex
100
AcDb2dVertex
 10
9.547052383393292
 20
-5.276503562930088
 30
0.0
  0
VERTEX
  5
4C15
330
4C0E
100
AcDbEntity
  8
LW 5006-19-01
100
AcDbVertex
100
AcDb2dVertex
 10
9.308433532685285
 20
-5.899311304095135
 30
0.0
  0
VERTEX
  5
4C16
330
4C0E
100
AcDbEntity
  8
LW 5006-19-01
100
AcDbVertex
100
AcDb2dVertex
 10
9.029560089081769
 20
-6.500160098078595
 30
0.0
  0
VERTEX
  5
4C17
330
4C0E
100
AcDbEntity
  8
LW 5006-19-01
100
AcDbVertex
100
AcDb2dVertex
 10
8.713960647553449
 20
-7.076148986819021
 30
0.0
  0
VERTEX
  5
4C18
330
4C0E
100
AcDbEntity
  8
LW 5006-19-01
100
AcDbVertex
100
AcDb2dVertex
 10
8.365621566742902
 20
-7.624608874323484
 30
0.0
  0
VERTEX
  5
4C19
330
4C0E
100
AcDbEntity
  8
LW 5006-19-01
100
AcDbVertex
100
AcDb2dVertex
 10
7.988529205292252
 20
-8.142867088320372
 30
0.0
  0
VERTEX
  5
4C1A
330
4C0E
100
AcDbEntity
  8
LW 5006-19-01
100
AcDbVertex
100
AcDb2dVertex
 10
7.586660385101822
 20
-8.628254532816299
 30
0.0
  0
VERTEX
  5
4C1B
330
4C0E
100
AcDbEntity
  8
LW 5006-19-01
100
AcDbVertex
100
AcDb2dVertex
 10
7.164006233185318
 20
-9.078100323679336
 30
0.0
  0
VERTEX
  5
4C1C
330
4C0E
100
AcDbEntity
  8
LW 5006-19-01
100
AcDbVertex
100
AcDb2dVertex
 10
6.716151237457779
 20
-9.497755765916963
 30
0.0
  0
VERTEX
  5
4C1D
330
4C0E
100
AcDbEntity
  8
LW 5006-19-01
100
AcDbVertex
100
AcDb2dVertex
 10
6.232929229706314
 20
-9.896658062936808
 30
0.0
  0
VERTEX
  5
4C1E
330
4C0E
100
AcDbEntity
  8
LW 5006-19-01
100
AcDbVertex
100
AcDb2dVertex
 10
5.716900825470474
 20
-10.2710771560686
 30
0.0
  0
VERTEX
  5
4C1F
330
4C0E
100
AcDbEntity
  8
LW 5006-19-01
100
AcDbVertex
100
AcDb2dVertex
 10
5.170793533294727
 20
-10.6171154975907
 30
0.0
  0
VERTEX
  5
4C20
330
4C0E
100
AcDbEntity
  8
LW 5006-19-01
100
AcDbVertex
100
AcDb2dVertex
 10
4.597344398468067
 20
-10.93087315559523
 30
0.0
  0
VERTEX
  5
4C21
330
4C0E
100
AcDbEntity
  8
LW 5006-19-01
100
AcDbVertex
100
AcDb2dVertex
 10
3.999280929534961
 20
-11.20844960212821
 30
0.0
  0
VERTEX
  5
4C22
330
4C0E
100
AcDbEntity
  8
LW 5006-19-01
100
AcDbVertex
100
AcDb2dVertex
 10
3.379426002471973
 20
-11.44687294960135
 30
0.0
  0
VERTEX
  5
4C23
330
4C0E
100
AcDbEntity
  8
LW 5006-19-01
100
AcDbVertex
100
AcDb2dVertex
 10
2.741599082916309
 20
-11.64467811584563
 30
0.0
  0
VERTEX
  5
4C24
330
4C0E
100
AcDbEntity
  8
LW 5006-19-01
100
AcDbVertex
100
AcDb2dVertex
 10
2.090067863433887
 20
-11.79998040199348
 30
0.0
  0
VERTEX
  5
4C25
330
4C0E
100
AcDbEntity
  8
LW 5006-19-01
100
AcDbVertex
100
AcDb2dVertex
 10
1.429209709137012
 20
-11.91113829612777
 30
0.0
  0
VERTEX
  5
4C26
330
4C0E
100
AcDbEntity
  8
LW 5006-19-01
100
AcDbVertex
100
AcDb2dVertex
 10
0.7640886306458015
 20
-11.97779297828697
 30
0.0
  0
VERTEX
  5
4C27
330
4C0E
100
AcDbEntity
  8
LW 5006-19-01
100
AcDbVertex
100
AcDb2dVertex
 10
0.1000022887878913
 20
-12.00000047683716
 30
0.0
  0
SEQEND
  5
4C28
330
4C0E
100
AcDbEntity
  8
LW 5006-19-01
  0
LINE
  5
4C29
330
4B80
100
AcDbEntity
  8
LW 5006-19-01
100
AcDbLine
 10
0.0999999999698957
 20
-12.00000000000011
 30
0.0
 11
-0.1000000000303771
 21
-12.0
 31
0.0
  0
POLYLINE
  5
4C2A
330
4B80
100
AcDbEntity
  8
LW 5006-19-01
100
AcDb2dPolyline
 66
     1
 10
0.0
 20
0.0
 30
0.0
 70
   128
  0
VERTEX
  5
4C2B
330
4C2A
100
AcDbEntity
  8
LW 5006-19-01
100
AcDbVertex
100
AcDb2dVertex
 10
-10.1000022888461
 20
2.000000029805278
 30
0.0
  0
VERTEX
  5
4C2C
330
4C2A
100
AcDbEntity
  8
LW 5006-19-01
100
AcDbVertex
100
AcDb2dVertex
 10
-10.07736206057416
 20
2.660353183749293
 30
0.0
  0
VERTEX
  5
4C2D
330
4C2A
100
AcDbEntity
  8
LW 5006-19-01
100
AcDbVertex
100
AcDb2dVertex
 10
-10.00996589663327
 20
3.323163092139338
 30
0.0
  0
VERTEX
  5
4C2E
330
4C2A
100
AcDbEntity
  8
LW 5006-19-01
100
AcDbVertex
100
AcDb2dVertex
 10
-9.898595809963353
 20
3.983446657660579
 30
0.0
  0
VERTEX
  5
4C2F
330
4C2A
100
AcDbEntity
  8
LW 5006-19-01
100
AcDbVertex
100
AcDb2dVertex
 10
-9.74402904513181
 20
4.636221230032901
 30
0.0
  0
VERTEX
  5
4C30
330
4C2A
100
AcDbEntity
  8
LW 5006-19-01
100
AcDbVertex
100
AcDb2dVertex
 10
-9.547052383449226
 20
5.276503562929974
 30
0.0
  0
VERTEX
  5
4C31
330
4C2A
100
AcDbEntity
  8
LW 5006-19-01
100
AcDbVertex
100
AcDb2dVertex
 10
-9.308433532740764
 20
5.899311304095135
 30
0.0
  0
VERTEX
  5
4C32
330
4C2A
100
AcDbEntity
  8
LW 5006-19-01
100
AcDbVertex
100
AcDb2dVertex
 10
-9.029560089137248
 20
6.500160098078481
 30
0.0
  0
VERTEX
  5
4C33
330
4C2A
100
AcDbEntity
  8
LW 5006-19-01
100
AcDbVertex
100
AcDb2dVertex
 10
-8.713960647608473
 20
7.076148986818907
 30
0.0
  0
VERTEX
  5
4C34
330
4C2A
100
AcDbEntity
  8
LW 5006-19-01
100
AcDbVertex
100
AcDb2dVertex
 10
-8.365621566797926
 20
7.624608874323484
 30
0.0
  0
VERTEX
  5
4C35
330
4C2A
100
AcDbEntity
  8
LW 5006-19-01
100
AcDbVertex
100
AcDb2dVertex
 10
-7.988529205347276
 20
8.142867088320144
 30
0.0
  0
VERTEX
  5
4C36
330
4C2A
100
AcDbEntity
  8
LW 5006-19-01
100
AcDbVertex
100
AcDb2dVertex
 10
-7.586660385156847
 20
8.628254532816299
 30
0.0
  0
VERTEX
  5
4C37
330
4C2A
100
AcDbEntity
  8
LW 5006-19-01
100
AcDbVertex
100
AcDb2dVertex
 10
-7.164006233239888
 20
9.078100323679109
 30
0.0
  0
VERTEX
  5
4C38
330
4C2A
100
AcDbEntity
  8
LW 5006-19-01
100
AcDbVertex
100
AcDb2dVertex
 10
-6.716151237512349
 20
9.497755765916849
 30
0.0
  0
VERTEX
  5
4C39
330
4C2A
100
AcDbEntity
  8
LW 5006-19-01
100
AcDbVertex
100
AcDb2dVertex
 10
-6.232929229760429
 20
9.896658062936694
 30
0.0
  0
VERTEX
  5
4C3A
330
4C2A
100
AcDbEntity
  8
LW 5006-19-01
100
AcDbVertex
100
AcDb2dVertex
 10
-5.716900825524589
 20
10.27107715606848
 30
0.0
  0
VERTEX
  5
4C3B
330
4C2A
100
AcDbEntity
  8
LW 5006-19-01
100
AcDbVertex
100
AcDb2dVertex
 10
-5.170793533349296
 20
10.61711549759059
 30
0.0
  0
VERTEX
  5
4C3C
330
4C2A
100
AcDbEntity
  8
LW 5006-19-01
100
AcDbVertex
100
AcDb2dVertex
 10
-4.597344398522182
 20
10.93087315559523
 30
0.0
  0
VERTEX
  5
4C3D
330
4C2A
100
AcDbEntity
  8
LW 5006-19-01
100
AcDbVertex
100
AcDb2dVertex
 10
-3.999280929589076
 20
11.20844960212821
 30
0.0
  0
VERTEX
  5
4C3E
330
4C2A
100
AcDbEntity
  8
LW 5006-19-01
100
AcDbVertex
100
AcDb2dVertex
 10
-3.379426002525633
 20
11.44687294960113
 30
0.0
  0
VERTEX
  5
4C3F
330
4C2A
100
AcDbEntity
  8
LW 5006-19-01
100
AcDbVertex
100
AcDb2dVertex
 10
-2.741599082969969
 20
11.64467811584552
 30
0.0
  0
VERTEX
  5
4C40
330
4C2A
100
AcDbEntity
  8
LW 5006-19-01
100
AcDbVertex
100
AcDb2dVertex
 10
-2.090067863487547
 20
11.79998040199336
 30
0.0
  0
VERTEX
  5
4C41
330
4C2A
100
AcDbEntity
  8
LW 5006-19-01
100
AcDbVertex
100
AcDb2dVertex
 10
-1.429209709190672
 20
11.91113829612766
 30
0.0
  0
VERTEX
  5
4C42
330
4C2A
100
AcDbEntity
  8
LW 5006-19-01
100
AcDbVertex
100
AcDb2dVertex
 10
-0.7640886306994617
 20
11.97779297828697
 30
0.0
  0
VERTEX
  5
4C43
330
4C2A
100
AcDbEntity
  8
LW 5006-19-01
100
AcDbVertex
100
AcDb2dVertex
 10
-0.1000022888415515
 20
12.00000047683716
 30
0.0
  0
SEQEND
  5
4C44
330
4C2A
100
AcDbEntity
  8
LW 5006-19-01
  0
LINE
  5
4C45
330
4B80
100
AcDbEntity
  8
LW 5006-19-01
100
AcDbLine
 10
-0.1000000000231012
 20
12.0
 30
0.0
 11
0.0999999999771717
 21
12.0
 31
0.0
  0
LINE
  5
4C46
330
4B80
100
AcDbEntity
  8
LW 5006-19-01
100
AcDbLine
 10
10.09999999997126
 20
-2.000000000003069
 30
0.0
 11
10.09999999997262
 21
1.999999999996816
 31
0.0
  0
LINE
  5
4C47
330
4B80
100
AcDbEntity
  8
LW 5006-19-01
100
AcDbLine
 10
-10.10000000002719
 20
2.000000000002955
 30
0.0
 11
-10.10000000002856
 21
-1.999999999997044
 31
0.0
  0
POLYLINE
  5
4C48
330
4B80
100
AcDbEntity
  8
LW 5006-19-01
100
AcDb2dPolyline
 66
     1
 10
0.0
 20
0.0
 30
0.0
 70
   128
  0
VERTEX
  5
4C49
330
4C48
100
AcDbEntity
  8
LW 5006-19-01
100
AcDbVertex
100
AcDb2dVertex
 10
-0.1000022888488274
 20
-12.00000047683716
 30
0.0
  0
VERTEX
  5
4C4A
330
4C48
100
AcDbEntity
  8
LW 5006-19-01
100
AcDbVertex
100
AcDb2dVertex
 10
-0.7640886307067376
 20
-11.97779297828651
 30
0.0
  0
VERTEX
  5
4C4B
330
4C48
100
AcDbEntity
  8
LW 5006-19-01
100
AcDbVertex
100
AcDb2dVertex
 10
-1.429209709197948
 20
-11.91113829612698
 30
0.0
  0
VERTEX
  5
4C4C
330
4C48
100
AcDbEntity
  8
LW 5006-19-01
100
AcDbVertex
100
AcDb2dVertex
 10
-2.090067863494823
 20
-11.79998040199223
 30
0.0
  0
VERTEX
  5
4C4D
330
4C48
100
AcDbEntity
  8
LW 5006-19-01
100
AcDbVertex
100
AcDb2dVertex
 10
-2.741599082977245
 20
-11.64467811584393
 30
0.0
  0
VERTEX
  5
4C4E
330
4C48
100
AcDbEntity
  8
LW 5006-19-01
100
AcDbVertex
100
AcDb2dVertex
 10
-3.379426002532909
 20
-11.44687294959931
 30
0.0
  0
VERTEX
  5
4C4F
330
4C48
100
AcDbEntity
  8
LW 5006-19-01
100
AcDbVertex
100
AcDb2dVertex
 10
-3.999280929595897
 20
-11.20844960212594
 30
0.0
  0
VERTEX
  5
4C50
330
4C48
100
AcDbEntity
  8
LW 5006-19-01
100
AcDbVertex
100
AcDb2dVertex
 10
-4.597344398529003
 20
-10.93087315559251
 30
0.0
  0
VERTEX
  5
4C51
330
4C48
100
AcDbEntity
  8
LW 5006-19-01
100
AcDbVertex
100
AcDb2dVertex
 10
-5.170793533355663
 20
-10.61711549758763
 30
0.0
  0
VERTEX
  5
4C52
330
4C48
100
AcDbEntity
  8
LW 5006-19-01
100
AcDbVertex
100
AcDb2dVertex
 10
-5.716900825530956
 20
-10.2710771560653
 30
0.0
  0
VERTEX
  5
4C53
330
4C48
100
AcDbEntity
  8
LW 5006-19-01
100
AcDbVertex
100
AcDb2dVertex
 10
-6.232929229766341
 20
-9.896658062933056
 30
0.0
  0
VERTEX
  5
4C54
330
4C48
100
AcDbEntity
  8
LW 5006-19-01
100
AcDbVertex
100
AcDb2dVertex
 10
-6.716151237517806
 20
-9.497755765912984
 30
0.0
  0
VERTEX
  5
4C55
330
4C48
100
AcDbEntity
  8
LW 5006-19-01
100
AcDbVertex
100
AcDb2dVertex
 10
-7.164006233245345
 20
-9.078100323675016
 30
0.0
  0
VERTEX
  5
4C56
330
4C48
100
AcDbEntity
  8
LW 5006-19-01
100
AcDbVertex
100
AcDb2dVertex
 10
-7.586660385161849
 20
-8.628254532811752
 30
0.0
  0
VERTEX
  5
4C57
330
4C48
100
AcDbEntity
  8
LW 5006-19-01
100
AcDbVertex
100
AcDb2dVertex
 10
-7.988529205352278
 20
-8.142867088315597
 30
0.0
  0
VERTEX
  5
4C58
330
4C48
100
AcDbEntity
  8
LW 5006-19-01
100
AcDbVertex
100
AcDb2dVertex
 10
-8.365621566802019
 20
-7.624608874318482
 30
0.0
  0
VERTEX
  5
4C59
330
4C48
100
AcDbEntity
  8
LW 5006-19-01
100
AcDbVertex
100
AcDb2dVertex
 10
-8.713960647612566
 20
-7.076148986813905
 30
0.0
  0
VERTEX
  5
4C5A
330
4C48
100
AcDbEntity
  8
LW 5006-19-01
100
AcDbVertex
100
AcDb2dVertex
 10
-9.029560089140886
 20
-6.500160098073251
 30
0.0
  0
VERTEX
  5
4C5B
330
4C48
100
AcDbEntity
  8
LW 5006-19-01
100
AcDbVertex
100
AcDb2dVertex
 10
-9.308433532744402
 20
-5.899311304089678
 30
0.0
  0
VERTEX
  5
4C5C
330
4C48
100
AcDbEntity
  8
LW 5006-19-01
100
AcDbVertex
100
AcDb2dVertex
 10
-9.54705238345241
 20
-5.276503562924517
 30
0.0
  0
VERTEX
  5
4C5D
330
4C48
100
AcDbEntity
  8
LW 5006-19-01
100
AcDbVertex
100
AcDb2dVertex
 10
-9.744029045134539
 20
-4.636221230027217
 30
0.0
  0
VERTEX
  5
4C5E
330
4C48
100
AcDbEntity
  8
LW 5006-19-01
100
AcDbVertex
100
AcDb2dVertex
 10
-9.898595809965627
 20
-3.983446657654667
 30
0.0
  0
VERTEX
  5
4C5F
330
4C48
100
AcDbEntity
  8
LW 5006-19-01
100
AcDbVertex
100
AcDb2dVertex
 10
-10.00996589663555
 20
-3.323163092133427
 30
0.0
  0
VERTEX
  5
4C60
330
4C48
100
AcDbEntity
  8
LW 5006-19-01
100
AcDbVertex
100
AcDb2dVertex
 10
-10.07736206057552
 20
-2.660353183743382
 30
0.0
  0
VERTEX
  5
4C61
330
4C48
100
AcDbEntity
  8
LW 5006-19-01
100
AcDbVertex
100
AcDb2dVertex
 10
-10.10000228884701
 20
-2.000000029799366
 30
0.0
  0
SEQEND
  5
4C62
330
4C48
100
AcDbEntity
  8
LW 5006-19-01
  0
LINE
  5
4C63
330
4B80
100
AcDbEntity
  8
LW 5006-19-01
  6
VERDECKT
 62
     6
100
AcDbLine
 10
-60.00000000002728
 20
-14.66010854272019
 30
0.0
 11
-60.00000000001865
 21
14.66010854275578
 31
0.0
  0
ARC
  5
4C64
330
4B80
100
AcDbEntity
  8
LW 5006-19-01
  6
VERDECKT
 62
     6
100
AcDbCircle
 10
-62.00000000002728
 20
-14.66010854271962
 30
0.0
 40
2.0
100
AcDbArc
 50
340.7099537807874
 51
0.0
  0
ARC
  5
4C65
330
4B80
100
AcDbEntity
  8
LW 5006-19-01
  6
VERDECKT
 62
     6
100
AcDbCircle
 10
-62.00000000001864
 20
14.66010854275623
 30
0.0
 40
2.0
100
AcDbArc
 50
0.0
 51
19.29004621917444
  0
LINE
  5
4C66
330
4B80
100
AcDbEntity
  8
LW 5006-19-01
  6
VERDECKT
 62
     6
100
AcDbLine
 10
-60.11228328729567
 20
-15.32080939217644
 30
0.0
 11
-60.87500000002819
 21
-17.49999999998204
 31
0.0
  0
LINE
  5
4C67
330
4B80
100
AcDbEntity
  8
LW 5006-19-01
  6
VERDECKT
 62
     6
100
AcDbLine
 10
-60.11228328728657
 20
15.32080939221191
 30
0.0
 11
-60.87500000001774
 21
17.50000000001796
 31
0.0
  0
LINE
  5
4C68
330
4B80
100
AcDbEntity
  8
LW 5006-19-01
100
AcDbLine
 10
-2.934499611978026
 20
17.50000000000091
 30
0.0
 11
-2.458500000017465
 21
17.50000000000068
 31
0.0
  0
LINE
  5
4C69
330
4B80
100
AcDbEntity
  8
LW 5006-19-01
100
AcDbLine
 10
2.458499999981995
 20
17.49999999999932
 30
0.0
 11
2.934499611942555
 21
17.49999999999909
 31
0.0
  0
LINE
  5
4C6A
330
4B80
100
AcDbEntity
  8
LW 5006-19-01
100
AcDbLine
 10
-2.934499611988485
 20
-17.49999999999909
 30
0.0
 11
-2.458500000028379
 21
-17.49999999999932
 31
0.0
  0
LINE
  5
4C6B
330
4B80
100
AcDbEntity
  8
LW 5006-19-01
100
AcDbLine
 10
2.458499999971991
 20
-17.50000000000068
 30
0.0
 11
2.934499611932096
 21
-17.50000000000091
 31
0.0
  0
LINE
  5
4C6C
330
4B80
100
AcDbEntity
  8
LW 5006-19-01
100
AcDbLine
 10
-60.87500000002819
 20
-17.49999999998204
 30
0.0
 11
-60.87500000001774
 21
17.50000000001796
 31
0.0
  0
LINE
  5
4C6D
330
4B80
100
AcDbEntity
  8
LW 5006-19-01
100
AcDbLine
 10
19.99999999997226
 20
-16.00000000000591
 30
0.0
 11
19.99999999998181
 21
15.99999999999409
 31
0.0
  0
LINE
  5
4C6E
330
4B80
100
AcDbEntity
  8
LW 5006-19-01
100
AcDbLine
 10
-60.87500000001774
 20
17.50000000001796
 30
0.0
 11
-2.934499611978026
 21
17.50000000000091
 31
0.0
  0
LINE
  5
4C6F
330
4B80
100
AcDbEntity
  8
LW 5006-19-01
100
AcDbLine
 10
2.934499611942555
 20
17.49999999999909
 30
0.0
 11
18.49999999998226
 21
17.49999999999454
 31
0.0
  0
LINE
  5
4C70
330
4B80
100
AcDbEntity
  8
LW 5006-19-01
100
AcDbLine
 10
-60.87500000002819
 20
-17.49999999998204
 30
0.0
 11
-2.934499611988485
 21
-17.49999999999909
 31
0.0
  0
LINE
  5
4C71
330
4B80
100
AcDbEntity
  8
LW 5006-19-01
100
AcDbLine
 10
2.934499611932096
 20
-17.50000000000091
 30
0.0
 11
18.4999999999718
 21
-17.50000000000546
 31
0.0
  0
ARC
  5
4C72
330
4B80
100
AcDbEntity
  8
LW 5006-19-01
100
AcDbCircle
 10
18.49999999997226
 20
-16.00000000000546
 30
0.0
 40
1.500000000000012
100
AcDbArc
 50
269.999999999987
 51
0.0
  0
ARC
  5
4C73
330
4B80
100
AcDbEntity
  8
LW 5006-19-01
100
AcDbCircle
 10
18.49999999998181
 20
15.99999999999454
 30
0.0
 40
1.500000000000012
100
AcDbArc
 50
0.0
 51
89.99999999998697
  0
POLYLINE
  5
4C74
330
4B80
100
AcDbEntity
  8
LW 5006-19-01
100
AcDb2dPolyline
 66
     1
 10
0.0
 20
0.0
 30
0.0
 70
   128
  0
VERTEX
  5
4C75
330
4C74
100
AcDbEntity
  8
LW 5006-19-01
100
AcDbVertex
100
AcDb2dVertex
 10
2.458500862157961
 20
17.4999999999992
 30
0.0
  0
VERTEX
  5
4C76
330
4C74
100
AcDbEntity
  8
LW 5006-19-01
100
AcDbVertex
100
AcDb2dVertex
 10
2.437810897863528
 20
17.4970555305473
 30
0.0
  0
VERTEX
  5
4C77
330
4C74
100
AcDbEntity
  8
LW 5006-19-01
100
AcDbVertex
100
AcDb2dVertex
 10
2.375483512914797
 20
17.48848080635002
 30
0.0
  0
VERTEX
  5
4C78
330
4C74
100
AcDbEntity
  8
LW 5006-19-01
100
AcDbVertex
100
AcDb2dVertex
 10
2.271118164098879
 20
17.4746608734124
 30
0.0
  0
VERTEX
  5
4C79
330
4C74
100
AcDbEntity
  8
LW 5006-19-01
100
AcDbVertex
100
AcDb2dVertex
 10
2.125682830846471
 20
17.45637536048821
 30
0.0
  0
VERTEX
  5
4C7A
330
4C74
100
AcDbEntity
  8
LW 5006-19-01
100
AcDbVertex
100
AcDb2dVertex
 10
1.945543289220495
 20
17.4353611469262
 30
0.0
  0
VERTEX
  5
4C7B
330
4C74
100
AcDbEntity
  8
LW 5006-19-01
100
AcDbVertex
100
AcDb2dVertex
 10
1.738414764440221
 20
17.41343855857792
 30
0.0
  0
VERTEX
  5
4C7C
330
4C74
100
AcDbEntity
  8
LW 5006-19-01
100
AcDbVertex
100
AcDb2dVertex
 10
1.502156257665319
 20
17.39148736000015
 30
0.0
  0
VERTEX
  5
4C7D
330
4C74
100
AcDbEntity
  8
LW 5006-19-01
100
AcDbVertex
100
AcDb2dVertex
 10
1.234145164525671
 20
17.37039446830704
 30
0.0
  0
VERTEX
  5
4C7E
330
4C74
100
AcDbEntity
  8
LW 5006-19-01
100
AcDbVertex
100
AcDb2dVertex
 10
0.9413909912468625
 20
17.35200285911537
 30
0.0
  0
VERTEX
  5
4C7F
330
4C74
100
AcDbEntity
  8
LW 5006-19-01
100
AcDbVertex
100
AcDb2dVertex
 10
0.6314468384148313
 20
17.33807563781715
 30
0.0
  0
VERTEX
  5
4C80
330
4C74
100
AcDbEntity
  8
LW 5006-19-01
100
AcDbVertex
100
AcDb2dVertex
 10
0.314168930089636
 20
17.32942223548866
 30
0.0
  0
VERTEX
  5
4C81
330
4C74
100
AcDbEntity
  8
LW 5006-19-01
100
AcDbVertex
100
AcDb2dVertex
 10
0.000000000035925
 20
17.3264467716217
 30
0.0
  0
VERTEX
  5
4C82
330
4C74
100
AcDbEntity
  8
LW 5006-19-01
100
AcDbVertex
100
AcDb2dVertex
 10
-0.3141689300177859
 20
17.32942223548889
 30
0.0
  0
VERTEX
  5
4C83
330
4C74
100
AcDbEntity
  8
LW 5006-19-01
100
AcDbVertex
100
AcDb2dVertex
 10
-0.6314468383429812
 20
17.33807563781761
 30
0.0
  0
VERTEX
  5
4C84
330
4C74
100
AcDbEntity
  8
LW 5006-19-01
100
AcDbVertex
100
AcDb2dVertex
 10
-0.9413909911750124
 20
17.35200285911583
 30
0.0
  0
VERTEX
  5
4C85
330
4C74
100
AcDbEntity
  8
LW 5006-19-01
100
AcDbVertex
100
AcDb2dVertex
 10
-1.234145164453821
 20
17.37039446830783
 30
0.0
  0
VERTEX
  5
4C86
330
4C74
100
AcDbEntity
  8
LW 5006-19-01
100
AcDbVertex
100
AcDb2dVertex
 10
-1.502156257593469
 20
17.39148736000106
 30
0.0
  0
VERTEX
  5
4C87
330
4C74
100
AcDbEntity
  8
LW 5006-19-01
100
AcDbVertex
100
AcDb2dVertex
 10
-1.738414764368371
 20
17.41343855857894
 30
0.0
  0
VERTEX
  5
4C88
330
4C74
100
AcDbEntity
  8
LW 5006-19-01
100
AcDbVertex
100
AcDb2dVertex
 10
-1.945543289148645
 20
17.43536114692745
 30
0.0
  0
VERTEX
  5
4C89
330
4C74
100
AcDbEntity
  8
LW 5006-19-01
100
AcDbVertex
100
AcDb2dVertex
 10
-2.125682830774621
 20
17.45637536048946
 30
0.0
  0
VERTEX
  5
4C8A
330
4C74
100
AcDbEntity
  8
LW 5006-19-01
100
AcDbVertex
100
AcDb2dVertex
 10
-2.27111816402612
 20
17.47466087341377
 30
0.0
  0
VERTEX
  5
4C8B
330
4C74
100
AcDbEntity
  8
LW 5006-19-01
100
AcDbVertex
100
AcDb2dVertex
 10
-2.375483512842038
 20
17.48848080635139
 30
0.0
  0
VERTEX
  5
4C8C
330
4C74
100
AcDbEntity
  8
LW 5006-19-01
100
AcDbVertex
100
AcDb2dVertex
 10
-2.437810897790768
 20
17.49705553054878
 30
0.0
  0
VERTEX
  5
4C8D
330
4C74
100
AcDbEntity
  8
LW 5006-19-01
100
AcDbVertex
100
AcDb2dVertex
 10
-2.458500862085202
 20
17.50000000000068
 30
0.0
  0
SEQEND
  5
4C8E
330
4C74
100
AcDbEntity
  8
LW 5006-19-01
  0
LINE
  5
4C8F
330
4B80
100
AcDbEntity
  8
LW 5006-19-01
100
AcDbLine
 10
-2.000000000026375
 20
-11.49999999999954
 30
0.0
 11
1.999999999973624
 21
-11.50000000000068
 31
0.0
  0
LINE
  5
4C90
330
4B80
100
AcDbEntity
  8
LW 5006-19-01
100
AcDbLine
 10
1.999999999973624
 20
-11.50000000000068
 30
0.0
 11
2.263220606324011
 21
-11.76322060635095
 31
0.0
  0
LINE
  5
4C91
330
4B80
100
AcDbEntity
  8
LW 5006-19-01
100
AcDbLine
 10
-2.000000000026375
 20
-11.49999999999954
 30
0.0
 11
-2.263220606376762
 21
-11.7632206063497
 31
0.0
  0
LINE
  5
4C92
330
4B80
100
AcDbEntity
  8
LW 5006-19-01
  6
VERDECKT
 62
     6
100
AcDbLine
 10
2.999999999973169
 20
-12.50000000000091
 30
0.0
 11
-3.00000000002683
 21
-12.4999999999992
 31
0.0
  0
LINE
  5
4C93
330
4B80
100
AcDbEntity
  8
LW 5006-19-01
  6
VERDECKT
 62
     6
100
AcDbLine
 10
2.263220606324011
 20
-11.76322060635095
 30
0.0
 11
2.999999999973169
 21
-12.50000000000091
 31
0.0
  0
LINE
  5
4C94
330
4B80
100
AcDbEntity
  8
LW 5006-19-01
  6
VERDECKT
 62
     6
100
AcDbLine
 10
-2.263220606376762
 20
-11.7632206063497
 30
0.0
 11
-3.00000000002683
 21
-12.4999999999992
 31
0.0
  0
LINE
  5
4C95
330
4B80
100
AcDbEntity
  8
LW 5006-19-01
  6
VERDECKT
 62
     6
100
AcDbLine
 10
-3.000000000028194
 20
-17.38654999999926
 30
0.0
 11
-1.442339545533286
 21
-17.38654999999971
 31
0.0
  0
LINE
  5
4C96
330
4B80
100
AcDbEntity
  8
LW 5006-19-01
  6
VERDECKT
 62
     6
100
AcDbLine
 10
1.442339545475533
 20
-17.38655000000051
 30
0.0
 11
2.999999999971805
 21
-17.38655000000085
 31
0.0
  0
LINE
  5
4C97
330
4B80
100
AcDbEntity
  8
LW 5006-19-01
  6
VERDECKT
 62
     6
100
AcDbLine
 10
-2.934499611988485
 20
-17.49999999999909
 30
0.0
 11
-3.000000000028194
 21
-17.38654999999915
 31
0.0
  0
LINE
  5
4C98
330
4B80
100
AcDbEntity
  8
LW 5006-19-01
  6
VERDECKT
 62
     6
100
AcDbLine
 10
2.934499611932096
 20
-17.50000000000091
 30
0.0
 11
2.999999999971805
 21
-17.38655000000085
 31
0.0
  0
LINE
  5
4C99
330
4B80
100
AcDbEntity
  8
LW 5006-19-01
100
AcDbLine
 10
-1.442339545533286
 20
-17.38654999999971
 30
0.0
 11
1.442339545475533
 21
-17.38655000000051
 31
0.0
  0
LINE
  5
4C9A
330
4B80
100
AcDbEntity
  8
LW 5006-19-01
100
AcDbLine
 10
2.6458244773371
 20
-18.00000000000091
 30
0.0
 11
-2.645824477393944
 21
-17.99999999999932
 31
0.0
  0
LINE
  5
4C9B
330
4B80
100
AcDbEntity
  8
LW 5006-19-01
100
AcDbLine
 10
-2.645824477393944
 20
-17.99999999999932
 30
0.0
 11
-2.934499611988485
 21
-17.49999999999909
 31
0.0
  0
LINE
  5
4C9C
330
4B80
100
AcDbEntity
  8
LW 5006-19-01
100
AcDbLine
 10
2.6458244773371
 20
-18.00000000000091
 30
0.0
 11
2.934499611932096
 21
-17.50000000000091
 31
0.0
  0
POLYLINE
  5
4C9D
330
4B80
100
AcDbEntity
  8
LW 5006-19-01
  6
VERDECKT
 62
     6
100
AcDb2dPolyline
 66
     1
 10
0.0
 20
0.0
 30
0.0
 70
   128
  0
VERTEX
  5
4C9E
330
4C9D
100
AcDbEntity
  8
LW 5006-19-01
  6
VERDECKT
 62
     6
100
AcDbVertex
100
AcDb2dVertex
 10
-0.4975427727626994
 20
-16.00000023841858
 30
0.0
  0
VERTEX
  5
4C9F
330
4C9D
100
AcDbEntity
  8
LW 5006-19-01
  6
VERDECKT
 62
     6
100
AcDbVertex
100
AcDb2dVertex
 10
-0.4178834080994421
 20
-15.97722768783569
 30
0.0
  0
VERTEX
  5
4CA0
330
4C9D
100
AcDbEntity
  8
LW 5006-19-01
  6
VERDECKT
 62
     6
100
AcDbVertex
100
AcDb2dVertex
 10
-0.3408642415988652
 20
-15.95691502094269
 30
0.0
  0
VERTEX
  5
4CA1
330
4C9D
100
AcDbEntity
  8
LW 5006-19-01
  6
VERDECKT
 62
     6
100
AcDbVertex
100
AcDb2dVertex
 10
-0.2661587331108421
 20
-15.9389191865921
 30
0.0
  0
VERTEX
  5
4CA2
330
4C9D
100
AcDbEntity
  8
LW 5006-19-01
  6
VERDECKT
 62
     6
100
AcDbVertex
100
AcDb2dVertex
 10
-0.1934681128573175
 20
-15.9231162071228
 30
0.0
  0
VERTEX
  5
4CA3
330
4C9D
100
AcDbEntity
  8
LW 5006-19-01
  6
VERDECKT
 62
     6
100
AcDbVertex
100
AcDb2dVertex
 10
-0.122516905003522
 20
-15.90940058231353
 30
0.0
  0
VERTEX
  5
4CA4
330
4C9D
100
AcDbEntity
  8
LW 5006-19-01
  6
VERDECKT
 62
     6
100
AcDbVertex
100
AcDb2dVertex
 10
-0.0530492738325847
 20
-15.89768230915069
 30
0.0
  0
VERTEX
  5
4CA5
330
4C9D
100
AcDbEntity
  8
LW 5006-19-01
  6
VERDECKT
 62
     6
100
AcDbVertex
100
AcDb2dVertex
 10
0.0151744256568236
 20
-15.88788747787475
 30
0.0
  0
VERTEX
  5
4CA6
330
4C9D
100
AcDbEntity
  8
LW 5006-19-01
  6
VERDECKT
 62
     6
100
AcDbVertex
100
AcDb2dVertex
 10
0.0823805705567793
 20
-15.87995409965515
 30
0.0
  0
VERTEX
  5
4CA7
330
4C9D
100
AcDbEntity
  8
LW 5006-19-01
  6
VERDECKT
 62
     6
100
AcDbVertex
100
AcDb2dVertex
 10
0.1487848706588011
 20
-15.87383270263694
 30
0.0
  0
VERTEX
  5
4CA8
330
4C9D
100
AcDbEntity
  8
LW 5006-19-01
  6
VERDECKT
 62
     6
100
AcDbVertex
100
AcDb2dVertex
 10
0.2145948064103322
 20
-15.86948692798637
 30
0.0
  0
VERTEX
  5
4CA9
330
4C9D
100
AcDbEntity
  8
LW 5006-19-01
  6
VERDECKT
 62
     6
100
AcDbVertex
100
AcDb2dVertex
 10
0.2800118051259233
 20
-15.86688935756706
 30
0.0
  0
VERTEX
  5
4CAA
330
4C9D
100
AcDbEntity
  8
LW 5006-19-01
  6
VERDECKT
 62
     6
100
AcDbVertex
100
AcDb2dVertex
 10
0.3452332127881164
 20
-15.86602568626426
 30
0.0
  0
VERTEX
  5
4CAB
330
4C9D
100
AcDbEntity
  8
LW 5006-19-01
  6
VERDECKT
 62
     6
100
AcDbVertex
100
AcDb2dVertex
 10
0.4104546746675624
 20
-15.86688935756706
 30
0.0
  0
VERTEX
  5
4CAC
330
4C9D
100
AcDbEntity
  8
LW 5006-19-01
  6
VERDECKT
 62
     6
100
AcDbVertex
100
AcDb2dVertex
 10
0.475871724487206
 20
-15.86948692798637
 30
0.0
  0
VERTEX
  5
4CAD
330
4C9D
100
AcDbEntity
  8
LW 5006-19-01
  6
VERDECKT
 62
     6
100
AcDbVertex
100
AcDb2dVertex
 10
0.5416816331294286
 20
-15.87383270263694
 30
0.0
  0
VERTEX
  5
4CAE
330
4C9D
100
AcDbEntity
  8
LW 5006-19-01
  6
VERDECKT
 62
     6
100
AcDbVertex
100
AcDb2dVertex
 10
0.6080859843345934
 20
-15.87995409965538
 30
0.0
  0
VERTEX
  5
4CAF
330
4C9D
100
AcDbEntity
  8
LW 5006-19-01
  6
VERDECKT
 62
     6
100
AcDbVertex
100
AcDb2dVertex
 10
0.6752920781314061
 20
-15.88788747787498
 30
0.0
  0
VERTEX
  5
4CB0
330
4C9D
100
AcDbEntity
  8
LW 5006-19-01
  6
VERDECKT
 62
     6
100
AcDbVertex
100
AcDb2dVertex
 10
0.7435158047296682
 20
-15.89768230915092
 30
0.0
  0
VERTEX
  5
4CB1
330
4C9D
100
AcDbEntity
  8
LW 5006-19-01
  6
VERDECKT
 62
     6
100
AcDbVertex
100
AcDb2dVertex
 10
0.8129834359001506
 20
-15.90940058231376
 30
0.0
  0
VERTEX
  5
4CB2
330
4C9D
100
AcDbEntity
  8
LW 5006-19-01
  6
VERDECKT
 62
     6
100
AcDbVertex
100
AcDb2dVertex
 10
0.8839345926512578
 20
-15.92311620712314
 30
0.0
  0
VERTEX
  5
4CB3
330
4C9D
100
AcDbEntity
  8
LW 5006-19-01
  6
VERDECKT
 62
     6
100
AcDbVertex
100
AcDb2dVertex
 10
0.9566252400131816
 20
-15.93891918659244
 30
0.0
  0
VERTEX
  5
4CB4
330
4C9D
100
AcDbEntity
  8
LW 5006-19-01
  6
VERDECKT
 62
     6
100
AcDbVertex
100
AcDb2dVertex
 10
1.031330823599091
 20
-15.95691502094303
 30
0.0
  0
VERTEX
  5
4CB5
330
4C9D
100
AcDbEntity
  8
LW 5006-19-01
  6
VERDECKT
 62
     6
100
AcDbVertex
100
AcDb2dVertex
 10
1.108349898059259
 20
-15.97722768783615
 30
0.0
  0
VERTEX
  5
4CB6
330
4C9D
100
AcDbEntity
  8
LW 5006-19-01
  6
VERDECKT
 62
     6
100
AcDbVertex
100
AcDb2dVertex
 10
1.188009198338477
 20
-16.00000023841903
 30
0.0
  0
SEQEND
  5
4CB7
330
4C9D
100
AcDbEntity
  8
LW 5006-19-01
  6
VERDECKT
 62
     6
  0
LINE
  5
4CB8
330
4B80
100
AcDbEntity
  8
LW 5006-19-01
  6
VERDECKT
 62
     6
100
AcDbLine
 10
-0.4975427187268906
 20
-16.0
 30
0.0
 11
-0.4975427187278001
 21
-18.0
 31
0.0
  0
LINE
  5
4CB9
330
4B80
100
AcDbEntity
  8
LW 5006-19-01
  6
VERDECKT
 62
     6
100
AcDbLine
 10
1.188009219661125
 20
-16.00000000000045
 30
0.0
 11
1.188009219660216
 21
-18.00000000000045
 31
0.0
  0
POLYLINE
  5
4CBA
330
4B80
100
AcDbEntity
  8
LW 5006-19-01
  6
VERDECKT
 62
     6
100
AcDb2dPolyline
 66
     1
 10
0.0
 20
0.0
 30
0.0
 70
   128
  0
VERTEX
  5
4CBB
330
4CBA
100
AcDbEntity
  8
LW 5006-19-01
  6
VERDECKT
 62
     6
100
AcDbVertex
100
AcDb2dVertex
 10
-1.685551971128461
 20
-16.00000023841812
 30
0.0
  0
VERTEX
  5
4CBC
330
4CBA
100
AcDbEntity
  8
LW 5006-19-01
  6
VERDECKT
 62
     6
100
AcDbVertex
100
AcDb2dVertex
 10
-1.629406569227285
 20
-15.97722768783524
 30
0.0
  0
VERTEX
  5
4CBD
330
4CBA
100
AcDbEntity
  8
LW 5006-19-01
  6
VERDECKT
 62
     6
100
AcDbVertex
100
AcDb2dVertex
 10
-1.575122044414001
 20
-15.95691502094223
 30
0.0
  0
VERTEX
  5
4CBE
330
4CBA
100
AcDbEntity
  8
LW 5006-19-01
  6
VERDECKT
 62
     6
100
AcDbVertex
100
AcDb2dVertex
 10
-1.522468125030627
 20
-15.93891918659176
 30
0.0
  0
VERTEX
  5
4CBF
330
4CBA
100
AcDbEntity
  8
LW 5006-19-01
  6
VERDECKT
 62
     6
100
AcDbVertex
100
AcDb2dVertex
 10
-1.471234393066879
 20
-15.92311620712246
 30
0.0
  0
VERTEX
  5
4CC0
330
4CBA
100
AcDbEntity
  8
LW 5006-19-01
  6
VERDECKT
 62
     6
100
AcDbVertex
100
AcDb2dVertex
 10
-1.421226630272485
 20
-15.9094005823132
 30
0.0
  0
VERTEX
  5
4CC1
330
4CBA
100
AcDbEntity
  8
LW 5006-19-01
  6
VERDECKT
 62
     6
100
AcDbVertex
100
AcDb2dVertex
 10
-1.372264518506653
 20
-15.89768230915035
 30
0.0
  0
VERTEX
  5
4CC2
330
4CBA
100
AcDbEntity
  8
LW 5006-19-01
  6
VERDECKT
 62
     6
100
AcDbVertex
100
AcDb2dVertex
 10
-1.324179135671784
 20
-15.88788747787441
 30
0.0
  0
VERTEX
  5
4CC3
330
4CBA
100
AcDbEntity
  8
LW 5006-19-01
  6
VERDECKT
 62
     6
100
AcDbVertex
100
AcDb2dVertex
 10
-1.276810962687704
 20
-15.87995409965492
 30
0.0
  0
VERTEX
  5
4CC4
330
4CBA
100
AcDbEntity
  8
LW 5006-19-01
  6
VERDECKT
 62
     6
100
AcDbVertex
100
AcDb2dVertex
 10
-1.230007941560415
 20
-15.87383270263649
 30
0.0
  0
VERTEX
  5
4CC5
330
4CBA
100
AcDbEntity
  8
LW 5006-19-01
  6
VERDECKT
 62
     6
100
AcDbVertex
100
AcDb2dVertex
 10
-1.183623840076961
 20
-15.86948692798592
 30
0.0
  0
VERTEX
  5
4CC6
330
4CBA
100
AcDbEntity
  8
LW 5006-19-01
  6
VERDECKT
 62
     6
100
AcDbVertex
100
AcDb2dVertex
 10
-1.137516709125065
 20
-15.8668893575666
 30
0.0
  0
VERTEX
  5
4CC7
330
4CBA
100
AcDbEntity
  8
LW 5006-19-01
  6
VERDECKT
 62
     6
100
AcDbVertex
100
AcDb2dVertex
 10
-1.09154737194558
 20
-15.86602568626381
 30
0.0
  0
VERTEX
  5
4CC8
330
4CBA
100
AcDbEntity
  8
LW 5006-19-01
  6
VERDECKT
 62
     6
100
AcDbVertex
100
AcDb2dVertex
 10
-1.045578034766094
 20
-15.8668893575666
 30
0.0
  0
VERTEX
  5
4CC9
330
4CBA
100
AcDbEntity
  8
LW 5006-19-01
  6
VERDECKT
 62
     6
100
AcDbVertex
100
AcDb2dVertex
 10
-0.9994709038137443
 20
-15.86948692798592
 30
0.0
  0
VERTEX
  5
4CCA
330
4CBA
100
AcDbEntity
  8
LW 5006-19-01
  6
VERDECKT
 62
     6
100
AcDbVertex
100
AcDb2dVertex
 10
-0.9530868023307448
 20
-15.87383270263649
 30
0.0
  0
VERTEX
  5
4CCB
330
4CBA
100
AcDbEntity
  8
LW 5006-19-01
  6
VERDECKT
 62
     6
100
AcDbVertex
100
AcDb2dVertex
 10
-0.9062837812034558
 20
-15.87995409965492
 30
0.0
  0
VERTEX
  5
4CCC
330
4CBA
100
AcDbEntity
  8
LW 5006-19-01
  6
VERDECKT
 62
     6
100
AcDbVertex
100
AcDb2dVertex
 10
-0.8589156082193767
 20
-15.88788747787453
 30
0.0
  0
VERTEX
  5
4CCD
330
4CBA
100
AcDbEntity
  8
LW 5006-19-01
  6
VERDECKT
 62
     6
100
AcDbVertex
100
AcDb2dVertex
 10
-0.8108302253845067
 20
-15.89768230915047
 30
0.0
  0
VERTEX
  5
4CCE
330
4CBA
100
AcDbEntity
  8
LW 5006-19-01
  6
VERDECKT
 62
     6
100
AcDbVertex
100
AcDb2dVertex
 10
-0.7618681136186752
 20
-15.90940058231331
 30
0.0
  0
VERTEX
  5
4CCF
330
4CBA
100
AcDbEntity
  8
LW 5006-19-01
  6
VERDECKT
 62
     6
100
AcDbVertex
100
AcDb2dVertex
 10
-0.7118603508242814
 20
-15.92311620712257
 30
0.0
  0
VERTEX
  5
4CD0
330
4CBA
100
AcDbEntity
  8
LW 5006-19-01
  6
VERDECKT
 62
     6
100
AcDbVertex
100
AcDb2dVertex
 10
-0.6606266188605332
 20
-15.93891918659187
 30
0.0
  0
VERTEX
  5
4CD1
330
4CBA
100
AcDbEntity
  8
LW 5006-19-01
  6
VERDECKT
 62
     6
100
AcDbVertex
100
AcDb2dVertex
 10
-0.6079726994771591
 20
-15.95691502094246
 30
0.0
  0
VERTEX
  5
4CD2
330
4CBA
100
AcDbEntity
  8
LW 5006-19-01
  6
VERDECKT
 62
     6
100
AcDbVertex
100
AcDb2dVertex
 10
-0.5536881746634208
 20
-15.97722768783569
 30
0.0
  0
VERTEX
  5
4CD3
330
4CBA
100
AcDbEntity
  8
LW 5006-19-01
  6
VERDECKT
 62
     6
100
AcDbVertex
100
AcDb2dVertex
 10
-0.4975427727626994
 20
-16.00000023841858
 30
0.0
  0
SEQEND
  5
4CD4
330
4CBA
100
AcDbEntity
  8
LW 5006-19-01
  6
VERDECKT
 62
     6
  0
LINE
  5
4CD5
330
4B80
100
AcDbEntity
  8
LW 5006-19-01
  6
VERDECKT
 62
     6
100
AcDbLine
 10
-1.685551938415756
 20
-15.99999999999954
 30
0.0
 11
-1.68555193841621
 21
-17.99999999999954
 31
0.0
  0
POLYLINE
  5
4CD6
330
4B80
100
AcDbEntity
  8
LW 5006-19-01
  6
VERDECKT
 62
     6
100
AcDb2dPolyline
 66
     1
 10
0.0
 20
0.0
 30
0.0
 70
   128
  0
VERTEX
  5
4CD7
330
4CD6
100
AcDbEntity
  8
LW 5006-19-01
  6
VERDECKT
 62
     6
100
AcDbVertex
100
AcDb2dVertex
 10
1.188009198338477
 20
-16.00000023841903
 30
0.0
  0
VERTEX
  5
4CD8
330
4CD6
100
AcDbEntity
  8
LW 5006-19-01
  6
VERDECKT
 62
     6
100
AcDbVertex
100
AcDb2dVertex
 10
1.211523096716518
 20
-15.97722768783615
 30
0.0
  0
VERTEX
  5
4CD9
330
4CD6
100
AcDbEntity
  8
LW 5006-19-01
  6
VERDECKT
 62
     6
100
AcDbVertex
100
AcDb2dVertex
 10
1.234257748569689
 20
-15.95691502094314
 30
0.0
  0
VERTEX
  5
4CDA
330
4CD6
100
AcDbEntity
  8
LW 5006-19-01
  6
VERDECKT
 62
     6
100
AcDbVertex
100
AcDb2dVertex
 10
1.256309310565484
 20
-15.93891918659255
 30
0.0
  0
VERTEX
  5
4CDB
330
4CD6
100
AcDbEntity
  8
LW 5006-19-01
  6
VERDECKT
 62
     6
100
AcDbVertex
100
AcDb2dVertex
 10
1.277766200412315
 20
-15.92311620712326
 30
0.0
  0
VERTEX
  5
4CDC
330
4CD6
100
AcDbEntity
  8
LW 5006-19-01
  6
VERDECKT
 62
     6
100
AcDbVertex
100
AcDb2dVertex
 10
1.298709671023971
 20
-15.90940058231399
 30
0.0
  0
VERTEX
  5
4CDD
330
4CD6
100
AcDbEntity
  8
LW 5006-19-01
  6
VERDECKT
 62
     6
100
AcDbVertex
100
AcDb2dVertex
 10
1.319215190428167
 20
-15.89768230915115
 30
0.0
  0
VERTEX
  5
4CDE
330
4CD6
100
AcDbEntity
  8
LW 5006-19-01
  6
VERDECKT
 62
     6
100
AcDbVertex
100
AcDb2dVertex
 10
1.339353534192468
 20
-15.88788747787521
 30
0.0
  0
VERTEX
  5
4CDF
330
4CD6
100
AcDbEntity
  8
LW 5006-19-01
  6
VERDECKT
 62
     6
100
AcDbVertex
100
AcDb2dVertex
 10
1.359191531659689
 20
-15.8799540996556
 30
0.0
  0
VERTEX
  5
4CE0
330
4CD6
100
AcDbEntity
  8
LW 5006-19-01
  6
VERDECKT
 62
     6
100
AcDbVertex
100
AcDb2dVertex
 10
1.378792785082623
 20
-15.87383270263717
 30
0.0
  0
VERTEX
  5
4CE1
330
4CD6
100
AcDbEntity
  8
LW 5006-19-01
  6
VERDECKT
 62
     6
100
AcDbVertex
100
AcDb2dVertex
 10
1.398218643345444
 20
-15.8694869279866
 30
0.0
  0
VERTEX
  5
4CE2
330
4CD6
100
AcDbEntity
  8
LW 5006-19-01
  6
VERDECKT
 62
     6
100
AcDbVertex
100
AcDb2dVertex
 10
1.417528418483925
 20
-15.86688935756729
 30
0.0
  0
VERTEX
  5
4CE3
330
4CD6
100
AcDbEntity
  8
LW 5006-19-01
  6
VERDECKT
 62
     6
100
AcDbVertex
100
AcDb2dVertex
 10
1.436780584705957
 20
-15.86602568626449
 30
0.0
  0
VERTEX
  5
4CE4
330
4CD6
100
AcDbEntity
  8
LW 5006-19-01
  6
VERDECKT
 62
     6
100
AcDbVertex
100
AcDb2dVertex
 10
1.456032696709826
 20
-15.86688935756729
 30
0.0
  0
VERTEX
  5
4CE5
330
4CD6
100
AcDbEntity
  8
LW 5006-19-01
  6
VERDECKT
 62
     6
100
AcDbVertex
100
AcDb2dVertex
 10
1.475342522951905
 20
-15.8694869279866
 30
0.0
  0
VERTEX
  5
4CE6
330
4CD6
100
AcDbEntity
  8
LW 5006-19-01
  6
VERDECKT
 62
     6
100
AcDbVertex
100
AcDb2dVertex
 10
1.494768408323579
 20
-15.87383270263717
 30
0.0
  0
VERTEX
  5
4CE7
330
4CD6
100
AcDbEntity
  8
LW 5006-19-01
  6
VERDECKT
 62
     6
100
AcDbVertex
100
AcDb2dVertex
 10
1.514369712849656
 20
-15.8799540996556
 30
0.0
  0
VERTEX
  5
4CE8
330
4CD6
100
AcDbEntity
  8
LW 5006-19-01
  6
VERDECKT
 62
     6
100
AcDbVertex
100
AcDb2dVertex
 10
1.534207659214189
 20
-15.88788747787521
 30
0.0
  0
VERTEX
  5
4CE9
330
4CD6
100
AcDbEntity
  8
LW 5006-19-01
  6
VERDECKT
 62
     6
100
AcDbVertex
100
AcDb2dVertex
 10
1.554345975868727
 20
-15.89768230915115
 30
0.0
  0
VERTEX
  5
4CEA
330
4CD6
100
AcDbEntity
  8
LW 5006-19-01
  6
VERDECKT
 62
     6
100
AcDbVertex
100
AcDb2dVertex
 10
1.574851495273378
 20
-15.9094005823141
 30
0.0
  0
VERTEX
  5
4CEB
330
4CD6
100
AcDbEntity
  8
LW 5006-19-01
  6
VERDECKT
 62
     6
100
AcDbVertex
100
AcDb2dVertex
 10
1.59579491478189
 20
-15.92311620712337
 30
0.0
  0
VERTEX
  5
4CEC
330
4CD6
100
AcDbEntity
  8
LW 5006-19-01
  6
VERDECKT
 62
     6
100
AcDbVertex
100
AcDb2dVertex
 10
1.617251777519413
 20
-15.93891918659267
 30
0.0
  0
VERTEX
  5
4CED
330
4CD6
100
AcDbEntity
  8
LW 5006-19-01
  6
VERDECKT
 62
     6
100
AcDbVertex
100
AcDb2dVertex
 10
1.639303468830803
 20
-15.95691502094325
 30
0.0
  0
VERTEX
  5
4CEE
330
4CD6
100
AcDbEntity
  8
LW 5006-19-01
  6
VERDECKT
 62
     6
100
AcDbVertex
100
AcDb2dVertex
 10
1.66203800831181
 20
-15.97722768783626
 30
0.0
  0
VERTEX
  5
4CEF
330
4CD6
100
AcDbEntity
  8
LW 5006-19-01
  6
VERDECKT
 62
     6
100
AcDbVertex
100
AcDb2dVertex
 10
1.685551971072982
 20
-16.00000023841914
 30
0.0
  0
SEQEND
  5
4CF0
330
4CD6
100
AcDbEntity
  8
LW 5006-19-01
  6
VERDECKT
 62
     6
  0
LINE
  5
4CF1
330
4B80
100
AcDbEntity
  8
LW 5006-19-01
  6
VERDECKT
 62
     6
100
AcDbLine
 10
1.685551938360276
 20
-16.00000000000057
 30
0.0
 11
1.685551938359822
 21
-18.00000000000045
 31
0.0
  0
LINE
  5
4CF2
330
4B80
100
AcDbEntity
  8
LW 5006-19-01
100
AcDbLine
 10
-2.00000000002592
 20
-9.999999999999545
 30
0.0
 11
1.999999999974079
 21
-10.00000000000068
 31
0.0
  0
LINE
  5
4CF3
330
4B80
100
AcDbEntity
  8
LW 5006-19-01
100
AcDbLine
 10
1.999999999974079
 20
-10.00000000000068
 30
0.0
 11
1.999999999973624
 21
-11.50000000000068
 31
0.0
  0
LINE
  5
4CF4
330
4B80
100
AcDbEntity
  8
LW 5006-19-01
100
AcDbLine
 10
-2.00000000002592
 20
-9.999999999999545
 30
0.0
 11
-2.000000000026375
 21
-11.49999999999954
 31
0.0
  0
LINE
  5
4CF5
330
4B80
100
AcDbEntity
  8
LW 5006-19-01
  6
VERDECKT
 62
     6
100
AcDbLine
 10
2.999999999973624
 20
-11.56454189896737
 30
0.0
 11
2.99999999997226
 21
-17.50000000000102
 31
0.0
  0
LINE
  5
4CF6
330
4B80
100
AcDbEntity
  8
LW 5006-19-01
  6
VERDECKT
 62
     6
100
AcDbLine
 10
-3.00000000002683
 20
-11.56454189896817
 30
0.0
 11
-3.000000000028194
 21
-17.49999999999898
 31
0.0
  0
LINE
  5
4CF7
330
4B80
100
AcDbEntity
  8
LW 5006-19-01
  6
VERDECKT
 62
     6
100
AcDbLine
 10
-0.0000000000272848
 20
-15.0
 30
0.0
 11
1.566001122778288
 21
-15.90413116980392
 31
0.0
  0
LINE
  5
4CF8
330
4B80
100
AcDbEntity
  8
LW 5006-19-01
  6
VERDECKT
 62
     6
100
AcDbLine
 10
-0.0000000000272848
 20
-15.0
 30
0.0
 11
-1.685551938415756
 21
-15.99999999999954
 31
0.0
  0
LINE
  5
4CF9
330
4B80
100
AcDbEntity
  8
LW 5006-19-01
  6
VERDECKT
 62
     6
100
AcDbLine
 10
2.4009999999721
 20
-17.38655000000085
 30
0.0
 11
2.400999999973464
 21
-11.90100000000075
 31
0.0
  0
LINE
  5
4CFA
330
4B80
100
AcDbEntity
  8
LW 5006-19-01
  6
VERDECKT
 62
     6
100
AcDbLine
 10
-2.40100000002667
 20
-11.90099999999938
 30
0.0
 11
-2.401000000028034
 21
-17.38654999999937
 31
0.0
  0
LINE
  5
4CFB
330
4B80
100
AcDbEntity
  8
LW 5006-19-01
100
AcDbLine
 10
1.999999999980445
 20
11.49999999999931
 30
0.0
 11
-2.000000000019554
 21
11.50000000000045
 31
0.0
  0
LINE
  5
4CFC
330
4B80
100
AcDbEntity
  8
LW 5006-19-01
100
AcDbLine
 10
-2.000000000019554
 20
11.50000000000057
 30
0.0
 11
-2.263220606369486
 21
11.76322060635084
 31
0.0
  0
LINE
  5
4CFD
330
4B80
100
AcDbEntity
  8
LW 5006-19-01
100
AcDbLine
 10
1.999999999980445
 20
11.49999999999931
 30
0.0
 11
2.263220606330833
 21
11.76322060634948
 31
0.0
  0
LINE
  5
4CFE
330
4B80
100
AcDbEntity
  8
LW 5006-19-01
  6
VERDECKT
 62
     6
100
AcDbLine
 10
-3.000000000019099
 20
12.50000000000079
 30
0.0
 11
2.999999999980445
 21
12.49999999999909
 31
0.0
  0
LINE
  5
4CFF
330
4B80
100
AcDbEntity
  8
LW 5006-19-01
  6
VERDECKT
 62
     6
100
AcDbLine
 10
-2.263220606369486
 20
11.76322060635084
 30
0.0
 11
-3.000000000019099
 21
12.50000000000079
 31
0.0
  0
LINE
  5
4D00
330
4B80
100
AcDbEntity
  8
LW 5006-19-01
  6
VERDECKT
 62
     6
100
AcDbLine
 10
2.263220606330833
 20
11.76322060634948
 30
0.0
 11
2.9999999999809
 21
12.49999999999909
 31
0.0
  0
LINE
  5
4D01
330
4B80
100
AcDbEntity
  8
LW 5006-19-01
  6
VERDECKT
 62
     6
100
AcDbLine
 10
-1.439421035213854
 20
17.3865500000004
 30
0.0
 11
-3.000000000017735
 21
17.38655000000085
 31
0.0
  0
LINE
  5
4D02
330
4B80
100
AcDbEntity
  8
LW 5006-19-01
  6
VERDECKT
 62
     6
100
AcDbLine
 10
2.999999999982264
 20
17.38654999999903
 30
0.0
 11
1.439421035285704
 21
17.38654999999949
 31
0.0
  0
LINE
  5
4D03
330
4B80
100
AcDbEntity
  8
LW 5006-19-01
  6
VERDECKT
 62
     6
100
AcDbLine
 10
2.934499611942555
 20
17.49999999999909
 30
0.0
 11
2.999999999982264
 21
17.38654999999903
 31
0.0
  0
LINE
  5
4D04
330
4B80
100
AcDbEntity
  8
LW 5006-19-01
  6
VERDECKT
 62
     6
100
AcDbLine
 10
-2.934499611978026
 20
17.50000000000079
 30
0.0
 11
-3.000000000017735
 21
17.38655000000085
 31
0.0
  0
LINE
  5
4D05
330
4B80
100
AcDbEntity
  8
LW 5006-19-01
100
AcDbLine
 10
1.439421035285704
 20
17.38654999999949
 30
0.0
 11
-1.439421035213854
 21
17.3865500000004
 31
0.0
  0
LINE
  5
4D06
330
4B80
100
AcDbEntity
  8
LW 5006-19-01
100
AcDbLine
 10
-2.645824477383484
 20
18.00000000000068
 30
0.0
 11
2.645824477348014
 21
17.99999999999909
 31
0.0
  0
LINE
  5
4D07
330
4B80
100
AcDbEntity
  8
LW 5006-19-01
100
AcDbLine
 10
2.645824477348014
 20
17.99999999999909
 30
0.0
 11
2.934499611942555
 21
17.49999999999909
 31
0.0
  0
LINE
  5
4D08
330
4B80
100
AcDbEntity
  8
LW 5006-19-01
100
AcDbLine
 10
-2.645824477383484
 20
18.00000000000068
 30
0.0
 11
-2.934499611978026
 21
17.50000000000079
 31
0.0
  0
LINE
  5
4D09
330
4B80
100
AcDbEntity
  8
LW 5006-19-01
  6
VERDECKT
 62
     6
100
AcDbLine
 10
1.701559465501304
 20
15.99999999999943
 30
0.0
 11
1.701559465501759
 21
17.99999999999932
 31
0.0
  0
LINE
  5
4D0A
330
4B80
100
AcDbEntity
  8
LW 5006-19-01
  6
VERDECKT
 62
     6
100
AcDbLine
 10
-1.701559465537684
 20
16.00000000000045
 30
0.0
 11
-1.701559465537229
 21
18.00000000000045
 31
0.0
  0
POLYLINE
  5
4D0B
330
4B80
100
AcDbEntity
  8
LW 5006-19-01
  6
VERDECKT
 62
     6
100
AcDb2dPolyline
 66
     1
 10
0.0
 20
0.0
 30
0.0
 70
   128
  0
VERTEX
  5
4D0C
330
4D0B
100
AcDbEntity
  8
LW 5006-19-01
  6
VERDECKT
 62
     6
100
AcDbVertex
100
AcDb2dVertex
 10
-0.570562756536674
 20
16.00000023841858
 30
0.0
  0
VERTEX
  5
4D0D
330
4D0B
100
AcDbEntity
  8
LW 5006-19-01
  6
VERDECKT
 62
     6
100
AcDbVertex
100
AcDb2dVertex
 10
-0.6240137566333033
 20
15.97722768783592
 30
0.0
  0
VERTEX
  5
4D0E
330
4D0B
100
AcDbEntity
  8
LW 5006-19-01
  6
VERDECKT
 62
     6
100
AcDbVertex
100
AcDb2dVertex
 10
-0.6756932486191545
 20
15.95691502094291
 30
0.0
  0
VERTEX
  5
4D0F
330
4D0B
100
AcDbEntity
  8
LW 5006-19-01
  6
VERDECKT
 62
     6
100
AcDbVertex
100
AcDb2dVertex
 10
-0.725820229517467
 20
15.93891918659233
 30
0.0
  0
VERTEX
  5
4D10
330
4D0B
100
AcDbEntity
  8
LW 5006-19-01
  6
VERDECKT
 62
     6
100
AcDbVertex
100
AcDb2dVertex
 10
-0.7745952731356738
 20
15.92311620712303
 30
0.0
  0
VERTEX
  5
4D11
330
4D0B
100
AcDbEntity
  8
LW 5006-19-01
  6
VERDECKT
 62
     6
100
AcDbVertex
100
AcDb2dVertex
 10
-0.8222031811146734
 20
15.90940058231376
 30
0.0
  0
VERTEX
  5
4D12
330
4D0B
100
AcDbEntity
  8
LW 5006-19-01
  6
VERDECKT
 62
     6
100
AcDbVertex
100
AcDb2dVertex
 10
-0.8688156030261779
 20
15.89768230915092
 30
0.0
  0
VERTEX
  5
4D13
330
4D0B
100
AcDbEntity
  8
LW 5006-19-01
  6
VERDECKT
 62
     6
100
AcDbVertex
100
AcDb2dVertex
 10
-0.914593363692802
 20
15.88788747787498
 30
0.0
  0
VERTEX
  5
4D14
330
4D0B
100
AcDbEntity
  8
LW 5006-19-01
  6
VERDECKT
 62
     6
100
AcDbVertex
100
AcDb2dVertex
 10
-0.9596883549434096
 20
15.87995409965538
 30
0.0
  0
VERTEX
  5
4D15
330
4D0B
100
AcDbEntity
  8
LW 5006-19-01
  6
VERDECKT
 62
     6
100
AcDbVertex
100
AcDb2dVertex
 10
-1.004245284584158
 20
15.87383270263694
 30
0.0
  0
VERTEX
  5
4D16
330
4D0B
100
AcDbEntity
  8
LW 5006-19-01
  6
VERDECKT
 62
     6
100
AcDbVertex
100
AcDb2dVertex
 10
-1.048403383612367
 20
15.86948692798637
 30
0.0
  0
VERTEX
  5
4D17
330
4D0B
100
AcDbEntity
  8
LW 5006-19-01
  6
VERDECKT
 62
     6
100
AcDbVertex
100
AcDb2dVertex
 10
-1.092297866010994
 20
15.86688935756706
 30
0.0
  0
VERTEX
  5
4D18
330
4D0B
100
AcDbEntity
  8
LW 5006-19-01
  6
VERDECKT
 62
     6
100
AcDbVertex
100
AcDb2dVertex
 10
-1.136061095767217
 20
15.86602568626426
 30
0.0
  0
VERTEX
  5
4D19
330
4D0B
100
AcDbEntity
  8
LW 5006-19-01
  6
VERDECKT
 62
     6
100
AcDbVertex
100
AcDb2dVertex
 10
-1.179824339441893
 20
15.86688935756706
 30
0.0
  0
VERTEX
  5
4D1A
330
4D0B
100
AcDbEntity
  8
LW 5006-19-01
  6
VERDECKT
 62
     6
100
AcDbVertex
100
AcDb2dVertex
 10
-1.223718895034835
 20
15.86948692798637
 30
0.0
  0
VERTEX
  5
4D1B
330
4D0B
100
AcDbEntity
  8
LW 5006-19-01
  6
VERDECKT
 62
     6
100
AcDbVertex
100
AcDb2dVertex
 10
-1.267876987104045
 20
15.87383270263694
 30
0.0
  0
VERTEX
  5
4D1C
330
4D0B
100
AcDbEntity
  8
LW 5006-19-01
  6
VERDECKT
 62
     6
100
AcDbVertex
100
AcDb2dVertex
 10
-1.312433989938654
 20
15.87995409965538
 30
0.0
  0
VERTEX
  5
4D1D
330
4D0B
100
AcDbEntity
  8
LW 5006-19-01
  6
VERDECKT
 62
     6
100
AcDbVertex
100
AcDb2dVertex
 10
-1.357528907994947
 20
15.8878874778751
 30
0.0
  0
VERTEX
  5
4D1E
330
4D0B
100
AcDbEntity
  8
LW 5006-19-01
  6
VERDECKT
 62
     6
100
AcDbVertex
100
AcDb2dVertex
 10
-1.403306675620569
 20
15.89768230915103
 30
0.0
  0
VERTEX
  5
4D1F
330
4D0B
100
AcDbEntity
  8
LW 5006-19-01
  6
VERDECKT
 62
     6
100
AcDbVertex
100
AcDb2dVertex
 10
-1.449919097532529
 20
15.90940058231388
 30
0.0
  0
VERTEX
  5
4D20
330
4D0B
100
AcDbEntity
  8
LW 5006-19-01
  6
VERDECKT
 62
     6
100
AcDbVertex
100
AcDb2dVertex
 10
-1.497526932317214
 20
15.92311620712314
 30
0.0
  0
VERTEX
  5
4D21
330
4D0B
100
AcDbEntity
  8
LW 5006-19-01
  6
VERDECKT
 62
     6
100
AcDbVertex
100
AcDb2dVertex
 10
-1.546301982894419
 20
15.93891918659244
 30
0.0
  0
VERTEX
  5
4D22
330
4D0B
100
AcDbEntity
  8
LW 5006-19-01
  6
VERDECKT
 62
     6
100
AcDbVertex
100
AcDb2dVertex
 10
-1.596429103221908
 20
15.95691502094314
 30
0.0
  0
VERTEX
  5
4D23
330
4D0B
100
AcDbEntity
  8
LW 5006-19-01
  6
VERDECKT
 62
     6
100
AcDbVertex
100
AcDb2dVertex
 10
-1.648108451429379
 20
15.97722768783615
 30
0.0
  0
VERTEX
  5
4D24
330
4D0B
100
AcDbEntity
  8
LW 5006-19-01
  6
VERDECKT
 62
     6
100
AcDbVertex
100
AcDb2dVertex
 10
-1.701559434997761
 20
16.00000023841903
 30
0.0
  0
SEQEND
  5
4D25
330
4D0B
100
AcDbEntity
  8
LW 5006-19-01
  6
VERDECKT
 62
     6
  0
LINE
  5
4D26
330
4B80
100
AcDbEntity
  8
LW 5006-19-01
  6
VERDECKT
 62
     6
100
AcDbLine
 10
-0.5705627829406695
 20
18.00000000000011
 30
0.0
 11
-0.570562782941579
 21
16.0
 31
0.0
  0
POLYLINE
  5
4D27
330
4B80
100
AcDbEntity
  8
LW 5006-19-01
  6
VERDECKT
 62
     6
100
AcDb2dPolyline
 66
     1
 10
0.0
 20
0.0
 30
0.0
 70
   128
  0
VERTEX
  5
4D28
330
4D27
100
AcDbEntity
  8
LW 5006-19-01
  6
VERDECKT
 62
     6
100
AcDbVertex
100
AcDb2dVertex
 10
1.701559434961382
 20
16.00000023841801
 30
0.0
  0
VERTEX
  5
4D29
330
4D27
100
AcDbEntity
  8
LW 5006-19-01
  6
VERDECKT
 62
     6
100
AcDbVertex
100
AcDb2dVertex
 10
1.674594594757309
 20
15.97722768783512
 30
0.0
  0
VERTEX
  5
4D2A
330
4D27
100
AcDbEntity
  8
LW 5006-19-01
  6
VERDECKT
 62
     6
100
AcDbVertex
100
AcDb2dVertex
 10
1.648523558888882
 20
15.95691502094212
 30
0.0
  0
VERTEX
  5
4D2B
330
4D27
100
AcDbEntity
  8
LW 5006-19-01
  6
VERDECKT
 62
     6
100
AcDbVertex
100
AcDb2dVertex
 10
1.62323548264203
 20
15.93891918659153
 30
0.0
  0
VERTEX
  5
4D2C
330
4D27
100
AcDbEntity
  8
LW 5006-19-01
  6
VERDECKT
 62
     6
100
AcDbVertex
100
AcDb2dVertex
 10
1.598629549630004
 20
15.92311620712223
 30
0.0
  0
VERTEX
  5
4D2D
330
4D27
100
AcDbEntity
  8
LW 5006-19-01
  6
VERDECKT
 62
     6
100
AcDbVertex
100
AcDb2dVertex
 10
1.574612475879803
 20
15.90940058231297
 30
0.0
  0
VERTEX
  5
4D2E
330
4D27
100
AcDbEntity
  8
LW 5006-19-01
  6
VERDECKT
 62
     6
100
AcDbVertex
100
AcDb2dVertex
 10
1.55109754242494
 20
15.89768230915024
 30
0.0
  0
VERTEX
  5
4D2F
330
4D27
100
AcDbEntity
  8
LW 5006-19-01
  6
VERDECKT
 62
     6
100
AcDbVertex
100
AcDb2dVertex
 10
1.528003674242427
 20
15.8878874778743
 30
0.0
  0
VERTEX
  5
4D30
330
4D27
100
AcDbEntity
  8
LW 5006-19-01
  6
VERDECKT
 62
     6
100
AcDbVertex
100
AcDb2dVertex
 10
1.505254310169675
 20
15.8799540996547
 30
0.0
  0
VERTEX
  5
4D31
330
4D27
100
AcDbEntity
  8
LW 5006-19-01
  6
VERDECKT
 62
     6
100
AcDbVertex
100
AcDb2dVertex
 10
1.482776265862412
 20
15.87383270263626
 30
0.0
  0
VERTEX
  5
4D32
330
4D27
100
AcDbEntity
  8
LW 5006-19-01
  6
VERDECKT
 62
     6
100
AcDbVertex
100
AcDb2dVertex
 10
1.460499503163646
 20
15.86948692798569
 30
0.0
  0
VERTEX
  5
4D33
330
4D27
100
AcDbEntity
  8
LW 5006-19-01
  6
VERDECKT
 62
     6
100
AcDbVertex
100
AcDb2dVertex
 10
1.438355623733059
 20
15.86688935756638
 30
0.0
  0
VERTEX
  5
4D34
330
4D27
100
AcDbEntity
  8
LW 5006-19-01
  6
VERDECKT
 62
     6
100
AcDbVertex
100
AcDb2dVertex
 10
1.41627805670214
 20
15.86602568626358
 30
0.0
  0
VERTEX
  5
4D35
330
4D27
100
AcDbEntity
  8
LW 5006-19-01
  6
VERDECKT
 62
     6
100
AcDbVertex
100
AcDb2dVertex
 10
1.394200475752768
 20
15.86688935756638
 30
0.0
  0
VERTEX
  5
4D36
330
4D27
100
AcDbEntity
  8
LW 5006-19-01
  6
VERDECKT
 62
     6
100
AcDbVertex
100
AcDb2dVertex
 10
1.372056669516041
 20
15.86948692798569
 30
0.0
  0
VERTEX
  5
4D37
330
4D27
100
AcDbEntity
  8
LW 5006-19-01
  6
VERDECKT
 62
     6
100
AcDbVertex
100
AcDb2dVertex
 10
1.349779913776728
 20
15.87383270263626
 30
0.0
  0
VERTEX
  5
4D38
330
4D27
100
AcDbEntity
  8
LW 5006-19-01
  6
VERDECKT
 62
     6
100
AcDbVertex
100
AcDb2dVertex
 10
1.32730194266378
 20
15.8799540996547
 30
0.0
  0
VERTEX
  5
4D39
330
4D27
100
AcDbEntity
  8
LW 5006-19-01
  6
VERDECKT
 62
     6
100
AcDbVertex
100
AcDb2dVertex
 10
1.304552505396259
 20
15.8878874778743
 30
0.0
  0
VERTEX
  5
4D3A
330
4D27
100
AcDbEntity
  8
LW 5006-19-01
  6
VERDECKT
 62
     6
100
AcDbVertex
100
AcDb2dVertex
 10
1.281458630254746
 20
15.89768230915024
 30
0.0
  0
VERTEX
  5
4D3B
330
4D27
100
AcDbEntity
  8
LW 5006-19-01
  6
VERDECKT
 62
     6
100
AcDbVertex
100
AcDb2dVertex
 10
1.257943696800339
 20
15.90940058231308
 30
0.0
  0
VERTEX
  5
4D3C
330
4D27
100
AcDbEntity
  8
LW 5006-19-01
  6
VERDECKT
 62
     6
100
AcDbVertex
100
AcDb2dVertex
 10
1.233926549855823
 20
15.92311620712235
 30
0.0
  0
VERTEX
  5
4D3D
330
4D27
100
AcDbEntity
  8
LW 5006-19-01
  6
VERDECKT
 62
     6
100
AcDbVertex
100
AcDb2dVertex
 10
1.209320609884343
 20
15.93891918659165
 30
0.0
  0
VERTEX
  5
4D3E
330
4D27
100
AcDbEntity
  8
LW 5006-19-01
  6
VERDECKT
 62
     6
100
AcDbVertex
100
AcDb2dVertex
 10
1.184032686985119
 20
15.95691502094223
 30
0.0
  0
VERTEX
  5
4D3F
330
4D27
100
AcDbEntity
  8
LW 5006-19-01
  6
VERDECKT
 62
     6
100
AcDbVertex
100
AcDb2dVertex
 10
1.157961502118723
 20
15.97722768783524
 30
0.0
  0
VERTEX
  5
4D40
330
4D27
100
AcDbEntity
  8
LW 5006-19-01
  6
VERDECKT
 62
     6
100
AcDbVertex
100
AcDb2dVertex
 10
1.130996678442897
 20
16.00000023841812
 30
0.0
  0
SEQEND
  5
4D41
330
4D27
100
AcDbEntity
  8
LW 5006-19-01
  6
VERDECKT
 62
     6
  0
POLYLINE
  5
4D42
330
4B80
100
AcDbEntity
  8
LW 5006-19-01
  6
VERDECKT
 62
     6
100
AcDb2dPolyline
 66
     1
 10
0.0
 20
0.0
 30
0.0
 70
   128
  0
VERTEX
  5
4D43
330
4D42
100
AcDbEntity
  8
LW 5006-19-01
  6
VERDECKT
 62
     6
100
AcDbVertex
100
AcDb2dVertex
 10
1.130996678442897
 20
16.00000023841812
 30
0.0
  0
VERTEX
  5
4D44
330
4D42
100
AcDbEntity
  8
LW 5006-19-01
  6
VERDECKT
 62
     6
100
AcDbVertex
100
AcDb2dVertex
 10
1.050580854670897
 20
15.97722768783535
 30
0.0
  0
VERTEX
  5
4D45
330
4D42
100
AcDbEntity
  8
LW 5006-19-01
  6
VERDECKT
 62
     6
100
AcDbVertex
100
AcDb2dVertex
 10
0.9728303242063702
 20
15.95691502094235
 30
0.0
  0
VERTEX
  5
4D46
330
4D42
100
AcDbEntity
  8
LW 5006-19-01
  6
VERDECKT
 62
     6
100
AcDbVertex
100
AcDb2dVertex
 10
0.8974152740206591
 20
15.93891918659176
 30
0.0
  0
VERTEX
  5
4D47
330
4D42
100
AcDbEntity
  8
LW 5006-19-01
  6
VERDECKT
 62
     6
100
AcDbVertex
100
AcDb2dVertex
 10
0.82403432702813
 20
15.92311620712257
 30
0.0
  0
VERTEX
  5
4D48
330
4D42
100
AcDbEntity
  8
LW 5006-19-01
  6
VERDECKT
 62
     6
100
AcDbVertex
100
AcDb2dVertex
 10
0.7524093087017718
 20
15.90940058231331
 30
0.0
  0
VERTEX
  5
4D49
330
4D42
100
AcDbEntity
  8
LW 5006-19-01
  6
VERDECKT
 62
     6
100
AcDbVertex
100
AcDb2dVertex
 10
0.682281953335405
 20
15.89768230915047
 30
0.0
  0
VERTEX
  5
4D4A
330
4D42
100
AcDbEntity
  8
LW 5006-19-01
  6
VERDECKT
 62
     6
100
AcDbVertex
100
AcDb2dVertex
 10
0.6134103175272685
 20
15.88788747787453
 30
0.0
  0
VERTEX
  5
4D4B
330
4D42
100
AcDbEntity
  8
LW 5006-19-01
  6
VERDECKT
 62
     6
100
AcDbVertex
100
AcDb2dVertex
 10
0.545565925606752
 20
15.87995409965492
 30
0.0
  0
VERTEX
  5
4D4C
330
4D42
100
AcDbEntity
  8
LW 5006-19-01
  6
VERDECKT
 62
     6
100
AcDbVertex
100
AcDb2dVertex
 10
0.4785309882558977
 20
15.87383270263649
 30
0.0
  0
VERTEX
  5
4D4D
330
4D42
100
AcDbEntity
  8
LW 5006-19-01
  6
VERDECKT
 62
     6
100
AcDbVertex
100
AcDb2dVertex
 10
0.4120960602940614
 20
15.86948692798592
 30
0.0
  0
VERTEX
  5
4D4E
330
4D42
100
AcDbEntity
  8
LW 5006-19-01
  6
VERDECKT
 62
     6
100
AcDbVertex
100
AcDb2dVertex
 10
0.3460578311287463
 20
15.8668893575666
 30
0.0
  0
VERTEX
  5
4D4F
330
4D42
100
AcDbEntity
  8
LW 5006-19-01
  6
VERDECKT
 62
     6
100
AcDbVertex
100
AcDb2dVertex
 10
0.280216960953112
 20
15.86602568626381
 30
0.0
  0
VERTEX
  5
4D50
330
4D42
100
AcDbEntity
  8
LW 5006-19-01
  6
VERDECKT
 62
     6
100
AcDbVertex
100
AcDb2dVertex
 10
0.2143760907774777
 20
15.8668893575666
 30
0.0
  0
VERTEX
  5
4D51
330
4D42
100
AcDbEntity
  8
LW 5006-19-01
  6
VERDECKT
 62
     6
100
AcDbVertex
100
AcDb2dVertex
 10
0.1483378616121627
 20
15.86948692798592
 30
0.0
  0
VERTEX
  5
4D52
330
4D42
100
AcDbEntity
  8
LW 5006-19-01
  6
VERDECKT
 62
     6
100
AcDbVertex
100
AcDb2dVertex
 10
0.0819029336503263
 20
15.87383270263672
 30
0.0
  0
VERTEX
  5
4D53
330
4D42
100
AcDbEntity
  8
LW 5006-19-01
  6
VERDECKT
 62
     6
100
AcDbVertex
100
AcDb2dVertex
 10
0.014867996299472
 20
15.87995409965515
 30
0.0
  0
VERTEX
  5
4D54
330
4D42
100
AcDbEntity
  8
LW 5006-19-01
  6
VERDECKT
 62
     6
100
AcDbVertex
100
AcDb2dVertex
 10
-0.0529763956210445
 20
15.88788747787475
 30
0.0
  0
VERTEX
  5
4D55
330
4D42
100
AcDbEntity
  8
LW 5006-19-01
  6
VERDECKT
 62
     6
100
AcDbVertex
100
AcDb2dVertex
 10
-0.121848031429181
 20
15.89768230915069
 30
0.0
  0
VERTEX
  5
4D56
330
4D42
100
AcDbEntity
  8
LW 5006-19-01
  6
VERDECKT
 62
     6
100
AcDbVertex
100
AcDb2dVertex
 10
-0.1919753867955478
 20
15.90940058231353
 30
0.0
  0
VERTEX
  5
4D57
330
4D42
100
AcDbEntity
  8
LW 5006-19-01
  6
VERDECKT
 62
     6
100
AcDbVertex
100
AcDb2dVertex
 10
-0.2636004051219061
 20
15.9231162071228
 30
0.0
  0
VERTEX
  5
4D58
330
4D42
100
AcDbEntity
  8
LW 5006-19-01
  6
VERDECKT
 62
     6
100
AcDbVertex
100
AcDb2dVertex
 10
-0.3369813521144351
 20
15.9389191865921
 30
0.0
  0
VERTEX
  5
4D59
330
4D42
100
AcDbEntity
  8
LW 5006-19-01
  6
VERDECKT
 62
     6
100
AcDbVertex
100
AcDb2dVertex
 10
-0.4123964023001463
 20
15.95691502094269
 30
0.0
  0
VERTEX
  5
4D5A
330
4D42
100
AcDbEntity
  8
LW 5006-19-01
  6
VERDECKT
 62
     6
100
AcDbVertex
100
AcDb2dVertex
 10
-0.490146932764219
 20
15.97722768783569
 30
0.0
  0
VERTEX
  5
4D5B
330
4D42
100
AcDbEntity
  8
LW 5006-19-01
  6
VERDECKT
 62
     6
100
AcDbVertex
100
AcDb2dVertex
 10
-0.570562756536674
 20
16.00000023841858
 30
0.0
  0
SEQEND
  5
4D5C
330
4D42
100
AcDbEntity
  8
LW 5006-19-01
  6
VERDECKT
 62
     6
  0
LINE
  5
4D5D
330
4B80
100
AcDbEntity
  8
LW 5006-19-01
100
AcDbLine
 10
1.999999999979991
 20
9.999999999999317
 30
0.0
 11
-2.000000000020008
 21
10.00000000000045
 31
0.0
  0
LINE
  5
4D5E
330
4B80
100
AcDbEntity
  8
LW 5006-19-01
100
AcDbLine
 10
-2.000000000020008
 20
10.00000000000045
 30
0.0
 11
-2.000000000019554
 21
11.50000000000057
 31
0.0
  0
LINE
  5
4D5F
330
4B80
100
AcDbEntity
  8
LW 5006-19-01
100
AcDbLine
 10
1.999999999979991
 20
9.999999999999317
 30
0.0
 11
1.999999999980445
 21
11.49999999999931
 31
0.0
  0
LINE
  5
4D60
330
4B80
100
AcDbEntity
  8
LW 5006-19-01
  6
VERDECKT
 62
     6
100
AcDbLine
 10
-3.000000000019099
 20
11.56454189896999
 30
0.0
 11
-3.000000000018189
 21
17.50000000000079
 31
0.0
  0
LINE
  5
4D61
330
4B80
100
AcDbEntity
  8
LW 5006-19-01
  6
VERDECKT
 62
     6
100
AcDbLine
 10
2.9999999999809
 20
11.56454189896578
 30
0.0
 11
2.99999999998181
 21
17.49999999999898
 31
0.0
  0
LINE
  5
4D62
330
4B80
100
AcDbEntity
  8
LW 5006-19-01
  6
VERDECKT
 62
     6
100
AcDbLine
 10
-0.0000000000186446
 20
15.0
 30
0.0
 11
-1.701559465537684
 21
16.00000000000045
 31
0.0
  0
LINE
  5
4D63
330
4B80
100
AcDbEntity
  8
LW 5006-19-01
  6
VERDECKT
 62
     6
100
AcDbLine
 10
-0.0000000000186446
 20
15.0
 30
0.0
 11
1.588671067630002
 21
15.91721966855994
 31
0.0
  0
LINE
  5
4D64
330
4B80
100
AcDbEntity
  8
LW 5006-19-01
  6
VERDECKT
 62
     6
100
AcDbLine
 10
-2.401000000017575
 20
17.38655000000062
 30
0.0
 11
-2.401000000019394
 21
11.90100000000063
 31
0.0
  0
LINE
  5
4D65
330
4B80
100
AcDbEntity
  8
LW 5006-19-01
  6
VERDECKT
 62
     6
100
AcDbLine
 10
2.40099999998074
 20
11.90099999999916
 30
0.0
 11
2.400999999982104
 21
17.38654999999926
 31
0.0
  0
LINE
  5
4D66
330
4B80
100
AcDbEntity
  8
LW 5006-19-01
100
AcDbLine
 10
-77.00000000002455
 20
-5.773099999977148
 30
0.0
 11
-77.00000000002138
 21
5.77310000002285
 31
0.0
  0
LINE
  5
4D67
330
4B80
100
AcDbEntity
  8
LW 5006-19-01
100
AcDbLine
 10
-75.7731000000208
 20
7.000000000022509
 30
0.0
 11
-75.7731000000249
 21
-6.99999999997749
 31
0.0
  0
LINE
  5
4D68
330
4B80
100
AcDbEntity
  8
LW 5006-19-01
100
AcDbLine
 10
-77.00000000002138
 20
5.77310000002285
 30
0.0
 11
-75.7731000000208
 21
7.000000000022509
 31
0.0
  0
LINE
  5
4D69
330
4B80
100
AcDbEntity
  8
LW 5006-19-01
100
AcDbLine
 10
-77.00000000002455
 20
-5.773099999977148
 30
0.0
 11
-75.7731000000249
 21
-6.99999999997749
 31
0.0
  0
LINE
  5
4D6A
330
4B80
100
AcDbEntity
  8
LW 5006-19-01
100
AcDbLine
 10
-75.7731000000208
 20
7.000000000022509
 30
0.0
 11
-60.87500000002092
 21
7.000000000017962
 31
0.0
  0
LINE
  5
4D6B
330
4B80
100
AcDbEntity
  8
LW 5006-19-01
100
AcDbLine
 10
-75.7731000000249
 20
-6.99999999997749
 30
0.0
 11
-60.87500000002501
 21
-6.999999999982037
 31
0.0
  0
LINE
  5
4D6C
330
4B80
100
AcDbEntity
  8
LW 5006-19-01
 62
     3
100
AcDbLine
 10
-60.87500000002137
 20
5.794500000018047
 30
0.0
 11
-76.97860000002129
 21
5.794500000022821
 31
0.0
  0
LINE
  5
4D6D
330
4B80
100
AcDbEntity
  8
LW 5006-19-01
 62
     3
100
AcDbLine
 10
-76.97860000002447
 20
-5.794499999977233
 30
0.0
 11
-60.87500000002456
 21
-5.794499999982008
 31
0.0
  0
ARC
  5
4D6E
330
4B80
100
AcDbEntity
  8
LW 5006-19-01
  6
VERDECKT
 62
     6
100
AcDbCircle
 10
0.0
 20
0.0
 30
0.0
 40
32.50000000000001
100
AcDbArc
 50
147.4210296071795
 51
212.5789703927956
  0
ARC
  5
4D6F
330
4B80
100
AcDbEntity
  8
LW 5006-19-01
100
AcDbCircle
 10
0.0
 20
0.0
 30
0.0
 40
32.5
100
AcDbArc
 50
212.5789703927956
 51
147.4210296071795
  0
LINE
  5
4D70
330
4B80
100
AcDbEntity
  8
LW 5006-19-01
100
AcDbLine
 10
-60.87500000001774
 20
17.50000000001796
 30
0.0
 11
-60.87500000002819
 21
-17.49999999998204
 31
0.0
  0
LINE
  5
4D71
330
4B80
100
AcDbEntity
  8
LW 5006-19-01
  6
MITTE2
 62
     3
100
AcDbLine
 10
14.93734296383582
 20
25.87223694343527
 30
0.0
 11
6.99999999999909
 21
12.12435565298006
 31
0.0
  0
LINE
  5
4D72
330
4B80
100
AcDbEntity
  8
LW 5006-19-01
  6
MITTE2
 62
     3
100
AcDbLine
 10
14.93734296382035
 20
-25.87223694344425
 30
0.0
 11
6.999999999991814
 21
-12.12435565298426
 31
0.0
  0
LINE
  5
4D73
330
4B80
100
AcDbEntity
  8
LW 5006-19-01
  6
MITTE2
 62
     3
100
AcDbLine
 10
-80.54152403635407
 20
0.0000000000238742
 30
0.0
 11
37.06495985652419
 21
-0.0000000000109139
 31
0.0
  0
LINE
  5
4D74
330
4B80
100
AcDbEntity
  8
LW 5006-19-01
  6
MITTE2
 62
     3
100
AcDbLine
 10
-0.0000000000295586
 20
22.6209724824912
 30
0.0
 11
-0.0000000000427463
 21
-22.6209724824912
 31
0.0
  0
LINE
  5
4D75
330
4B80
100
AcDbEntity
  8
LW 5006-19-01
  6
VERDECKT
 62
     6
100
AcDbLine
 10
1.130996678443807
 20
17.99999999252213
 30
0.0
 11
1.130996678442897
 21
15.99999999252202
 31
0.0
  0
HATCH
  5
4D76
330
4B80
100
AcDbEntity
  8
LW 5006-19-01
 62
     1
100
AcDbHatch
 10
0.0
 20
0.0
 30
0.0
210
0.0
220
0.0
230
1.0
  2
SOLID
 70
     1
 71
     0
 91
        5
 92
        7
 72
     0
 73
     1
 93
       76
 10
-47.24928876597823
 20
13.15603796707853
 10
-47.21742993660564
 20
13.20761892892028
 10
-47.09927181237389
 20
13.35886132793621
 10
-46.96479373716146
 20
13.49928545819875
 10
-46.81877383070013
 20
13.6276700199121
 10
-46.65510503461791
 20
13.74457630282791
 10
-46.4797180812534
 20
13.84675418464951
 10
-46.29796514865256
 20
13.9381058642324
 10
-46.11679621318717
 20
14.00762417667852
 10
-48.37393415138695
 20
14.00762417667852
 10
-48.5868307037872
 20
13.99893452147853
 10
-48.78886518718719
 20
13.97286555587857
 10
-48.984382429187
 20
13.93158969367846
 10
-49.16903760218701
 20
13.87727934867848
 10
-49.34500311998727
 20
13.80776210707847
 10
-49.51227898258685
 20
13.72521038267837
 10
-49.66284724513434
 20
13.6298848651345
 10
-49.80555484558727
 20
13.52317589927838
 10
-49.93099610115769
 20
13.40412762303833
 10
-50.04226105323505
 20
13.27586831228643
 10
-50.14227898458694
 20
13.13865865667844
 10
-50.22483070898715
 20
12.99310693207837
 10
-50.28783070918734
 20
12.83886555227832
 10
-50.33779622658721
 20
12.67810693107844
 10
-50.366037605987
 20
12.51300348227846
 10
-50.37472726118676
 20
12.33921037827849
 10
-50.36386519218694
 20
12.1654172742783
 10
-50.33345139898711
 20
11.99814141167837
 10
-50.27914105398713
 20
11.83738279047839
 10
-50.20962381238724
 20
11.68096899687839
 10
-50.12055484658685
 20
11.53324485847838
 10
-50.01410657038696
 20
11.39203796147853
 10
-49.89140863896273
 20
11.26082416795839
 10
-49.7552095902547
 20
11.13969037447054
 10
-49.60786518978693
 20
11.02924485687845
 10
-49.44710656858706
 20
10.93148623587854
 10
-49.27147994733968
 20
10.84658830457442
 10
-49.09083070538736
 20
10.77290002847849
 10
-48.89965829098719
 20
10.71641726967846
 10
-48.6997962213868
 20
10.67296899367852
 10
-48.49124449658711
 20
10.64690002807845
 10
-48.28052035798691
 20
10.63821037287846
 10
-46.16134927223447
 20
10.63821037287857
 10
-46.32189313628669
 20
10.70128117661352
 10
-46.50545728008956
 20
10.79190145013626
 10
-46.67392368625951
 20
10.89643114306773
 10
-46.83675658101992
 20
11.01204938149317
 10
-46.98066894939029
 20
11.14183897803309
 10
-47.10810484287458
 20
11.28119266126168
 10
-47.22181019761819
 20
11.43168090597419
 10
-47.27378142906673
 20
11.51586554807852
 10
-48.30224449598699
 20
11.51586554807841
 10
-48.43435332399258
 20
11.52342554810252
 10
-48.56510656578712
 20
11.54375934127051
 10
-48.6932789799871
 20
11.57669313447843
 10
-48.80841691138676
 20
11.62231382427853
 10
-48.91336187723709
 20
11.67879658307845
 10
-49.01151153272121
 20
11.74640210053439
 10
-49.10169277438718
 20
11.8243483076784
 10
-49.17338242978667
 20
11.90907244587845
 10
-47.44586111552826
 20
11.90907244587856
 10
-47.45644558280128
 20
11.94170788663678
 10
-47.49255739076533
 20
12.12708183418795
 10
-47.5046010435476
 20
12.31737154813868
 10
-47.4925793711177
 20
12.51212264149376
 10
-47.45627364944266
 20
12.6984920127602
 10
-47.4396749467678
 20
12.74762417267846
 10
-49.21031346438713
 20
12.74762417267846
 10
-49.14079622278723
 20
12.84321037987843
 10
-49.05824449838701
 20
12.92576210427842
 10
-48.96315360153358
 20
12.99562693208645
 10
-48.86055484258713
 20
13.05393451847851
 10
-48.74186284221059
 20
13.09790417379042
 10
-48.61941691078709
 20
13.12996900147846
 10
-48.4825548413869
 20
13.14952072567848
 10
-48.339175530587
 20
13.15603796707842
 97
        0
 92
        7
 72
     0
 73
     1
 93
       72
 10
-45.52082490095062
 20
13.14143934634251
 10
-45.39796186607737
 20
13.15951382915853
 10
-45.27389965878728
 20
13.16472762227863
 10
-44.00520999958689
 20
13.16472762227863
 10
-44.85245138158688
 20
12.35007244727876
 10
-43.08627896218695
 20
10.63169313147864
 10
-41.76762378558715
 20
10.63169313147864
 10
-43.48165827378716
 20
12.37396899907867
 10
-41.80020999258704
 20
14.00762417667875
 10
-45.23914103798733
 20
14.00762417667852
 10
-45.4471279351992
 20
13.99684900423062
 10
-45.65384614275217
 20
13.97138831449456
 10
-45.85827897098716
 20
13.93158969367857
 10
-46.05162379918738
 20
13.87510693487854
 10
-46.23845138598745
 20
13.80341727947848
 10
-46.40961152446152
 20
13.71738969299849
 10
-46.57517552498712
 20
13.62093452027852
 10
-46.72724449098723
 20
13.51231383027857
 10
-46.86294214659028
 20
13.39300486438253
 10
-46.98793414698729
 20
13.26248624327854
 10
-47.09655483698725
 20
13.12345176007852
 10
-47.18779621658677
 20
12.97572762167863
 10
-47.25948587198717
 20
12.82148624187857
 10
-47.31379621698716
 20
12.66072762067847
 10
-47.34638242398705
 20
12.49345175807843
 10
-47.35724449298731
 20
12.31748624027841
 10
-47.34638242398705
 20
12.1458655500785
 10
-47.31379621698716
 20
11.97858968747857
 10
-47.26165828578678
 20
11.81783106627858
 10
-47.19214104418688
 20
11.66358968647853
 10
-47.10030007837803
 20
11.51482278945468
 10
-46.99492062976787
 20
11.37535382349449
 10
-46.87691511215189
 20
11.24631244377463
 10
-46.74462380138675
 20
11.12700347787859
 10
-46.59250269745598
 20
11.01899106374253
 10
-46.43396862798681
 20
10.92062416687849
 10
-46.26234793778666
 20
10.83590002867856
 10
-46.07986517858671
 20
10.7642103732785
 10
-45.88563400555677
 20
10.71016071793451
 10
-45.68883069458706
 20
10.66645175227859
 10
-45.48027896978692
 20
10.64038278667863
 10
-45.26955483118718
 20
10.63169313147864
 10
-43.36652034238705
 20
10.63169313147864
 10
-44.25286517278709
 20
11.50500347907859
 10
-45.26955483118718
 20
11.50500347907859
 10
-45.33622186588172
 20
11.50875077201795
 10
-45.43716959033964
 20
11.5187331342945
 10
-45.55730407347982
 20
11.5401965826386
 10
-45.67442324626563
 20
11.57452072067849
 10
-45.7759184190013
 20
11.61544899667058
 10
-45.83205359159319
 20
11.64360347951856
 10
-45.88573828141898
 20
11.67618968651868
 10
-46.01829897149537
 20
11.77551244545452
 10
-46.09190035103893
 20
11.84555106636662
 10
-46.14696669604154
 20
11.91341727347844
 10
-46.19567221343777
 20
11.98597589439851
 10
-46.23503635149382
 20
12.06314003257444
 10
-46.26445952400035
 20
12.14456210179855
 10
-46.285158282687
 20
12.23171934345464
 10
-46.29267483443482
 20
12.32104899891044
 10
-46.29131924822377
 20
12.38335382669447
 10
-46.28531469648033
 20
12.44548486137444
 10
-46.27315786885583
 20
12.50865865467858
 10
-46.25494435155679
 20
12.5703552065986
 10
-46.21129621348745
 20
12.66906968967044
 10
-46.16976835128617
 20
12.73693589678248
 10
-46.10669014418954
 20
12.81496900047853
 10
-45.97728820382463
 20
12.94149173753226
 10
-45.91802035048703
 20
12.98154969066263
 10
-45.84172517783099
 20
13.02586693218245
 10
-45.75770490170225
 20
13.06801175990256
 10
-45.64116793581479
 20
13.1108517600386
 97
        0
 92
        7
 72
     0
 73
     1
 93
       57
 10
-40.96278792096291
 20
13.11936762213486
 10
-40.83131343778723
 20
13.1593400360548
 10
-40.69662378218708
 20
13.18645176027883
 10
-40.55324447138718
 20
13.1951414154787
 10
-39.31279619158704
 20
13.19514141547881
 10
-39.31279619158704
 20
14.02065865947884
 10
-40.54672722998702
 20
14.02065865947873
 10
-40.75745136858722
 20
14.01196900427874
 10
-40.96383067958732
 20
13.98372762487872
 10
-41.16152033538719
 20
13.94245176267873
 10
-41.35052033598685
 20
13.88814141767875
 10
-41.53517550898732
 20
13.8164517622788
 10
-41.70158240606724
 20
13.73381314132666
 10
-41.86040323415773
 20
13.63735796860669
 10
-42.01048226911689
 20
13.52786831308663
 10
-42.14504157988858
 20
13.40864624374274
 10
-42.26510654578714
 20
13.27986555367874
 10
-42.36938240818699
 20
13.14083107047872
 10
-42.45410654638681
 20
12.99527934587866
 10
-42.52579620178721
 20
12.8410379660786
 10
-42.57576171918708
 20
12.68027934487873
 10
-42.60834792618697
 20
12.5130034822788
 10
-42.61920999518724
 20
12.33921037827872
 10
-42.60834792618697
 20
12.16541727427875
 10
-42.57576171918708
 20
11.99814141167871
 10
-42.52362378798716
 20
11.83738279047861
 10
-42.45193413258721
 20
11.68096899687873
 10
-42.36503758058688
 20
11.53324485847872
 10
-42.25619095955198
 20
11.39368899596672
 10
-42.1363345453783
 20
11.2633441679668
 10
-41.99990695873793
 20
11.14203658137467
 10
-41.85234792378696
 20
11.03141727067873
 10
-41.69158930258709
 20
10.93365864967859
 10
-41.51779619858689
 20
10.84893451147877
 10
-41.33314102558688
 20
10.77507244227877
 10
-41.14196861118716
 20
10.71858968347874
 10
-40.94210654158678
 20
10.6751414074788
 10
-40.73572723058669
 20
10.65124485567867
 10
-40.52283067818689
 20
10.64255520047868
 10
-39.31279619158704
 20
10.64255520047879
 10
-39.31279619158704
 20
11.50065865147871
 10
-40.54672722998702
 20
11.50065865147871
 10
-40.68037412696276
 20
11.51099934116667
 10
-40.81263067910685
 20
11.53298416882285
 10
-40.93324309328318
 20
11.56730830686274
 10
-41.04924999020295
 20
11.61527520356685
 10
-41.15891343882731
 20
11.67618968651879
 10
-41.25597688741118
 20
11.74379520397474
 10
-41.34339481872302
 20
11.82356623871078
 10
-41.41786516378715
 20
11.90907244587879
 10
-39.31279619158704
 20
11.90907244587879
 10
-39.31279619158704
 20
12.73676210367876
 10
-41.45479619838716
 20
12.73676210367876
 10
-41.3852789567868
 20
12.83452072467867
 10
-41.29838240478739
 20
12.92358969047859
 10
-41.19723481825895
 20
12.99988486313475
 10
-41.08983067998678
 20
13.06696900127872
 97
        0
 92
        7
 72
     0
 73
     1
 93
        6
 10
-39.08252032878727
 20
14.00762417667886
 10
-39.08252032878727
 20
10.6382103728788
 10
-36.84493411478661
 20
10.63821037287891
 10
-36.84493411478707
 20
11.50500347907893
 10
-38.05931342898702
 20
11.50500347907893
 10
-38.05931342898702
 20
14.00762417667886
 97
        0
 92
        7
 72
     0
 73
     1
 93
        8
 10
-37.8268651523872
 20
14.00762417667886
 10
-37.8268651523872
 20
13.18210693267883
 10
-36.59293411398676
 20
13.18210693267895
 10
-36.59293411398676
 20
10.63169313147887
 10
-35.56755480038692
 20
10.63169313147887
 10
-35.56755480038692
 20
13.18210693267883
 10
-34.32493410678717
 20
13.18210693267895
 10
-34.32493410678717
 20
14.00762417667897
 97
        0
 75
     0
 76
     1
 47
0.0142553043587597
 98
        5
 10
-47.93962863991191
 20
13.56517450708941
 10
-45.67213142656919
 20
13.42262152208377
 10
-41.17991969436798
 20
13.47964269463159
 10
-38.45607061053625
 20
13.72198291932398
 10
-37.0442326283096
 20
13.62219578691065
450
        0
451
        0
460
0.0
461
0.0
452
        0
462
0.0
453
        0
470

  0
LWPOLYLINE
  5
4D77
330
4B80
100
AcDbEntity
  8
LW 5006-19-01
 62
     1
100
AcDbPolyline
 90
        8
 70
     1
 43
0.0
 10
-35.56755480038692
 20
13.18210693267883
 10
-35.56755480038692
 20
10.63169313147887
 10
-36.59293411398676
 20
10.63169313147887
 10
-36.59293411398676
 20
13.18210693267895
 10
-37.8268651523872
 20
13.18210693267883
 10
-37.8268651523872
 20
14.00762417667886
 10
-34.32493410678717
 20
14.00762417667897
 10
-34.32493410678717
 20
13.18210693267895
  0
LWPOLYLINE
  5
4D78
330
4B80
100
AcDbEntity
  8
LW 5006-19-01
 62
     1
100
AcDbPolyline
 90
       73
 70
     1
 43
0.0
 10
-45.26955483118718
 20
11.50500347907859
 10
-44.25286517278709
 20
11.50500347907859
 10
-43.36652034238705
 20
10.63169313147864
 10
-45.26955483118718
 20
10.63169313147853
 10
-45.48027896978692
 20
10.64038278667863
 10
-45.68883069458706
 20
10.66645175227859
 10
-45.88563400555677
 20
10.71016071793451
 10
-46.07986517858671
 20
10.7642103732785
 10
-46.26234793778666
 20
10.83590002867856
 10
-46.43396862798681
 20
10.92062416687849
 10
-46.59250269745598
 20
11.01899106374253
 10
-46.74462380138675
 20
11.12700347787859
 10
-46.87691511215189
 20
11.24631244377451
 10
-46.99492062976787
 20
11.37535382349449
 10
-47.10030007837803
 20
11.51482278945457
 10
-47.19214104418688
 20
11.66358968647853
 10
-47.26165828578678
 20
11.81783106627858
 10
-47.31379621698716
 20
11.97858968747857
 10
-47.34638242398705
 20
12.1458655500785
 10
-47.35724449298731
 20
12.31748624027853
 10
-47.34638242398705
 20
12.49345175807843
 10
-47.31379621698716
 20
12.66072762067847
 10
-47.25948587198717
 20
12.82148624187857
 10
-47.18779621658677
 20
12.97572762167851
 10
-47.09655483698725
 20
13.12345176007852
 10
-46.98793414698729
 20
13.26248624327854
 10
-46.86294214659028
 20
13.39300486438264
 10
-46.72724449098723
 20
13.51231383027857
 10
-46.57517552498712
 20
13.62093452027852
 10
-46.40961152446152
 20
13.71738969299849
 10
-46.23845138598745
 20
13.80341727947848
 10
-46.05162379918738
 20
13.87510693487854
 10
-45.85827897098716
 20
13.93158969367869
 10
-45.65384614275217
 20
13.97138831449456
 10
-45.4471279351992
 20
13.99684900423062
 10
-45.23914103798733
 20
14.00762417667852
 10
-41.80020999258704
 20
14.00762417667875
 10
-43.48165827378716
 20
12.37396899907867
 10
-41.76762378558715
 20
10.63169313147864
 10
-43.08627896218695
 20
10.63169313147864
 10
-44.85245138158688
 20
12.35007244727876
 10
-44.00520999958689
 20
13.16472762227863
 10
-45.27389965878728
 20
13.16472762227863
 10
-45.39796186607737
 20
13.15951382915853
 10
-45.52082490095062
 20
13.14143934634251
 10
-45.64116793581479
 20
13.1108517600386
 10
-45.75770490170225
 20
13.06801175990244
 10
-45.84172517783144
 20
13.02586693218257
 10
-45.91802035048703
 20
12.98154969066263
 10
-45.958262143718
 20
12.95435106988657
 10
-45.99577538521635
 20
12.92341589737452
 10
-46.10669014418954
 20
12.81496900047853
 10
-46.16976835128617
 20
12.73693589678248
 10
-46.211296213487
 20
12.66906968967055
 10
-46.25494435155679
 20
12.5703552065986
 10
-46.27315786885583
 20
12.50865865467858
 10
-46.28531469648033
 20
12.44548486137455
 10
-46.29131924822377
 20
12.38335382669459
 10
-46.29267483443482
 20
12.32104899891055
 10
-46.285158282687
 20
12.23171934345464
 10
-46.26445952400035
 20
12.14456210179855
 10
-46.23503635149336
 20
12.06314003257455
 10
-46.19567221343777
 20
11.98597589439851
 10
-46.14696669604154
 20
11.91341727347856
 10
-46.09190035103893
 20
11.84555106636662
 10
-46.01829897149537
 20
11.77551244545452
 10
-45.88573828141898
 20
11.67618968651868
 10
-45.83205359159319
 20
11.64360347951856
 10
-45.7759184190013
 20
11.61544899667058
 10
-45.67442324626563
 20
11.57452072067849
 10
-45.55730407347982
 20
11.5401965826386
 10
-45.43716959033964
 20
11.5187331342945
 10
-45.33622186588172
 20
11.50875077201795
  0
LWPOLYLINE
  5
4D79
330
4B80
100
AcDbEntity
  8
LW 5006-19-01
 62
     1
100
AcDbPolyline
 90
       76
 70
     1
 43
0.0
 10
-46.4797180812534
 20
13.84675418464951
 10
-46.65510503461791
 20
13.74457630282779
 10
-46.81877383070013
 20
13.6276700199121
 10
-46.96479373716146
 20
13.49928545819875
 10
-47.09927181237389
 20
13.35886132793621
 10
-47.21742993660564
 20
13.20761892892028
 10
-47.24928876597823
 20
13.15603796707853
 10
-48.339175530587
 20
13.15603796707853
 10
-48.4825548413869
 20
13.14952072567848
 10
-48.61941691078709
 20
13.12996900147846
 10
-48.74186284221059
 20
13.09790417379042
 10
-48.86055484258713
 20
13.05393451847851
 10
-48.96315360153358
 20
12.99562693208645
 10
-49.05824449838701
 20
12.92576210427842
 10
-49.14079622278723
 20
12.84321037987843
 10
-49.21031346438713
 20
12.74762417267846
 10
-47.4396749467678
 20
12.74762417267846
 10
-47.45627364944266
 20
12.6984920127602
 10
-47.49257937111815
 20
12.51212264149353
 10
-47.5046010435476
 20
12.31737154813868
 10
-47.49255739076533
 20
12.12708183418795
 10
-47.45644558280083
 20
11.94170788663689
 10
-47.44586111552826
 20
11.90907244587856
 10
-49.17338242978667
 20
11.90907244587845
 10
-49.10169277438718
 20
11.8243483076784
 10
-49.01151153272121
 20
11.74640210053439
 10
-48.91336187723709
 20
11.67879658307845
 10
-48.80841691138676
 20
11.62231382427853
 10
-48.6932789799871
 20
11.57669313447854
 10
-48.56510656578712
 20
11.54375934127051
 10
-48.43435332399258
 20
11.52342554810252
 10
-48.30224449598699
 20
11.51586554807841
 10
-47.27378142906673
 20
11.51586554807852
 10
-47.22181019761819
 20
11.43168090597419
 10
-47.10810484287458
 20
11.28119266126168
 10
-46.98066894939029
 20
11.14183897803309
 10
-46.83675658101992
 20
11.0120493814934
 10
-46.67392368625951
 20
10.89643114306773
 10
-46.50545728008956
 20
10.79190145013626
 10
-46.32189313628669
 20
10.70128117661352
 10
-46.16134927223447
 20
10.63821037287857
 10
-48.28052035798691
 20
10.63821037287834
 10
-48.49124449658711
 20
10.64690002807845
 10
-48.6997962213868
 20
10.67296899367852
 10
-48.89965829098719
 20
10.71641726967846
 10
-49.09083070538691
 20
10.77290002847837
 10
-49.27147994734013
 20
10.84658830457442
 10
-49.44710656858706
 20
10.93148623587854
 10
-49.60786518978693
 20
11.02924485687845
 10
-49.7552095902547
 20
11.13969037447043
 10
-49.89140863896273
 20
11.26082416795839
 10
-50.01410657038696
 20
11.39203796147842
 10
-50.12055484658731
 20
11.53324485847838
 10
-50.20962381238724
 20
11.68096899687839
 10
-50.27914105398713
 20
11.83738279047839
 10
-50.33345139898711
 20
11.99814141167837
 10
-50.36386519218694
 20
12.16541727427852
 10
-50.37472726118676
 20
12.33921037827838
 10
-50.36603760598746
 20
12.51300348227835
 10
-50.33779622658721
 20
12.67810693107844
 10
-50.28783070918734
 20
12.83886555227832
 10
-50.22483070898715
 20
12.99310693207837
 10
-50.14227898458694
 20
13.13865865667844
 10
-50.04226105323505
 20
13.27586831228643
 10
-49.93099610115769
 20
13.40412762303845
 10
-49.80555484558727
 20
13.52317589927838
 10
-49.66284724513434
 20
13.6298848651345
 10
-49.51227898258685
 20
13.72521038267848
 10
-49.34500311998681
 20
13.80776210707836
 10
-49.16903760218701
 20
13.87727934867848
 10
-48.984382429187
 20
13.93158969367846
 10
-48.78886518718719
 20
13.97286555587857
 10
-48.5868307037872
 20
13.99893452147853
 10
-48.37393415138695
 20
14.00762417667852
 10
-46.11679621318717
 20
14.00762417667863
 10
-46.29796514865256
 20
13.9381058642324
  0
LWPOLYLINE
  5
4D7A
330
4B80
100
AcDbEntity
  8
LW 5006-19-01
 62
     1
100
AcDbPolyline
 90
        6
 70
     1
 43
0.0
 10
-36.84493411478661
 20
10.63821037287891
 10
-39.08252032878727
 20
10.6382103728788
 10
-39.08252032878727
 20
14.00762417667886
 10
-38.05931342898702
 20
14.00762417667886
 10
-38.05931342898702
 20
11.50500347907893
 10
-36.84493411478707
 20
11.50500347907893
  0
LWPOLYLINE
  5
4D7B
330
4B80
100
AcDbEntity
  8
LW 5006-19-01
 62
     1
100
AcDbPolyline
 90
       57
 70
     1
 43
0.0
 10
-42.1363345453783
 20
11.2633441679668
 10
-42.25619095955198
 20
11.39368899596661
 10
-42.36503758058688
 20
11.53324485847861
 10
-42.45193413258721
 20
11.68096899687873
 10
-42.52362378798716
 20
11.83738279047861
 10
-42.57576171918708
 20
11.99814141167871
 10
-42.60834792618697
 20
12.16541727427875
 10
-42.61920999518724
 20
12.33921037827872
 10
-42.60834792618697
 20
12.51300348227869
 10
-42.57576171918708
 20
12.68027934487873
 10
-42.52579620178721
 20
12.8410379660786
 10
-42.45410654638681
 20
12.99527934587877
 10
-42.36938240818699
 20
13.14083107047861
 10
-42.26510654578714
 20
13.27986555367874
 10
-42.14504157988858
 20
13.40864624374262
 10
-42.01048226911689
 20
13.52786831308663
 10
-41.86040323415773
 20
13.63735796860669
 10
-41.70158240606679
 20
13.73381314132678
 10
-41.53517550898732
 20
13.8164517622788
 10
-41.35052033598685
 20
13.88814141767875
 10
-41.16152033538719
 20
13.94245176267873
 10
-40.96383067958732
 20
13.98372762487872
 10
-40.75745136858722
 20
14.01196900427874
 10
-40.54672722998702
 20
14.02065865947873
 10
-39.31279619158704
 20
14.02065865947884
 10
-39.31279619158704
 20
13.19514141547881
 10
-40.55324447138673
 20
13.1951414154787
 10
-40.69662378218708
 20
13.18645176027871
 10
-40.83131343778723
 20
13.1593400360548
 10
-40.96278792096336
 20
13.11936762213474
 10
-41.08983067998678
 20
13.06696900127872
 10
-41.19723481825895
 20
12.99988486313475
 10
-41.29838240478739
 20
12.92358969047882
 10
-41.3852789567868
 20
12.83452072467867
 10
-41.45479619838716
 20
12.73676210367876
 10
-39.31279619158704
 20
12.73676210367876
 10
-39.31279619158704
 20
11.90907244587879
 10
-41.41786516378715
 20
11.90907244587879
 10
-41.34339481872302
 20
11.82356623871078
 10
-41.25597688741118
 20
11.74379520397474
 10
-41.15891343882731
 20
11.67618968651879
 10
-41.04924999020295
 20
11.61527520356685
 10
-40.93324309328318
 20
11.56730830686274
 10
-40.81263067910685
 20
11.53298416882285
 10
-40.68037412696276
 20
11.51099934116667
 10
-40.54672722998702
 20
11.50065865147871
 10
-39.31279619158704
 20
11.50065865147871
 10
-39.31279619158704
 20
10.64255520047879
 10
-40.52283067818689
 20
10.64255520047868
 10
-40.73572723058669
 20
10.65124485567867
 10
-40.94210654158678
 20
10.6751414074788
 10
-41.14196861118716
 20
10.71858968347874
 10
-41.33314102558688
 20
10.77507244227877
 10
-41.51779619858689
 20
10.84893451147877
 10
-41.69158930258709
 20
10.93365864967882
 10
-41.85234792378696
 20
11.03141727067873
 10
-41.99990695873793
 20
11.14203658137467
  0
INSERT
  5
4D7C
330
4B80
100
AcDbEntity
  8
LW 5006-19-01
100
AcDbBlockReference
 66
     1
  2
insertpoint-ECKELT
 10
-0.000000000035925
 20
0.0
 30
0.0
  0
ATTRIB
  5
4D7D
330
4D7C
100
AcDbEntity
  8
insertpoint_ECKELT
100
AcDbText
 10
-6.931514324728785
 20
0.0
 30
0.0
 40
0.6
  1
LW 5006/19-01
 72
     2
 11
-1.200000000035743
 21
0.0
 31
0.0
100
AcDbAttribute
  2
LINKS
 70
     0
  0
ATTRIB
  5
4D7E
330
4D7C
100
AcDbEntity
  8
insertpoint_ECKELT
100
AcDbText
 10
1.199999999963893
 20
0.0
 30
0.0
 40
0.6
  1

100
AcDbAttribute
  2
RECHTS
 70
     0
  0
SEQEND
  5
4D7F
330
4D7C
100
AcDbEntity
  8
LW 5006-19-01
  0
ENDBLK
  5
4B82
330
4B80
100
AcDbEntity
  8
0
100
AcDbBlockEnd
  0
BLOCK
  5
4D82
330
4D81
100
AcDbEntity
  8
0
100
AcDbBlockBegin
  2
LW 5006-19-01_d
 70
     0
 10
0.0
 20
0.0
 30
0.0
  3
LW 5006-19-01_d
  1

  0
LINE
  5
4D84
330
4D81
100
AcDbEntity
  8
LW 5006-19-01
  6
VERDECKT
 62
     6
100
AcDbLine
 10
-7.334936490575273
 20
17.70448267190204
 30
0.0
 11
-11.66506350949703
 21
15.2044826719009
 31
0.0
  0
LINE
  5
4D85
330
4D81
100
AcDbEntity
  8
LW 5006-19-01
  6
VERDECKT
 62
     6
100
AcDbLine
 10
-11.66506350948793
 20
-15.20448267190795
 30
0.0
 11
-7.334936490564814
 21
-17.70448267190659
 31
0.0
  0
LINE
  5
4D86
330
4D81
100
AcDbEntity
  8
LW 5006-19-01
  6
VERDECKT
 62
     6
100
AcDbLine
 10
-8.748924226251347
 20
15.1535812713729
 30
0.0
 11
-7.334936490575273
 21
17.70448267190204
 31
0.0
  0
LINE
  5
4D87
330
4D81
100
AcDbEntity
  8
LW 5006-19-01
  6
VERDECKT
 62
     6
100
AcDbLine
 10
-8.748924226251347
 20
15.1535812713729
 30
0.0
 11
-11.66506350949703
 21
15.2044826719009
 31
0.0
  0
LINE
  5
4D88
330
4D81
100
AcDbEntity
  8
LW 5006-19-01
  6
VERDECKT
 62
     6
100
AcDbLine
 10
-14.60240647333103
 20
20.29210992451317
 30
0.0
 11
-11.66506350949703
 21
15.20448267190068
 31
0.0
  0
LINE
  5
4D89
330
4D81
100
AcDbEntity
  8
LW 5006-19-01
  6
VERDECKT
 62
     6
100
AcDbLine
 10
-10.27227945440972
 20
22.79210992451453
 30
0.0
 11
-7.334936490575273
 21
17.70448267190204
 31
0.0
  0
LINE
  5
4D8A
330
4D81
100
AcDbEntity
  8
LW 5006-19-01
  6
VERDECKT
 62
     6
100
AcDbLine
 10
-8.748924226242252
 20
-15.15358127137824
 30
0.0
 11
-11.66506350948793
 21
-15.20448267190795
 31
0.0
  0
LINE
  5
4D8B
330
4D81
100
AcDbEntity
  8
LW 5006-19-01
  6
VERDECKT
 62
     6
100
AcDbLine
 10
-8.748924226242252
 20
-15.15358127137824
 30
0.0
 11
-7.334936490564814
 21
-17.70448267190659
 31
0.0
  0
LINE
  5
4D8C
330
4D81
100
AcDbEntity
  8
LW 5006-19-01
  6
VERDECKT
 62
     6
100
AcDbLine
 10
-10.27227945439608
 20
-22.79210992452068
 30
0.0
 11
-7.334936490564814
 21
-17.70448267190659
 31
0.0
  0
LINE
  5
4D8D
330
4D81
100
AcDbEntity
  8
LW 5006-19-01
  6
VERDECKT
 62
     6
100
AcDbLine
 10
-14.6024064733192
 20
-20.29210992452204
 30
0.0
 11
-11.66506350948793
 21
-15.20448267190795
 31
0.0
  0
LINE
  5
4D8E
330
4D81
100
AcDbEntity
  8
LW 5006-19-01
  6
VERDECKT
 62
     6
100
AcDbLine
 10
18.99999999996953
 20
-2.499999999994543
 30
0.0
 11
18.99999999996817
 21
2.500000000005456
 31
0.0
  0
LINE
  5
4D8F
330
4D81
100
AcDbEntity
  8
LW 5006-19-01
  6
VERDECKT
 62
     6
100
AcDbLine
 10
17.49784845239992
 20
0.0000000000051159
 30
0.0
 11
18.99999999996953
 21
-2.499999999994543
 31
0.0
  0
LINE
  5
4D90
330
4D81
100
AcDbEntity
  8
LW 5006-19-01
  6
VERDECKT
 62
     6
100
AcDbLine
 10
17.49784845239992
 20
0.0000000000051159
 30
0.0
 11
18.99999999996817
 21
2.500000000005456
 31
0.0
  0
LINE
  5
4D91
330
4D81
100
AcDbEntity
  8
LW 5006-19-01
  6
VERDECKT
 62
     6
100
AcDbLine
 10
24.87468592763344
 20
2.500000000007275
 30
0.0
 11
18.99999999996817
 21
2.500000000005456
 31
0.0
  0
LINE
  5
4D92
330
4D81
100
AcDbEntity
  8
LW 5006-19-01
  6
VERDECKT
 62
     6
100
AcDbLine
 10
24.8746859276348
 20
-2.499999999992724
 30
0.0
 11
18.99999999996953
 21
-2.499999999994543
 31
0.0
  0
LINE
  5
4D93
330
4D81
100
AcDbEntity
  8
LW 5006-19-01
  6
MITTE2
 62
     3
100
AcDbLine
 10
-14.93734296387174
 20
25.87223694343527
 30
0.0
 11
-7.000000000035015
 21
12.12435565298006
 31
0.0
  0
LINE
  5
4D94
330
4D81
100
AcDbEntity
  8
LW 5006-19-01
  6
MITTE2
 62
     3
100
AcDbLine
 10
-14.93734296385628
 20
-25.87223694344425
 30
0.0
 11
-7.000000000027739
 21
-12.12435565298426
 31
0.0
  0
LINE
  5
4D95
330
4D81
100
AcDbEntity
  8
LW 5006-19-01
  6
MITTE2
 62
     3
100
AcDbLine
 10
37.10268893529315
 20
0.0000000000173941
 30
0.0
 11
-37.10268893529315
 21
-0.0000000000173941
 31
0.0
  0
LINE
  5
4D96
330
4D81
100
AcDbEntity
  8
LW 5006-19-01
  6
MITTE2
 62
     3
100
AcDbLine
 10
-0.0000000000065938
 20
22.6209724824912
 30
0.0
 11
0.0000000000065938
 21
-22.6209724824912
 31
0.0
  0
HATCH
  5
4D97
330
4D81
100
AcDbEntity
  8
LW 5006-19-01
 62
     1
100
AcDbHatch
 10
0.0
 20
0.0
 30
0.0
210
0.0
220
0.0
230
1.0
  2
SOLID
 70
     1
 71
     0
 91
        5
 92
        7
 72
     0
 73
     1
 93
       76
 10
-5.057173424229176
 20
8.051816195540595
 10
-5.025314594856581
 20
8.103397157382346
 10
-4.90715647062484
 20
8.254639556398274
 10
-4.772678395412413
 20
8.395063686660819
 10
-4.626658488951079
 20
8.523448248374165
 10
-4.462989692868859
 20
8.640354531289972
 10
-4.287602739504336
 20
8.742532413111575
 10
-4.105849806903506
 20
8.833884092694461
 10
-3.924680871438113
 20
8.903402405140582
 10
-6.181818809637888
 20
8.903402405140582
 10
-6.394715362038141
 20
8.894712749940595
 10
-6.596749845438125
 20
8.868643784340633
 10
-6.792267087437949
 20
8.827367922140524
 10
-6.976922260437959
 20
8.773057577140548
 10
-7.152887778238209
 20
8.703540335540537
 10
-7.32016364083779
 20
8.620988611140433
 10
-7.470731903385285
 20
8.525663093596563
 10
-7.613439503838208
 20
8.418954127740448
 10
-7.73888075940863
 20
8.299905851500398
 10
-7.850145711485993
 20
8.171646540748497
 10
-7.950163642837878
 20
8.034436885140507
 10
-8.032715367238097
 20
7.888885160540439
 10
-8.095715367438288
 20
7.734643780740384
 10
-8.145680884838156
 20
7.573885159540509
 10
-8.173922264237944
 20
7.408781710740527
 10
-8.182611919437704
 20
7.234988606740557
 10
-8.17174985043789
 20
7.061195502740361
 10
-8.141336057238049
 20
6.893919640140438
 10
-8.087025712238073
 20
6.73316101894045
 10
-8.017508470638176
 20
6.576747225340454
 10
-7.928439504837797
 20
6.429023086940446
 10
-7.821991228637898
 20
6.287816189940599
 10
-7.699293297213671
 20
6.156602396420453
 10
-7.563094248505649
 20
6.03546860293261
 10
-7.415749848037876
 20
5.925023085340512
 10
-7.254991226838001
 20
5.827264464340601
 10
-7.079364605590626
 20
5.742366533036488
 10
-6.898715363638302
 20
5.668678256940552
 10
-6.707542949238131
 20
5.612195498140522
 10
-6.507680879637746
 20
5.568747222140586
 10
-6.299129154838055
 20
5.542678256540511
 10
-6.088405016237857
 20
5.533988601340524
 10
-3.969233930485415
 20
5.533988601340638
 10
-4.129777794537631
 20
5.597059405075583
 10
-4.313341938340499
 20
5.687679678598328
 10
-4.481808344510454
 20
5.792209371529793
 10
-4.644641239270868
 20
5.907827609955234
 10
-4.788553607641233
 20
6.037617206495156
 10
-4.915989501125523
 20
6.176970889723747
 10
-5.029694855869138
 20
6.327459134436253
 10
-5.081666087317671
 20
6.411643776540586
 10
-6.110129154237938
 20
6.411643776540472
 10
-6.242237982243523
 20
6.419203776564586
 10
-6.372991224038059
 20
6.439537569732578
 10
-6.50116363823804
 20
6.472471362940495
 10
-6.616301569637698
 20
6.518092052740598
 10
-6.721246535488035
 20
6.574574811540514
 10
-6.819396190972156
 20
6.64218032899646
 10
-6.909577432638116
 20
6.720126536140469
 10
-6.981267088037611
 20
6.804850674340514
 10
-5.253745773779201
 20
6.804850674340627
 10
-5.264330241052221
 20
6.83748611509884
 10
-5.300442049016282
 20
7.022860062650011
 10
-5.31248570179855
 20
7.213149776600744
 10
-5.30046402936864
 20
7.407900869955824
 10
-5.264158307693605
 20
7.594270241222261
 10
-5.24755960501875
 20
7.643402401140519
 10
-7.018198122638068
 20
7.643402401140519
 10
-6.948680881038171
 20
7.738988608340491
 10
-6.866129156637953
 20
7.821540332740482
 10
-6.771038259784518
 20
7.891405160548515
 10
-6.668439500838076
 20
7.949712746940576
 10
-6.549747500461535
 20
7.993682402252488
 10
-6.427301569038036
 20
8.02574722994052
 10
-6.290439499637841
 20
8.045298954140548
 10
-6.14706018883794
 20
8.051816195540482
 97
        0
 92
        7
 72
     0
 73
     1
 93
       72
 10
-3.32870955920157
 20
8.037217574804571
 10
-3.205846524328308
 20
8.05529205762059
 10
-3.081784317038227
 20
8.060505850740696
 10
-1.813094657837837
 20
8.060505850740696
 10
-2.660336039837829
 20
7.245850675740825
 10
-0.8941636204378937
 20
5.527471359940705
 10
0.424491556161911
 20
5.527471359940705
 10
-1.289542932038102
 20
7.269747227540733
 10
0.3919053491620161
 20
8.903402405140809
 10
-3.047025696238279
 20
8.903402405140582
 10
-3.255012593450146
 20
8.892627232692689
 10
-3.461730801003113
 20
8.867166542956624
 10
-3.666163629238099
 20
8.827367922140638
 10
-3.859508457438323
 20
8.770885163340608
 10
-4.046336044238387
 20
8.699195507940544
 10
-4.217496182712466
 20
8.613167921460558
 10
-4.383060183238058
 20
8.516712748740587
 10
-4.535129149238173
 20
8.408092058740635
 10
-4.670826804841226
 20
8.288783092844596
 10
-4.795818805238241
 20
8.158264471740608
 10
-4.904439495238193
 20
8.019229988540587
 10
-4.995680874837717
 20
7.871505850140692
 10
-5.067370530238122
 20
7.717264470340637
 10
-5.121680875238098
 20
7.556505849140535
 10
-5.154267082237993
 20
7.389229986540499
 10
-5.165129151238261
 20
7.213264468740476
 10
-5.154267082237993
 20
7.04164377854056
 10
-5.121680875238098
 20
6.874367915940638
 10
-5.069542944037721
 20
6.713609294740649
 10
-5.000025702437824
 20
6.559367914940594
 10
-4.908184736628982
 20
6.410601017916746
 10
-4.802805288018817
 20
6.271132051956556
 10
-4.684799770402833
 20
6.14209067223669
 10
-4.552508459637692
 20
6.022781706340651
 10
-4.400387355706925
 20
5.914769292204596
 10
-4.241853286237756
 20
5.81640239534056
 10
-4.070232596037612
 20
5.731678257140629
 10
-3.887749836837656
 20
5.659988601740565
 10
-3.693518663807708
 20
5.605938946396577
 10
-3.496715352838009
 20
5.562229980740653
 10
-3.288163628037864
 20
5.536161015140692
 10
-3.07743948943812
 20
5.527471359940705
 10
-1.174405000637989
 20
5.527471359940705
 10
-2.060749831038037
 20
6.400781707540659
 10
-3.07743948943812
 20
6.400781707540659
 10
-3.144106524132666
 20
6.40452900048001
 10
-3.245054248590577
 20
6.41451136275657
 10
-3.365188731730768
 20
6.435974811100663
 10
-3.482307904516574
 20
6.470298949140556
 10
-3.583803077252241
 20
6.511227225132643
 10
-3.639938249844135
 20
6.539381707980624
 10
-3.693622939669921
 20
6.571967914980746
 10
-3.82618362974631
 20
6.671290673916587
 10
-3.899785009289871
 20
6.741329294828688
 10
-3.954851354292486
 20
6.809195501940507
 10
-4.003556871688715
 20
6.88175412286057
 10
-4.042921009744759
 20
6.958918261036501
 10
-4.072344182251299
 20
7.040340330260619
 10
-4.093042940937948
 20
7.127497571916705
 10
-4.100559492685761
 20
7.216827227372505
 10
-4.099203906474713
 20
7.279132055156537
 10
-4.093199354731268
 20
7.341263089836502
 10
-4.081042527106774
 20
7.404436883140647
 10
-4.062829009807728
 20
7.466133435060669
 10
-4.019180871738399
 20
7.5648479181325
 10
-3.977653009537107
 20
7.632714125244547
 10
-3.914574802440483
 20
7.71074722894059
 10
-3.785172862075569
 20
7.837269965994323
 10
-3.725905008737981
 20
7.877327919124695
 10
-3.649609836081936
 20
7.921645160644516
 10
-3.565589559953195
 20
7.963789988364624
 10
-3.449052594065733
 20
8.006629988500662
 97
        0
 92
        7
 72
     0
 73
     1
 93
       57
 10
1.229327420786148
 20
8.015145850596923
 10
1.360801903961828
 20
8.055118264516863
 10
1.495491559561969
 20
8.082229988740891
 10
1.63887087036187
 20
8.090919643940765
 10
2.879319150162018
 20
8.090919643940878
 10
2.879319150162018
 20
8.916436887940903
 10
1.645388111762031
 20
8.91643688794079
 10
1.434663973161832
 20
8.907747232740803
 10
1.22828466216174
 20
8.879505853340788
 10
1.030595006361863
 20
8.838229991140792
 10
0.8415950057622012
 20
8.783919646140816
 10
0.6569398327617364
 20
8.712229990740866
 10
0.4905329356818129
 20
8.629591369788727
 10
0.3317121075913292
 20
8.533136197068756
 10
0.1816330726321667
 20
8.423646541548691
 10
0.0470737618604744
 20
8.3044244722048
 10
-0.0729912040380896
 20
8.175643782140809
 10
-0.1772670664379348
 20
8.036609298940788
 10
-0.2619912046377522
 20
7.89105757434072
 10
-0.3336808600381573
 20
7.736816194540665
 10
-0.3836463774380263
 20
7.57605757334079
 10
-0.4162325844379211
 20
7.408781710740868
 10
-0.4270946534381892
 20
7.234988606740785
 10
-0.4162325844379211
 20
7.061195502740815
 10
-0.3836463774380263
 20
6.893919640140779
 10
-0.3315084462381037
 20
6.733161018940677
 10
-0.2598187908381533
 20
6.576747225340795
 10
-0.1729222388378275
 20
6.429023086940787
 10
-0.0640756178029278
 20
6.28946722442879
 10
0.0557807963707546
 20
6.15912239642887
 10
0.1922083830111205
 20
6.037814809836731
 10
0.3397674179620935
 20
5.927195499140793
 10
0.5005260391619686
 20
5.829436878140654
 10
0.6743191431621654
 20
5.744712739940837
 10
0.8589743161621754
 20
5.670850670740833
 10
1.050146730561891
 20
5.614367911940803
 10
1.250008800162277
 20
5.570919635940867
 10
1.456388111162368
 20
5.547023084140732
 10
1.669284663562166
 20
5.538333428940745
 10
2.879319150162018
 20
5.538333428940859
 10
2.879319150162018
 20
6.396436879940779
 10
1.645388111762031
 20
6.396436879940779
 10
1.511741214786297
 20
6.406777569628729
 10
1.379484662642198
 20
6.428762397284913
 10
1.258872248465877
 20
6.463086535324805
 10
1.142865351546106
 20
6.511053432028916
 10
1.033201902921746
 20
6.571967914980859
 10
0.936138454337879
 20
6.639573432436804
 10
0.8487205230260315
 20
6.719344467172845
 10
0.7742501779619034
 20
6.804850674340855
 10
2.879319150162018
 20
6.804850674340855
 10
2.879319150162018
 20
7.63254033214082
 10
0.7373191433619013
 20
7.63254033214082
 10
0.8068363849622528
 20
7.730298953140732
 10
0.8937329369616691
 20
7.819367918940656
 10
0.9948805234901101
 20
7.895663091596816
 10
1.102284661762269
 20
7.962747229740784
 97
        0
 92
        7
 72
     0
 73
     1
 93
        6
 10
3.10959501296179
 20
8.903402405140923
 10
3.10959501296179
 20
5.533988601340865
 10
5.347181226962447
 20
5.533988601340979
 10
5.347181226961993
 20
6.400781707541
 10
4.132801912762033
 20
6.400781707541
 10
4.132801912762033
 20
8.903402405140923
 97
        0
 92
        7
 72
     0
 73
     1
 93
        8
 10
4.365250189361859
 20
8.903402405140923
 10
4.365250189361859
 20
8.077885161140898
 10
5.599181227762301
 20
8.077885161141011
 10
5.599181227762301
 20
5.527471359940932
 10
6.624560541362143
 20
5.527471359940932
 10
6.624560541362143
 20
8.077885161140898
 10
7.86718123496189
 20
8.077885161141011
 10
7.86718123496189
 20
8.903402405141036
 97
        0
 75
     0
 76
     1
 47
0.0142553043587597
 98
        5
 10
-5.747513298162857
 20
8.460952735551472
 10
-3.480016084820135
 20
8.318399750545836
 10
1.012195647381076
 20
8.375420923093656
 10
3.736044731212814
 20
8.61776114778604
 10
5.147882713439457
 20
8.517974015372715
450
        0
451
        0
460
0.0
461
0.0
452
        0
462
0.0
453
        0
470

  0
LWPOLYLINE
  5
4D98
330
4D81
100
AcDbEntity
  8
LW 5006-19-01
 62
     1
100
AcDbPolyline
 90
        8
 70
     1
 43
0.0
 10
6.624560541362143
 20
8.077885161140898
 10
6.624560541362143
 20
5.527471359940932
 10
5.599181227762301
 20
5.527471359940932
 10
5.599181227762301
 20
8.077885161141011
 10
4.365250189361859
 20
8.077885161140898
 10
4.365250189361859
 20
8.903402405140923
 10
7.86718123496189
 20
8.903402405141036
 10
7.86718123496189
 20
8.077885161141011
  0
LWPOLYLINE
  5
4D99
330
4D81
100
AcDbEntity
  8
LW 5006-19-01
 62
     1
100
AcDbPolyline
 90
       73
 70
     1
 43
0.0
 10
-3.07743948943812
 20
6.400781707540659
 10
-2.060749831038037
 20
6.400781707540659
 10
-1.174405000637989
 20
5.527471359940705
 10
-3.07743948943812
 20
5.527471359940591
 10
-3.288163628037864
 20
5.536161015140692
 10
-3.496715352838009
 20
5.562229980740653
 10
-3.693518663807708
 20
5.605938946396577
 10
-3.887749836837656
 20
5.659988601740565
 10
-4.070232596037612
 20
5.731678257140629
 10
-4.241853286237756
 20
5.81640239534056
 10
-4.400387355706925
 20
5.914769292204596
 10
-4.552508459637692
 20
6.022781706340651
 10
-4.684799770402833
 20
6.142090672236577
 10
-4.802805288018817
 20
6.271132051956556
 10
-4.908184736628982
 20
6.410601017916633
 10
-5.000025702437824
 20
6.559367914940594
 10
-5.069542944037721
 20
6.713609294740649
 10
-5.121680875238098
 20
6.874367915940638
 10
-5.154267082237993
 20
7.04164377854056
 10
-5.165129151238261
 20
7.21326446874059
 10
-5.154267082237993
 20
7.389229986540499
 10
-5.121680875238098
 20
7.556505849140535
 10
-5.067370530238122
 20
7.717264470340637
 10
-4.995680874837717
 20
7.871505850140579
 10
-4.904439495238193
 20
8.019229988540587
 10
-4.795818805238241
 20
8.158264471740608
 10
-4.670826804841226
 20
8.28878309284471
 10
-4.535129149238173
 20
8.408092058740635
 10
-4.383060183238058
 20
8.516712748740587
 10
-4.217496182712466
 20
8.613167921460558
 10
-4.046336044238387
 20
8.699195507940544
 10
-3.859508457438323
 20
8.770885163340608
 10
-3.666163629238099
 20
8.827367922140751
 10
-3.461730801003113
 20
8.867166542956624
 10
-3.255012593450146
 20
8.892627232692689
 10
-3.047025696238279
 20
8.903402405140582
 10
0.3919053491620161
 20
8.903402405140809
 10
-1.289542932038102
 20
7.269747227540733
 10
0.424491556161911
 20
5.527471359940705
 10
-0.8941636204378937
 20
5.527471359940705
 10
-2.660336039837829
 20
7.245850675740825
 10
-1.813094657837837
 20
8.060505850740696
 10
-3.081784317038227
 20
8.060505850740696
 10
-3.205846524328308
 20
8.05529205762059
 10
-3.32870955920157
 20
8.037217574804571
 10
-3.449052594065733
 20
8.006629988500662
 10
-3.565589559953195
 20
7.96378998836451
 10
-3.64960983608239
 20
7.921645160644629
 10
-3.725905008737981
 20
7.877327919124695
 10
-3.766146801968943
 20
7.850129298348633
 10
-3.803660043467289
 20
7.819194125836588
 10
-3.914574802440483
 20
7.71074722894059
 10
-3.977653009537107
 20
7.632714125244547
 10
-4.019180871737944
 20
7.564847918132613
 10
-4.062829009807728
 20
7.466133435060669
 10
-4.081042527106774
 20
7.404436883140647
 10
-4.093199354731268
 20
7.341263089836616
 10
-4.099203906474713
 20
7.279132055156651
 10
-4.100559492685761
 20
7.216827227372618
 10
-4.093042940937948
 20
7.127497571916705
 10
-4.072344182251299
 20
7.040340330260619
 10
-4.042921009744304
 20
6.958918261036615
 10
-4.003556871688715
 20
6.88175412286057
 10
-3.954851354292486
 20
6.809195501940621
 10
-3.899785009289871
 20
6.741329294828688
 10
-3.82618362974631
 20
6.671290673916587
 10
-3.693622939669921
 20
6.571967914980746
 10
-3.639938249844135
 20
6.539381707980624
 10
-3.583803077252241
 20
6.511227225132643
 10
-3.482307904516574
 20
6.470298949140556
 10
-3.365188731730768
 20
6.435974811100663
 10
-3.245054248590577
 20
6.41451136275657
 10
-3.144106524132666
 20
6.40452900048001
  0
LWPOLYLINE
  5
4D9A
330
4D81
100
AcDbEntity
  8
LW 5006-19-01
 62
     1
100
AcDbPolyline
 90
       76
 70
     1
 43
0.0
 10
-4.287602739504336
 20
8.742532413111575
 10
-4.462989692868859
 20
8.640354531289858
 10
-4.626658488951079
 20
8.523448248374165
 10
-4.772678395412413
 20
8.395063686660819
 10
-4.90715647062484
 20
8.254639556398274
 10
-5.025314594856581
 20
8.103397157382346
 10
-5.057173424229176
 20
8.051816195540595
 10
-6.14706018883794
 20
8.051816195540595
 10
-6.290439499637841
 20
8.045298954140548
 10
-6.427301569038036
 20
8.02574722994052
 10
-6.549747500461535
 20
7.993682402252488
 10
-6.668439500838076
 20
7.949712746940576
 10
-6.771038259784518
 20
7.891405160548515
 10
-6.866129156637953
 20
7.821540332740482
 10
-6.948680881038171
 20
7.738988608340491
 10
-7.018198122638068
 20
7.643402401140519
 10
-5.24755960501875
 20
7.643402401140519
 10
-5.264158307693605
 20
7.594270241222261
 10
-5.300464029369095
 20
7.407900869955597
 10
-5.31248570179855
 20
7.213149776600744
 10
-5.300442049016282
 20
7.022860062650011
 10
-5.264330241051766
 20
6.837486115098954
 10
-5.253745773779201
 20
6.804850674340627
 10
-6.981267088037611
 20
6.804850674340514
 10
-6.909577432638116
 20
6.720126536140469
 10
-6.819396190972156
 20
6.64218032899646
 10
-6.721246535488035
 20
6.574574811540514
 10
-6.616301569637698
 20
6.518092052740598
 10
-6.50116363823804
 20
6.472471362940609
 10
-6.372991224038059
 20
6.439537569732578
 10
-6.242237982243523
 20
6.419203776564586
 10
-6.110129154237938
 20
6.411643776540472
 10
-5.081666087317671
 20
6.411643776540586
 10
-5.029694855869138
 20
6.327459134436253
 10
-4.915989501125523
 20
6.176970889723747
 10
-4.788553607641233
 20
6.037617206495156
 10
-4.644641239270868
 20
5.907827609955461
 10
-4.481808344510454
 20
5.792209371529793
 10
-4.313341938340499
 20
5.687679678598328
 10
-4.129777794537631
 20
5.597059405075583
 10
-3.969233930485415
 20
5.533988601340638
 10
-6.088405016237857
 20
5.533988601340411
 10
-6.299129154838055
 20
5.542678256540511
 10
-6.507680879637746
 20
5.568747222140586
 10
-6.707542949238131
 20
5.612195498140522
 10
-6.898715363637847
 20
5.668678256940438
 10
-7.079364605591081
 20
5.742366533036488
 10
-7.254991226838001
 20
5.827264464340601
 10
-7.415749848037876
 20
5.925023085340512
 10
-7.563094248505649
 20
6.035468602932496
 10
-7.699293297213671
 20
6.156602396420453
 10
-7.821991228637898
 20
6.287816189940485
 10
-7.928439504838252
 20
6.429023086940446
 10
-8.017508470638176
 20
6.576747225340454
 10
-8.087025712238073
 20
6.73316101894045
 10
-8.141336057238049
 20
6.893919640140438
 10
-8.17174985043789
 20
7.061195502740588
 10
-8.182611919437704
 20
7.234988606740444
 10
-8.173922264238399
 20
7.408781710740413
 10
-8.145680884838156
 20
7.573885159540509
 10
-8.095715367438288
 20
7.734643780740384
 10
-8.032715367238097
 20
7.888885160540439
 10
-7.950163642837878
 20
8.034436885140507
 10
-7.850145711485993
 20
8.171646540748497
 10
-7.73888075940863
 20
8.299905851500511
 10
-7.613439503838208
 20
8.418954127740448
 10
-7.470731903385285
 20
8.525663093596563
 10
-7.32016364083779
 20
8.620988611140546
 10
-7.152887778237754
 20
8.703540335540424
 10
-6.976922260437959
 20
8.773057577140548
 10
-6.792267087437949
 20
8.827367922140524
 10
-6.596749845438125
 20
8.868643784340633
 10
-6.394715362038141
 20
8.894712749940595
 10
-6.181818809637888
 20
8.903402405140582
 10
-3.924680871438113
 20
8.903402405140695
 10
-4.105849806903506
 20
8.833884092694461
  0
LWPOLYLINE
  5
4D9B
330
4D81
100
AcDbEntity
  8
LW 5006-19-01
 62
     1
100
AcDbPolyline
 90
        6
 70
     1
 43
0.0
 10
5.347181226962447
 20
5.533988601340979
 10
3.10959501296179
 20
5.533988601340865
 10
3.10959501296179
 20
8.903402405140923
 10
4.132801912762033
 20
8.903402405140923
 10
4.132801912762033
 20
6.400781707541
 10
5.347181226961993
 20
6.400781707541
  0
LWPOLYLINE
  5
4D9C
330
4D81
100
AcDbEntity
  8
LW 5006-19-01
 62
     1
100
AcDbPolyline
 90
       57
 70
     1
 43
0.0
 10
0.0557807963707546
 20
6.15912239642887
 10
-0.0640756178029278
 20
6.289467224428676
 10
-0.1729222388378275
 20
6.429023086940674
 10
-0.2598187908381533
 20
6.576747225340795
 10
-0.3315084462381037
 20
6.733161018940677
 10
-0.3836463774380263
 20
6.893919640140779
 10
-0.4162325844379211
 20
7.061195502740815
 10
-0.4270946534381892
 20
7.234988606740785
 10
-0.4162325844379211
 20
7.408781710740754
 10
-0.3836463774380263
 20
7.57605757334079
 10
-0.3336808600381573
 20
7.736816194540665
 10
-0.2619912046377522
 20
7.891057574340834
 10
-0.1772670664379348
 20
8.036609298940675
 10
-0.0729912040380896
 20
8.175643782140809
 10
0.0470737618604744
 20
8.304424472204686
 10
0.1816330726321667
 20
8.423646541548691
 10
0.3317121075913292
 20
8.533136197068756
 10
0.4905329356822677
 20
8.62959136978884
 10
0.6569398327617364
 20
8.712229990740866
 10
0.8415950057622012
 20
8.783919646140816
 10
1.030595006361863
 20
8.838229991140792
 10
1.22828466216174
 20
8.879505853340788
 10
1.434663973161832
 20
8.907747232740803
 10
1.645388111762031
 20
8.91643688794079
 10
2.879319150162018
 20
8.916436887940903
 10
2.879319150162018
 20
8.090919643940878
 10
1.638870870362325
 20
8.090919643940765
 10
1.495491559561969
 20
8.082229988740778
 10
1.360801903961828
 20
8.055118264516863
 10
1.229327420785693
 20
8.015145850596809
 10
1.102284661762269
 20
7.962747229740784
 10
0.9948805234901101
 20
7.895663091596816
 10
0.8937329369616691
 20
7.819367918940884
 10
0.8068363849622528
 20
7.730298953140732
 10
0.7373191433619013
 20
7.63254033214082
 10
2.879319150162018
 20
7.63254033214082
 10
2.879319150162018
 20
6.804850674340855
 10
0.7742501779619034
 20
6.804850674340855
 10
0.8487205230260315
 20
6.719344467172845
 10
0.936138454337879
 20
6.639573432436804
 10
1.033201902921746
 20
6.571967914980859
 10
1.142865351546106
 20
6.511053432028916
 10
1.258872248465877
 20
6.463086535324805
 10
1.379484662642198
 20
6.428762397284913
 10
1.511741214786297
 20
6.406777569628729
 10
1.645388111762031
 20
6.396436879940779
 10
2.879319150162018
 20
6.396436879940779
 10
2.879319150162018
 20
5.538333428940859
 10
1.669284663562166
 20
5.538333428940745
 10
1.456388111162368
 20
5.547023084140732
 10
1.250008800162277
 20
5.570919635940867
 10
1.050146730561891
 20
5.614367911940803
 10
0.8589743161621754
 20
5.670850670740833
 10
0.6743191431621654
 20
5.744712739940837
 10
0.5005260391619686
 20
5.829436878140882
 10
0.3397674179620935
 20
5.927195499140793
 10
0.1922083830111205
 20
6.037814809836731
  0
INSERT
  5
4D9D
330
4D81
100
AcDbEntity
  8
LW 5006-19-01
100
AcDbBlockReference
 66
     1
  2
insertpoint-ECKELT
 10
0.0
 20
0.0
 30
0.0
  0
ATTRIB
  5
4D9E
330
4D9D
100
AcDbEntity
  8
insertpoint_ECKELT
100
AcDbText
 10
-6.93151432469286
 20
0.0
 30
0.0
 40
0.6
  1
LW 5006/19-01
 72
     2
 11
-1.199999999999818
 21
0.0
 31
0.0
100
AcDbAttribute
  2
LINKS
 70
     0
  0
ATTRIB
  5
4D9F
330
4D9D
100
AcDbEntity
  8
insertpoint_ECKELT
100
AcDbText
 10
1.199999999999818
 20
0.0
 30
0.0
 40
0.6
  1

100
AcDbAttribute
  2
RECHTS
 70
     0
  0
SEQEND
  5
4DA0
330
4D9D
100
AcDbEntity
  8
LW 5006-19-01
  0
CIRCLE
  5
4DA1
330
4D81
100
AcDbEntity
  8
LW 5006-19-01
100
AcDbCircle
 10
0.0
 20
0.0
 30
0.0
 40
18.99999999998902
  0
CIRCLE
  5
4DA2
330
4D81
100
AcDbEntity
  8
LW 5006-19-01
100
AcDbCircle
 10
0.0
 20
0.0
 30
0.0
 40
24.99999999997855
  0
CIRCLE
  5
4DA3
330
4D81
100
AcDbEntity
  8
LW 5006-19-01
100
AcDbCircle
 10
0.0
 20
0.0
 30
0.0
 40
32.49999999996969
  0
ENDBLK
  5
4D83
330
4D81
100
AcDbEntity
  8
0
100
AcDbBlockEnd
  0
ENDSEC
  0
SECTION
  2
ENTITIES
  0
INSERT
  5
4A4F
330
23
100
AcDbEntity
  8
0
100
AcDbBlockReference
  2
LW 5006-19-01_a
 10
0.0
 20
0.0
 30
0.0
  0
INSERT
  5
4B7F
330
23
100
AcDbEntity
  8
0
100
AcDbBlockReference
  2
LW 5006-19-01_b
 10
0.000000000165528
 20
207.0345158723449
 30
0.0
  0
INSERT
  5
4D80
330
23
100
AcDbEntity
  8
0
100
AcDbBlockReference
  2
LW 5006-19-01_c
 10
303.6796665411248
 20
207.0345158723449
 30
0.0
  0
INSERT
  5
4DA4
330
23
100
AcDbEntity
  8
0
100
AcDbBlockReference
  2
LW 5006-19-01_d
 10
-303.6796665407578
 20
207.0345158723449
 30
0.0
  0
ENDSEC
  0
SECTION
  2
OBJECTS
  0
DICTIONARY
  5
C
330
0
100
AcDbDictionary
281
     1
  3
ACAD_COLOR
350
1C
  3
ACAD_GROUP
350
D
  3
ACAD_LAYOUT
350
1A
  3
ACAD_MATERIAL
350
1B
  3
ACAD_MLINESTYLE
350
17
  3
ACAD_PLOTSETTINGS
350
19
  3
ACAD_PLOTSTYLENAME
350
E
  3
ACAD_TABLESTYLE
350
1D
  3
AcDbVariableDictionary
350
1064
  0
DICTIONARY
  5
16C1
330
2
100
AcDbDictionary
280
     1
281
     1
  3
ACAD_LAYERFILTERS
360
48A1
  3
ACLYDICTIONARY
360
48A0
  0
DICTIONARY
  5
15A2
330
23
100
AcDbDictionary
280
     1
281
     1
  3
ACAD_SORTENTS
360
15A3
  0
DICTIONARY
  5
106F
330
106E
100
AcDbDictionary
280
     1
281
     1
  3
ACAD_SORTENTS
360
4878
  0
DICTIONARY
  5
1C
102
{ACAD_REACTORS
330
C
102
}
330
C
100
AcDbDictionary
281
     1
  0
DICTIONARY
  5
D
102
{ACAD_REACTORS
330
C
102
}
330
C
100
AcDbDictionary
281
     1
  0
DICTIONARY
  5
1A
102
{ACAD_REACTORS
330
C
102
}
330
C
100
AcDbDictionary
281
     1
  3
Layout1
350
22
  3
Layout2
350
2A
  3
Model
350
26
  0
DICTIONARY
  5
1B
102
{ACAD_REACTORS
330
C
102
}
330
C
100
AcDbDictionary
281
     1
  0
DICTIONARY
  5
17
102
{ACAD_REACTORS
330
C
102
}
330
C
100
AcDbDictionary
281
     1
  3
Standard
350
18
  0
DICTIONARY
  5
19
102
{ACAD_REACTORS
330
C
102
}
330
C
100
AcDbDictionary
281
     1
  0
ACDBDICTIONARYWDFLT
  5
E
102
{ACAD_REACTORS
330
C
102
}
330
C
100
AcDbDictionary
281
     1
  3
Normal
350
F
100
AcDbDictionaryWithDefault
340
F
  0
DICTIONARY
  5
1D
102
{ACAD_REACTORS
330
C
102
}
330
C
100
AcDbDictionary
281
     1
  3
Standard
350
1E
  0
DICTIONARY
  5
1064
102
{ACAD_REACTORS
330
C
102
}
330
C
100
AcDbDictionary
281
     1
  3
CTABLESTYLE
350
1065
  3
DIMASSOC
350
18F4
  3
HIDETEXT
350
18F3
  3
PROJECTNAME
350
18F5
  0
DICTIONARY
  5
48A1
102
{ACAD_REACTORS
330
16C1
102
}
330
16C1
100
AcDbDictionary
281
     1
  0
DICTIONARY
  5
48A0
102
{ACAD_REACTORS
330
16C1
102
}
330
16C1
100
AcDbDictionary
281
     1
1001
ACAD
1000
<All
  0
SORTENTSTABLE
  5
15A3
102
{ACAD_REACTORS
330
15A2
102
}
330
15A2
100
AcDbSortentsTable
330
23
  0
SORTENTSTABLE
  5
4878
102
{ACAD_REACTORS
330
106F
102
}
330
106F
100
AcDbSortentsTable
330
106E
  0
LAYOUT
  5
22
102
{ACAD_REACTORS
330
1A
102
}
330
1A
100
AcDbPlotSettings
  1

  2

  4

  6

 40
0.0
 41
0.0
 42
0.0
 43
0.0
 44
0.0
 45
0.0
 46
0.0
 47
0.0
 48
0.0
 49
0.0
140
0.0
141
0.0
142
1.0
143
1.0
 70
   688
 72
     0
 73
     0
 74
     5
  7

 75
    16
147
1.0
 76
     0
 77
     2
 78
   300
148
0.0
149
0.0
100
AcDbLayout
  1
Layout1
 70
     1
 71
     1
 10
0.0
 20
0.0
 11
2100.0
 21
1485.0
 12
0.0
 22
0.0
 32
0.0
 14
0.0
 24
0.0
 34
0.0
 15
2100.0
 25
1485.0
 35
0.0
146
0.0
 13
0.0
 23
0.0
 33
0.0
 16
1.0
 26
0.0
 36
0.0
 17
0.0
 27
1.0
 37
0.0
 76
     0
330
1F
  0
LAYOUT
  5
2A
102
{ACAD_REACTORS
330
1A
102
}
330
1A
100
AcDbPlotSettings
  1

  2

  4

  6

 40
0.0
 41
0.0
 42
0.0
 43
0.0
 44
0.0
 45
0.0
 46
0.0
 47
0.0
 48
0.0
 49
0.0
140
0.0
141
0.0
142
1.0
143
1.0
 70
   688
 72
     0
 73
     0
 74
     5
  7

 75
    16
147
1.0
 76
     0
 77
     2
 78
   300
148
0.0
149
0.0
100
AcDbLayout
  1
Layout2
 70
     1
 71
     2
 10
0.0
 20
0.0
 11
12.0
 21
9.0
 12
0.0
 22
0.0
 32
0.0
 14
0.0
 24
0.0
 34
0.0
 15
0.0
 25
0.0
 35
0.0
146
0.0
 13
0.0
 23
0.0
 33
0.0
 16
1.0
 26
0.0
 36
0.0
 17
0.0
 27
1.0
 37
0.0
 76
     0
330
27
  0
LAYOUT
  5
26
102
{ACAD_REACTORS
330
1A
102
}
330
1A
100
AcDbPlotSettings
  1

  2

  4

  6

 40
0.0
 41
0.0
 42
0.0
 43
0.0
 44
0.0
 45
0.0
 46
0.0
 47
0.0
 48
0.0
 49
0.0
140
0.0
141
0.0
142
1.0
143
1.0
 70
  1712
 72
     0
 73
     0
 74
     0
  7

 75
     0
147
1.0
 76
     0
 77
     2
 78
   300
148
0.0
149
0.0
100
AcDbLayout
  1
Model
 70
     1
 71
     0
 10
0.0
 20
0.0
 11
12.0
 21
9.0
 12
0.0
 22
0.0
 32
0.0
 14
0.0
 24
0.0
 34
0.0
 15
0.0
 25
0.0
 35
0.0
146
0.0
 13
0.0
 23
0.0
 33
0.0
 16
1.0
 26
0.0
 36
0.0
 17
0.0
 27
1.0
 37
0.0
 76
     0
330
23
  0
MLINESTYLE
  5
18
102
{ACAD_REACTORS
330
17
102
}
330
17
100
AcDbMlineStyle
  2
STANDARD
 70
     0
  3

 62
   256
 51
90.0
 52
90.0
 71
     2
 49
0.5
 62
   256
  6
BYLAYER
 49
-0.5
 62
   256
  6
BYLAYER
  0
ACDBPLACEHOLDER
  5
F
102
{ACAD_REACTORS
330
E
102
}
330
E
  0
TABLESTYLE
  5
1E
102
{ACAD_REACTORS
330
1D
102
}
330
1D
100
AcDbTableStyle
  3
Standard
 70
     0
 71
     0
 40
0.06
 41
0.06
280
     0
281
     0
  7
Standard
140
0.18
170
     2
 62
     0
 63
     7
283
     0
274
    -2
284
     1
 64
     0
275
    -2
285
     1
 65
     0
276
    -2
286
     1
 66
     0
277
    -2
287
     1
 67
     0
278
    -2
288
     1
 68
     0
279
    -2
289
     1
 69
     0
  7
Standard
140
0.25
170
     5
 62
     0
 63
     7
283
     0
274
    -2
284
     1
 64
     0
275
    -2
285
     1
 65
     0
276
    -2
286
     1
 66
     0
277
    -2
287
     1
 67
     0
278
    -2
288
     1
 68
     0
279
    -2
289
     1
 69
     0
  7
Standard
140
0.18
170
     5
 62
     0
 63
     7
283
     0
274
    -2
284
     1
 64
     0
275
    -2
285
     1
 65
     0
276
    -2
286
     1
 66
     0
277
    -2
287
     1
 67
     0
278
    -2
288
     1
 68
     0
279
    -2
289
     1
 69
     0
  0
DICTIONARYVAR
  5
1065
102
{ACAD_REACTORS
330
1064
102
}
330
1064
100
DictionaryVariables
280
     0
  1
STANDARD
  0
DICTIONARYVAR
  5
18F4
102
{ACAD_REACTORS
330
1064
102
}
330
1064
100
DictionaryVariables
280
     0
  1
1
  0
DICTIONARYVAR
  5
18F3
102
{ACAD_REACTORS
330
1064
102
}
330
1064
100
DictionaryVariables
280
     0
  1
1
  0
DICTIONARYVAR
  5
18F5
102
{ACAD_REACTORS
330
1064
102
}
330
1064
100
DictionaryVariables
280
     0
  1

  0
ENDSEC
  0
EOF
