  0
SECTION
  2
HEADER
  9
$ACADVER
  1
AC1018
  9
$ACADMAINTVER
 70
    76
  9
$DWGCODEPAGE
  3
ANSI_1252
  9
$AUTHOR
  1
Grandl
  9
$CUSTOMPROPERTYTAG
  1
Manager
  9
$CUSTOMPROPERTY
  1

  9
$CUSTOMPROPERTYTAG
  1
Firma
  9
$CUSTOMPROPERTY
  1

  9
$CUSTOMPROPERTYTAG
  1
Kategorie
  9
$CUSTOMPROPERTY
  1

  9
$CUSTOMPROPERTYTAG
  1
Bauteilnummer
  9
$CUSTOMPROPERTY
  1
3250-40-00
  9
$CUSTOMPROPERTYTAG
  1
Bezeichnung
  9
$CUSTOMPROPERTY
  1

  9
$CUSTOMPROPERTYTAG
  1
Projekt
  9
$CUSTOMPROPERTY
  1

  9
$CUSTOMPROPERTYTAG
  1
Konstrukteur
  9
$CUSTOMPROPERTY
  1
Grandl
  9
$CUSTOMPROPERTYTAG
  1
Ingenieur
  9
$CUSTOMPROPERTY
  1

  9
$CUSTOMPROPERTYTAG
  1
Bevollmächtigter
  9
$CUSTOMPROPERTY
  1

  9
$CUSTOMPROPERTYTAG
  1
Kostenstelle
  9
$CUSTOMPROPERTY
  1

  9
$CUSTOMPROPERTYTAG
  1
Händler
  9
$CUSTOMPROPERTY
  1

  9
$CUSTOMPROPERTYTAG
  1
Benutzerstatus
  9
$CUSTOMPROPERTY
  1

  9
$CUSTOMPROPERTYTAG
  1
Konstruktionsstatus
  9
$CUSTOMPROPERTY
  1
InBearbeitung
  9
$CUSTOMPROPERTYTAG
  1
Überprüft von
  9
$CUSTOMPROPERTY
  1

  9
$CUSTOMPROPERTYTAG
  1
Konstruktion genehmigt von
  9
$CUSTOMPROPERTY
  1

  9
$CUSTOMPROPERTYTAG
  1
Fertigung genehmigt von
  9
$CUSTOMPROPERTY
  1

  9
$INSBASE
 10
0.0
 20
0.0
 30
0.0
  9
$EXTMIN
 10
-342.6493734362159
 20
-37.00000000000006
 30
0.0
  9
$EXTMAX
 10
342.649373436547
 20
244.0345158723449
 30
0.0
  9
$LIMMIN
 10
0.0
 20
0.0
  9
$LIMMAX
 10
2100.0
 20
1485.0
  9
$ORTHOMODE
 70
     1
  9
$REGENMODE
 70
     1
  9
$FILLMODE
 70
     1
  9
$QTEXTMODE
 70
     0
  9
$MIRRTEXT
 70
     0
  9
$LTSCALE
 40
0.5
  9
$ATTMODE
 70
     1
  9
$TEXTSIZE
 40
0.2
  9
$TRACEWID
 40
0.05
  9
$TEXTSTYLE
  7
Standard
  9
$CLAYER
  8
0
  9
$CELTYPE
  6
ByLayer
  9
$CECOLOR
 62
   256
  9
$CELTSCALE
 40
1.0
  9
$DISPSILH
 70
     0
  9
$DIMSCALE
 40
1.0
  9
$DIMASZ
 40
0.18
  9
$DIMEXO
 40
0.0625
  9
$DIMDLI
 40
0.38
  9
$DIMRND
 40
0.0
  9
$DIMDLE
 40
0.0
  9
$DIMEXE
 40
0.18
  9
$DIMTP
 40
0.0
  9
$DIMTM
 40
0.0
  9
$DIMTXT
 40
0.18
  9
$DIMCEN
 40
0.09
  9
$DIMTSZ
 40
0.0
  9
$DIMTOL
 70
     0
  9
$DIMLIM
 70
     0
  9
$DIMTIH
 70
     1
  9
$DIMTOH
 70
     1
  9
$DIMSE1
 70
     0
  9
$DIMSE2
 70
     0
  9
$DIMTAD
 70
     0
  9
$DIMZIN
 70
     0
  9
$DIMBLK
  1

  9
$DIMASO
 70
     1
  9
$DIMSHO
 70
     1
  9
$DIMPOST
  1

  9
$DIMAPOST
  1

  9
$DIMALT
 70
     0
  9
$DIMALTD
 70
     2
  9
$DIMALTF
 40
25.4
  9
$DIMLFAC
 40
1.0
  9
$DIMTOFL
 70
     0
  9
$DIMTVP
 40
0.0
  9
$DIMTIX
 70
     0
  9
$DIMSOXD
 70
     0
  9
$DIMSAH
 70
     0
  9
$DIMBLK1
  1

  9
$DIMBLK2
  1

  9
$DIMSTYLE
  2
Standard
  9
$DIMCLRD
 70
     0
  9
$DIMCLRE
 70
     0
  9
$DIMCLRT
 70
     0
  9
$DIMTFAC
 40
1.0
  9
$DIMGAP
 40
0.09
  9
$DIMJUST
 70
     0
  9
$DIMSD1
 70
     0
  9
$DIMSD2
 70
     0
  9
$DIMTOLJ
 70
     1
  9
$DIMTZIN
 70
     0
  9
$DIMALTZ
 70
     0
  9
$DIMALTTZ
 70
     0
  9
$DIMUPT
 70
     0
  9
$DIMDEC
 70
     4
  9
$DIMTDEC
 70
     4
  9
$DIMALTU
 70
     2
  9
$DIMALTTD
 70
     2
  9
$DIMTXSTY
  7
Standard
  9
$DIMAUNIT
 70
     0
  9
$DIMADEC
 70
     0
  9
$DIMALTRND
 40
0.0
  9
$DIMAZIN
 70
     0
  9
$DIMDSEP
 70
    46
  9
$DIMATFIT
 70
     3
  9
$DIMFRAC
 70
     0
  9
$DIMLDRBLK
  1

  9
$DIMLUNIT
 70
     2
  9
$DIMLWD
 70
    -2
  9
$DIMLWE
 70
    -2
  9
$DIMTMOVE
 70
     0
  9
$LUNITS
 70
     2
  9
$LUPREC
 70
     4
  9
$SKETCHINC
 40
0.1
  9
$FILLETRAD
 40
0.0
  9
$AUNITS
 70
     0
  9
$AUPREC
 70
     0
  9
$MENU
  1
.
  9
$ELEVATION
 40
0.0
  9
$PELEVATION
 40
0.0
  9
$THICKNESS
 40
0.0
  9
$LIMCHECK
 70
     0
  9
$CHAMFERA
 40
0.0
  9
$CHAMFERB
 40
0.0
  9
$CHAMFERC
 40
0.0
  9
$CHAMFERD
 40
0.0
  9
$SKPOLY
 70
     0
  9
$TDCREATE
 40
2453712.483610903
  9
$TDUCREATE
 40
2453712.441944236
  9
$TDUPDATE
 40
2453717.685715718
  9
$TDUUPDATE
 40
2453717.644049051
  9
$TDINDWG
 40
0.1249915278
  9
$TDUSRTIMER
 40
0.1249915278
  9
$USRTIMER
 70
     1
  9
$ANGBASE
 50
0.0
  9
$ANGDIR
 70
     0
  9
$PDMODE
 70
     0
  9
$PDSIZE
 40
0.0
  9
$PLINEWID
 40
0.0
  9
$SPLFRAME
 70
     0
  9
$SPLINETYPE
 70
     6
  9
$SPLINESEGS
 70
     8
  9
$HANDSEED
  5
65C4
  9
$SURFTAB1
 70
     6
  9
$SURFTAB2
 70
     6
  9
$SURFTYPE
 70
     6
  9
$SURFU
 70
     6
  9
$SURFV
 70
     6
  9
$UCSBASE
  2

  9
$UCSNAME
  2

  9
$UCSORG
 10
0.0
 20
0.0
 30
0.0
  9
$UCSXDIR
 10
1.0
 20
0.0
 30
0.0
  9
$UCSYDIR
 10
0.0
 20
1.0
 30
0.0
  9
$UCSORTHOREF
  2

  9
$UCSORTHOVIEW
 70
     0
  9
$UCSORGTOP
 10
0.0
 20
0.0
 30
0.0
  9
$UCSORGBOTTOM
 10
0.0
 20
0.0
 30
0.0
  9
$UCSORGLEFT
 10
0.0
 20
0.0
 30
0.0
  9
$UCSORGRIGHT
 10
0.0
 20
0.0
 30
0.0
  9
$UCSORGFRONT
 10
0.0
 20
0.0
 30
0.0
  9
$UCSORGBACK
 10
0.0
 20
0.0
 30
0.0
  9
$PUCSBASE
  2

  9
$PUCSNAME
  2

  9
$PUCSORG
 10
0.0
 20
0.0
 30
0.0
  9
$PUCSXDIR
 10
1.0
 20
0.0
 30
0.0
  9
$PUCSYDIR
 10
0.0
 20
1.0
 30
0.0
  9
$PUCSORTHOREF
  2

  9
$PUCSORTHOVIEW
 70
     0
  9
$PUCSORGTOP
 10
0.0
 20
0.0
 30
0.0
  9
$PUCSORGBOTTOM
 10
0.0
 20
0.0
 30
0.0
  9
$PUCSORGLEFT
 10
0.0
 20
0.0
 30
0.0
  9
$PUCSORGRIGHT
 10
0.0
 20
0.0
 30
0.0
  9
$PUCSORGFRONT
 10
0.0
 20
0.0
 30
0.0
  9
$PUCSORGBACK
 10
0.0
 20
0.0
 30
0.0
  9
$USERI1
 70
     0
  9
$USERI2
 70
     0
  9
$USERI3
 70
     0
  9
$USERI4
 70
     0
  9
$USERI5
 70
     0
  9
$USERR1
 40
0.0
  9
$USERR2
 40
0.0
  9
$USERR3
 40
0.0
  9
$USERR4
 40
0.0
  9
$USERR5
 40
0.0
  9
$WORLDVIEW
 70
     1
  9
$SHADEDGE
 70
     3
  9
$SHADEDIF
 70
    70
  9
$TILEMODE
 70
     1
  9
$MAXACTVP
 70
    64
  9
$PINSBASE
 10
0.0
 20
0.0
 30
0.0
  9
$PLIMCHECK
 70
     0
  9
$PEXTMIN
 10
0.0
 20
0.0
 30
0.0
  9
$PEXTMAX
 10
2100.0
 20
1485.0
 30
0.0
  9
$PLIMMIN
 10
0.0
 20
0.0
  9
$PLIMMAX
 10
2100.0
 20
1485.0
  9
$UNITMODE
 70
     0
  9
$VISRETAIN
 70
     1
  9
$PLINEGEN
 70
     0
  9
$PSLTSCALE
 70
     1
  9
$TREEDEPTH
 70
  3020
  9
$CMLSTYLE
  2
Standard
  9
$CMLJUST
 70
     0
  9
$CMLSCALE
 40
1.0
  9
$PROXYGRAPHICS
 70
     1
  9
$MEASUREMENT
 70
     1
  9
$CELWEIGHT
370
    -1
  9
$ENDCAPS
280
     0
  9
$JOINSTYLE
280
     0
  9
$LWDISPLAY
290
     0
  9
$INSUNITS
 70
     0
  9
$HYPERLINKBASE
  1

  9
$STYLESHEET
  1

  9
$XEDIT
290
     1
  9
$CEPSNTYPE
380
     0
  9
$PSTYLEMODE
290
     1
  9
$FINGERPRINTGUID
  2
{C0D17482-A639-492A-87FF-6D529B9E67CF}
  9
$VERSIONGUID
  2
{1876CBBB-1007-43BF-AA2E-19CF55641522}
  9
$EXTNAMES
290
     1
  9
$PSVPSCALE
 40
0.0
  9
$OLESTARTUP
290
     0
  9
$SORTENTS
280
   127
  9
$INDEXCTL
280
     0
  9
$HIDETEXT
280
     1
  9
$XCLIPFRAME
290
     0
  9
$HALOGAP
280
     0
  9
$OBSCOLOR
 70
   257
  9
$OBSLTYPE
280
     0
  9
$INTERSECTIONDISPLAY
280
     0
  9
$INTERSECTIONCOLOR
 70
   257
  9
$DIMASSOC
280
     1
  9
$PROJECTNAME
  1

  0
ENDSEC
  0
SECTION
  2
CLASSES
  0
CLASS
  1
ACDBDICTIONARYWDFLT
  2
AcDbDictionaryWithDefault
  3
ObjectDBX Classes
 90
        0
 91
        1
280
     0
281
     0
  0
CLASS
  1
TABLESTYLE
  2
AcDbTableStyle
  3
ObjectDBX Classes
 90
     2047
 91
        1
280
     0
281
     0
  0
CLASS
  1
DICTIONARYVAR
  2
AcDbDictionaryVar
  3
ObjectDBX Classes
 90
        0
 91
        4
280
     0
281
     0
  0
CLASS
  1
SORTENTSTABLE
  2
AcDbSortentsTable
  3
ObjectDBX Classes
 90
        0
 91
        2
280
     0
281
     0
  0
ENDSEC
  0
SECTION
  2
TABLES
  0
TABLE
  2
VPORT
  5
8
330
0
100
AcDbSymbolTable
 70
     3
  0
VPORT
  5
65C3
330
8
100
AcDbSymbolTableRecord
100
AcDbViewportTableRecord
  2
*Active
 70
     0
 10
0.0
 20
0.0
 11
1.0
 21
1.0
 12
0.0456874633082407
 22
103.5160703262268
 13
0.0
 23
0.0
 14
1.0
 24
1.0
 15
0.0
 25
0.0
 16
0.0
 26
0.0
 36
1.0
 17
0.0
 27
0.0
 37
0.0
 40
388.7390517406523
 41
1.773333333333333
 42
50.0
 43
0.0
 44
0.0
 50
0.0
 51
0.0
 71
     0
 72
   100
 73
     1
 74
     1
 75
     0
 76
     0
 77
     0
 78
     0
281
     0
 65
     1
110
0.0
120
0.0
130
0.0
111
1.0
121
0.0
131
0.0
112
0.0
122
1.0
132
0.0
 79
     0
146
0.0
  0
ENDTAB
  0
TABLE
  2
LTYPE
  5
5
330
0
100
AcDbSymbolTable
 70
     3
  0
LTYPE
  5
14
330
5
100
AcDbSymbolTableRecord
100
AcDbLinetypeTableRecord
  2
ByBlock
 70
     0
  3

 72
    65
 73
     0
 40
0.0
  0
LTYPE
  5
15
330
5
100
AcDbSymbolTableRecord
100
AcDbLinetypeTableRecord
  2
ByLayer
 70
     0
  3

 72
    65
 73
     0
 40
0.0
  0
LTYPE
  5
16
330
5
100
AcDbSymbolTableRecord
100
AcDbLinetypeTableRecord
  2
Continuous
 70
     0
  3
Solid line
 72
    65
 73
     0
 40
0.0
  0
LTYPE
  5
1309
330
5
100
AcDbSymbolTableRecord
100
AcDbLinetypeTableRecord
  2
MITTE2
 70
     0
  3
Mitte (.5x) ___ _ ___ _ ___ _ ___ _ ___ _ ___
 72
    65
 73
     4
 40
28.575
 49
19.05
 74
     0
 49
-3.174999999999999
 74
     0
 49
3.174999999999999
 74
     0
 49
-3.174999999999999
 74
     0
  0
LTYPE
  5
16DC
330
5
100
AcDbSymbolTableRecord
100
AcDbLinetypeTableRecord
  2
VERDECKT
 70
     0
  3
Verdeckt __ __ __ __ __ __ __ __ __ __ __ __ __
 72
    65
 73
     2
 40
9.524999999999998
 49
6.349999999999999
 74
     0
 49
-3.174999999999999
 74
     0
  0
ENDTAB
  0
TABLE
  2
LAYER
  5
2
102
{ACAD_XDICTIONARY
360
16C1
102
}
330
0
100
AcDbSymbolTable
 70
     4
  0
LAYER
  5
10
330
2
100
AcDbSymbolTableRecord
100
AcDbLayerTableRecord
  2
0
 70
     0
 62
     7
  6
Continuous
370
    -3
390
F
  0
LAYER
  5
646
330
2
100
AcDbSymbolTableRecord
100
AcDbLayerTableRecord
  2
Defpoints
 70
     0
 62
     7
  6
Continuous
290
     0
370
    -3
390
F
  0
LAYER
  5
130A
330
2
100
AcDbSymbolTableRecord
100
AcDbLayerTableRecord
  2
LW 5015-15-01
 70
     0
 62
     7
  6
Continuous
370
    -3
390
F
  0
LAYER
  5
130B
330
2
100
AcDbSymbolTableRecord
100
AcDbLayerTableRecord
  2
insertpoint_ECKELT
 70
     0
 62
   141
  6
Continuous
370
    -3
390
F
  0
ENDTAB
  0
TABLE
  2
STYLE
  5
3
330
0
100
AcDbSymbolTable
 70
     1
  0
STYLE
  5
11
330
3
100
AcDbSymbolTableRecord
100
AcDbTextStyleTableRecord
  2
Standard
 70
     0
 40
0.0
 41
1.0
 50
0.0
 71
     0
 42
0.2
  3
ARIAL.TTF
  4

1001
ACAD
1000
Arial
1071
      256
  0
ENDTAB
  0
TABLE
  2
VIEW
  5
6
330
0
100
AcDbSymbolTable
 70
     0
  0
ENDTAB
  0
TABLE
  2
UCS
  5
7
330
0
100
AcDbSymbolTable
 70
     0
  0
ENDTAB
  0
TABLE
  2
APPID
  5
9
330
0
100
AcDbSymbolTable
 70
     2
  0
APPID
  5
12
330
9
100
AcDbSymbolTableRecord
100
AcDbRegAppTableRecord
  2
ACAD
 70
     0
  0
APPID
  5
15AA
330
9
100
AcDbSymbolTableRecord
100
AcDbRegAppTableRecord
  2
ACAD_EXEMPT_FROM_CAD_STANDARDS
 70
     0
  0
ENDTAB
  0
TABLE
  2
DIMSTYLE
  5
A
330
0
100
AcDbSymbolTable
 70
     1
100
AcDbDimStyleTable
 71
     1
340
2B
  0
DIMSTYLE
105
2B
330
A
100
AcDbSymbolTableRecord
100
AcDbDimStyleTableRecord
  2
Standard
 70
     0
340
11
  0
ENDTAB
  0
TABLE
  2
BLOCK_RECORD
  5
1
330
0
100
AcDbSymbolTable
 70
     6
  0
BLOCK_RECORD
  5
23
102
{ACAD_XDICTIONARY
360
15A2
102
}
330
1
100
AcDbSymbolTableRecord
100
AcDbBlockTableRecord
  2
*Model_Space
340
26
  0
BLOCK_RECORD
  5
1F
330
1
100
AcDbSymbolTableRecord
100
AcDbBlockTableRecord
  2
*Paper_Space
340
22
  0
BLOCK_RECORD
  5
27
330
1
100
AcDbSymbolTableRecord
100
AcDbBlockTableRecord
  2
*Paper_Space0
340
2A
  0
BLOCK_RECORD
  5
106E
102
{ACAD_XDICTIONARY
360
106F
102
}
330
1
100
AcDbSymbolTableRecord
100
AcDbBlockTableRecord
  2
insertpoint-ECKELT
340
0
102
{BLKREFS
331
62AC
331
64B6
331
64FA
331
6570
102
}
  0
BLOCK_RECORD
  5
6193
330
1
100
AcDbSymbolTableRecord
100
AcDbBlockTableRecord
  2
LW 5015-15-01_a
340
0
310
2800000020000000200000000100080000000000000400000000000000000000000000000000000000000000000080000080000000808000800000008000800080800000C0C0C000C0DCC000F0CAA6000020400000206000002080000020A0000020C0000020E00000400000004020000040400000406000004080000040A0
310
000040C0000040E00000600000006020000060400000606000006080000060A0000060C0000060E00000800000008020000080400000806000008080000080A0000080C0000080E00000A0000000A0200000A0400000A0600000A0800000A0A00000A0C00000A0E00000C0000000C0200000C0400000C0600000C0800000C0
310
A00000C0C00000C0E00000E0000000E0200000E0400000E0600000E0800000E0A00000E0C00000E0E00040000000400020004000400040006000400080004000A0004000C0004000E00040200000402020004020400040206000402080004020A0004020C0004020E000404000004040200040404000404060004040800040
310
40A0004040C0004040E00040600000406020004060400040606000406080004060A0004060C0004060E00040800000408020004080400040806000408080004080A0004080C0004080E00040A0000040A0200040A0400040A0600040A0800040A0A00040A0C00040A0E00040C0000040C0200040C0400040C0600040C08000
310
40C0A00040C0C00040C0E00040E0000040E0200040E0400040E0600040E0800040E0A00040E0C00040E0E00080000000800020008000400080006000800080008000A0008000C0008000E00080200000802020008020400080206000802080008020A0008020C0008020E00080400000804020008040400080406000804080
310
008040A0008040C0008040E00080600000806020008060400080606000806080008060A0008060C0008060E00080800000808020008080400080806000808080008080A0008080C0008080E00080A0000080A0200080A0400080A0600080A0800080A0A00080A0C00080A0E00080C0000080C0200080C0400080C0600080C0
310
800080C0A00080C0C00080C0E00080E0000080E0200080E0400080E0600080E0800080E0A00080E0C00080E0E000C0000000C0002000C0004000C0006000C0008000C000A000C000C000C000E000C0200000C0202000C0204000C0206000C0208000C020A000C020C000C020E000C0400000C0402000C0404000C0406000C0
310
408000C040A000C040C000C040E000C0600000C0602000C0604000C0606000C0608000C060A000C060C000C060E000C0800000C0802000C0804000C0806000C0808000C080A000C080C000C080E000C0A00000C0A02000C0A04000C0A06000C0A08000C0A0A000C0A0C000C0A0E000C0C00000C0C02000C0C04000C0C06000
310
C0C08000C0C0A000F0FBFF00A4A0A000808080000000FF0000FF000000FFFF00FF000000FF00FF00FFFF0000FFFFFF0000000000000000000000000000000000000000000000000000000000000000000000000000000000000000000000000000000000000000000000000000000000000000000000000000000000000000
310
00000000000000000000000000000000000000000000000000000000000000000000000000000000000000000000000000000000000000000000000000000000000000000000000000000000000000000000000000000000000000000000000000000000000000000000000000000000000000000000000000000000000000
310
000000000000000000000000000000000000000000000000000000000000000000000000000000000000000000000000000000000000000000000000000000000000000000000000000000000000000000000000000000FA0000000000000000FFFFFAFF0000000000000000FA000000000000000000FFFAFFFF00000000FF
310
FFFFFFFAFFFFFF00000000FFFFFAFF000000000000FFFFFFFA00FFFFFFFFFFFFFFFFFFFAFFFFFFFFFFFFFFFF00FAFFFFFF000000FAFAFAFFFAFAFFFAFAFAFAFAFAFA0909FAFAFAFAFAFAFAFFFAFAFFFAFAFA000000FFFFFFFA00FFFFFFFFFFFF00FFFA09FF00FFFFFFFFFFFF00FAFFFFFF000000000000FFFA00FF00000000
310
FF00FFFFFAFF00FF00000000FF00FAFF0000000000000000F9F900FF00000000FFFFFFFFFAFFFFFF00000000FF00FAFF0000000000000000F9F900FF000000000000FFFFFAFF000000000000FF00FAFF0000000000000000F9F900FF00000000000000000000000000000000FF00FAFF0000000000000000FFFA00FF000000
310
00000000000000000000000000FF00FAFF0000000000000000FDFDFDFD00000000000000000000000000000000FDFDFDFD000000000000000000FAFA000000000000000000000000000000000000FAFA00000000000000000000FA0000000000000000000000000000000000000000FA00000000000000000000FA00000000
310
00000000000000000000000000000000FA0000000000000000000000000000000000000000000000000000000000000000000000000000000000000000000000000000000000000000000000000000000000000000000000000000000000000000000000000000000000000000000000000000000000000000000000000000
310
00000000000000000000000000000000000000000000000000000000000000000000000000000000000000000000000000000000000000000000000000000000000000000000000000000000000000000000000000000000000000000000000000000000000000000000000000000000000000000000000000000000000000
310
0000000000000000000000000000000000000000000000000000000000000000000000000000000000000000000000000000000000000000
102
{BLKREFS
331
6394
102
}
  0
BLOCK_RECORD
  5
6395
330
1
100
AcDbSymbolTableRecord
100
AcDbBlockTableRecord
  2
LW 5015-15-01_b
340
0
310
2800000020000000200000000100080000000000000400000000000000000000000000000000000000000000000080000080000000808000800000008000800080800000C0C0C000C0DCC000F0CAA6000020400000206000002080000020A0000020C0000020E00000400000004020000040400000406000004080000040A0
310
000040C0000040E00000600000006020000060400000606000006080000060A0000060C0000060E00000800000008020000080400000806000008080000080A0000080C0000080E00000A0000000A0200000A0400000A0600000A0800000A0A00000A0C00000A0E00000C0000000C0200000C0400000C0600000C0800000C0
310
A00000C0C00000C0E00000E0000000E0200000E0400000E0600000E0800000E0A00000E0C00000E0E00040000000400020004000400040006000400080004000A0004000C0004000E00040200000402020004020400040206000402080004020A0004020C0004020E000404000004040200040404000404060004040800040
310
40A0004040C0004040E00040600000406020004060400040606000406080004060A0004060C0004060E00040800000408020004080400040806000408080004080A0004080C0004080E00040A0000040A0200040A0400040A0600040A0800040A0A00040A0C00040A0E00040C0000040C0200040C0400040C0600040C08000
310
40C0A00040C0C00040C0E00040E0000040E0200040E0400040E0600040E0800040E0A00040E0C00040E0E00080000000800020008000400080006000800080008000A0008000C0008000E00080200000802020008020400080206000802080008020A0008020C0008020E00080400000804020008040400080406000804080
310
008040A0008040C0008040E00080600000806020008060400080606000806080008060A0008060C0008060E00080800000808020008080400080806000808080008080A0008080C0008080E00080A0000080A0200080A0400080A0600080A0800080A0A00080A0C00080A0E00080C0000080C0200080C0400080C0600080C0
310
800080C0A00080C0C00080C0E00080E0000080E0200080E0400080E0600080E0800080E0A00080E0C00080E0E000C0000000C0002000C0004000C0006000C0008000C000A000C000C000C000E000C0200000C0202000C0204000C0206000C0208000C020A000C020C000C020E000C0400000C0402000C0404000C0406000C0
310
408000C040A000C040C000C040E000C0600000C0602000C0604000C0606000C0608000C060A000C060C000C060E000C0800000C0802000C0804000C0806000C0808000C080A000C080C000C080E000C0A00000C0A02000C0A04000C0A06000C0A08000C0A0A000C0A0C000C0A0E000C0C00000C0C02000C0C04000C0C06000
310
C0C08000C0C0A000F0FBFF00A4A0A000808080000000FF0000FF000000FFFF00FF000000FF00FF00FFFF0000FFFFFF0000000000000000000000000000000000000000000000000000000000000000000000000000000000000000000000000000000000000000000000000000000000000000000000000000000000000000
310
00000000000000000000000000000000000000000000000000000000000000000000000000000000000000000000000000000000000000000000000000000000000000000000000000000000000000000000000000000000000000000000000000000000000000000000000000000000000000000000000000000000000000
310
00000000000000000000000000000000000000000000000000000000000000000000000000000000000000000000000000000000000000000000000000000000000000000000000000000000000000000000000000000000000000000000000000000000000000000000000000000000000000000000000000000000000000
310
0000000000000000000000000000000000000000000000000000000000000000000000000000000000000000000000000000000000000000000000000000000000FFFFFAFF0000000000000000000000000000000000000000000000000000FFFFFFFFFAFFFFFF0000000000000000000000000000FFFFFFFAFFFFFFFFFFFF
310
FF00FFFFFAFF00FFFFFFFFFFFFFFFAFFFFFF00000000FF00FFFAFFFF00000000FF00FFFA09FF00FF00000000FFFFFAFF00FF000000FAFAFAFAFAFAFAFAFAFAFAFAFAFA0909FAFAFAF9F9F9FAFAFAFAFAFAFAFA000000FFFFFFFA00FFFFFFFFFFFF00FFFFFAFF00FFFFFFFFFFFF00FAFFFFFF00000000000000FAFF00000000
310
00FFFFFFFFFAFFFFFF0000000000FFFA00000000000000000000000000000000000000FFFFFAFF00000000000000000000000000000000000000000000000000000000000000000000000000000000000000000000000000000000000000000000000000000000000000000000000000000000000000000000000000000000
310
00000000000000000000000000000000000000000000000000000000000000000000000000000000000000000000000000000000000000000000000000000000000000000000000000000000000000000000000000000000000000000000000000000000000000000000000000000000000000000000000000000000000000
310
00000000000000000000000000000000000000000000000000000000000000000000000000000000000000000000000000000000000000000000000000000000000000000000000000000000000000000000000000000000000000000000000000000000000000000000000000000000000000000000000000000000000000
310
0000000000000000000000000000000000000000000000000000000000000000000000000000000000000000000000000000000000000000
102
{BLKREFS
331
64BC
102
}
  0
BLOCK_RECORD
  5
64BD
330
1
100
AcDbSymbolTableRecord
100
AcDbBlockTableRecord
  2
LW 5015-15-01_c
340
0
310
2800000020000000200000000100080000000000000400000000000000000000000000000000000000000000000080000080000000808000800000008000800080800000C0C0C000C0DCC000F0CAA6000020400000206000002080000020A0000020C0000020E00000400000004020000040400000406000004080000040A0
310
000040C0000040E00000600000006020000060400000606000006080000060A0000060C0000060E00000800000008020000080400000806000008080000080A0000080C0000080E00000A0000000A0200000A0400000A0600000A0800000A0A00000A0C00000A0E00000C0000000C0200000C0400000C0600000C0800000C0
310
A00000C0C00000C0E00000E0000000E0200000E0400000E0600000E0800000E0A00000E0C00000E0E00040000000400020004000400040006000400080004000A0004000C0004000E00040200000402020004020400040206000402080004020A0004020C0004020E000404000004040200040404000404060004040800040
310
40A0004040C0004040E00040600000406020004060400040606000406080004060A0004060C0004060E00040800000408020004080400040806000408080004080A0004080C0004080E00040A0000040A0200040A0400040A0600040A0800040A0A00040A0C00040A0E00040C0000040C0200040C0400040C0600040C08000
310
40C0A00040C0C00040C0E00040E0000040E0200040E0400040E0600040E0800040E0A00040E0C00040E0E00080000000800020008000400080006000800080008000A0008000C0008000E00080200000802020008020400080206000802080008020A0008020C0008020E00080400000804020008040400080406000804080
310
008040A0008040C0008040E00080600000806020008060400080606000806080008060A0008060C0008060E00080800000808020008080400080806000808080008080A0008080C0008080E00080A0000080A0200080A0400080A0600080A0800080A0A00080A0C00080A0E00080C0000080C0200080C0400080C0600080C0
310
800080C0A00080C0C00080C0E00080E0000080E0200080E0400080E0600080E0800080E0A00080E0C00080E0E000C0000000C0002000C0004000C0006000C0008000C000A000C000C000C000E000C0200000C0202000C0204000C0206000C0208000C020A000C020C000C020E000C0400000C0402000C0404000C0406000C0
310
408000C040A000C040C000C040E000C0600000C0602000C0604000C0606000C0608000C060A000C060C000C060E000C0800000C0802000C0804000C0806000C0808000C080A000C080C000C080E000C0A00000C0A02000C0A04000C0A06000C0A08000C0A0A000C0A0C000C0A0E000C0C00000C0C02000C0C04000C0C06000
310
C0C08000C0C0A000F0FBFF00A4A0A000808080000000FF0000FF000000FFFF00FF000000FF00FF00FFFF0000FFFFFF0000000000000000000000000000000000000000000000000000000000000000000000000000000000000000000000000000000000000000000000000000000000000000000000000000000000000000
310
00000000000000000000000000000000000000000000000000000000000000000000000000000000000000000000000000000000000000000000000000000000000000000000000000000000000000000000000000000000000000000000000000000000000000000000000000000000000000000000000000000000000000
310
000000000000000000000000000000000000000000000000000000000000000000000000000000000000000000000000000000000000000000000000000000000000000000FFFFFFFF0000000000000000000000000000000000000000000000000000FFFF00000000FFFA0000000000000000000000000000000000000000
310
0000FFFF00FFFFFAFFFFFDFAFF0000000000000000000000000000000000000000FF0000FF0000FA00FDFAFF00FF00000000000000000000000000000000000000FF00FF000000FA00FDFA00FF00FF00000000000000000000FFFFFFFFFFFFFFFFFFFFFFFFFFFFFAFFFAFFFFFFFFFF00000000000000000000FF0000000000
310
00FD00FD00FDFFFFFAFFFFFFFDFFFF00FF0000000000FAFAFAFAFF00000000000000FDFDFD00FF090909FAFFFAFAFAFAFAFAFA000000FFFF0000FF00000000FAFAFAFAFAFAFAFF090900FFFF00FFFF00FF00000000FAFAFAFAFAFAFAFAFAFAFAFAFAFAFAFAFAFAFAFAFAFAFAFAFAFAFAFAFA00000000FAFAFAFAFF00000000
310
000000FD00FDFDFFFFFAFFFFFFFDFF00FF00000000000000000000FF0000F9F9F9F90000FD00FDFDFFFFFFFFFA00FF00FF00000000000000000000FF0000F9F9F9F90000FD00FD00FDFAFDFDFAFDFFFF0000000000000000000000FFFFFFFFFFFFFFFFFFFFFFFFFFFFFAFFFFFFFAFFFF000000000000000000000000000000
310
000000000000FFFF000000000000FAFF000000000000000000000000000000000000000000000000FFFFFFFFFFFF000000000000000000000000000000000000000000000000000000000000000000000000000000000000000000000000000000000000000000000000000000000000000000000000000000000000000000
310
00000000000000000000000000000000000000000000000000000000000000000000000000000000000000000000000000000000000000000000000000000000000000000000000000000000000000000000000000000000000000000000000000000000000000000000000000000000000000000000000000000000000000
310
0000000000000000000000000000000000000000000000000000000000000000000000000000000000000000000000000000000000000000
102
{BLKREFS
331
6537
102
}
  0
BLOCK_RECORD
  5
6538
330
1
100
AcDbSymbolTableRecord
100
AcDbBlockTableRecord
  2
LW 5015-15-01_d
340
0
310
2800000020000000200000000100080000000000000400000000000000000000000000000000000000000000000080000080000000808000800000008000800080800000C0C0C000C0DCC000F0CAA6000020400000206000002080000020A0000020C0000020E00000400000004020000040400000406000004080000040A0
310
000040C0000040E00000600000006020000060400000606000006080000060A0000060C0000060E00000800000008020000080400000806000008080000080A0000080C0000080E00000A0000000A0200000A0400000A0600000A0800000A0A00000A0C00000A0E00000C0000000C0200000C0400000C0600000C0800000C0
310
A00000C0C00000C0E00000E0000000E0200000E0400000E0600000E0800000E0A00000E0C00000E0E00040000000400020004000400040006000400080004000A0004000C0004000E00040200000402020004020400040206000402080004020A0004020C0004020E000404000004040200040404000404060004040800040
310
40A0004040C0004040E00040600000406020004060400040606000406080004060A0004060C0004060E00040800000408020004080400040806000408080004080A0004080C0004080E00040A0000040A0200040A0400040A0600040A0800040A0A00040A0C00040A0E00040C0000040C0200040C0400040C0600040C08000
310
40C0A00040C0C00040C0E00040E0000040E0200040E0400040E0600040E0800040E0A00040E0C00040E0E00080000000800020008000400080006000800080008000A0008000C0008000E00080200000802020008020400080206000802080008020A0008020C0008020E00080400000804020008040400080406000804080
310
008040A0008040C0008040E00080600000806020008060400080606000806080008060A0008060C0008060E00080800000808020008080400080806000808080008080A0008080C0008080E00080A0000080A0200080A0400080A0600080A0800080A0A00080A0C00080A0E00080C0000080C0200080C0400080C0600080C0
310
800080C0A00080C0C00080C0E00080E0000080E0200080E0400080E0600080E0800080E0A00080E0C00080E0E000C0000000C0002000C0004000C0006000C0008000C000A000C000C000C000E000C0200000C0202000C0204000C0206000C0208000C020A000C020C000C020E000C0400000C0402000C0404000C0406000C0
310
408000C040A000C040C000C040E000C0600000C0602000C0604000C0606000C0608000C060A000C060C000C060E000C0800000C0802000C0804000C0806000C0808000C080A000C080C000C080E000C0A00000C0A02000C0A04000C0A06000C0A08000C0A0A000C0A0C000C0A0E000C0C00000C0C02000C0C04000C0C06000
310
C0C08000C0C0A000F0FBFF00A4A0A000808080000000FF0000FF000000FFFF00FF000000FF00FF00FFFF0000FFFFFF0000000000000000000000000000000000000000000000000000000000000000000000000000000000000000000000000000000000000000000000000000000000000000000000000000000000000000
310
00000000000000000000000000000000000000000000000000000000000000000000000000000000000000000000000000000000000000000000000000000000000000000000000000000000000000000000000000000000000000000000000000000000000000000000000000000000000000000000000000000000000000
310
0000000000000000000000000000000000000000000000000000000000000000000000000000000000000000000000000000000000000000000000FFFFFFFF0000000000000000000000000000000000000000000000000000FAFF00000000FFFF0000000000000000000000000000000000000000000000FF00FAFFFFFAFF
310
FF00FFFF0000000000000000000000000000000000000000FF00FFFAFD00FA0000FF0000FF000000000000000000000000000000000000FF00FF00FDFA00FA000000FF00FF000000000000000000000000000000000000FFFFFFFFFFFAFFFAFFFFFFFFFFFFFFFFFFFFFFFFFFFF00000000000000000000FFFFFFFDFFFFFFFA
310
FFFFFD00FD00FD000000000000FF00000000000000FAFAFAFAFAFAFAFFFA090900FF00FDFD00FD000000000000FFFAFAFAFA0000000000FF00FFFF00FF00090909FFFAFAFAFAFAFAFA00000000FF0000FFFF00000000FAFAFAFAFAFAFAFAFAFAFAFAFAFAFAFAFAFAFAFAFAFAFAFAFAFAFAFAFA0000000000FF00FFFDFFFFFF
310
FAFFFFFDFD00FD00000000000000FFFAFAFAFA000000000000FF00FF00FDFFFFFFFFFDFDFD00FD00F9F9F9F9F900FF0000000000000000000000FFFFFDFAFDFDFAFD00FD00FD0000F9F9F9F9F900FF0000000000000000000000FFFFFFFAFFFFFAFFFFFFFFFFFFFFFFFFFFFFFFFFFF000000000000000000000000FFFA0000
310
00000000FFFF000000000000000000000000000000000000000000000000FFFFFFFFFFFF00000000000000000000000000000000000000000000000000000000000000000000000000000000000000000000000000000000000000000000000000000000000000000000000000000000000000000000000000000000000000
310
00000000000000000000000000000000000000000000000000000000000000000000000000000000000000000000000000000000000000000000000000000000000000000000000000000000000000000000000000000000000000000000000000000000000000000000000000000000000000000000000000000000000000
310
0000000000000000000000000000000000000000000000000000000000000000000000000000000000000000000000000000000000000000
102
{BLKREFS
331
653B
331
65B3
102
}
  0
ENDTAB
  0
ENDSEC
  0
SECTION
  2
BLOCKS
  0
BLOCK
  5
24
330
23
100
AcDbEntity
  8
0
100
AcDbBlockBegin
  2
*Model_Space
 70
     0
 10
0.0
 20
0.0
 30
0.0
  3
*Model_Space
  1

  0
ENDBLK
  5
25
330
23
100
AcDbEntity
  8
0
100
AcDbBlockEnd
  0
BLOCK
  5
20
330
1F
100
AcDbEntity
 67
     1
  8
0
100
AcDbBlockBegin
  2
*Paper_Space
 70
     0
 10
0.0
 20
0.0
 30
0.0
  3
*Paper_Space
  1

  0
ENDBLK
  5
21
330
1F
100
AcDbEntity
 67
     1
  8
0
100
AcDbBlockEnd
  0
BLOCK
  5
28
330
27
100
AcDbEntity
 67
     1
  8
0
100
AcDbBlockBegin
  2
*Paper_Space0
 70
     0
 10
0.0
 20
0.0
 30
0.0
  3
*Paper_Space0
  1

  0
ENDBLK
  5
29
330
27
100
AcDbEntity
 67
     1
  8
0
100
AcDbBlockEnd
  0
BLOCK
  5
1071
330
106E
100
AcDbEntity
  8
0
100
AcDbBlockBegin
  2
insertpoint-ECKELT
 70
     2
 10
0.0
 20
0.0
 30
0.0
  3
insertpoint-ECKELT
  1

  0
ATTDEF
  5
1072
330
106E
100
AcDbEntity
  8
insertpoint_ECKELT
100
AcDbText
 10
-2.457298772169167
 20
-0.0000000000000284
 30
0.0
 40
0.6
  1
LW
 72
     2
 11
-1.199999999999999
 21
-0.0000000000000284
 31
0.0
100
AcDbAttributeDefinition
  3
Nr. links
  2
LINKS
 70
     0
  0
ATTDEF
  5
1073
330
106E
100
AcDbEntity
  8
insertpoint_ECKELT
100
AcDbText
 10
1.199999999999999
 20
-0.0000000000000284
 30
0.0
 40
0.6
  1
LW
100
AcDbAttributeDefinition
  3
Nr. rechts
  2
RECHTS
 70
     0
  0
LINE
  5
1074
102
{ACAD_REACTORS
330
1077
102
}
330
106E
100
AcDbEntity
  8
insertpoint_ECKELT
100
AcDbLine
 10
0.0
 20
1.799999999999997
 30
0.0
 11
0.0
 21
-1.799999999999997
 31
0.0
  0
LINE
  5
1075
102
{ACAD_REACTORS
330
1077
102
}
330
106E
100
AcDbEntity
  8
insertpoint_ECKELT
100
AcDbLine
 10
-1.8
 20
-0.0000000000000284
 30
0.0
 11
1.8
 21
-0.0000000000000284
 31
0.0
  0
CIRCLE
  5
1076
102
{ACAD_REACTORS
330
1077
102
}
330
106E
100
AcDbEntity
  8
insertpoint_ECKELT
100
AcDbCircle
 10
0.0
 20
0.0
 30
0.0
 40
1.199999999999999
  0
HATCH
  5
1077
330
106E
100
AcDbEntity
  8
insertpoint_ECKELT
100
AcDbHatch
 10
0.0
 20
0.0
 30
0.0
210
0.0
220
0.0
230
1.0
  2
SOLID
 70
     1
 71
     1
 91
        2
 92
        7
 72
     1
 73
     1
 93
        3
 10
0.0
 20
-0.0000000000000284
 42
0.0
 10
0.0
 20
1.200000000000002
 42
0.4142135623731013
 10
-1.199999999999999
 20
-0.0000000000000284
 42
0.0
 97
        3
330
1076
330
1075
330
1074
 92
        7
 72
     1
 73
     1
 93
        3
 10
1.199999999999999
 20
-0.0000000000000284
 42
0.0
 10
0.0
 20
-0.0000000000000284
 42
0.0
 10
0.0
 20
-1.200000000000002
 42
0.4142135623730888
 97
        3
330
1075
330
1074
330
1076
 75
     0
 76
     1
 47
0.0223086566480813
 98
        2
 10
-0.3163651093721391
 20
0.271413292077348
 10
0.7415965996738798
 20
-0.4513871917946233
450
        0
451
        0
460
0.0
461
0.0
452
        0
462
0.0
453
        0
470

  0
ENDBLK
  5
1078
330
106E
100
AcDbEntity
  8
0
100
AcDbBlockEnd
  0
BLOCK
  5
6194
330
6193
100
AcDbEntity
  8
0
100
AcDbBlockBegin
  2
LW 5015-15-01_a
 70
     0
 10
0.0
 20
0.0
 30
0.0
  3
LW 5015-15-01_a
  1

  0
ELLIPSE
  5
6196
330
6193
100
AcDbEntity
  8
LW 5015-15-01
100
AcDbEllipse
 10
27.50000000000023
 20
-9.499999999999943
 30
0.0
 11
-2.500000000000001
 21
0.000000000000225
 31
0.0
210
0.0
220
0.0
230
1.0
 40
0.8660254037844376
 41
0.7560039322268129
 42
2.385588721363197
  0
POLYLINE
  5
6197
330
6193
100
AcDbEntity
  8
LW 5015-15-01
100
AcDb2dPolyline
 66
     1
 10
0.0
 20
0.0
 30
0.0
 70
   128
  0
VERTEX
  5
6198
330
6197
100
AcDbEntity
  8
LW 5015-15-01
100
AcDbVertex
100
AcDb2dVertex
 10
30.00000000000023
 20
-12.49999999999994
 30
0.0
  0
VERTEX
  5
6199
330
6197
100
AcDbEntity
  8
LW 5015-15-01
100
AcDbVertex
100
AcDb2dVertex
 10
29.97898697853111
 20
-12.77545213699335
 30
0.0
  0
VERTEX
  5
619A
330
6197
100
AcDbEntity
  8
LW 5015-15-01
100
AcDbVertex
100
AcDb2dVertex
 10
29.91565704345726
 20
-13.05167794227594
 30
0.0
  0
VERTEX
  5
619B
330
6197
100
AcDbEntity
  8
LW 5015-15-01
100
AcDbVertex
100
AcDb2dVertex
 10
29.8095774650576
 20
-13.31962585449213
 30
0.0
  0
VERTEX
  5
619C
330
6197
100
AcDbEntity
  8
LW 5015-15-01
100
AcDbVertex
100
AcDb2dVertex
 10
29.66169476509117
 20
-13.5708856582641
 30
0.0
  0
VERTEX
  5
619D
330
6197
100
AcDbEntity
  8
LW 5015-15-01
100
AcDbVertex
100
AcDb2dVertex
 10
29.478477239609
 20
-13.79940271377558
 30
0.0
  0
VERTEX
  5
619E
330
6197
100
AcDbEntity
  8
LW 5015-15-01
100
AcDbVertex
100
AcDb2dVertex
 10
29.26776528358483
 20
-13.99964332580561
 30
0.0
  0
VERTEX
  5
619F
330
6197
100
AcDbEntity
  8
LW 5015-15-01
100
AcDbVertex
100
AcDb2dVertex
 10
29.0274000167849
 20
-14.17419910430902
 30
0.0
  0
VERTEX
  5
61A0
330
6197
100
AcDbEntity
  8
LW 5015-15-01
100
AcDbVertex
100
AcDb2dVertex
 10
28.75476121902489
 20
-14.32525992393488
 30
0.0
  0
VERTEX
  5
61A1
330
6197
100
AcDbEntity
  8
LW 5015-15-01
100
AcDbVertex
100
AcDb2dVertex
 10
28.45699787139916
 20
-14.44669842720026
 30
0.0
  0
VERTEX
  5
61A2
330
6197
100
AcDbEntity
  8
LW 5015-15-01
100
AcDbVertex
100
AcDb2dVertex
 10
28.14183115959191
 20
-14.53354954719538
 30
0.0
  0
VERTEX
  5
61A3
330
6197
100
AcDbEntity
  8
LW 5015-15-01
100
AcDbVertex
100
AcDb2dVertex
 10
27.81929254531883
 20
-14.58527922630304
 30
0.0
  0
VERTEX
  5
61A4
330
6197
100
AcDbEntity
  8
LW 5015-15-01
100
AcDbVertex
100
AcDb2dVertex
 10
27.50000000000023
 20
-14.6024060249328
 30
0.0
  0
VERTEX
  5
61A5
330
6197
100
AcDbEntity
  8
LW 5015-15-01
100
AcDbVertex
100
AcDb2dVertex
 10
27.18070745468163
 20
-14.58527922630304
 30
0.0
  0
VERTEX
  5
61A6
330
6197
100
AcDbEntity
  8
LW 5015-15-01
100
AcDbVertex
100
AcDb2dVertex
 10
26.85816884040856
 20
-14.53354954719538
 30
0.0
  0
VERTEX
  5
61A7
330
6197
100
AcDbEntity
  8
LW 5015-15-01
100
AcDbVertex
100
AcDb2dVertex
 10
26.5430021286013
 20
-14.44669842720026
 30
0.0
  0
VERTEX
  5
61A8
330
6197
100
AcDbEntity
  8
LW 5015-15-01
100
AcDbVertex
100
AcDb2dVertex
 10
26.24523878097557
 20
-14.32525992393488
 30
0.0
  0
VERTEX
  5
61A9
330
6197
100
AcDbEntity
  8
LW 5015-15-01
100
AcDbVertex
100
AcDb2dVertex
 10
25.97259998321556
 20
-14.17419910430902
 30
0.0
  0
VERTEX
  5
61AA
330
6197
100
AcDbEntity
  8
LW 5015-15-01
100
AcDbVertex
100
AcDb2dVertex
 10
25.73223471641564
 20
-13.99964332580561
 30
0.0
  0
VERTEX
  5
61AB
330
6197
100
AcDbEntity
  8
LW 5015-15-01
100
AcDbVertex
100
AcDb2dVertex
 10
25.52152276039147
 20
-13.79940271377558
 30
0.0
  0
VERTEX
  5
61AC
330
6197
100
AcDbEntity
  8
LW 5015-15-01
100
AcDbVertex
100
AcDb2dVertex
 10
25.33830523490929
 20
-13.5708856582641
 30
0.0
  0
VERTEX
  5
61AD
330
6197
100
AcDbEntity
  8
LW 5015-15-01
100
AcDbVertex
100
AcDb2dVertex
 10
25.19042253494286
 20
-13.31962585449213
 30
0.0
  0
VERTEX
  5
61AE
330
6197
100
AcDbEntity
  8
LW 5015-15-01
100
AcDbVertex
100
AcDb2dVertex
 10
25.0843429565432
 20
-13.05167794227594
 30
0.0
  0
VERTEX
  5
61AF
330
6197
100
AcDbEntity
  8
LW 5015-15-01
100
AcDbVertex
100
AcDb2dVertex
 10
25.02101302146935
 20
-12.77545213699335
 30
0.0
  0
VERTEX
  5
61B0
330
6197
100
AcDbEntity
  8
LW 5015-15-01
100
AcDbVertex
100
AcDb2dVertex
 10
25.00000000000023
 20
-12.49999999999994
 30
0.0
  0
SEQEND
  5
61B1
330
6197
100
AcDbEntity
  8
LW 5015-15-01
  0
POLYLINE
  5
61B2
330
6193
100
AcDbEntity
  8
LW 5015-15-01
100
AcDb2dPolyline
 66
     1
 10
0.0
 20
0.0
 30
0.0
 70
   128
  0
VERTEX
  5
61B3
330
61B2
100
AcDbEntity
  8
LW 5015-15-01
100
AcDbVertex
100
AcDb2dVertex
 10
25.00000000000023
 20
-12.49999999999994
 30
0.0
  0
VERTEX
  5
61B4
330
61B2
100
AcDbEntity
  8
LW 5015-15-01
100
AcDbVertex
100
AcDb2dVertex
 10
25.02101302146935
 20
-12.22241878509516
 30
0.0
  0
VERTEX
  5
61B5
330
61B2
100
AcDbEntity
  8
LW 5015-15-01
100
AcDbVertex
100
AcDb2dVertex
 10
25.0843429565432
 20
-11.93999171257013
 30
0.0
  0
VERTEX
  5
61B6
330
61B2
100
AcDbEntity
  8
LW 5015-15-01
100
AcDbVertex
100
AcDb2dVertex
 10
25.19042253494286
 20
-11.6620504856109
 30
0.0
  0
VERTEX
  5
61B7
330
61B2
100
AcDbEntity
  8
LW 5015-15-01
100
AcDbVertex
100
AcDb2dVertex
 10
25.33830523490929
 20
-11.39756798744196
 30
0.0
  0
VERTEX
  5
61B8
330
61B2
100
AcDbEntity
  8
LW 5015-15-01
100
AcDbVertex
100
AcDb2dVertex
 10
25.52152276039147
 20
-11.15386009216303
 30
0.0
  0
VERTEX
  5
61B9
330
61B2
100
AcDbEntity
  8
LW 5015-15-01
100
AcDbVertex
100
AcDb2dVertex
 10
25.73223471641564
 20
-10.9377777576446
 30
0.0
  0
VERTEX
  5
61BA
330
61B2
100
AcDbEntity
  8
LW 5015-15-01
100
AcDbVertex
100
AcDb2dVertex
 10
25.97259998321556
 20
-10.74736952781671
 30
0.0
  0
VERTEX
  5
61BB
330
61B2
100
AcDbEntity
  8
LW 5015-15-01
100
AcDbVertex
100
AcDb2dVertex
 10
26.24523878097557
 20
-10.58108925819391
 30
0.0
  0
VERTEX
  5
61BC
330
61B2
100
AcDbEntity
  8
LW 5015-15-01
100
AcDbVertex
100
AcDb2dVertex
 10
26.5430021286013
 20
-10.4463899135589
 30
0.0
  0
VERTEX
  5
61BD
330
61B2
100
AcDbEntity
  8
LW 5015-15-01
100
AcDbVertex
100
AcDb2dVertex
 10
26.85816884040856
 20
-10.34950613975519
 30
0.0
  0
VERTEX
  5
61BE
330
61B2
100
AcDbEntity
  8
LW 5015-15-01
100
AcDbVertex
100
AcDb2dVertex
 10
27.18070745468163
 20
-10.2915477752685
 30
0.0
  0
VERTEX
  5
61BF
330
61B2
100
AcDbEntity
  8
LW 5015-15-01
100
AcDbVertex
100
AcDb2dVertex
 10
27.50000000000023
 20
-10.2722799777984
 30
0.0
  0
VERTEX
  5
61C0
330
61B2
100
AcDbEntity
  8
LW 5015-15-01
100
AcDbVertex
100
AcDb2dVertex
 10
27.81929254531883
 20
-10.2915477752685
 30
0.0
  0
VERTEX
  5
61C1
330
61B2
100
AcDbEntity
  8
LW 5015-15-01
100
AcDbVertex
100
AcDb2dVertex
 10
28.14183115959191
 20
-10.34950613975519
 30
0.0
  0
VERTEX
  5
61C2
330
61B2
100
AcDbEntity
  8
LW 5015-15-01
100
AcDbVertex
100
AcDb2dVertex
 10
28.45699787139916
 20
-10.4463899135589
 30
0.0
  0
VERTEX
  5
61C3
330
61B2
100
AcDbEntity
  8
LW 5015-15-01
100
AcDbVertex
100
AcDb2dVertex
 10
28.75476121902489
 20
-10.58108925819391
 30
0.0
  0
VERTEX
  5
61C4
330
61B2
100
AcDbEntity
  8
LW 5015-15-01
100
AcDbVertex
100
AcDb2dVertex
 10
29.0274000167849
 20
-10.74736952781671
 30
0.0
  0
VERTEX
  5
61C5
330
61B2
100
AcDbEntity
  8
LW 5015-15-01
100
AcDbVertex
100
AcDb2dVertex
 10
29.26776528358483
 20
-10.9377777576446
 30
0.0
  0
VERTEX
  5
61C6
330
61B2
100
AcDbEntity
  8
LW 5015-15-01
100
AcDbVertex
100
AcDb2dVertex
 10
29.478477239609
 20
-11.15386009216303
 30
0.0
  0
VERTEX
  5
61C7
330
61B2
100
AcDbEntity
  8
LW 5015-15-01
100
AcDbVertex
100
AcDb2dVertex
 10
29.66169476509117
 20
-11.39756798744196
 30
0.0
  0
VERTEX
  5
61C8
330
61B2
100
AcDbEntity
  8
LW 5015-15-01
100
AcDbVertex
100
AcDb2dVertex
 10
29.8095774650576
 20
-11.6620504856109
 30
0.0
  0
VERTEX
  5
61C9
330
61B2
100
AcDbEntity
  8
LW 5015-15-01
100
AcDbVertex
100
AcDb2dVertex
 10
29.91565704345726
 20
-11.93999171257013
 30
0.0
  0
VERTEX
  5
61CA
330
61B2
100
AcDbEntity
  8
LW 5015-15-01
100
AcDbVertex
100
AcDb2dVertex
 10
29.97898697853111
 20
-12.22241878509516
 30
0.0
  0
VERTEX
  5
61CB
330
61B2
100
AcDbEntity
  8
LW 5015-15-01
100
AcDbVertex
100
AcDb2dVertex
 10
30.00000000000023
 20
-12.49999999999994
 30
0.0
  0
SEQEND
  5
61CC
330
61B2
100
AcDbEntity
  8
LW 5015-15-01
  0
POLYLINE
  5
61CD
330
6193
100
AcDbEntity
  8
LW 5015-15-01
100
AcDb2dPolyline
 66
     1
 10
0.0
 20
0.0
 30
0.0
 70
   128
  0
VERTEX
  5
61CE
330
61CD
100
AcDbEntity
  8
LW 5015-15-01
100
AcDbVertex
100
AcDb2dVertex
 10
30.00000000000023
 20
25.00000000000011
 30
0.0
  0
VERTEX
  5
61CF
330
61CD
100
AcDbEntity
  8
LW 5015-15-01
100
AcDbVertex
100
AcDb2dVertex
 10
29.97898697853111
 20
24.99787092208874
 30
0.0
  0
VERTEX
  5
61D0
330
61CD
100
AcDbEntity
  8
LW 5015-15-01
100
AcDbVertex
100
AcDb2dVertex
 10
29.91565704345726
 20
24.99166965484631
 30
0.0
  0
VERTEX
  5
61D1
330
61CD
100
AcDbEntity
  8
LW 5015-15-01
100
AcDbVertex
100
AcDb2dVertex
 10
29.8095774650576
 20
24.98167514801037
 30
0.0
  0
VERTEX
  5
61D2
330
61CD
100
AcDbEntity
  8
LW 5015-15-01
100
AcDbVertex
100
AcDb2dVertex
 10
29.66169476509117
 20
24.96845483779919
 30
0.0
  0
VERTEX
  5
61D3
330
61CD
100
AcDbEntity
  8
LW 5015-15-01
100
AcDbVertex
100
AcDb2dVertex
 10
29.478477239609
 20
24.95326280593884
 30
0.0
  0
VERTEX
  5
61D4
330
61CD
100
AcDbEntity
  8
LW 5015-15-01
100
AcDbVertex
100
AcDb2dVertex
 10
29.26776528358483
 20
24.93742227554333
 30
0.0
  0
VERTEX
  5
61D5
330
61CD
100
AcDbEntity
  8
LW 5015-15-01
100
AcDbVertex
100
AcDb2dVertex
 10
29.0274000167849
 20
24.92156982421886
 30
0.0
  0
VERTEX
  5
61D6
330
61CD
100
AcDbEntity
  8
LW 5015-15-01
100
AcDbVertex
100
AcDb2dVertex
 10
28.75476121902489
 20
24.90634918212902
 30
0.0
  0
VERTEX
  5
61D7
330
61CD
100
AcDbEntity
  8
LW 5015-15-01
100
AcDbVertex
100
AcDb2dVertex
 10
28.45699787139916
 20
24.89308834075939
 30
0.0
  0
VERTEX
  5
61D8
330
61CD
100
AcDbEntity
  8
LW 5015-15-01
100
AcDbVertex
100
AcDb2dVertex
 10
28.14183115959191
 20
24.8830556869508
 30
0.0
  0
VERTEX
  5
61D9
330
61CD
100
AcDbEntity
  8
LW 5015-15-01
100
AcDbVertex
100
AcDb2dVertex
 10
27.81929254531883
 20
24.87682580947887
 30
0.0
  0
VERTEX
  5
61DA
330
61CD
100
AcDbEntity
  8
LW 5015-15-01
100
AcDbVertex
100
AcDb2dVertex
 10
27.50000000000023
 20
24.87468481063854
 30
0.0
  0
VERTEX
  5
61DB
330
61CD
100
AcDbEntity
  8
LW 5015-15-01
100
AcDbVertex
100
AcDb2dVertex
 10
27.18070745468163
 20
24.87682580947887
 30
0.0
  0
VERTEX
  5
61DC
330
61CD
100
AcDbEntity
  8
LW 5015-15-01
100
AcDbVertex
100
AcDb2dVertex
 10
26.85816884040856
 20
24.8830556869508
 30
0.0
  0
VERTEX
  5
61DD
330
61CD
100
AcDbEntity
  8
LW 5015-15-01
100
AcDbVertex
100
AcDb2dVertex
 10
26.5430021286013
 20
24.89308834075939
 30
0.0
  0
VERTEX
  5
61DE
330
61CD
100
AcDbEntity
  8
LW 5015-15-01
100
AcDbVertex
100
AcDb2dVertex
 10
26.24523878097557
 20
24.90634918212902
 30
0.0
  0
VERTEX
  5
61DF
330
61CD
100
AcDbEntity
  8
LW 5015-15-01
100
AcDbVertex
100
AcDb2dVertex
 10
25.97259998321556
 20
24.92156982421886
 30
0.0
  0
VERTEX
  5
61E0
330
61CD
100
AcDbEntity
  8
LW 5015-15-01
100
AcDbVertex
100
AcDb2dVertex
 10
25.73223471641564
 20
24.93742227554333
 30
0.0
  0
VERTEX
  5
61E1
330
61CD
100
AcDbEntity
  8
LW 5015-15-01
100
AcDbVertex
100
AcDb2dVertex
 10
25.52152276039147
 20
24.95326280593884
 30
0.0
  0
VERTEX
  5
61E2
330
61CD
100
AcDbEntity
  8
LW 5015-15-01
100
AcDbVertex
100
AcDb2dVertex
 10
25.33830523490929
 20
24.96845483779919
 30
0.0
  0
VERTEX
  5
61E3
330
61CD
100
AcDbEntity
  8
LW 5015-15-01
100
AcDbVertex
100
AcDb2dVertex
 10
25.19042253494286
 20
24.98167514801037
 30
0.0
  0
VERTEX
  5
61E4
330
61CD
100
AcDbEntity
  8
LW 5015-15-01
100
AcDbVertex
100
AcDb2dVertex
 10
25.0843429565432
 20
24.99166965484631
 30
0.0
  0
VERTEX
  5
61E5
330
61CD
100
AcDbEntity
  8
LW 5015-15-01
100
AcDbVertex
100
AcDb2dVertex
 10
25.02101302146935
 20
24.99787092208874
 30
0.0
  0
VERTEX
  5
61E6
330
61CD
100
AcDbEntity
  8
LW 5015-15-01
100
AcDbVertex
100
AcDb2dVertex
 10
25.00000000000023
 20
25.00000000000011
 30
0.0
  0
SEQEND
  5
61E7
330
61CD
100
AcDbEntity
  8
LW 5015-15-01
  0
LINE
  5
61E8
330
6193
100
AcDbEntity
  8
LW 5015-15-01
100
AcDbLine
 10
31.50000000000023
 20
-24.99999999999995
 30
0.0
 11
31.50000000000023
 21
25.00000000000011
 31
0.0
  0
LINE
  5
61E9
330
6193
100
AcDbEntity
  8
LW 5015-15-01
100
AcDbLine
 10
37.50000000000023
 20
-18.99999999999989
 30
0.0
 11
37.50000000000023
 21
19.00000000000005
 31
0.0
  0
LINE
  5
61EA
330
6193
100
AcDbEntity
  8
LW 5015-15-01
100
AcDbLine
 10
131.5000000000002
 20
-9.999999999999943
 30
0.0
 11
131.5000000000002
 21
10.00000000000011
 31
0.0
  0
LINE
  5
61EB
330
6193
100
AcDbEntity
  8
LW 5015-15-01
100
AcDbLine
 10
132.5000000000002
 20
-8.999999999999943
 30
0.0
 11
132.5000000000002
 21
9.000000000000113
 31
0.0
  0
LINE
  5
61EC
330
6193
100
AcDbEntity
  8
LW 5015-15-01
100
AcDbLine
 10
12.50000000000023
 20
25.00000000000011
 30
0.0
 11
25.00000000000023
 21
25.00000000000011
 31
0.0
  0
LINE
  5
61ED
330
6193
100
AcDbEntity
  8
LW 5015-15-01
100
AcDbLine
 10
30.00000000000023
 20
25.00000000000011
 30
0.0
 11
31.50000000000023
 21
25.00000000000011
 31
0.0
  0
LINE
  5
61EE
330
6193
100
AcDbEntity
  8
LW 5015-15-01
100
AcDbLine
 10
12.50000000000023
 20
-24.99999999999995
 30
0.0
 11
31.50000000000023
 21
-24.99999999999995
 31
0.0
  0
LINE
  5
61EF
330
6193
100
AcDbEntity
  8
LW 5015-15-01
100
AcDbLine
 10
37.50000000000023
 20
-18.99999999999989
 30
0.0
 11
31.50000000000023
 21
-24.99999999999995
 31
0.0
  0
LINE
  5
61F0
330
6193
100
AcDbEntity
  8
LW 5015-15-01
100
AcDbLine
 10
37.50000000000023
 20
19.00000000000005
 30
0.0
 11
31.50000000000023
 21
25.00000000000011
 31
0.0
  0
ARC
  5
61F1
330
6193
100
AcDbEntity
  8
LW 5015-15-01
100
AcDbCircle
 10
38.50000000000023
 20
-10.99999999999988
 30
0.0
 40
1.000000000000001
100
AcDbArc
 50
90.0
 51
180.0
  0
ARC
  5
61F2
330
6193
100
AcDbEntity
  8
LW 5015-15-01
100
AcDbCircle
 10
38.50000000000023
 20
11.00000000000011
 30
0.0
 40
1.000000000000001
100
AcDbArc
 50
180.0
 51
270.0
  0
LINE
  5
61F3
330
6193
100
AcDbEntity
  8
LW 5015-15-01
100
AcDbLine
 10
38.50000000000023
 20
10.00000000000011
 30
0.0
 11
80.10435004493524
 21
10.00000000000011
 31
0.0
  0
LINE
  5
61F4
330
6193
100
AcDbEntity
  8
LW 5015-15-01
100
AcDbLine
 10
114.8956499550653
 20
10.00000000000011
 30
0.0
 11
131.5000000000002
 21
10.00000000000011
 31
0.0
  0
LINE
  5
61F5
330
6193
100
AcDbEntity
  8
LW 5015-15-01
100
AcDbLine
 10
38.50000000000023
 20
-9.999999999999943
 30
0.0
 11
80.10435004493441
 21
-9.999999999999941
 31
0.0
  0
LINE
  5
61F6
330
6193
100
AcDbEntity
  8
LW 5015-15-01
100
AcDbLine
 10
114.8956499550661
 20
-9.999999999999943
 30
0.0
 11
131.5000000000002
 21
-9.999999999999943
 31
0.0
  0
LINE
  5
61F7
330
6193
100
AcDbEntity
  8
LW 5015-15-01
100
AcDbLine
 10
132.5000000000002
 20
-8.999999999999886
 30
0.0
 11
131.5000000000002
 21
-9.999999999999943
 31
0.0
  0
LINE
  5
61F8
330
6193
100
AcDbEntity
  8
LW 5015-15-01
100
AcDbLine
 10
132.5000000000002
 20
9.000000000000113
 30
0.0
 11
131.5000000000002
 21
10.00000000000011
 31
0.0
  0
ELLIPSE
  5
61F9
330
6193
100
AcDbEntity
  8
LW 5015-15-01
100
AcDbEllipse
 10
-27.49999999999977
 20
-9.499999999999943
 30
0.0
 11
-2.499999999999998
 21
0.0000000000002211
 31
0.0
210
0.0
220
0.0
230
1.0
 40
0.8660254037844389
 41
0.7560039322268226
 42
2.385588721363198
  0
POLYLINE
  5
61FA
330
6193
100
AcDbEntity
  8
LW 5015-15-01
100
AcDb2dPolyline
 66
     1
 10
0.0
 20
0.0
 30
0.0
 70
   128
  0
VERTEX
  5
61FB
330
61FA
100
AcDbEntity
  8
LW 5015-15-01
100
AcDbVertex
100
AcDb2dVertex
 10
-29.99999999999977
 20
-12.49999999999994
 30
0.0
  0
VERTEX
  5
61FC
330
61FA
100
AcDbEntity
  8
LW 5015-15-01
100
AcDbVertex
100
AcDb2dVertex
 10
-29.97898697853066
 20
-12.22241878509516
 30
0.0
  0
VERTEX
  5
61FD
330
61FA
100
AcDbEntity
  8
LW 5015-15-01
100
AcDbVertex
100
AcDb2dVertex
 10
-29.9156570434568
 20
-11.93999171257013
 30
0.0
  0
VERTEX
  5
61FE
330
61FA
100
AcDbEntity
  8
LW 5015-15-01
100
AcDbVertex
100
AcDb2dVertex
 10
-29.80957746505715
 20
-11.6620504856109
 30
0.0
  0
VERTEX
  5
61FF
330
61FA
100
AcDbEntity
  8
LW 5015-15-01
100
AcDbVertex
100
AcDb2dVertex
 10
-29.66169476509072
 20
-11.39756798744196
 30
0.0
  0
VERTEX
  5
6200
330
61FA
100
AcDbEntity
  8
LW 5015-15-01
100
AcDbVertex
100
AcDb2dVertex
 10
-29.47847723960854
 20
-11.15386009216303
 30
0.0
  0
VERTEX
  5
6201
330
61FA
100
AcDbEntity
  8
LW 5015-15-01
100
AcDbVertex
100
AcDb2dVertex
 10
-29.26776528358437
 20
-10.9377777576446
 30
0.0
  0
VERTEX
  5
6202
330
61FA
100
AcDbEntity
  8
LW 5015-15-01
100
AcDbVertex
100
AcDb2dVertex
 10
-29.02740001678444
 20
-10.74736952781671
 30
0.0
  0
VERTEX
  5
6203
330
61FA
100
AcDbEntity
  8
LW 5015-15-01
100
AcDbVertex
100
AcDb2dVertex
 10
-28.75476121902443
 20
-10.58108925819391
 30
0.0
  0
VERTEX
  5
6204
330
61FA
100
AcDbEntity
  8
LW 5015-15-01
100
AcDbVertex
100
AcDb2dVertex
 10
-28.4569978713987
 20
-10.4463899135589
 30
0.0
  0
VERTEX
  5
6205
330
61FA
100
AcDbEntity
  8
LW 5015-15-01
100
AcDbVertex
100
AcDb2dVertex
 10
-28.14183115959145
 20
-10.34950613975519
 30
0.0
  0
VERTEX
  5
6206
330
61FA
100
AcDbEntity
  8
LW 5015-15-01
100
AcDbVertex
100
AcDb2dVertex
 10
-27.81929254531838
 20
-10.2915477752685
 30
0.0
  0
VERTEX
  5
6207
330
61FA
100
AcDbEntity
  8
LW 5015-15-01
100
AcDbVertex
100
AcDb2dVertex
 10
-27.49999999999977
 20
-10.2722799777984
 30
0.0
  0
VERTEX
  5
6208
330
61FA
100
AcDbEntity
  8
LW 5015-15-01
100
AcDbVertex
100
AcDb2dVertex
 10
-27.18070745468117
 20
-10.2915477752685
 30
0.0
  0
VERTEX
  5
6209
330
61FA
100
AcDbEntity
  8
LW 5015-15-01
100
AcDbVertex
100
AcDb2dVertex
 10
-26.8581688404081
 20
-10.34950613975519
 30
0.0
  0
VERTEX
  5
620A
330
61FA
100
AcDbEntity
  8
LW 5015-15-01
100
AcDbVertex
100
AcDb2dVertex
 10
-26.54300212860085
 20
-10.4463899135589
 30
0.0
  0
VERTEX
  5
620B
330
61FA
100
AcDbEntity
  8
LW 5015-15-01
100
AcDbVertex
100
AcDb2dVertex
 10
-26.24523878097511
 20
-10.58108925819391
 30
0.0
  0
VERTEX
  5
620C
330
61FA
100
AcDbEntity
  8
LW 5015-15-01
100
AcDbVertex
100
AcDb2dVertex
 10
-25.9725999832151
 20
-10.74736952781671
 30
0.0
  0
VERTEX
  5
620D
330
61FA
100
AcDbEntity
  8
LW 5015-15-01
100
AcDbVertex
100
AcDb2dVertex
 10
-25.73223471641518
 20
-10.9377777576446
 30
0.0
  0
VERTEX
  5
620E
330
61FA
100
AcDbEntity
  8
LW 5015-15-01
100
AcDbVertex
100
AcDb2dVertex
 10
-25.52152276039101
 20
-11.15386009216303
 30
0.0
  0
VERTEX
  5
620F
330
61FA
100
AcDbEntity
  8
LW 5015-15-01
100
AcDbVertex
100
AcDb2dVertex
 10
-25.33830523490883
 20
-11.39756798744196
 30
0.0
  0
VERTEX
  5
6210
330
61FA
100
AcDbEntity
  8
LW 5015-15-01
100
AcDbVertex
100
AcDb2dVertex
 10
-25.1904225349424
 20
-11.6620504856109
 30
0.0
  0
VERTEX
  5
6211
330
61FA
100
AcDbEntity
  8
LW 5015-15-01
100
AcDbVertex
100
AcDb2dVertex
 10
-25.08434295654274
 20
-11.93999171257013
 30
0.0
  0
VERTEX
  5
6212
330
61FA
100
AcDbEntity
  8
LW 5015-15-01
100
AcDbVertex
100
AcDb2dVertex
 10
-25.02101302146889
 20
-12.22241878509516
 30
0.0
  0
VERTEX
  5
6213
330
61FA
100
AcDbEntity
  8
LW 5015-15-01
100
AcDbVertex
100
AcDb2dVertex
 10
-24.99999999999977
 20
-12.49999999999994
 30
0.0
  0
SEQEND
  5
6214
330
61FA
100
AcDbEntity
  8
LW 5015-15-01
  0
POLYLINE
  5
6215
330
6193
100
AcDbEntity
  8
LW 5015-15-01
100
AcDb2dPolyline
 66
     1
 10
0.0
 20
0.0
 30
0.0
 70
   128
  0
VERTEX
  5
6216
330
6215
100
AcDbEntity
  8
LW 5015-15-01
100
AcDbVertex
100
AcDb2dVertex
 10
-24.99999999999977
 20
-12.49999999999994
 30
0.0
  0
VERTEX
  5
6217
330
6215
100
AcDbEntity
  8
LW 5015-15-01
100
AcDbVertex
100
AcDb2dVertex
 10
-25.02101302146889
 20
-12.77545213699335
 30
0.0
  0
VERTEX
  5
6218
330
6215
100
AcDbEntity
  8
LW 5015-15-01
100
AcDbVertex
100
AcDb2dVertex
 10
-25.08434295654274
 20
-13.05167794227594
 30
0.0
  0
VERTEX
  5
6219
330
6215
100
AcDbEntity
  8
LW 5015-15-01
100
AcDbVertex
100
AcDb2dVertex
 10
-25.1904225349424
 20
-13.31962585449213
 30
0.0
  0
VERTEX
  5
621A
330
6215
100
AcDbEntity
  8
LW 5015-15-01
100
AcDbVertex
100
AcDb2dVertex
 10
-25.33830523490883
 20
-13.5708856582641
 30
0.0
  0
VERTEX
  5
621B
330
6215
100
AcDbEntity
  8
LW 5015-15-01
100
AcDbVertex
100
AcDb2dVertex
 10
-25.52152276039101
 20
-13.79940271377558
 30
0.0
  0
VERTEX
  5
621C
330
6215
100
AcDbEntity
  8
LW 5015-15-01
100
AcDbVertex
100
AcDb2dVertex
 10
-25.73223471641518
 20
-13.99964332580561
 30
0.0
  0
VERTEX
  5
621D
330
6215
100
AcDbEntity
  8
LW 5015-15-01
100
AcDbVertex
100
AcDb2dVertex
 10
-25.9725999832151
 20
-14.17419910430902
 30
0.0
  0
VERTEX
  5
621E
330
6215
100
AcDbEntity
  8
LW 5015-15-01
100
AcDbVertex
100
AcDb2dVertex
 10
-26.24523878097511
 20
-14.32525992393488
 30
0.0
  0
VERTEX
  5
621F
330
6215
100
AcDbEntity
  8
LW 5015-15-01
100
AcDbVertex
100
AcDb2dVertex
 10
-26.54300212860085
 20
-14.44669842720026
 30
0.0
  0
VERTEX
  5
6220
330
6215
100
AcDbEntity
  8
LW 5015-15-01
100
AcDbVertex
100
AcDb2dVertex
 10
-26.8581688404081
 20
-14.53354954719538
 30
0.0
  0
VERTEX
  5
6221
330
6215
100
AcDbEntity
  8
LW 5015-15-01
100
AcDbVertex
100
AcDb2dVertex
 10
-27.18070745468117
 20
-14.58527922630304
 30
0.0
  0
VERTEX
  5
6222
330
6215
100
AcDbEntity
  8
LW 5015-15-01
100
AcDbVertex
100
AcDb2dVertex
 10
-27.49999999999977
 20
-14.6024060249328
 30
0.0
  0
VERTEX
  5
6223
330
6215
100
AcDbEntity
  8
LW 5015-15-01
100
AcDbVertex
100
AcDb2dVertex
 10
-27.81929254531838
 20
-14.58527922630304
 30
0.0
  0
VERTEX
  5
6224
330
6215
100
AcDbEntity
  8
LW 5015-15-01
100
AcDbVertex
100
AcDb2dVertex
 10
-28.14183115959145
 20
-14.53354954719538
 30
0.0
  0
VERTEX
  5
6225
330
6215
100
AcDbEntity
  8
LW 5015-15-01
100
AcDbVertex
100
AcDb2dVertex
 10
-28.4569978713987
 20
-14.44669842720026
 30
0.0
  0
VERTEX
  5
6226
330
6215
100
AcDbEntity
  8
LW 5015-15-01
100
AcDbVertex
100
AcDb2dVertex
 10
-28.75476121902443
 20
-14.32525992393488
 30
0.0
  0
VERTEX
  5
6227
330
6215
100
AcDbEntity
  8
LW 5015-15-01
100
AcDbVertex
100
AcDb2dVertex
 10
-29.02740001678444
 20
-14.17419910430902
 30
0.0
  0
VERTEX
  5
6228
330
6215
100
AcDbEntity
  8
LW 5015-15-01
100
AcDbVertex
100
AcDb2dVertex
 10
-29.26776528358437
 20
-13.99964332580561
 30
0.0
  0
VERTEX
  5
6229
330
6215
100
AcDbEntity
  8
LW 5015-15-01
100
AcDbVertex
100
AcDb2dVertex
 10
-29.47847723960854
 20
-13.79940271377558
 30
0.0
  0
VERTEX
  5
622A
330
6215
100
AcDbEntity
  8
LW 5015-15-01
100
AcDbVertex
100
AcDb2dVertex
 10
-29.66169476509072
 20
-13.5708856582641
 30
0.0
  0
VERTEX
  5
622B
330
6215
100
AcDbEntity
  8
LW 5015-15-01
100
AcDbVertex
100
AcDb2dVertex
 10
-29.80957746505715
 20
-13.31962585449213
 30
0.0
  0
VERTEX
  5
622C
330
6215
100
AcDbEntity
  8
LW 5015-15-01
100
AcDbVertex
100
AcDb2dVertex
 10
-29.9156570434568
 20
-13.05167794227594
 30
0.0
  0
VERTEX
  5
622D
330
6215
100
AcDbEntity
  8
LW 5015-15-01
100
AcDbVertex
100
AcDb2dVertex
 10
-29.97898697853066
 20
-12.77545213699335
 30
0.0
  0
VERTEX
  5
622E
330
6215
100
AcDbEntity
  8
LW 5015-15-01
100
AcDbVertex
100
AcDb2dVertex
 10
-29.99999999999977
 20
-12.49999999999994
 30
0.0
  0
SEQEND
  5
622F
330
6215
100
AcDbEntity
  8
LW 5015-15-01
  0
POLYLINE
  5
6230
330
6193
100
AcDbEntity
  8
LW 5015-15-01
100
AcDb2dPolyline
 66
     1
 10
0.0
 20
0.0
 30
0.0
 70
   128
  0
VERTEX
  5
6231
330
6230
100
AcDbEntity
  8
LW 5015-15-01
100
AcDbVertex
100
AcDb2dVertex
 10
-24.99999999999977
 20
25.00000000000011
 30
0.0
  0
VERTEX
  5
6232
330
6230
100
AcDbEntity
  8
LW 5015-15-01
100
AcDbVertex
100
AcDb2dVertex
 10
-25.02101302146889
 20
24.99787092208874
 30
0.0
  0
VERTEX
  5
6233
330
6230
100
AcDbEntity
  8
LW 5015-15-01
100
AcDbVertex
100
AcDb2dVertex
 10
-25.08434295654274
 20
24.99166965484631
 30
0.0
  0
VERTEX
  5
6234
330
6230
100
AcDbEntity
  8
LW 5015-15-01
100
AcDbVertex
100
AcDb2dVertex
 10
-25.1904225349424
 20
24.98167514801037
 30
0.0
  0
VERTEX
  5
6235
330
6230
100
AcDbEntity
  8
LW 5015-15-01
100
AcDbVertex
100
AcDb2dVertex
 10
-25.33830523490883
 20
24.96845483779919
 30
0.0
  0
VERTEX
  5
6236
330
6230
100
AcDbEntity
  8
LW 5015-15-01
100
AcDbVertex
100
AcDb2dVertex
 10
-25.52152276039101
 20
24.95326280593884
 30
0.0
  0
VERTEX
  5
6237
330
6230
100
AcDbEntity
  8
LW 5015-15-01
100
AcDbVertex
100
AcDb2dVertex
 10
-25.73223471641518
 20
24.93742227554333
 30
0.0
  0
VERTEX
  5
6238
330
6230
100
AcDbEntity
  8
LW 5015-15-01
100
AcDbVertex
100
AcDb2dVertex
 10
-25.9725999832151
 20
24.92156982421886
 30
0.0
  0
VERTEX
  5
6239
330
6230
100
AcDbEntity
  8
LW 5015-15-01
100
AcDbVertex
100
AcDb2dVertex
 10
-26.24523878097511
 20
24.90634918212902
 30
0.0
  0
VERTEX
  5
623A
330
6230
100
AcDbEntity
  8
LW 5015-15-01
100
AcDbVertex
100
AcDb2dVertex
 10
-26.54300212860085
 20
24.89308834075939
 30
0.0
  0
VERTEX
  5
623B
330
6230
100
AcDbEntity
  8
LW 5015-15-01
100
AcDbVertex
100
AcDb2dVertex
 10
-26.8581688404081
 20
24.8830556869508
 30
0.0
  0
VERTEX
  5
623C
330
6230
100
AcDbEntity
  8
LW 5015-15-01
100
AcDbVertex
100
AcDb2dVertex
 10
-27.18070745468117
 20
24.87682580947887
 30
0.0
  0
VERTEX
  5
623D
330
6230
100
AcDbEntity
  8
LW 5015-15-01
100
AcDbVertex
100
AcDb2dVertex
 10
-27.49999999999977
 20
24.87468481063854
 30
0.0
  0
VERTEX
  5
623E
330
6230
100
AcDbEntity
  8
LW 5015-15-01
100
AcDbVertex
100
AcDb2dVertex
 10
-27.81929254531838
 20
24.87682580947887
 30
0.0
  0
VERTEX
  5
623F
330
6230
100
AcDbEntity
  8
LW 5015-15-01
100
AcDbVertex
100
AcDb2dVertex
 10
-28.14183115959145
 20
24.8830556869508
 30
0.0
  0
VERTEX
  5
6240
330
6230
100
AcDbEntity
  8
LW 5015-15-01
100
AcDbVertex
100
AcDb2dVertex
 10
-28.4569978713987
 20
24.89308834075939
 30
0.0
  0
VERTEX
  5
6241
330
6230
100
AcDbEntity
  8
LW 5015-15-01
100
AcDbVertex
100
AcDb2dVertex
 10
-28.75476121902443
 20
24.90634918212902
 30
0.0
  0
VERTEX
  5
6242
330
6230
100
AcDbEntity
  8
LW 5015-15-01
100
AcDbVertex
100
AcDb2dVertex
 10
-29.02740001678444
 20
24.92156982421886
 30
0.0
  0
VERTEX
  5
6243
330
6230
100
AcDbEntity
  8
LW 5015-15-01
100
AcDbVertex
100
AcDb2dVertex
 10
-29.26776528358437
 20
24.93742227554333
 30
0.0
  0
VERTEX
  5
6244
330
6230
100
AcDbEntity
  8
LW 5015-15-01
100
AcDbVertex
100
AcDb2dVertex
 10
-29.47847723960854
 20
24.95326280593884
 30
0.0
  0
VERTEX
  5
6245
330
6230
100
AcDbEntity
  8
LW 5015-15-01
100
AcDbVertex
100
AcDb2dVertex
 10
-29.66169476509072
 20
24.96845483779919
 30
0.0
  0
VERTEX
  5
6246
330
6230
100
AcDbEntity
  8
LW 5015-15-01
100
AcDbVertex
100
AcDb2dVertex
 10
-29.80957746505715
 20
24.98167514801037
 30
0.0
  0
VERTEX
  5
6247
330
6230
100
AcDbEntity
  8
LW 5015-15-01
100
AcDbVertex
100
AcDb2dVertex
 10
-29.9156570434568
 20
24.99166965484631
 30
0.0
  0
VERTEX
  5
6248
330
6230
100
AcDbEntity
  8
LW 5015-15-01
100
AcDbVertex
100
AcDb2dVertex
 10
-29.97898697853066
 20
24.99787092208874
 30
0.0
  0
VERTEX
  5
6249
330
6230
100
AcDbEntity
  8
LW 5015-15-01
100
AcDbVertex
100
AcDb2dVertex
 10
-29.99999999999977
 20
25.00000000000011
 30
0.0
  0
SEQEND
  5
624A
330
6230
100
AcDbEntity
  8
LW 5015-15-01
  0
LINE
  5
624B
330
6193
100
AcDbEntity
  8
LW 5015-15-01
100
AcDbLine
 10
-31.49999999999977
 20
25.00000000000011
 30
0.0
 11
-31.49999999999977
 21
-24.99999999999995
 31
0.0
  0
LINE
  5
624C
330
6193
100
AcDbEntity
  8
LW 5015-15-01
100
AcDbLine
 10
-37.49999999999977
 20
19.00000000000005
 30
0.0
 11
-37.49999999999977
 21
-18.99999999999989
 31
0.0
  0
LINE
  5
624D
330
6193
100
AcDbEntity
  8
LW 5015-15-01
100
AcDbLine
 10
-131.5
 20
10.00000000000011
 30
0.0
 11
-131.5
 21
-9.999999999999943
 31
0.0
  0
LINE
  5
624E
330
6193
100
AcDbEntity
  8
LW 5015-15-01
100
AcDbLine
 10
-132.5
 20
9.000000000000113
 30
0.0
 11
-132.5
 21
-8.999999999999943
 31
0.0
  0
LINE
  5
624F
330
6193
100
AcDbEntity
  8
LW 5015-15-01
100
AcDbLine
 10
-12.49999999999977
 20
-24.99999999999995
 30
0.0
 11
-31.49999999999977
 21
-24.99999999999995
 31
0.0
  0
LINE
  5
6250
330
6193
100
AcDbEntity
  8
LW 5015-15-01
100
AcDbLine
 10
-12.49999999999977
 20
25.00000000000011
 30
0.0
 11
-24.99999999999977
 21
25.00000000000011
 31
0.0
  0
LINE
  5
6251
330
6193
100
AcDbEntity
  8
LW 5015-15-01
100
AcDbLine
 10
-29.99999999999977
 20
25.00000000000011
 30
0.0
 11
-31.49999999999977
 21
25.00000000000011
 31
0.0
  0
LINE
  5
6252
330
6193
100
AcDbEntity
  8
LW 5015-15-01
100
AcDbLine
 10
-37.49999999999977
 20
19.00000000000005
 30
0.0
 11
-31.49999999999977
 21
25.00000000000011
 31
0.0
  0
LINE
  5
6253
330
6193
100
AcDbEntity
  8
LW 5015-15-01
100
AcDbLine
 10
-37.49999999999977
 20
-18.99999999999989
 30
0.0
 11
-31.49999999999977
 21
-24.99999999999995
 31
0.0
  0
ARC
  5
6254
330
6193
100
AcDbEntity
  8
LW 5015-15-01
100
AcDbCircle
 10
-38.5
 20
11.00000000000011
 30
0.0
 40
1.000000000000002
100
AcDbArc
 50
270.0
 51
0.0
  0
ARC
  5
6255
330
6193
100
AcDbEntity
  8
LW 5015-15-01
100
AcDbCircle
 10
-38.5
 20
-10.99999999999994
 30
0.0
 40
1.000000000000002
100
AcDbArc
 50
0.0
 51
90.0
  0
LINE
  5
6256
330
6193
100
AcDbEntity
  8
LW 5015-15-01
100
AcDbLine
 10
-38.5
 20
-9.999999999999943
 30
0.0
 11
-80.10435004493386
 21
-9.999999999999943
 31
0.0
  0
LINE
  5
6257
330
6193
100
AcDbEntity
  8
LW 5015-15-01
100
AcDbLine
 10
-114.8956499550656
 20
-9.999999999999943
 30
0.0
 11
-131.5
 21
-9.999999999999943
 31
0.0
  0
LINE
  5
6258
330
6193
100
AcDbEntity
  8
LW 5015-15-01
100
AcDbLine
 10
-38.5
 20
10.00000000000011
 30
0.0
 11
-80.10435004493469
 21
10.00000000000011
 31
0.0
  0
LINE
  5
6259
330
6193
100
AcDbEntity
  8
LW 5015-15-01
100
AcDbLine
 10
-114.8956499550647
 20
10.00000000000011
 30
0.0
 11
-131.5
 21
10.00000000000011
 31
0.0
  0
LINE
  5
625A
330
6193
100
AcDbEntity
  8
LW 5015-15-01
100
AcDbLine
 10
-132.5
 20
9.000000000000056
 30
0.0
 11
-131.5
 21
10.00000000000011
 31
0.0
  0
LINE
  5
625B
330
6193
100
AcDbEntity
  8
LW 5015-15-01
100
AcDbLine
 10
-132.5
 20
-8.999999999999943
 30
0.0
 11
-131.5
 21
-9.999999999999943
 31
0.0
  0
LINE
  5
625C
330
6193
100
AcDbEntity
  8
LW 5015-15-01
100
AcDbLine
 10
-114.9999999999997
 20
60.87500000000005
 30
0.0
 11
-79.99999999999977
 21
60.87500000000005
 31
0.0
  0
LINE
  5
625D
330
6193
100
AcDbEntity
  8
LW 5015-15-01
100
AcDbLine
 10
-113.4999999999998
 20
-19.99999999999994
 30
0.0
 11
-81.49999999999977
 21
-19.99999999999994
 31
0.0
  0
LINE
  5
625E
330
6193
100
AcDbEntity
  8
LW 5015-15-01
100
AcDbLine
 10
-79.99999999999977
 20
60.87500000000005
 30
0.0
 11
-79.99999999999977
 21
10.10000000000008
 31
0.0
  0
LINE
  5
625F
330
6193
100
AcDbEntity
  8
LW 5015-15-01
100
AcDbLine
 10
-79.99999999999977
 20
-10.09999999999996
 30
0.0
 11
-79.99999999999977
 21
-18.49999999999994
 31
0.0
  0
LINE
  5
6260
330
6193
100
AcDbEntity
  8
LW 5015-15-01
100
AcDbLine
 10
-114.9999999999997
 20
60.87500000000005
 30
0.0
 11
-114.9999999999997
 21
10.10000000000008
 31
0.0
  0
LINE
  5
6261
330
6193
100
AcDbEntity
  8
LW 5015-15-01
100
AcDbLine
 10
-114.9999999999997
 20
-10.09999999999996
 30
0.0
 11
-114.9999999999997
 21
-18.49999999999994
 31
0.0
  0
ARC
  5
6262
330
6193
100
AcDbEntity
  8
LW 5015-15-01
100
AcDbCircle
 10
-113.4999999999998
 20
-18.49999999999994
 30
0.0
 40
1.500000000000012
100
AcDbArc
 50
180.0
 51
270.0
  0
ARC
  5
6263
330
6193
100
AcDbEntity
  8
LW 5015-15-01
100
AcDbCircle
 10
-81.49999999999977
 20
-18.49999999999994
 30
0.0
 40
1.500000000000012
100
AcDbArc
 50
270.0
 51
0.0
  0
LINE
  5
6264
330
6193
100
AcDbEntity
  8
LW 5015-15-01
100
AcDbLine
 10
110.2377392028572
 20
-0.0999999999999091
 30
0.0
 11
110.2377392028572
 21
0.1000000000000796
 31
0.0
  0
LINE
  5
6265
330
6193
100
AcDbEntity
  8
LW 5015-15-01
100
AcDbLine
 10
84.7622607971432
 20
0.1000000000000796
 30
0.0
 11
84.7622607971432
 21
-0.0999999999999091
 31
0.0
  0
LINE
  5
6266
330
6193
100
AcDbEntity
  8
LW 5015-15-01
100
AcDbLine
 10
80.00000000000023
 20
60.87500000000005
 30
0.0
 11
115.0000000000002
 21
60.87500000000005
 31
0.0
  0
LINE
  5
6267
330
6193
100
AcDbEntity
  8
LW 5015-15-01
100
AcDbLine
 10
81.50000000000023
 20
-19.99999999999994
 30
0.0
 11
113.5000000000002
 21
-19.99999999999994
 31
0.0
  0
LINE
  5
6268
330
6193
100
AcDbEntity
  8
LW 5015-15-01
100
AcDbLine
 10
115.0000000000002
 20
60.87500000000005
 30
0.0
 11
115.0000000000002
 21
10.10000000000008
 31
0.0
  0
LINE
  5
6269
330
6193
100
AcDbEntity
  8
LW 5015-15-01
100
AcDbLine
 10
115.0000000000002
 20
-10.09999999999991
 30
0.0
 11
115.0000000000002
 21
-18.49999999999994
 31
0.0
  0
LINE
  5
626A
330
6193
100
AcDbEntity
  8
LW 5015-15-01
100
AcDbLine
 10
80.00000000000023
 20
60.87500000000005
 30
0.0
 11
80.00000000000023
 21
10.10000000000008
 31
0.0
  0
LINE
  5
626B
330
6193
100
AcDbEntity
  8
LW 5015-15-01
100
AcDbLine
 10
80.00000000000023
 20
-10.09999999999991
 30
0.0
 11
80.00000000000023
 21
-18.49999999999994
 31
0.0
  0
ARC
  5
626C
330
6193
100
AcDbEntity
  8
LW 5015-15-01
100
AcDbCircle
 10
81.50000000000023
 20
-18.49999999999994
 30
0.0
 40
1.500000000000012
100
AcDbArc
 50
180.0
 51
270.0
  0
ARC
  5
626D
330
6193
100
AcDbEntity
  8
LW 5015-15-01
100
AcDbCircle
 10
113.5000000000002
 20
-18.49999999999994
 30
0.0
 40
1.500000000000012
100
AcDbArc
 50
270.0
 51
0.0
  0
LINE
  5
626E
330
6193
100
AcDbEntity
  8
LW 5015-15-01
100
AcDbLine
 10
-103.2730999999999
 20
77.00000000000006
 30
0.0
 11
-91.72689999999988
 21
77.00000000000006
 31
0.0
  0
LINE
  5
626F
330
6193
100
AcDbEntity
  8
LW 5015-15-01
100
AcDbLine
 10
-90.49999999999977
 20
75.77310000000017
 30
0.0
 11
-104.4999999999997
 21
75.77310000000017
 31
0.0
  0
LINE
  5
6270
330
6193
100
AcDbEntity
  8
LW 5015-15-01
100
AcDbLine
 10
-91.72689999999988
 20
77.00000000000006
 30
0.0
 11
-90.49999999999977
 21
75.77310000000017
 31
0.0
  0
LINE
  5
6271
330
6193
100
AcDbEntity
  8
LW 5015-15-01
100
AcDbLine
 10
-103.2730999999999
 20
77.00000000000006
 30
0.0
 11
-104.4999999999997
 21
75.77310000000017
 31
0.0
  0
LINE
  5
6272
330
6193
100
AcDbEntity
  8
LW 5015-15-01
100
AcDbLine
 10
-90.49999999999977
 20
75.77310000000017
 30
0.0
 11
-90.49999999999977
 21
60.87500000000005
 31
0.0
  0
LINE
  5
6273
330
6193
100
AcDbEntity
  8
LW 5015-15-01
100
AcDbLine
 10
-104.4999999999997
 20
75.77310000000017
 30
0.0
 11
-104.4999999999997
 21
60.87500000000005
 31
0.0
  0
LINE
  5
6274
330
6193
100
AcDbEntity
  8
LW 5015-15-01
 62
     3
100
AcDbLine
 10
-91.7054999999998
 20
60.87500000000005
 30
0.0
 11
-91.7054999999998
 21
76.97860000000009
 31
0.0
  0
LINE
  5
6275
330
6193
100
AcDbEntity
  8
LW 5015-15-01
 62
     3
100
AcDbLine
 10
-103.2944999999997
 20
76.97860000000009
 30
0.0
 11
-103.2944999999997
 21
60.87500000000005
 31
0.0
  0
LINE
  5
6276
330
6193
100
AcDbEntity
  8
LW 5015-15-01
100
AcDbLine
 10
91.72690000000011
 20
77.00000000000006
 30
0.0
 11
103.2731000000001
 21
77.00000000000006
 31
0.0
  0
LINE
  5
6277
330
6193
100
AcDbEntity
  8
LW 5015-15-01
100
AcDbLine
 10
104.5000000000002
 20
75.77310000000017
 30
0.0
 11
90.50000000000023
 21
75.77310000000017
 31
0.0
  0
LINE
  5
6278
330
6193
100
AcDbEntity
  8
LW 5015-15-01
100
AcDbLine
 10
103.2731000000001
 20
77.00000000000006
 30
0.0
 11
104.5000000000002
 21
75.77310000000017
 31
0.0
  0
LINE
  5
6279
330
6193
100
AcDbEntity
  8
LW 5015-15-01
100
AcDbLine
 10
91.72690000000011
 20
77.00000000000006
 30
0.0
 11
90.50000000000023
 21
75.77310000000017
 31
0.0
  0
LINE
  5
627A
330
6193
100
AcDbEntity
  8
LW 5015-15-01
100
AcDbLine
 10
104.5000000000002
 20
75.77310000000017
 30
0.0
 11
104.5000000000002
 21
60.87500000000005
 31
0.0
  0
LINE
  5
627B
330
6193
100
AcDbEntity
  8
LW 5015-15-01
100
AcDbLine
 10
90.50000000000023
 20
75.77310000000017
 30
0.0
 11
90.50000000000023
 21
60.87500000000005
 31
0.0
  0
LINE
  5
627C
330
6193
100
AcDbEntity
  8
LW 5015-15-01
 62
     3
100
AcDbLine
 10
103.2945000000002
 20
60.87500000000005
 30
0.0
 11
103.2945000000002
 21
76.97860000000019
 31
0.0
  0
LINE
  5
627D
330
6193
100
AcDbEntity
  8
LW 5015-15-01
 62
     3
100
AcDbLine
 10
91.70550000000025
 20
76.97860000000009
 30
0.0
 11
91.70550000000025
 21
60.87500000000005
 31
0.0
  0
LINE
  5
627E
330
6193
100
AcDbEntity
  8
LW 5015-15-01
100
AcDbLine
 10
6.5
 20
12.00000000000005
 30
0.0
 11
6.5
 21
-11.99999999999994
 31
0.0
  0
LINE
  5
627F
330
6193
100
AcDbEntity
  8
LW 5015-15-01
100
AcDbLine
 10
-6.5
 20
12.00000000000005
 30
0.0
 11
-6.5
 21
-11.99999999999994
 31
0.0
  0
LINE
  5
6280
330
6193
100
AcDbEntity
  8
LW 5015-15-01
100
AcDbLine
 10
-6.5
 20
12.00000000000005
 30
0.0
 11
6.5
 21
12.00000000000005
 31
0.0
  0
LINE
  5
6281
330
6193
100
AcDbEntity
  8
LW 5015-15-01
100
AcDbLine
 10
-6.5
 20
-11.99999999999994
 30
0.0
 11
6.5
 21
-11.99999999999994
 31
0.0
  0
LINE
  5
6282
330
6193
100
AcDbEntity
  8
LW 5015-15-01
100
AcDbLine
 10
-9.499999999999772
 20
32.50000000000006
 30
0.0
 11
-9.499999999999772
 21
-32.49999999999995
 31
0.0
  0
LINE
  5
6283
330
6193
100
AcDbEntity
  8
LW 5015-15-01
100
AcDbLine
 10
-12.49999999999977
 20
32.50000000000006
 30
0.0
 11
-12.49999999999977
 21
-32.49999999999995
 31
0.0
  0
LINE
  5
6284
330
6193
100
AcDbEntity
  8
LW 5015-15-01
100
AcDbLine
 10
-12.49999999999977
 20
32.50000000000006
 30
0.0
 11
-9.499999999999772
 21
32.50000000000006
 31
0.0
  0
LINE
  5
6285
330
6193
100
AcDbEntity
  8
LW 5015-15-01
100
AcDbLine
 10
-12.49999999999977
 20
-32.49999999999995
 30
0.0
 11
-9.499999999999772
 21
-32.49999999999995
 31
0.0
  0
LINE
  5
6286
330
6193
100
AcDbEntity
  8
LW 5015-15-01
100
AcDbLine
 10
9.500000000000227
 20
-32.49999999999995
 30
0.0
 11
9.500000000000227
 21
32.50000000000006
 31
0.0
  0
LINE
  5
6287
330
6193
100
AcDbEntity
  8
LW 5015-15-01
100
AcDbLine
 10
12.50000000000023
 20
-32.49999999999995
 30
0.0
 11
12.50000000000023
 21
32.50000000000006
 31
0.0
  0
LINE
  5
6288
330
6193
100
AcDbEntity
  8
LW 5015-15-01
100
AcDbLine
 10
12.50000000000023
 20
-32.49999999999995
 30
0.0
 11
9.500000000000227
 21
-32.49999999999995
 31
0.0
  0
LINE
  5
6289
330
6193
100
AcDbEntity
  8
LW 5015-15-01
100
AcDbLine
 10
12.50000000000023
 20
32.50000000000006
 30
0.0
 11
9.500000000000227
 21
32.50000000000006
 31
0.0
  0
LINE
  5
628A
330
6193
100
AcDbEntity
  8
LW 5015-15-01
100
AcDbLine
 10
-7.499999999999772
 20
32.00000000000006
 30
0.0
 11
-7.499999999999772
 21
-31.99999999999994
 31
0.0
  0
LINE
  5
628B
330
6193
100
AcDbEntity
  8
LW 5015-15-01
100
AcDbLine
 10
-9.499999999999772
 20
32.00000000000006
 30
0.0
 11
-7.499999999999772
 21
32.00000000000006
 31
0.0
  0
LINE
  5
628C
330
6193
100
AcDbEntity
  8
LW 5015-15-01
100
AcDbLine
 10
-9.499999999999772
 20
-31.99999999999994
 30
0.0
 11
-7.499999999999772
 21
-31.99999999999994
 31
0.0
  0
LINE
  5
628D
330
6193
100
AcDbEntity
  8
LW 5015-15-01
100
AcDbLine
 10
7.500000000000227
 20
-31.99999999999994
 30
0.0
 11
7.500000000000227
 21
32.00000000000006
 31
0.0
  0
LINE
  5
628E
330
6193
100
AcDbEntity
  8
LW 5015-15-01
100
AcDbLine
 10
9.500000000000227
 20
-31.99999999999994
 30
0.0
 11
7.500000000000227
 21
-31.99999999999994
 31
0.0
  0
LINE
  5
628F
330
6193
100
AcDbEntity
  8
LW 5015-15-01
100
AcDbLine
 10
9.500000000000227
 20
32.00000000000006
 30
0.0
 11
7.500000000000227
 21
32.00000000000006
 31
0.0
  0
LINE
  5
6290
330
6193
100
AcDbEntity
  8
LW 5015-15-01
100
AcDbLine
 10
7.500000000000227
 20
-6.999999999999943
 30
0.0
 11
6.5
 21
-6.999999999999943
 31
0.0
  0
LINE
  5
6291
330
6193
100
AcDbEntity
  8
LW 5015-15-01
100
AcDbLine
 10
-6.499999999999772
 20
-6.999999999999943
 30
0.0
 11
-7.499999999999772
 21
-6.999999999999943
 31
0.0
  0
LINE
  5
6292
330
6193
100
AcDbEntity
  8
LW 5015-15-01
100
AcDbLine
 10
7.500000000000227
 20
7.000000000000056
 30
0.0
 11
6.5
 21
7.000000000000056
 31
0.0
  0
LINE
  5
6293
330
6193
100
AcDbEntity
  8
LW 5015-15-01
100
AcDbLine
 10
-6.499999999999772
 20
7.000000000000056
 30
0.0
 11
-7.499999999999772
 21
7.000000000000056
 31
0.0
  0
LINE
  5
6294
330
6193
100
AcDbEntity
  8
LW 5015-15-01
 62
     3
100
AcDbLine
 10
-7.499999999999772
 20
-5.794499999999914
 30
0.0
 11
-6.499999999999772
 21
-5.794499999999914
 31
0.0
  0
LINE
  5
6295
330
6193
100
AcDbEntity
  8
LW 5015-15-01
 62
     3
100
AcDbLine
 10
6.5
 20
-5.794499999999914
 30
0.0
 11
7.500000000000227
 21
-5.794499999999914
 31
0.0
  0
LINE
  5
6296
330
6193
100
AcDbEntity
  8
LW 5015-15-01
 62
     3
100
AcDbLine
 10
7.500000000000227
 20
5.794500000000084
 30
0.0
 11
6.5
 21
5.794500000000084
 31
0.0
  0
LINE
  5
6297
330
6193
100
AcDbEntity
  8
LW 5015-15-01
 62
     3
100
AcDbLine
 10
-6.5
 20
5.794500000000084
 30
0.0
 11
-7.499999999999772
 21
5.794500000000084
 31
0.0
  0
LINE
  5
6298
330
6193
100
AcDbEntity
  8
LW 5015-15-01
  6
MITTE2
 62
     3
100
AcDbLine
 10
-97.49999999999978
 20
96.48528480478473
 30
0.0
 11
-97.49999999999978
 21
-28.08786257571905
 31
0.0
  0
LINE
  5
6299
330
6193
100
AcDbEntity
  8
LW 5015-15-01
  6
MITTE2
 62
     3
100
AcDbLine
 10
97.50000000000023
 20
97.33561345584604
 30
0.0
 11
97.50000000000023
 21
-28.08786257571899
 31
0.0
  0
LINE
  5
629A
330
6193
100
AcDbEntity
  8
LW 5015-15-01
  6
MITTE2
 62
     3
100
AcDbLine
 10
136.4212863273749
 20
0.0
 30
0.0
 11
-136.4212863273749
 21
0.0
 31
0.0
  0
LINE
  5
629B
330
6193
100
AcDbEntity
  8
LW 5015-15-01
  6
VERDECKT
 62
     6
100
AcDbLine
 10
82.83989145726195
 20
60.00000000000437
 30
0.0
 11
112.160108542738
 21
59.99999999999573
 31
0.0
  0
ARC
  5
629C
330
6193
100
AcDbEntity
  8
LW 5015-15-01
  6
VERDECKT
 62
     6
100
AcDbCircle
 10
82.83989145726241
 20
62.00000000000438
 30
0.0
 40
2.0
100
AcDbArc
 50
250.7099537807859
 51
270.0
  0
ARC
  5
629D
330
6193
100
AcDbEntity
  8
LW 5015-15-01
  6
VERDECKT
 62
     6
100
AcDbCircle
 10
112.1601085427385
 20
61.99999999999573
 30
0.0
 40
2.0
100
AcDbArc
 50
270.0
 51
289.2900462191729
  0
LINE
  5
629E
330
6193
100
AcDbEntity
  8
LW 5015-15-01
  6
VERDECKT
 62
     6
100
AcDbLine
 10
82.17919060780582
 20
60.11228328727276
 30
0.0
 11
80.00000000000023
 21
60.87500000000528
 31
0.0
  0
LINE
  5
629F
330
6193
100
AcDbEntity
  8
LW 5015-15-01
  6
VERDECKT
 62
     6
100
AcDbLine
 10
112.8208093921942
 20
60.11228328726367
 30
0.0
 11
115.0000000000002
 21
60.87499999999483
 31
0.0
  0
LINE
  5
62A0
330
6193
100
AcDbEntity
  8
LW 5015-15-01
  6
VERDECKT
 62
     6
100
AcDbLine
 10
-112.160108542738
 20
60.00000000000437
 30
0.0
 11
-82.83989145726195
 21
59.99999999999573
 31
0.0
  0
ARC
  5
62A1
330
6193
100
AcDbEntity
  8
LW 5015-15-01
  6
VERDECKT
 62
     6
100
AcDbCircle
 10
-112.1601085427376
 20
62.00000000000438
 30
0.0
 40
2.0
100
AcDbArc
 50
250.7099537807859
 51
270.0
  0
ARC
  5
62A2
330
6193
100
AcDbEntity
  8
LW 5015-15-01
  6
VERDECKT
 62
     6
100
AcDbCircle
 10
-82.83989145726151
 20
61.99999999999573
 30
0.0
 40
2.0
100
AcDbArc
 50
270.0
 51
289.2900462191729
  0
LINE
  5
62A3
330
6193
100
AcDbEntity
  8
LW 5015-15-01
  6
VERDECKT
 62
     6
100
AcDbLine
 10
-112.8208093921942
 20
60.11228328727276
 30
0.0
 11
-114.9999999999997
 21
60.87500000000528
 31
0.0
  0
LINE
  5
62A4
330
6193
100
AcDbEntity
  8
LW 5015-15-01
  6
VERDECKT
 62
     6
100
AcDbLine
 10
-82.17919060780582
 20
60.11228328726367
 30
0.0
 11
-79.99999999999977
 21
60.87499999999483
 31
0.0
  0
HATCH
  5
62A5
330
6193
100
AcDbEntity
  8
LW 5015-15-01
 62
     1
100
AcDbHatch
 10
0.0
 20
0.0
 30
0.0
210
0.0
220
0.0
230
1.0
  2
SOLID
 70
     1
 71
     0
 91
        5
 92
        7
 72
     0
 73
     1
 93
       76
 10
-105.9849828252545
 20
27.54233513799324
 10
-106.0365637870964
 20
27.57419396736606
 10
-106.187806186112
 20
27.69235209159734
 10
-106.3282303163746
 20
27.82683016681
 10
-106.4566148780882
 20
27.97285007327156
 10
-106.573521161004
 20
28.13651886935355
 10
-106.6756990428255
 20
28.3119058227183
 10
-106.7670507224084
 20
28.49365875531868
 10
-106.8365690348546
 20
28.6748276907843
 10
-106.8365690348546
 20
26.41768975258429
 10
-106.8278793796544
 20
26.20479320018427
 10
-106.8018104140546
 20
26.00275871678429
 10
-106.7605345518545
 20
25.80724147478424
 10
-106.7062242068546
 20
25.62258630178445
 10
-106.6367069652544
 20
25.4466207839842
 10
-106.5541552408544
 20
25.27934492138439
 10
-106.4588297233103
 20
25.12877665883735
 10
-106.3521207574545
 20
24.98606905838443
 10
-106.2330724812143
 20
24.86062780281378
 10
-106.1048131704624
 20
24.74936285073642
 10
-105.9676035148545
 20
24.64934491938431
 10
-105.8220517902543
 20
24.56679319498431
 10
-105.6678104104544
 20
24.50379319478435
 10
-105.5070517892545
 20
24.45382767738448
 10
-105.3419483404545
 20
24.42558629798447
 10
-105.1681552364543
 20
24.41689664278448
 10
-104.9943621324541
 20
24.42775871178452
 10
-104.8270862698543
 20
24.45817250498436
 10
-104.6663276486542
 20
24.51248284998456
 10
-104.5099138550545
 20
24.58200009158446
 10
-104.3621897166545
 20
24.67106905738461
 10
-104.2209828196546
 20
24.77751733358451
 10
-104.0897690261345
 20
24.90021526500851
 10
-103.9686352326466
 20
25.03641431371676
 10
-103.8581897150543
 20
25.18375871418454
 10
-103.7604310940546
 20
25.34451733538464
 10
-103.6755331627505
 20
25.52014395663178
 10
-103.6018448866543
 20
25.70079319858434
 10
-103.5453621278543
 20
25.89196561298451
 10
-103.5019138518546
 20
26.09182768258444
 10
-103.4758448862544
 20
26.30037940738436
 10
-103.4671552310544
 20
26.51110354598433
 10
-103.4671552310546
 20
28.630274631737
 10
-103.5302260347894
 20
28.46973076768455
 10
-103.6208463083121
 20
28.28616662388214
 10
-103.7253760012436
 20
28.11770021771196
 10
-103.8409942396693
 20
27.95486732295132
 10
-103.9707838362092
 20
27.81095495458118
 10
-104.1101375194375
 20
27.68351906109689
 10
-104.26062576415
 20
27.5698137063535
 10
-104.3448104062545
 20
27.51784247490474
 10
-104.3448104062545
 20
26.48937940798447
 10
-104.3523704062786
 20
26.35727057997889
 10
-104.3727041994466
 20
26.22651733818435
 10
-104.4056379926544
 20
26.0983449239846
 10
-104.4512586824544
 20
25.98320699258449
 10
-104.5077414412544
 20
25.87826202673415
 10
-104.5753469587102
 20
25.78011237125003
 10
-104.6532931658544
 20
25.68993112958452
 10
-104.7380173040544
 20
25.61824147418457
 10
-104.7380173040546
 20
27.34576278844321
 10
-104.7706527448126
 20
27.33517832117019
 10
-104.956026692364
 20
27.2990665132059
 10
-105.1463164063147
 20
27.28702286042409
 10
-105.3410674996698
 20
27.29904453285354
 10
-105.527436870936
 20
27.3353502545288
 10
-105.5765690308544
 20
27.35194895720366
 10
-105.5765690308544
 20
25.58131043958435
 10
-105.6721552380545
 20
25.65082768118447
 10
-105.7547069624543
 20
25.73337940558446
 10
-105.8245717902623
 20
25.82847030243789
 10
-105.8828793766545
 20
25.93106906138434
 10
-105.9268490319664
 20
26.0497610617611
 10
-105.9589138596543
 20
26.17220699318437
 10
-105.9784655838543
 20
26.30906906258434
 10
-105.9849828252545
 20
26.45244837338447
 97
        0
 92
        7
 72
     0
 73
     1
 93
       72
 10
-105.9703842045185
 20
29.27079900302107
 10
-105.9884586873345
 20
29.39366203789388
 10
-105.9936724804547
 20
29.51772424518441
 10
-105.9936724804547
 20
30.78641390438435
 10
-105.1790173054546
 20
29.93917252238436
 10
-103.4606379896545
 20
31.70534494178452
 10
-103.4606379896545
 20
33.02400011838432
 10
-105.2029138572547
 20
31.30996563018454
 10
-106.8365690348546
 20
32.99141391138443
 10
-106.8365690348546
 20
29.55248286598436
 10
-106.8257938624065
 20
29.34449596877227
 10
-106.8003331726704
 20
29.13777776121952
 10
-106.7605345518545
 20
28.93334493298431
 10
-106.7040517930545
 20
28.74000010478432
 10
-106.6323621376546
 20
28.55317251798425
 10
-106.5463345511743
 20
28.38201237950995
 10
-106.4498793784546
 20
28.21644837898436
 10
-106.3412586884546
 20
28.06437941298447
 10
-106.2219497225585
 20
27.92868175738119
 10
-106.0914311014544
 20
27.8036897569844
 10
-105.9523966182546
 20
27.69506906698422
 10
-105.8046724798546
 20
27.60382768738447
 10
-105.6504311000544
 20
27.53213803198429
 10
-105.4896724788545
 20
27.47782768698431
 10
-105.3223966162545
 20
27.44524147998442
 10
-105.1464310984543
 20
27.43437941098438
 10
-104.9748104082546
 20
27.44524147998442
 10
-104.8075345456545
 20
27.47782768698454
 10
-104.6467759244547
 20
27.52996561818446
 10
-104.4925345446545
 20
27.59948285978436
 10
-104.3437676476305
 20
27.6913238255932
 10
-104.2042986816704
 20
27.7967032742036
 10
-104.0752573019506
 20
27.91470879181981
 10
-103.9559483360544
 20
28.04700010258449
 10
-103.8479359219186
 20
28.19912120651571
 10
-103.7495690250543
 20
28.35765527598443
 10
-103.6648448868545
 20
28.52927596618457
 10
-103.5931552314546
 20
28.71175872538453
 10
-103.5391055761106
 20
28.90598989841493
 10
-103.4953966104544
 20
29.1027932093844
 10
-103.4693276448547
 20
29.31134493418455
 10
-103.4606379896545
 20
29.52206907278452
 10
-103.4606379896545
 20
31.42510356158442
 10
-104.3339483372547
 20
30.53875873118438
 10
-104.3339483372547
 20
29.52206907278452
 10
-104.337695630194
 20
29.45540203808997
 10
-104.3476779924704
 20
29.35445431363161
 10
-104.3691414408145
 20
29.23431983049165
 10
-104.4034655788546
 20
29.11720065770607
 10
-104.4443938548465
 20
29.01570548497017
 10
-104.4725483376946
 20
28.95957031237805
 10
-104.5051345446945
 20
28.90588562255249
 10
-104.6044573036306
 20
28.77332493247633
 10
-104.6744959245425
 20
28.69972355293254
 10
-104.7423621316543
 20
28.64465720793015
 10
-104.8149207525744
 20
28.59595169053392
 10
-104.8920848907505
 20
28.55658755247788
 10
-104.9735069599746
 20
28.52716437997088
 10
-105.0606642016305
 20
28.50646562128446
 10
-105.1499938570864
 20
28.49894906953642
 10
-105.2122986848703
 20
28.5003046557477
 10
-105.2744297195504
 20
28.50630920749092
 10
-105.3376035128544
 20
28.51846603511564
 10
-105.3993000647747
 20
28.53667955241491
 10
-105.4980145478464
 20
28.58032769048424
 10
-105.5658807549584
 20
28.6218555526853
 10
-105.6439138586545
 20
28.68493375978193
 10
-105.7704365957083
 20
28.81433570014684
 10
-105.8104945488385
 20
28.87360355348443
 10
-105.8548117903583
 20
28.94989872614047
 10
-105.8969566180785
 20
29.03391900226921
 10
-105.9397966182146
 20
29.15045596815645
 97
        0
 92
        7
 72
     0
 73
     1
 93
       57
 10
-105.9483124803109
 20
33.82883598300856
 10
-105.9882848942306
 20
33.96031046618447
 10
-106.0153966184548
 20
34.09500012178438
 10
-106.0240862736546
 20
34.23837943258428
 10
-106.0240862736548
 20
35.47882771238443
 10
-106.8496035176549
 20
35.47882771238443
 10
-106.8496035176547
 20
34.24489667398444
 10
-106.8409138624547
 20
34.03417253538447
 10
-106.8126724830547
 20
33.82779322438438
 10
-106.7713966208548
 20
33.6301035685845
 10
-106.7170862758548
 20
33.44110356798438
 10
-106.6453966204549
 20
33.25644839498437
 10
-106.5627579995025
 20
33.09004149790423
 10
-106.4663028267828
 20
32.93122066981397
 10
-106.3568131712627
 20
32.78114163485481
 10
-106.2375911019187
 20
32.64658232408289
 10
-106.1088104118548
 20
32.52651735818432
 10
-105.9697759286546
 20
32.42224149578448
 10
-105.8242242040546
 20
32.33751735758443
 10
-105.6699828242545
 20
32.26582770218425
 10
-105.5092242030546
 20
32.21586218478439
 10
-105.3419483404548
 20
32.18327597778449
 10
-105.1681552364548
 20
32.17241390878445
 10
-104.9943621324546
 20
32.18327597778449
 10
-104.8270862698546
 20
32.21586218478439
 10
-104.6663276486547
 20
32.26800011598431
 10
-104.5099138550547
 20
32.33968977138449
 10
-104.3621897166547
 20
32.42658632338458
 10
-104.2226338541427
 20
32.53543294441971
 10
-104.0922890261427
 20
32.65528935859317
 10
-103.9709814395505
 20
32.79171694523331
 10
-103.8603621288548
 20
32.93927598018451
 10
-103.7626035078547
 20
33.10003460138438
 10
-103.6778793696548
 20
33.27382770538435
 10
-103.6040173004548
 20
33.45848287838459
 10
-103.5475345416548
 20
33.64965529278453
 10
-103.5040862656547
 20
33.84951736238446
 10
-103.4801897138545
 20
34.05589667338456
 10
-103.4715000586547
 20
34.26879322578458
 10
-103.4715000586547
 20
35.47882771238443
 10
-104.3296035096546
 20
35.47882771238443
 10
-104.3296035096546
 20
34.24489667398444
 10
-104.3399441993426
 20
34.11124977700848
 10
-104.3619290269989
 20
33.97899322486461
 10
-104.3962531650386
 20
33.85838081068852
 10
-104.4442200617427
 20
33.74237391376852
 10
-104.5051345446948
 20
33.63271046514439
 10
-104.5727400621508
 20
33.53564701656052
 10
-104.6525110968869
 20
33.44822908524844
 10
-104.7380173040546
 20
33.37375874018454
 10
-104.7380173040546
 20
35.47882771238443
 10
-105.5657069618546
 20
35.47882771238443
 10
-105.5657069618546
 20
33.33682770558431
 10
-105.6634655828547
 20
33.40634494718444
 10
-105.7525345486547
 20
33.49324149918431
 10
-105.8288297213107
 20
33.59438908571252
 10
-105.8959138594546
 20
33.70179322398445
 97
        0
 92
        7
 72
     0
 73
     1
 93
        6
 10
-106.8365690348548
 20
35.70910357518443
 10
-103.4671552310546
 20
35.70910357518443
 10
-103.4671552310549
 20
37.94668978918463
 10
-104.3339483372549
 20
37.94668978918441
 10
-104.3339483372549
 20
36.73231047498445
 10
-106.8365690348548
 20
36.73231047498445
 97
        0
 92
        7
 72
     0
 73
     1
 93
        8
 10
-106.8365690348548
 20
36.96475875158427
 10
-106.0110517908547
 20
36.96475875158427
 10
-106.0110517908549
 20
38.19868978998449
 10
-103.4606379896549
 20
38.19868978998449
 10
-103.4606379896549
 20
39.22406910358456
 10
-106.0110517908547
 20
39.22406910358433
 10
-106.0110517908549
 20
40.4666897971843
 10
-106.8365690348551
 20
40.4666897971843
 97
        0
 75
     0
 76
     1
 47
0.0142553043587597
 98
        5
 10
-106.3941193652654
 20
26.85199526405956
 10
-106.2515663802596
 20
29.11949247740228
 10
-106.3085875528077
 20
33.61170420960372
 10
-106.5509277774999
 20
36.33555329343546
 10
-106.4511406450865
 20
37.7473912756621
450
        0
451
        0
460
0.0
461
0.0
452
        0
462
0.0
453
        0
470

  0
LWPOLYLINE
  5
62A6
330
6193
100
AcDbEntity
  8
LW 5015-15-01
 62
     1
100
AcDbPolyline
 90
        8
 70
     1
 43
0.0
 10
-106.0110517908547
 20
39.22406910358433
 10
-103.4606379896549
 20
39.22406910358456
 10
-103.4606379896549
 20
38.19868978998449
 10
-106.0110517908549
 20
38.19868978998449
 10
-106.0110517908547
 20
36.96475875158427
 10
-106.8365690348548
 20
36.96475875158427
 10
-106.8365690348551
 20
40.4666897971843
 10
-106.0110517908549
 20
40.4666897971843
  0
LWPOLYLINE
  5
62A7
330
6193
100
AcDbEntity
  8
LW 5015-15-01
 62
     1
100
AcDbPolyline
 90
       73
 70
     1
 43
0.0
 10
-104.3339483372547
 20
29.52206907278452
 10
-104.3339483372547
 20
30.53875873118438
 10
-103.4606379896545
 20
31.42510356158442
 10
-103.4606379896545
 20
29.52206907278452
 10
-103.4693276448547
 20
29.31134493418455
 10
-103.4953966104544
 20
29.1027932093844
 10
-103.5391055761106
 20
28.90598989841493
 10
-103.5931552314546
 20
28.71175872538453
 10
-103.6648448868545
 20
28.52927596618457
 10
-103.7495690250543
 20
28.35765527598443
 10
-103.8479359219186
 20
28.19912120651571
 10
-103.9559483360544
 20
28.04700010258449
 10
-104.0752573019504
 20
27.91470879181958
 10
-104.2042986816704
 20
27.7967032742036
 10
-104.3437676476305
 20
27.6913238255932
 10
-104.4925345446545
 20
27.59948285978436
 10
-104.6467759244547
 20
27.52996561818446
 10
-104.8075345456545
 20
27.47782768698454
 10
-104.9748104082546
 20
27.44524147998442
 10
-105.1464310984545
 20
27.43437941098438
 10
-105.3223966162545
 20
27.44524147998442
 10
-105.4896724788545
 20
27.47782768698431
 10
-105.6504311000544
 20
27.53213803198452
 10
-105.8046724798546
 20
27.60382768738447
 10
-105.9523966182546
 20
27.69506906698445
 10
-106.0914311014544
 20
27.8036897569844
 10
-106.2219497225587
 20
27.92868175738119
 10
-106.3412586884546
 20
28.06437941298424
 10
-106.4498793784546
 20
28.21644837898436
 10
-106.5463345511743
 20
28.38201237950995
 10
-106.6323621376546
 20
28.55317251798425
 10
-106.7040517930545
 20
28.74000010478432
 10
-106.7605345518545
 20
28.93334493298431
 10
-106.8003331726704
 20
29.13777776121952
 10
-106.8257938624065
 20
29.34449596877227
 10
-106.8365690348546
 20
29.55248286598436
 10
-106.8365690348546
 20
32.99141391138443
 10
-105.2029138572547
 20
31.30996563018454
 10
-103.4606379896545
 20
33.02400011838432
 10
-103.4606379896545
 20
31.70534494178452
 10
-105.1790173054546
 20
29.93917252238436
 10
-105.9936724804547
 20
30.78641390438435
 10
-105.9936724804547
 20
29.51772424518441
 10
-105.9884586873345
 20
29.39366203789388
 10
-105.9703842045185
 20
29.27079900302107
 10
-105.9397966182146
 20
29.15045596815645
 10
-105.8969566180785
 20
29.03391900226921
 10
-105.8548117903585
 20
28.94989872614025
 10
-105.8104945488385
 20
28.87360355348443
 10
-105.7832959280627
 20
28.83336176025324
 10
-105.7523607555504
 20
28.7958485187549
 10
-105.6439138586545
 20
28.68493375978193
 10
-105.5658807549584
 20
28.6218555526853
 10
-105.4980145478466
 20
28.58032769048447
 10
-105.3993000647747
 20
28.53667955241491
 10
-105.3376035128544
 20
28.51846603511564
 10
-105.2744297195504
 20
28.50630920749092
 10
-105.2122986848706
 20
28.5003046557477
 10
-105.1499938570864
 20
28.49894906953642
 10
-105.0606642016305
 20
28.50646562128446
 10
-104.9735069599746
 20
28.52716437997088
 10
-104.8920848907505
 20
28.55658755247811
 10
-104.8149207525744
 20
28.59595169053392
 10
-104.7423621316545
 20
28.64465720792992
 10
-104.6744959245425
 20
28.69972355293254
 10
-104.6044573036306
 20
28.77332493247633
 10
-104.5051345446945
 20
28.90588562255249
 10
-104.4725483376946
 20
28.95957031237805
 10
-104.4443938548465
 20
29.01570548497017
 10
-104.4034655788546
 20
29.11720065770607
 10
-104.3691414408145
 20
29.23431983049165
 10
-104.3476779924704
 20
29.35445431363161
 10
-104.337695630194
 20
29.45540203808997
  0
LWPOLYLINE
  5
62A8
330
6193
100
AcDbEntity
  8
LW 5015-15-01
 62
     1
100
AcDbPolyline
 90
       76
 70
     1
 43
0.0
 10
-106.6756990428255
 20
28.3119058227183
 10
-106.5735211610038
 20
28.13651886935355
 10
-106.4566148780882
 20
27.97285007327156
 10
-106.3282303163746
 20
27.82683016681
 10
-106.187806186112
 20
27.69235209159734
 10
-106.0365637870964
 20
27.57419396736606
 10
-105.9849828252545
 20
27.54233513799324
 10
-105.9849828252545
 20
26.45244837338447
 10
-105.9784655838543
 20
26.30906906258434
 10
-105.9589138596543
 20
26.17220699318437
 10
-105.9268490319664
 20
26.0497610617611
 10
-105.8828793766545
 20
25.93106906138434
 10
-105.8245717902623
 20
25.82847030243812
 10
-105.7547069624543
 20
25.73337940558446
 10
-105.6721552380545
 20
25.65082768118424
 10
-105.5765690308544
 20
25.58131043958435
 10
-105.5765690308544
 20
27.35194895720366
 10
-105.527436870936
 20
27.3353502545288
 10
-105.3410674996694
 20
27.29904453285332
 10
-105.1463164063147
 20
27.28702286042409
 10
-104.956026692364
 20
27.2990665132059
 10
-104.7706527448128
 20
27.33517832117042
 10
-104.7380173040546
 20
27.34576278844321
 10
-104.7380173040544
 20
25.61824147418457
 10
-104.6532931658544
 20
25.68993112958452
 10
-104.5753469587102
 20
25.78011237125003
 10
-104.5077414412544
 20
25.87826202673415
 10
-104.4512586824544
 20
25.98320699258449
 10
-104.4056379926546
 20
26.0983449239846
 10
-104.3727041994466
 20
26.22651733818435
 10
-104.3523704062786
 20
26.35727057997889
 10
-104.3448104062545
 20
26.48937940798447
 10
-104.3448104062545
 20
27.51784247490474
 10
-104.26062576415
 20
27.5698137063535
 10
-104.1101375194375
 20
27.68351906109689
 10
-103.9707838362092
 20
27.81095495458118
 10
-103.8409942396693
 20
27.95486732295132
 10
-103.7253760012436
 20
28.11770021771196
 10
-103.6208463083121
 20
28.28616662388214
 10
-103.5302260347894
 20
28.46973076768455
 10
-103.4671552310546
 20
28.630274631737
 10
-103.4671552310542
 20
26.51110354598456
 10
-103.4758448862544
 20
26.30037940738436
 10
-103.5019138518546
 20
26.09182768258444
 10
-103.5453621278543
 20
25.89196561298451
 10
-103.6018448866543
 20
25.70079319858456
 10
-103.6755331627505
 20
25.52014395663156
 10
-103.7604310940546
 20
25.34451733538464
 10
-103.8581897150543
 20
25.18375871418454
 10
-103.9686352326464
 20
25.03641431371676
 10
-104.0897690261345
 20
24.90021526500851
 10
-104.2209828196544
 20
24.77751733358451
 10
-104.3621897166545
 20
24.67106905738439
 10
-104.5099138550545
 20
24.58200009158446
 10
-104.6663276486542
 20
24.51248284998456
 10
-104.8270862698543
 20
24.45817250498436
 10
-104.9943621324546
 20
24.42775871178452
 10
-105.1681552364543
 20
24.41689664278448
 10
-105.3419483404543
 20
24.42558629798424
 10
-105.5070517892545
 20
24.45382767738448
 10
-105.6678104104544
 20
24.50379319478435
 10
-105.8220517902543
 20
24.56679319498431
 10
-105.9676035148545
 20
24.64934491938431
 10
-106.1048131704624
 20
24.74936285073642
 10
-106.2330724812145
 20
24.86062780281378
 10
-106.3521207574545
 20
24.98606905838443
 10
-106.4588297233103
 20
25.12877665883735
 10
-106.5541552408544
 20
25.27934492138439
 10
-106.6367069652542
 20
25.44662078398443
 10
-106.7062242068546
 20
25.62258630178445
 10
-106.7605345518545
 20
25.80724147478446
 10
-106.8018104140546
 20
26.00275871678429
 10
-106.8278793796544
 20
26.20479320018427
 10
-106.8365690348546
 20
26.41768975258429
 10
-106.8365690348546
 20
28.67482769078453
 10
-106.7670507224084
 20
28.49365875531868
  0
LWPOLYLINE
  5
62A9
330
6193
100
AcDbEntity
  8
LW 5015-15-01
 62
     1
100
AcDbPolyline
 90
        6
 70
     1
 43
0.0
 10
-103.4671552310549
 20
37.94668978918463
 10
-103.4671552310546
 20
35.70910357518443
 10
-106.8365690348548
 20
35.70910357518443
 10
-106.8365690348548
 20
36.73231047498445
 10
-104.3339483372549
 20
36.73231047498445
 10
-104.3339483372549
 20
37.94668978918441
  0
LWPOLYLINE
  5
62AA
330
6193
100
AcDbEntity
  8
LW 5015-15-01
 62
     1
100
AcDbPolyline
 90
       57
 70
     1
 43
0.0
 10
-104.0922890261427
 20
32.65528935859317
 10
-104.2226338541427
 20
32.53543294441971
 10
-104.3621897166545
 20
32.42658632338436
 10
-104.5099138550547
 20
32.33968977138449
 10
-104.6663276486547
 20
32.26800011598431
 10
-104.8270862698546
 20
32.21586218478439
 10
-104.9943621324546
 20
32.18327597778449
 10
-105.1681552364548
 20
32.17241390878445
 10
-105.3419483404545
 20
32.18327597778449
 10
-105.5092242030546
 20
32.21586218478439
 10
-105.6699828242545
 20
32.26582770218425
 10
-105.8242242040546
 20
32.33751735758443
 10
-105.9697759286546
 20
32.42224149578425
 10
-106.1088104118548
 20
32.52651735818432
 10
-106.2375911019185
 20
32.64658232408266
 10
-106.3568131712627
 20
32.78114163485481
 10
-106.4663028267828
 20
32.93122066981397
 10
-106.5627579995027
 20
33.09004149790445
 10
-106.6453966204549
 20
33.25644839498437
 10
-106.7170862758548
 20
33.44110356798438
 10
-106.7713966208548
 20
33.6301035685845
 10
-106.8126724830547
 20
33.82779322438438
 10
-106.8409138624547
 20
34.03417253538447
 10
-106.8496035176547
 20
34.24489667398444
 10
-106.8496035176549
 20
35.47882771238443
 10
-106.0240862736548
 20
35.47882771238443
 10
-106.0240862736546
 20
34.23837943258451
 10
-106.0153966184548
 20
34.09500012178438
 10
-105.9882848942306
 20
33.96031046618447
 10
-105.9483124803107
 20
33.82883598300833
 10
-105.8959138594546
 20
33.70179322398445
 10
-105.8288297213107
 20
33.59438908571252
 10
-105.7525345486547
 20
33.49324149918431
 10
-105.6634655828547
 20
33.40634494718444
 10
-105.5657069618546
 20
33.33682770558431
 10
-105.5657069618546
 20
35.47882771238443
 10
-104.7380173040546
 20
35.47882771238443
 10
-104.7380173040546
 20
33.37375874018454
 10
-104.6525110968869
 20
33.44822908524844
 10
-104.5727400621508
 20
33.53564701656052
 10
-104.5051345446948
 20
33.63271046514439
 10
-104.4442200617427
 20
33.74237391376852
 10
-104.3962531650386
 20
33.85838081068852
 10
-104.3619290269989
 20
33.97899322486461
 10
-104.3399441993426
 20
34.11124977700848
 10
-104.3296035096546
 20
34.24489667398444
 10
-104.3296035096546
 20
35.47882771238443
 10
-103.4715000586547
 20
35.47882771238443
 10
-103.4715000586547
 20
34.26879322578458
 10
-103.4801897138545
 20
34.05589667338456
 10
-103.5040862656547
 20
33.84951736238446
 10
-103.5475345416548
 20
33.64965529278453
 10
-103.6040173004548
 20
33.45848287838459
 10
-103.6778793696548
 20
33.27382770538435
 10
-103.7626035078547
 20
33.10003460138438
 10
-103.8603621288548
 20
32.93927598018451
 10
-103.9709814395505
 20
32.79171694523331
  0
LINE
  5
62AB
330
6193
100
AcDbEntity
  8
LW 5015-15-01
  6
MITTE2
 62
     3
100
AcDbLine
 10
0.0
 20
37.00000000000006
 30
0.0
 11
0.0
 21
-37.00000000000006
 31
0.0
  0
INSERT
  5
62AC
330
6193
100
AcDbEntity
  8
LW 5015-15-01
100
AcDbBlockReference
 66
     1
  2
insertpoint-ECKELT
 10
0.0
 20
0.0
 30
0.0
  0
ATTRIB
  5
62AD
330
62AC
100
AcDbEntity
  8
insertpoint_ECKELT
100
AcDbText
 10
-6.93151432469286
 20
0.0
 30
0.0
 40
0.6
  1
LW 5015/15-01
 72
     2
 11
-1.199999999999818
 21
0.0
 31
0.0
100
AcDbAttribute
  2
LINKS
 70
     0
  0
ATTRIB
  5
62AE
330
62AC
100
AcDbEntity
  8
insertpoint_ECKELT
100
AcDbText
 10
1.199999999999818
 20
0.0
 30
0.0
 40
0.6
  1

100
AcDbAttribute
  2
RECHTS
 70
     0
  0
SEQEND
  5
62AF
330
62AC
100
AcDbEntity
  8
LW 5015-15-01
  0
POLYLINE
  5
62B0
330
6193
100
AcDbEntity
  8
LW 5015-15-01
100
AcDb2dPolyline
 66
     1
 10
0.0
 20
0.0
 30
0.0
 70
   128
  0
VERTEX
  5
62B1
330
62B0
100
AcDbEntity
  8
LW 5015-15-01
100
AcDbVertex
100
AcDb2dVertex
 10
-83.50000023841834
 20
0.1000022888189846
 30
0.0
  0
VERTEX
  5
62B2
330
62B0
100
AcDbEntity
  8
LW 5015-15-01
100
AcDbVertex
100
AcDb2dVertex
 10
-83.48383784294105
 20
0.7524204254156644
 30
0.0
  0
VERTEX
  5
62B3
330
62B0
100
AcDbEntity
  8
LW 5015-15-01
100
AcDbVertex
100
AcDb2dVertex
 10
-83.43569993972755
 20
1.408705711365371
 30
0.0
  0
VERTEX
  5
62B4
330
62B0
100
AcDbEntity
  8
LW 5015-15-01
100
AcDbVertex
100
AcDb2dVertex
 10
-83.35610747337318
 20
2.063431739807754
 30
0.0
  0
VERTEX
  5
62B5
330
62B0
100
AcDbEntity
  8
LW 5015-15-01
100
AcDbVertex
100
AcDb2dVertex
 10
-83.24622988700843
 20
2.711348533630996
 30
0.0
  0
VERTEX
  5
62B6
330
62B0
100
AcDbEntity
  8
LW 5015-15-01
100
AcDbVertex
100
AcDb2dVertex
 10
-83.10924053192115
 20
3.347783088684707
 30
0.0
  0
VERTEX
  5
62B7
330
62B0
100
AcDbEntity
  8
LW 5015-15-01
100
AcDbVertex
100
AcDb2dVertex
 10
-82.94866681098914
 20
3.968186378479629
 30
0.0
  0
VERTEX
  5
62B8
330
62B0
100
AcDbEntity
  8
LW 5015-15-01
100
AcDbVertex
100
AcDb2dVertex
 10
-82.76835083961463
 20
4.56830501556459
 30
0.0
  0
VERTEX
  5
62B9
330
62B0
100
AcDbEntity
  8
LW 5015-15-01
100
AcDbVertex
100
AcDb2dVertex
 10
-82.57279276847816
 20
5.14498710632381
 30
0.0
  0
VERTEX
  5
62BA
330
62B0
100
AcDbEntity
  8
LW 5015-15-01
100
AcDbVertex
100
AcDb2dVertex
 10
-82.36650586128211
 20
5.695304870606037
 30
0.0
  0
VERTEX
  5
62BB
330
62B0
100
AcDbEntity
  8
LW 5015-15-01
100
AcDbVertex
100
AcDb2dVertex
 10
-82.15400457382179
 20
6.216325759888263
 30
0.0
  0
VERTEX
  5
62BC
330
62B0
100
AcDbEntity
  8
LW 5015-15-01
100
AcDbVertex
100
AcDb2dVertex
 10
-81.93980336189246
 20
6.705121994019123
 30
0.0
  0
VERTEX
  5
62BD
330
62B0
100
AcDbEntity
  8
LW 5015-15-01
100
AcDbVertex
100
AcDb2dVertex
 10
-81.72841668128944
 20
7.158765792847248
 30
0.0
  0
VERTEX
  5
62BE
330
62B0
100
AcDbEntity
  8
LW 5015-15-01
100
AcDbVertex
100
AcDb2dVertex
 10
-81.51902914047218
 20
7.584662437439533
 30
0.0
  0
VERTEX
  5
62BF
330
62B0
100
AcDbEntity
  8
LW 5015-15-01
100
AcDbVertex
100
AcDb2dVertex
 10
-81.31035447120643
 20
7.989382743836017
 30
0.0
  0
VERTEX
  5
62C0
330
62B0
100
AcDbEntity
  8
LW 5015-15-01
100
AcDbVertex
100
AcDb2dVertex
 10
-81.10615491867042
 20
8.368849754334064
 30
0.0
  0
VERTEX
  5
62C1
330
62B0
100
AcDbEntity
  8
LW 5015-15-01
100
AcDbVertex
100
AcDb2dVertex
 10
-80.91019630432105
 20
8.718976974487816
 30
0.0
  0
VERTEX
  5
62C2
330
62B0
100
AcDbEntity
  8
LW 5015-15-01
100
AcDbVertex
100
AcDb2dVertex
 10
-80.72623848915077
 20
9.035677909851585
 30
0.0
  0
VERTEX
  5
62C3
330
62B0
100
AcDbEntity
  8
LW 5015-15-01
100
AcDbVertex
100
AcDb2dVertex
 10
-80.55804610252357
 20
9.314870834351097
 30
0.0
  0
VERTEX
  5
62C4
330
62B0
100
AcDbEntity
  8
LW 5015-15-01
100
AcDbVertex
100
AcDb2dVertex
 10
-80.40935873985267
 20
9.552946090698753
 30
0.0
  0
VERTEX
  5
62C5
330
62B0
100
AcDbEntity
  8
LW 5015-15-01
100
AcDbVertex
100
AcDb2dVertex
 10
-80.28207540512061
 20
9.748716354370628
 30
0.0
  0
VERTEX
  5
62C6
330
62B0
100
AcDbEntity
  8
LW 5015-15-01
100
AcDbVertex
100
AcDb2dVertex
 10
-80.1772058010099
 20
9.901742935181175
 30
0.0
  0
VERTEX
  5
62C7
330
62B0
100
AcDbEntity
  8
LW 5015-15-01
100
AcDbVertex
100
AcDb2dVertex
 10
-80.09575486183143
 20
10.01159191131643
 30
0.0
  0
VERTEX
  5
62C8
330
62B0
100
AcDbEntity
  8
LW 5015-15-01
100
AcDbVertex
100
AcDb2dVertex
 10
-80.03873229026771
 20
10.07782459259084
 30
0.0
  0
VERTEX
  5
62C9
330
62B0
100
AcDbEntity
  8
LW 5015-15-01
100
AcDbVertex
100
AcDb2dVertex
 10
-80.00714421272254
 20
10.10000228881887
 30
0.0
  0
SEQEND
  5
62CA
330
62B0
100
AcDbEntity
  8
LW 5015-15-01
  0
POLYLINE
  5
62CB
330
6193
100
AcDbEntity
  8
LW 5015-15-01
100
AcDb2dPolyline
 66
     1
 10
0.0
 20
0.0
 30
0.0
 70
   128
  0
VERTEX
  5
62CC
330
62CB
100
AcDbEntity
  8
LW 5015-15-01
100
AcDbVertex
100
AcDb2dVertex
 10
-114.9928557872769
 20
10.10000228881887
 30
0.0
  0
VERTEX
  5
62CD
330
62CB
100
AcDbEntity
  8
LW 5015-15-01
100
AcDbVertex
100
AcDb2dVertex
 10
-114.9612677097317
 20
10.07782459259084
 30
0.0
  0
VERTEX
  5
62CE
330
62CB
100
AcDbEntity
  8
LW 5015-15-01
100
AcDbVertex
100
AcDb2dVertex
 10
-114.904245138168
 20
10.01159191131643
 30
0.0
  0
VERTEX
  5
62CF
330
62CB
100
AcDbEntity
  8
LW 5015-15-01
100
AcDbVertex
100
AcDb2dVertex
 10
-114.8227941989895
 20
9.901742935181175
 30
0.0
  0
VERTEX
  5
62D0
330
62CB
100
AcDbEntity
  8
LW 5015-15-01
100
AcDbVertex
100
AcDb2dVertex
 10
-114.7179245948789
 20
9.748716354370628
 30
0.0
  0
VERTEX
  5
62D1
330
62CB
100
AcDbEntity
  8
LW 5015-15-01
100
AcDbVertex
100
AcDb2dVertex
 10
-114.5906412601468
 20
9.552946090698753
 30
0.0
  0
VERTEX
  5
62D2
330
62CB
100
AcDbEntity
  8
LW 5015-15-01
100
AcDbVertex
100
AcDb2dVertex
 10
-114.441953897476
 20
9.314870834351097
 30
0.0
  0
VERTEX
  5
62D3
330
62CB
100
AcDbEntity
  8
LW 5015-15-01
100
AcDbVertex
100
AcDb2dVertex
 10
-114.2737615108488
 20
9.035677909851585
 30
0.0
  0
VERTEX
  5
62D4
330
62CB
100
AcDbEntity
  8
LW 5015-15-01
100
AcDbVertex
100
AcDb2dVertex
 10
-114.0898036956785
 20
8.718976974487816
 30
0.0
  0
VERTEX
  5
62D5
330
62CB
100
AcDbEntity
  8
LW 5015-15-01
100
AcDbVertex
100
AcDb2dVertex
 10
-113.8938450813291
 20
8.368849754334064
 30
0.0
  0
VERTEX
  5
62D6
330
62CB
100
AcDbEntity
  8
LW 5015-15-01
100
AcDbVertex
100
AcDb2dVertex
 10
-113.6896455287931
 20
7.989382743836017
 30
0.0
  0
VERTEX
  5
62D7
330
62CB
100
AcDbEntity
  8
LW 5015-15-01
100
AcDbVertex
100
AcDb2dVertex
 10
-113.4809708595273
 20
7.584662437439533
 30
0.0
  0
VERTEX
  5
62D8
330
62CB
100
AcDbEntity
  8
LW 5015-15-01
100
AcDbVertex
100
AcDb2dVertex
 10
-113.2715833187101
 20
7.158765792847248
 30
0.0
  0
VERTEX
  5
62D9
330
62CB
100
AcDbEntity
  8
LW 5015-15-01
100
AcDbVertex
100
AcDb2dVertex
 10
-113.060196638107
 20
6.705121994019123
 30
0.0
  0
VERTEX
  5
62DA
330
62CB
100
AcDbEntity
  8
LW 5015-15-01
100
AcDbVertex
100
AcDb2dVertex
 10
-112.8459954261777
 20
6.216325759888263
 30
0.0
  0
VERTEX
  5
62DB
330
62CB
100
AcDbEntity
  8
LW 5015-15-01
100
AcDbVertex
100
AcDb2dVertex
 10
-112.6334941387174
 20
5.695304870606037
 30
0.0
  0
VERTEX
  5
62DC
330
62CB
100
AcDbEntity
  8
LW 5015-15-01
100
AcDbVertex
100
AcDb2dVertex
 10
-112.4272072315213
 20
5.14498710632381
 30
0.0
  0
VERTEX
  5
62DD
330
62CB
100
AcDbEntity
  8
LW 5015-15-01
100
AcDbVertex
100
AcDb2dVertex
 10
-112.2316491603849
 20
4.56830501556459
 30
0.0
  0
VERTEX
  5
62DE
330
62CB
100
AcDbEntity
  8
LW 5015-15-01
100
AcDbVertex
100
AcDb2dVertex
 10
-112.0513331890104
 20
3.968186378479629
 30
0.0
  0
VERTEX
  5
62DF
330
62CB
100
AcDbEntity
  8
LW 5015-15-01
100
AcDbVertex
100
AcDb2dVertex
 10
-111.8907594680784
 20
3.347783088684707
 30
0.0
  0
VERTEX
  5
62E0
330
62CB
100
AcDbEntity
  8
LW 5015-15-01
100
AcDbVertex
100
AcDb2dVertex
 10
-111.7537701129911
 20
2.711348533630996
 30
0.0
  0
VERTEX
  5
62E1
330
62CB
100
AcDbEntity
  8
LW 5015-15-01
100
AcDbVertex
100
AcDb2dVertex
 10
-111.6438925266263
 20
2.063431739807754
 30
0.0
  0
VERTEX
  5
62E2
330
62CB
100
AcDbEntity
  8
LW 5015-15-01
100
AcDbVertex
100
AcDb2dVertex
 10
-111.564300060272
 20
1.408705711365371
 30
0.0
  0
VERTEX
  5
62E3
330
62CB
100
AcDbEntity
  8
LW 5015-15-01
100
AcDbVertex
100
AcDb2dVertex
 10
-111.5161621570585
 20
0.7524204254156644
 30
0.0
  0
VERTEX
  5
62E4
330
62CB
100
AcDbEntity
  8
LW 5015-15-01
100
AcDbVertex
100
AcDb2dVertex
 10
-111.4999997615812
 20
0.1000022888189846
 30
0.0
  0
SEQEND
  5
62E5
330
62CB
100
AcDbEntity
  8
LW 5015-15-01
  0
POLYLINE
  5
62E6
330
6193
100
AcDbEntity
  8
LW 5015-15-01
100
AcDb2dPolyline
 66
     1
 10
0.0
 20
0.0
 30
0.0
 70
   128
  0
VERTEX
  5
62E7
330
62E6
100
AcDbEntity
  8
LW 5015-15-01
100
AcDbVertex
100
AcDb2dVertex
 10
-80.00714421272254
 20
-10.10000228881756
 30
0.0
  0
VERTEX
  5
62E8
330
62E6
100
AcDbEntity
  8
LW 5015-15-01
100
AcDbVertex
100
AcDb2dVertex
 10
-80.03873229026771
 20
-10.07782459258953
 30
0.0
  0
VERTEX
  5
62E9
330
62E6
100
AcDbEntity
  8
LW 5015-15-01
100
AcDbVertex
100
AcDb2dVertex
 10
-80.09575486183143
 20
-10.01159191131512
 30
0.0
  0
VERTEX
  5
62EA
330
62E6
100
AcDbEntity
  8
LW 5015-15-01
100
AcDbVertex
100
AcDb2dVertex
 10
-80.1772058010099
 20
-9.901742935179868
 30
0.0
  0
VERTEX
  5
62EB
330
62E6
100
AcDbEntity
  8
LW 5015-15-01
100
AcDbVertex
100
AcDb2dVertex
 10
-80.28207540512061
 20
-9.748716354369321
 30
0.0
  0
VERTEX
  5
62EC
330
62E6
100
AcDbEntity
  8
LW 5015-15-01
100
AcDbVertex
100
AcDb2dVertex
 10
-80.40935873985267
 20
-9.552946090697446
 30
0.0
  0
VERTEX
  5
62ED
330
62E6
100
AcDbEntity
  8
LW 5015-15-01
100
AcDbVertex
100
AcDb2dVertex
 10
-80.55804610252357
 20
-9.31487083434979
 30
0.0
  0
VERTEX
  5
62EE
330
62E6
100
AcDbEntity
  8
LW 5015-15-01
100
AcDbVertex
100
AcDb2dVertex
 10
-80.72623848915077
 20
-9.035677909850335
 30
0.0
  0
VERTEX
  5
62EF
330
62E6
100
AcDbEntity
  8
LW 5015-15-01
100
AcDbVertex
100
AcDb2dVertex
 10
-80.91019630432105
 20
-8.718976974486565
 30
0.0
  0
VERTEX
  5
62F0
330
62E6
100
AcDbEntity
  8
LW 5015-15-01
100
AcDbVertex
100
AcDb2dVertex
 10
-81.10615491867042
 20
-8.368849754332757
 30
0.0
  0
VERTEX
  5
62F1
330
62E6
100
AcDbEntity
  8
LW 5015-15-01
100
AcDbVertex
100
AcDb2dVertex
 10
-81.31035447120643
 20
-7.98938274383471
 30
0.0
  0
VERTEX
  5
62F2
330
62E6
100
AcDbEntity
  8
LW 5015-15-01
100
AcDbVertex
100
AcDb2dVertex
 10
-81.51902914047218
 20
-7.584662437438225
 30
0.0
  0
VERTEX
  5
62F3
330
62E6
100
AcDbEntity
  8
LW 5015-15-01
100
AcDbVertex
100
AcDb2dVertex
 10
-81.72841668128944
 20
-7.15876579284594
 30
0.0
  0
VERTEX
  5
62F4
330
62E6
100
AcDbEntity
  8
LW 5015-15-01
100
AcDbVertex
100
AcDb2dVertex
 10
-81.93980336189246
 20
-6.705121994017815
 30
0.0
  0
VERTEX
  5
62F5
330
62E6
100
AcDbEntity
  8
LW 5015-15-01
100
AcDbVertex
100
AcDb2dVertex
 10
-82.15400457382179
 20
-6.216325759886956
 30
0.0
  0
VERTEX
  5
62F6
330
62E6
100
AcDbEntity
  8
LW 5015-15-01
100
AcDbVertex
100
AcDb2dVertex
 10
-82.36650586128211
 20
-5.695304870604729
 30
0.0
  0
VERTEX
  5
62F7
330
62E6
100
AcDbEntity
  8
LW 5015-15-01
100
AcDbVertex
100
AcDb2dVertex
 10
-82.57279276847816
 20
-5.144987106322503
 30
0.0
  0
VERTEX
  5
62F8
330
62E6
100
AcDbEntity
  8
LW 5015-15-01
100
AcDbVertex
100
AcDb2dVertex
 10
-82.76835083961463
 20
-4.568305015563225
 30
0.0
  0
VERTEX
  5
62F9
330
62E6
100
AcDbEntity
  8
LW 5015-15-01
100
AcDbVertex
100
AcDb2dVertex
 10
-82.94866681098914
 20
-3.968186378478264
 30
0.0
  0
VERTEX
  5
62FA
330
62E6
100
AcDbEntity
  8
LW 5015-15-01
100
AcDbVertex
100
AcDb2dVertex
 10
-83.10924053192115
 20
-3.347783088683343
 30
0.0
  0
VERTEX
  5
62FB
330
62E6
100
AcDbEntity
  8
LW 5015-15-01
100
AcDbVertex
100
AcDb2dVertex
 10
-83.24622988700843
 20
-2.711348533629688
 30
0.0
  0
VERTEX
  5
62FC
330
62E6
100
AcDbEntity
  8
LW 5015-15-01
100
AcDbVertex
100
AcDb2dVertex
 10
-83.35610747337318
 20
-2.063431739806446
 30
0.0
  0
VERTEX
  5
62FD
330
62E6
100
AcDbEntity
  8
LW 5015-15-01
100
AcDbVertex
100
AcDb2dVertex
 10
-83.43569993972755
 20
-1.408705711364063
 30
0.0
  0
VERTEX
  5
62FE
330
62E6
100
AcDbEntity
  8
LW 5015-15-01
100
AcDbVertex
100
AcDb2dVertex
 10
-83.48383784294105
 20
-0.7524204254144138
 30
0.0
  0
VERTEX
  5
62FF
330
62E6
100
AcDbEntity
  8
LW 5015-15-01
100
AcDbVertex
100
AcDb2dVertex
 10
-83.50000023841834
 20
-0.1000022888177341
 30
0.0
  0
SEQEND
  5
6300
330
62E6
100
AcDbEntity
  8
LW 5015-15-01
  0
POLYLINE
  5
6301
330
6193
100
AcDbEntity
  8
LW 5015-15-01
100
AcDb2dPolyline
 66
     1
 10
0.0
 20
0.0
 30
0.0
 70
   128
  0
VERTEX
  5
6302
330
6301
100
AcDbEntity
  8
LW 5015-15-01
100
AcDbVertex
100
AcDb2dVertex
 10
-111.4999997615812
 20
-0.1000022888177341
 30
0.0
  0
VERTEX
  5
6303
330
6301
100
AcDbEntity
  8
LW 5015-15-01
100
AcDbVertex
100
AcDb2dVertex
 10
-111.5161621570585
 20
-0.7524204254144138
 30
0.0
  0
VERTEX
  5
6304
330
6301
100
AcDbEntity
  8
LW 5015-15-01
100
AcDbVertex
100
AcDb2dVertex
 10
-111.564300060272
 20
-1.408705711364063
 30
0.0
  0
VERTEX
  5
6305
330
6301
100
AcDbEntity
  8
LW 5015-15-01
100
AcDbVertex
100
AcDb2dVertex
 10
-111.6438925266263
 20
-2.063431739806446
 30
0.0
  0
VERTEX
  5
6306
330
6301
100
AcDbEntity
  8
LW 5015-15-01
100
AcDbVertex
100
AcDb2dVertex
 10
-111.7537701129911
 20
-2.711348533629688
 30
0.0
  0
VERTEX
  5
6307
330
6301
100
AcDbEntity
  8
LW 5015-15-01
100
AcDbVertex
100
AcDb2dVertex
 10
-111.8907594680784
 20
-3.347783088683343
 30
0.0
  0
VERTEX
  5
6308
330
6301
100
AcDbEntity
  8
LW 5015-15-01
100
AcDbVertex
100
AcDb2dVertex
 10
-112.0513331890104
 20
-3.968186378478264
 30
0.0
  0
VERTEX
  5
6309
330
6301
100
AcDbEntity
  8
LW 5015-15-01
100
AcDbVertex
100
AcDb2dVertex
 10
-112.2316491603849
 20
-4.568305015563225
 30
0.0
  0
VERTEX
  5
630A
330
6301
100
AcDbEntity
  8
LW 5015-15-01
100
AcDbVertex
100
AcDb2dVertex
 10
-112.4272072315213
 20
-5.144987106322503
 30
0.0
  0
VERTEX
  5
630B
330
6301
100
AcDbEntity
  8
LW 5015-15-01
100
AcDbVertex
100
AcDb2dVertex
 10
-112.6334941387174
 20
-5.695304870604729
 30
0.0
  0
VERTEX
  5
630C
330
6301
100
AcDbEntity
  8
LW 5015-15-01
100
AcDbVertex
100
AcDb2dVertex
 10
-112.8459954261777
 20
-6.216325759886956
 30
0.0
  0
VERTEX
  5
630D
330
6301
100
AcDbEntity
  8
LW 5015-15-01
100
AcDbVertex
100
AcDb2dVertex
 10
-113.060196638107
 20
-6.705121994017815
 30
0.0
  0
VERTEX
  5
630E
330
6301
100
AcDbEntity
  8
LW 5015-15-01
100
AcDbVertex
100
AcDb2dVertex
 10
-113.2715833187101
 20
-7.15876579284594
 30
0.0
  0
VERTEX
  5
630F
330
6301
100
AcDbEntity
  8
LW 5015-15-01
100
AcDbVertex
100
AcDb2dVertex
 10
-113.4809708595273
 20
-7.584662437438225
 30
0.0
  0
VERTEX
  5
6310
330
6301
100
AcDbEntity
  8
LW 5015-15-01
100
AcDbVertex
100
AcDb2dVertex
 10
-113.6896455287931
 20
-7.98938274383471
 30
0.0
  0
VERTEX
  5
6311
330
6301
100
AcDbEntity
  8
LW 5015-15-01
100
AcDbVertex
100
AcDb2dVertex
 10
-113.8938450813291
 20
-8.368849754332757
 30
0.0
  0
VERTEX
  5
6312
330
6301
100
AcDbEntity
  8
LW 5015-15-01
100
AcDbVertex
100
AcDb2dVertex
 10
-114.0898036956785
 20
-8.718976974486565
 30
0.0
  0
VERTEX
  5
6313
330
6301
100
AcDbEntity
  8
LW 5015-15-01
100
AcDbVertex
100
AcDb2dVertex
 10
-114.2737615108488
 20
-9.035677909850335
 30
0.0
  0
VERTEX
  5
6314
330
6301
100
AcDbEntity
  8
LW 5015-15-01
100
AcDbVertex
100
AcDb2dVertex
 10
-114.441953897476
 20
-9.31487083434979
 30
0.0
  0
VERTEX
  5
6315
330
6301
100
AcDbEntity
  8
LW 5015-15-01
100
AcDbVertex
100
AcDb2dVertex
 10
-114.5906412601468
 20
-9.552946090697446
 30
0.0
  0
VERTEX
  5
6316
330
6301
100
AcDbEntity
  8
LW 5015-15-01
100
AcDbVertex
100
AcDb2dVertex
 10
-114.7179245948789
 20
-9.748716354369321
 30
0.0
  0
VERTEX
  5
6317
330
6301
100
AcDbEntity
  8
LW 5015-15-01
100
AcDbVertex
100
AcDb2dVertex
 10
-114.8227941989895
 20
-9.901742935179868
 30
0.0
  0
VERTEX
  5
6318
330
6301
100
AcDbEntity
  8
LW 5015-15-01
100
AcDbVertex
100
AcDb2dVertex
 10
-114.904245138168
 20
-10.01159191131512
 30
0.0
  0
VERTEX
  5
6319
330
6301
100
AcDbEntity
  8
LW 5015-15-01
100
AcDbVertex
100
AcDb2dVertex
 10
-114.9612677097317
 20
-10.07782459258953
 30
0.0
  0
VERTEX
  5
631A
330
6301
100
AcDbEntity
  8
LW 5015-15-01
100
AcDbVertex
100
AcDb2dVertex
 10
-114.9928557872769
 20
-10.10000228881756
 30
0.0
  0
SEQEND
  5
631B
330
6301
100
AcDbEntity
  8
LW 5015-15-01
  0
LINE
  5
631C
330
6193
100
AcDbEntity
  8
LW 5015-15-01
100
AcDbLine
 10
-111.4999997615812
 20
-0.1000022888177341
 30
0.0
 11
-111.4999997615812
 21
0.1000022888189846
 31
0.0
  0
LINE
  5
631D
330
6193
100
AcDbEntity
  8
LW 5015-15-01
100
AcDbLine
 10
-83.50000023841834
 20
-0.1000022888177341
 30
0.0
 11
-83.50000023841834
 21
0.1000022888189846
 31
0.0
  0
LINE
  5
631E
330
6193
100
AcDbEntity
  8
LW 5015-15-01
100
AcDbLine
 10
-114.9928557872769
 20
-10.10000228881756
 30
0.0
 11
-114.9999999999998
 21
-10.10000228881756
 31
0.0
  0
LINE
  5
631F
330
6193
100
AcDbEntity
  8
LW 5015-15-01
100
AcDbLine
 10
-114.9928557872769
 20
10.10000228881887
 30
0.0
 11
-114.9999999999997
 21
10.10000000000008
 31
0.0
  0
LINE
  5
6320
330
6193
100
AcDbEntity
  8
LW 5015-15-01
100
AcDbLine
 10
-80.00714421272254
 20
10.10000228881887
 30
0.0
 11
-79.99999999999977
 21
10.10000000000008
 31
0.0
  0
LINE
  5
6321
330
6193
100
AcDbEntity
  8
LW 5015-15-01
100
AcDbLine
 10
-80.00714421272254
 20
-10.10000228881756
 30
0.0
 11
-79.99999999999977
 21
-10.09999999999996
 31
0.0
  0
POLYLINE
  5
6322
330
6193
100
AcDbEntity
  8
LW 5015-15-01
100
AcDb2dPolyline
 66
     1
 10
0.0
 20
0.0
 30
0.0
 70
   128
  0
VERTEX
  5
6323
330
6322
100
AcDbEntity
  8
LW 5015-15-01
100
AcDbVertex
100
AcDb2dVertex
 10
111.4999997615816
 20
0.1000022888189846
 30
0.0
  0
VERTEX
  5
6324
330
6322
100
AcDbEntity
  8
LW 5015-15-01
100
AcDbVertex
100
AcDb2dVertex
 10
111.5161621570589
 20
0.7524204254156644
 30
0.0
  0
VERTEX
  5
6325
330
6322
100
AcDbEntity
  8
LW 5015-15-01
100
AcDbVertex
100
AcDb2dVertex
 10
111.5643000602724
 20
1.408705711365371
 30
0.0
  0
VERTEX
  5
6326
330
6322
100
AcDbEntity
  8
LW 5015-15-01
100
AcDbVertex
100
AcDb2dVertex
 10
111.6438925266268
 20
2.063431739807754
 30
0.0
  0
VERTEX
  5
6327
330
6322
100
AcDbEntity
  8
LW 5015-15-01
100
AcDbVertex
100
AcDb2dVertex
 10
111.7537701129915
 20
2.711348533630996
 30
0.0
  0
VERTEX
  5
6328
330
6322
100
AcDbEntity
  8
LW 5015-15-01
100
AcDbVertex
100
AcDb2dVertex
 10
111.8907594680788
 20
3.347783088684707
 30
0.0
  0
VERTEX
  5
6329
330
6322
100
AcDbEntity
  8
LW 5015-15-01
100
AcDbVertex
100
AcDb2dVertex
 10
112.0513331890108
 20
3.968186378479629
 30
0.0
  0
VERTEX
  5
632A
330
6322
100
AcDbEntity
  8
LW 5015-15-01
100
AcDbVertex
100
AcDb2dVertex
 10
112.2316491603853
 20
4.56830501556459
 30
0.0
  0
VERTEX
  5
632B
330
6322
100
AcDbEntity
  8
LW 5015-15-01
100
AcDbVertex
100
AcDb2dVertex
 10
112.4272072315218
 20
5.14498710632381
 30
0.0
  0
VERTEX
  5
632C
330
6322
100
AcDbEntity
  8
LW 5015-15-01
100
AcDbVertex
100
AcDb2dVertex
 10
112.6334941387179
 20
5.695304870606037
 30
0.0
  0
VERTEX
  5
632D
330
6322
100
AcDbEntity
  8
LW 5015-15-01
100
AcDbVertex
100
AcDb2dVertex
 10
112.8459954261782
 20
6.216325759888263
 30
0.0
  0
VERTEX
  5
632E
330
6322
100
AcDbEntity
  8
LW 5015-15-01
100
AcDbVertex
100
AcDb2dVertex
 10
113.0601966381075
 20
6.705121994019123
 30
0.0
  0
VERTEX
  5
632F
330
6322
100
AcDbEntity
  8
LW 5015-15-01
100
AcDbVertex
100
AcDb2dVertex
 10
113.2715833187105
 20
7.158765792847248
 30
0.0
  0
VERTEX
  5
6330
330
6322
100
AcDbEntity
  8
LW 5015-15-01
100
AcDbVertex
100
AcDb2dVertex
 10
113.4809708595278
 20
7.584662437439533
 30
0.0
  0
VERTEX
  5
6331
330
6322
100
AcDbEntity
  8
LW 5015-15-01
100
AcDbVertex
100
AcDb2dVertex
 10
113.6896455287935
 20
7.989382743836017
 30
0.0
  0
VERTEX
  5
6332
330
6322
100
AcDbEntity
  8
LW 5015-15-01
100
AcDbVertex
100
AcDb2dVertex
 10
113.8938450813296
 20
8.368849754334064
 30
0.0
  0
VERTEX
  5
6333
330
6322
100
AcDbEntity
  8
LW 5015-15-01
100
AcDbVertex
100
AcDb2dVertex
 10
114.0898036956789
 20
8.718976974487816
 30
0.0
  0
VERTEX
  5
6334
330
6322
100
AcDbEntity
  8
LW 5015-15-01
100
AcDbVertex
100
AcDb2dVertex
 10
114.2737615108492
 20
9.035677909851585
 30
0.0
  0
VERTEX
  5
6335
330
6322
100
AcDbEntity
  8
LW 5015-15-01
100
AcDbVertex
100
AcDb2dVertex
 10
114.4419538974764
 20
9.314870834351097
 30
0.0
  0
VERTEX
  5
6336
330
6322
100
AcDbEntity
  8
LW 5015-15-01
100
AcDbVertex
100
AcDb2dVertex
 10
114.5906412601473
 20
9.552946090698753
 30
0.0
  0
VERTEX
  5
6337
330
6322
100
AcDbEntity
  8
LW 5015-15-01
100
AcDbVertex
100
AcDb2dVertex
 10
114.7179245948793
 20
9.748716354370628
 30
0.0
  0
VERTEX
  5
6338
330
6322
100
AcDbEntity
  8
LW 5015-15-01
100
AcDbVertex
100
AcDb2dVertex
 10
114.8227941989901
 20
9.901742935181175
 30
0.0
  0
VERTEX
  5
6339
330
6322
100
AcDbEntity
  8
LW 5015-15-01
100
AcDbVertex
100
AcDb2dVertex
 10
114.9042451381685
 20
10.01159191131643
 30
0.0
  0
VERTEX
  5
633A
330
6322
100
AcDbEntity
  8
LW 5015-15-01
100
AcDbVertex
100
AcDb2dVertex
 10
114.9612677097323
 20
10.07782459259084
 30
0.0
  0
VERTEX
  5
633B
330
6322
100
AcDbEntity
  8
LW 5015-15-01
100
AcDbVertex
100
AcDb2dVertex
 10
114.9928557872774
 20
10.10000228881887
 30
0.0
  0
SEQEND
  5
633C
330
6322
100
AcDbEntity
  8
LW 5015-15-01
  0
POLYLINE
  5
633D
330
6193
100
AcDbEntity
  8
LW 5015-15-01
100
AcDb2dPolyline
 66
     1
 10
0.0
 20
0.0
 30
0.0
 70
   128
  0
VERTEX
  5
633E
330
633D
100
AcDbEntity
  8
LW 5015-15-01
100
AcDbVertex
100
AcDb2dVertex
 10
80.00714421272311
 20
10.10000228881887
 30
0.0
  0
VERTEX
  5
633F
330
633D
100
AcDbEntity
  8
LW 5015-15-01
100
AcDbVertex
100
AcDb2dVertex
 10
80.03873229026828
 20
10.07782459259084
 30
0.0
  0
VERTEX
  5
6340
330
633D
100
AcDbEntity
  8
LW 5015-15-01
100
AcDbVertex
100
AcDb2dVertex
 10
80.095754861832
 20
10.01159191131643
 30
0.0
  0
VERTEX
  5
6341
330
633D
100
AcDbEntity
  8
LW 5015-15-01
100
AcDbVertex
100
AcDb2dVertex
 10
80.17720580101046
 20
9.901742935181175
 30
0.0
  0
VERTEX
  5
6342
330
633D
100
AcDbEntity
  8
LW 5015-15-01
100
AcDbVertex
100
AcDb2dVertex
 10
80.28207540512108
 20
9.748716354370628
 30
0.0
  0
VERTEX
  5
6343
330
633D
100
AcDbEntity
  8
LW 5015-15-01
100
AcDbVertex
100
AcDb2dVertex
 10
80.40935873985313
 20
9.552946090698753
 30
0.0
  0
VERTEX
  5
6344
330
633D
100
AcDbEntity
  8
LW 5015-15-01
100
AcDbVertex
100
AcDb2dVertex
 10
80.55804610252403
 20
9.314870834351097
 30
0.0
  0
VERTEX
  5
6345
330
633D
100
AcDbEntity
  8
LW 5015-15-01
100
AcDbVertex
100
AcDb2dVertex
 10
80.72623848915123
 20
9.035677909851585
 30
0.0
  0
VERTEX
  5
6346
330
633D
100
AcDbEntity
  8
LW 5015-15-01
100
AcDbVertex
100
AcDb2dVertex
 10
80.91019630432151
 20
8.718976974487816
 30
0.0
  0
VERTEX
  5
6347
330
633D
100
AcDbEntity
  8
LW 5015-15-01
100
AcDbVertex
100
AcDb2dVertex
 10
81.10615491867088
 20
8.368849754334064
 30
0.0
  0
VERTEX
  5
6348
330
633D
100
AcDbEntity
  8
LW 5015-15-01
100
AcDbVertex
100
AcDb2dVertex
 10
81.31035447120689
 20
7.989382743836017
 30
0.0
  0
VERTEX
  5
6349
330
633D
100
AcDbEntity
  8
LW 5015-15-01
100
AcDbVertex
100
AcDb2dVertex
 10
81.51902914047264
 20
7.584662437439533
 30
0.0
  0
VERTEX
  5
634A
330
633D
100
AcDbEntity
  8
LW 5015-15-01
100
AcDbVertex
100
AcDb2dVertex
 10
81.7284166812899
 20
7.158765792847248
 30
0.0
  0
VERTEX
  5
634B
330
633D
100
AcDbEntity
  8
LW 5015-15-01
100
AcDbVertex
100
AcDb2dVertex
 10
81.93980336189293
 20
6.705121994019123
 30
0.0
  0
VERTEX
  5
634C
330
633D
100
AcDbEntity
  8
LW 5015-15-01
100
AcDbVertex
100
AcDb2dVertex
 10
82.15400457382225
 20
6.216325759888263
 30
0.0
  0
VERTEX
  5
634D
330
633D
100
AcDbEntity
  8
LW 5015-15-01
100
AcDbVertex
100
AcDb2dVertex
 10
82.36650586128257
 20
5.695304870606037
 30
0.0
  0
VERTEX
  5
634E
330
633D
100
AcDbEntity
  8
LW 5015-15-01
100
AcDbVertex
100
AcDb2dVertex
 10
82.57279276847862
 20
5.14498710632381
 30
0.0
  0
VERTEX
  5
634F
330
633D
100
AcDbEntity
  8
LW 5015-15-01
100
AcDbVertex
100
AcDb2dVertex
 10
82.76835083961509
 20
4.56830501556459
 30
0.0
  0
VERTEX
  5
6350
330
633D
100
AcDbEntity
  8
LW 5015-15-01
100
AcDbVertex
100
AcDb2dVertex
 10
82.94866681098961
 20
3.968186378479629
 30
0.0
  0
VERTEX
  5
6351
330
633D
100
AcDbEntity
  8
LW 5015-15-01
100
AcDbVertex
100
AcDb2dVertex
 10
83.10924053192161
 20
3.347783088684707
 30
0.0
  0
VERTEX
  5
6352
330
633D
100
AcDbEntity
  8
LW 5015-15-01
100
AcDbVertex
100
AcDb2dVertex
 10
83.24622988700889
 20
2.711348533630996
 30
0.0
  0
VERTEX
  5
6353
330
633D
100
AcDbEntity
  8
LW 5015-15-01
100
AcDbVertex
100
AcDb2dVertex
 10
83.35610747337364
 20
2.063431739807754
 30
0.0
  0
VERTEX
  5
6354
330
633D
100
AcDbEntity
  8
LW 5015-15-01
100
AcDbVertex
100
AcDb2dVertex
 10
83.43569993972801
 20
1.408705711365371
 30
0.0
  0
VERTEX
  5
6355
330
633D
100
AcDbEntity
  8
LW 5015-15-01
100
AcDbVertex
100
AcDb2dVertex
 10
83.48383784294151
 20
0.7524204254156644
 30
0.0
  0
VERTEX
  5
6356
330
633D
100
AcDbEntity
  8
LW 5015-15-01
100
AcDbVertex
100
AcDb2dVertex
 10
83.50000023841881
 20
0.1000022888189846
 30
0.0
  0
SEQEND
  5
6357
330
633D
100
AcDbEntity
  8
LW 5015-15-01
  0
POLYLINE
  5
6358
330
6193
100
AcDbEntity
  8
LW 5015-15-01
100
AcDb2dPolyline
 66
     1
 10
0.0
 20
0.0
 30
0.0
 70
   128
  0
VERTEX
  5
6359
330
6358
100
AcDbEntity
  8
LW 5015-15-01
100
AcDbVertex
100
AcDb2dVertex
 10
114.9928557872774
 20
-10.10000228881756
 30
0.0
  0
VERTEX
  5
635A
330
6358
100
AcDbEntity
  8
LW 5015-15-01
100
AcDbVertex
100
AcDb2dVertex
 10
114.9612677097323
 20
-10.07782459258953
 30
0.0
  0
VERTEX
  5
635B
330
6358
100
AcDbEntity
  8
LW 5015-15-01
100
AcDbVertex
100
AcDb2dVertex
 10
114.9042451381685
 20
-10.01159191131512
 30
0.0
  0
VERTEX
  5
635C
330
6358
100
AcDbEntity
  8
LW 5015-15-01
100
AcDbVertex
100
AcDb2dVertex
 10
114.8227941989901
 20
-9.901742935179868
 30
0.0
  0
VERTEX
  5
635D
330
6358
100
AcDbEntity
  8
LW 5015-15-01
100
AcDbVertex
100
AcDb2dVertex
 10
114.7179245948793
 20
-9.748716354369321
 30
0.0
  0
VERTEX
  5
635E
330
6358
100
AcDbEntity
  8
LW 5015-15-01
100
AcDbVertex
100
AcDb2dVertex
 10
114.5906412601473
 20
-9.552946090697446
 30
0.0
  0
VERTEX
  5
635F
330
6358
100
AcDbEntity
  8
LW 5015-15-01
100
AcDbVertex
100
AcDb2dVertex
 10
114.4419538974764
 20
-9.31487083434979
 30
0.0
  0
VERTEX
  5
6360
330
6358
100
AcDbEntity
  8
LW 5015-15-01
100
AcDbVertex
100
AcDb2dVertex
 10
114.2737615108492
 20
-9.035677909850335
 30
0.0
  0
VERTEX
  5
6361
330
6358
100
AcDbEntity
  8
LW 5015-15-01
100
AcDbVertex
100
AcDb2dVertex
 10
114.0898036956789
 20
-8.718976974486565
 30
0.0
  0
VERTEX
  5
6362
330
6358
100
AcDbEntity
  8
LW 5015-15-01
100
AcDbVertex
100
AcDb2dVertex
 10
113.8938450813296
 20
-8.368849754332757
 30
0.0
  0
VERTEX
  5
6363
330
6358
100
AcDbEntity
  8
LW 5015-15-01
100
AcDbVertex
100
AcDb2dVertex
 10
113.6896455287935
 20
-7.98938274383471
 30
0.0
  0
VERTEX
  5
6364
330
6358
100
AcDbEntity
  8
LW 5015-15-01
100
AcDbVertex
100
AcDb2dVertex
 10
113.4809708595278
 20
-7.584662437438225
 30
0.0
  0
VERTEX
  5
6365
330
6358
100
AcDbEntity
  8
LW 5015-15-01
100
AcDbVertex
100
AcDb2dVertex
 10
113.2715833187105
 20
-7.15876579284594
 30
0.0
  0
VERTEX
  5
6366
330
6358
100
AcDbEntity
  8
LW 5015-15-01
100
AcDbVertex
100
AcDb2dVertex
 10
113.0601966381075
 20
-6.705121994017815
 30
0.0
  0
VERTEX
  5
6367
330
6358
100
AcDbEntity
  8
LW 5015-15-01
100
AcDbVertex
100
AcDb2dVertex
 10
112.8459954261782
 20
-6.216325759886956
 30
0.0
  0
VERTEX
  5
6368
330
6358
100
AcDbEntity
  8
LW 5015-15-01
100
AcDbVertex
100
AcDb2dVertex
 10
112.6334941387179
 20
-5.695304870604729
 30
0.0
  0
VERTEX
  5
6369
330
6358
100
AcDbEntity
  8
LW 5015-15-01
100
AcDbVertex
100
AcDb2dVertex
 10
112.4272072315218
 20
-5.144987106322503
 30
0.0
  0
VERTEX
  5
636A
330
6358
100
AcDbEntity
  8
LW 5015-15-01
100
AcDbVertex
100
AcDb2dVertex
 10
112.2316491603853
 20
-4.568305015563225
 30
0.0
  0
VERTEX
  5
636B
330
6358
100
AcDbEntity
  8
LW 5015-15-01
100
AcDbVertex
100
AcDb2dVertex
 10
112.0513331890108
 20
-3.968186378478264
 30
0.0
  0
VERTEX
  5
636C
330
6358
100
AcDbEntity
  8
LW 5015-15-01
100
AcDbVertex
100
AcDb2dVertex
 10
111.8907594680788
 20
-3.347783088683343
 30
0.0
  0
VERTEX
  5
636D
330
6358
100
AcDbEntity
  8
LW 5015-15-01
100
AcDbVertex
100
AcDb2dVertex
 10
111.7537701129915
 20
-2.711348533629688
 30
0.0
  0
VERTEX
  5
636E
330
6358
100
AcDbEntity
  8
LW 5015-15-01
100
AcDbVertex
100
AcDb2dVertex
 10
111.6438925266268
 20
-2.063431739806446
 30
0.0
  0
VERTEX
  5
636F
330
6358
100
AcDbEntity
  8
LW 5015-15-01
100
AcDbVertex
100
AcDb2dVertex
 10
111.5643000602724
 20
-1.408705711364063
 30
0.0
  0
VERTEX
  5
6370
330
6358
100
AcDbEntity
  8
LW 5015-15-01
100
AcDbVertex
100
AcDb2dVertex
 10
111.5161621570589
 20
-0.7524204254144138
 30
0.0
  0
VERTEX
  5
6371
330
6358
100
AcDbEntity
  8
LW 5015-15-01
100
AcDbVertex
100
AcDb2dVertex
 10
111.4999997615816
 20
-0.1000022888177341
 30
0.0
  0
SEQEND
  5
6372
330
6358
100
AcDbEntity
  8
LW 5015-15-01
  0
POLYLINE
  5
6373
330
6193
100
AcDbEntity
  8
LW 5015-15-01
100
AcDb2dPolyline
 66
     1
 10
0.0
 20
0.0
 30
0.0
 70
   128
  0
VERTEX
  5
6374
330
6373
100
AcDbEntity
  8
LW 5015-15-01
100
AcDbVertex
100
AcDb2dVertex
 10
83.50000023841881
 20
-0.1000022888177341
 30
0.0
  0
VERTEX
  5
6375
330
6373
100
AcDbEntity
  8
LW 5015-15-01
100
AcDbVertex
100
AcDb2dVertex
 10
83.48383784294151
 20
-0.7524204254144138
 30
0.0
  0
VERTEX
  5
6376
330
6373
100
AcDbEntity
  8
LW 5015-15-01
100
AcDbVertex
100
AcDb2dVertex
 10
83.43569993972801
 20
-1.408705711364063
 30
0.0
  0
VERTEX
  5
6377
330
6373
100
AcDbEntity
  8
LW 5015-15-01
100
AcDbVertex
100
AcDb2dVertex
 10
83.35610747337364
 20
-2.063431739806446
 30
0.0
  0
VERTEX
  5
6378
330
6373
100
AcDbEntity
  8
LW 5015-15-01
100
AcDbVertex
100
AcDb2dVertex
 10
83.24622988700889
 20
-2.711348533629688
 30
0.0
  0
VERTEX
  5
6379
330
6373
100
AcDbEntity
  8
LW 5015-15-01
100
AcDbVertex
100
AcDb2dVertex
 10
83.10924053192161
 20
-3.347783088683343
 30
0.0
  0
VERTEX
  5
637A
330
6373
100
AcDbEntity
  8
LW 5015-15-01
100
AcDbVertex
100
AcDb2dVertex
 10
82.94866681098961
 20
-3.968186378478264
 30
0.0
  0
VERTEX
  5
637B
330
6373
100
AcDbEntity
  8
LW 5015-15-01
100
AcDbVertex
100
AcDb2dVertex
 10
82.76835083961509
 20
-4.568305015563225
 30
0.0
  0
VERTEX
  5
637C
330
6373
100
AcDbEntity
  8
LW 5015-15-01
100
AcDbVertex
100
AcDb2dVertex
 10
82.57279276847862
 20
-5.144987106322503
 30
0.0
  0
VERTEX
  5
637D
330
6373
100
AcDbEntity
  8
LW 5015-15-01
100
AcDbVertex
100
AcDb2dVertex
 10
82.36650586128257
 20
-5.695304870604729
 30
0.0
  0
VERTEX
  5
637E
330
6373
100
AcDbEntity
  8
LW 5015-15-01
100
AcDbVertex
100
AcDb2dVertex
 10
82.15400457382225
 20
-6.216325759886956
 30
0.0
  0
VERTEX
  5
637F
330
6373
100
AcDbEntity
  8
LW 5015-15-01
100
AcDbVertex
100
AcDb2dVertex
 10
81.93980336189293
 20
-6.705121994017815
 30
0.0
  0
VERTEX
  5
6380
330
6373
100
AcDbEntity
  8
LW 5015-15-01
100
AcDbVertex
100
AcDb2dVertex
 10
81.7284166812899
 20
-7.15876579284594
 30
0.0
  0
VERTEX
  5
6381
330
6373
100
AcDbEntity
  8
LW 5015-15-01
100
AcDbVertex
100
AcDb2dVertex
 10
81.51902914047264
 20
-7.584662437438225
 30
0.0
  0
VERTEX
  5
6382
330
6373
100
AcDbEntity
  8
LW 5015-15-01
100
AcDbVertex
100
AcDb2dVertex
 10
81.31035447120689
 20
-7.98938274383471
 30
0.0
  0
VERTEX
  5
6383
330
6373
100
AcDbEntity
  8
LW 5015-15-01
100
AcDbVertex
100
AcDb2dVertex
 10
81.10615491867088
 20
-8.368849754332757
 30
0.0
  0
VERTEX
  5
6384
330
6373
100
AcDbEntity
  8
LW 5015-15-01
100
AcDbVertex
100
AcDb2dVertex
 10
80.91019630432151
 20
-8.718976974486565
 30
0.0
  0
VERTEX
  5
6385
330
6373
100
AcDbEntity
  8
LW 5015-15-01
100
AcDbVertex
100
AcDb2dVertex
 10
80.72623848915123
 20
-9.035677909850335
 30
0.0
  0
VERTEX
  5
6386
330
6373
100
AcDbEntity
  8
LW 5015-15-01
100
AcDbVertex
100
AcDb2dVertex
 10
80.55804610252403
 20
-9.31487083434979
 30
0.0
  0
VERTEX
  5
6387
330
6373
100
AcDbEntity
  8
LW 5015-15-01
100
AcDbVertex
100
AcDb2dVertex
 10
80.40935873985313
 20
-9.552946090697446
 30
0.0
  0
VERTEX
  5
6388
330
6373
100
AcDbEntity
  8
LW 5015-15-01
100
AcDbVertex
100
AcDb2dVertex
 10
80.28207540512108
 20
-9.748716354369321
 30
0.0
  0
VERTEX
  5
6389
330
6373
100
AcDbEntity
  8
LW 5015-15-01
100
AcDbVertex
100
AcDb2dVertex
 10
80.17720580101046
 20
-9.901742935179868
 30
0.0
  0
VERTEX
  5
638A
330
6373
100
AcDbEntity
  8
LW 5015-15-01
100
AcDbVertex
100
AcDb2dVertex
 10
80.095754861832
 20
-10.01159191131512
 30
0.0
  0
VERTEX
  5
638B
330
6373
100
AcDbEntity
  8
LW 5015-15-01
100
AcDbVertex
100
AcDb2dVertex
 10
80.03873229026828
 20
-10.07782459258953
 30
0.0
  0
VERTEX
  5
638C
330
6373
100
AcDbEntity
  8
LW 5015-15-01
100
AcDbVertex
100
AcDb2dVertex
 10
80.00714421272311
 20
-10.10000228881756
 30
0.0
  0
SEQEND
  5
638D
330
6373
100
AcDbEntity
  8
LW 5015-15-01
  0
LINE
  5
638E
330
6193
100
AcDbEntity
  8
LW 5015-15-01
100
AcDbLine
 10
83.50000023841881
 20
-0.1000022888177341
 30
0.0
 11
83.50000023841881
 21
0.1000022888189846
 31
0.0
  0
LINE
  5
638F
330
6193
100
AcDbEntity
  8
LW 5015-15-01
100
AcDbLine
 10
111.4999997615816
 20
-0.1000022888177341
 30
0.0
 11
111.4999997615816
 21
0.1000022888189846
 31
0.0
  0
LINE
  5
6390
330
6193
100
AcDbEntity
  8
LW 5015-15-01
100
AcDbLine
 10
80.00714421272311
 20
-10.10000228881756
 30
0.0
 11
80.00000000000021
 21
-10.10000228881756
 31
0.0
  0
LINE
  5
6391
330
6193
100
AcDbEntity
  8
LW 5015-15-01
100
AcDbLine
 10
80.00714421272311
 20
10.10000228881887
 30
0.0
 11
80.00000000000023
 21
10.10000000000008
 31
0.0
  0
LINE
  5
6392
330
6193
100
AcDbEntity
  8
LW 5015-15-01
100
AcDbLine
 10
114.9928557872774
 20
10.10000228881887
 30
0.0
 11
115.0000000000002
 21
10.10000000000008
 31
0.0
  0
LINE
  5
6393
330
6193
100
AcDbEntity
  8
LW 5015-15-01
100
AcDbLine
 10
114.9928557872774
 20
-10.10000228881756
 30
0.0
 11
115.0000000000002
 21
-10.09999999999996
 31
0.0
  0
ENDBLK
  5
6195
330
6193
100
AcDbEntity
  8
0
100
AcDbBlockEnd
  0
BLOCK
  5
6396
330
6395
100
AcDbEntity
  8
0
100
AcDbBlockBegin
  2
LW 5015-15-01_b
 70
     0
 10
0.0
 20
0.0
 30
0.0
  3
LW 5015-15-01_b
  1

  0
POLYLINE
  5
6398
330
6395
100
AcDbEntity
  8
LW 5015-15-01
100
AcDb2dPolyline
 66
     1
 10
0.0
 20
0.0
 30
0.0
 70
   128
  0
VERTEX
  5
6399
330
6398
100
AcDbEntity
  8
LW 5015-15-01
100
AcDbVertex
100
AcDb2dVertex
 10
30.0
 20
-21.65063619614023
 30
0.0
  0
VERTEX
  5
639A
330
6398
100
AcDbEntity
  8
LW 5015-15-01
100
AcDbVertex
100
AcDb2dVertex
 10
29.97898697853088
 20
-21.80843830109006
 30
0.0
  0
VERTEX
  5
639B
330
6398
100
AcDbEntity
  8
LW 5015-15-01
100
AcDbVertex
100
AcDb2dVertex
 10
29.91565704345703
 20
-21.96433782577878
 30
0.0
  0
VERTEX
  5
639C
330
6398
100
AcDbEntity
  8
LW 5015-15-01
100
AcDbVertex
100
AcDb2dVertex
 10
29.80957746505737
 20
-22.11326599121457
 30
0.0
  0
VERTEX
  5
639D
330
6398
100
AcDbEntity
  8
LW 5015-15-01
100
AcDbVertex
100
AcDb2dVertex
 10
29.66169476509094
 20
-22.25069761276586
 30
0.0
  0
VERTEX
  5
639E
330
6398
100
AcDbEntity
  8
LW 5015-15-01
100
AcDbVertex
100
AcDb2dVertex
 10
29.47847723960876
 20
-22.37386226654394
 30
0.0
  0
VERTEX
  5
639F
330
6398
100
AcDbEntity
  8
LW 5015-15-01
100
AcDbVertex
100
AcDb2dVertex
 10
29.26776528358459
 20
-22.48032569885595
 30
0.0
  0
VERTEX
  5
63A0
330
6398
100
AcDbEntity
  8
LW 5015-15-01
100
AcDbVertex
100
AcDb2dVertex
 10
29.02740001678467
 20
-22.57195234299024
 30
0.0
  0
VERTEX
  5
63A1
330
6398
100
AcDbEntity
  8
LW 5015-15-01
100
AcDbVertex
100
AcDb2dVertex
 10
28.75476121902466
 20
-22.6503801345857
 30
0.0
  0
VERTEX
  5
63A2
330
6398
100
AcDbEntity
  8
LW 5015-15-01
100
AcDbVertex
100
AcDb2dVertex
 10
28.45699787139893
 20
-22.71283626556715
 30
0.0
  0
VERTEX
  5
63A3
330
6398
100
AcDbEntity
  8
LW 5015-15-01
100
AcDbVertex
100
AcDb2dVertex
 10
28.14183115959167
 20
-22.75718688965162
 30
0.0
  0
VERTEX
  5
63A4
330
6398
100
AcDbEntity
  8
LW 5015-15-01
100
AcDbVertex
100
AcDb2dVertex
 10
27.8192925453186
 20
-22.78345584869703
 30
0.0
  0
VERTEX
  5
63A5
330
6398
100
AcDbEntity
  8
LW 5015-15-01
100
AcDbVertex
100
AcDb2dVertex
 10
27.5
 20
-22.79211044311842
 30
0.0
  0
VERTEX
  5
63A6
330
6398
100
AcDbEntity
  8
LW 5015-15-01
100
AcDbVertex
100
AcDb2dVertex
 10
27.1807074546814
 20
-22.78345584869703
 30
0.0
  0
VERTEX
  5
63A7
330
6398
100
AcDbEntity
  8
LW 5015-15-01
100
AcDbVertex
100
AcDb2dVertex
 10
26.85816884040832
 20
-22.75718688965162
 30
0.0
  0
VERTEX
  5
63A8
330
6398
100
AcDbEntity
  8
LW 5015-15-01
100
AcDbVertex
100
AcDb2dVertex
 10
26.54300212860107
 20
-22.71283626556715
 30
0.0
  0
VERTEX
  5
63A9
330
6398
100
AcDbEntity
  8
LW 5015-15-01
100
AcDbVertex
100
AcDb2dVertex
 10
26.24523878097534
 20
-22.6503801345857
 30
0.0
  0
VERTEX
  5
63AA
330
6398
100
AcDbEntity
  8
LW 5015-15-01
100
AcDbVertex
100
AcDb2dVertex
 10
25.97259998321533
 20
-22.57195234299024
 30
0.0
  0
VERTEX
  5
63AB
330
6398
100
AcDbEntity
  8
LW 5015-15-01
100
AcDbVertex
100
AcDb2dVertex
 10
25.7322347164154
 20
-22.48032569885595
 30
0.0
  0
VERTEX
  5
63AC
330
6398
100
AcDbEntity
  8
LW 5015-15-01
100
AcDbVertex
100
AcDb2dVertex
 10
25.52152276039123
 20
-22.37386226654394
 30
0.0
  0
VERTEX
  5
63AD
330
6398
100
AcDbEntity
  8
LW 5015-15-01
100
AcDbVertex
100
AcDb2dVertex
 10
25.33830523490906
 20
-22.25069761276586
 30
0.0
  0
VERTEX
  5
63AE
330
6398
100
AcDbEntity
  8
LW 5015-15-01
100
AcDbVertex
100
AcDb2dVertex
 10
25.19042253494263
 20
-22.11326599121457
 30
0.0
  0
VERTEX
  5
63AF
330
6398
100
AcDbEntity
  8
LW 5015-15-01
100
AcDbVertex
100
AcDb2dVertex
 10
25.08434295654297
 20
-21.96433782577878
 30
0.0
  0
VERTEX
  5
63B0
330
6398
100
AcDbEntity
  8
LW 5015-15-01
100
AcDbVertex
100
AcDb2dVertex
 10
25.02101302146912
 20
-21.80843830109006
 30
0.0
  0
VERTEX
  5
63B1
330
6398
100
AcDbEntity
  8
LW 5015-15-01
100
AcDbVertex
100
AcDb2dVertex
 10
25.0
 20
-21.65063619614023
 30
0.0
  0
SEQEND
  5
63B2
330
6398
100
AcDbEntity
  8
LW 5015-15-01
  0
POLYLINE
  5
63B3
330
6395
100
AcDbEntity
  8
LW 5015-15-01
100
AcDb2dPolyline
 66
     1
 10
0.0
 20
0.0
 30
0.0
 70
   128
  0
VERTEX
  5
63B4
330
63B3
100
AcDbEntity
  8
LW 5015-15-01
100
AcDbVertex
100
AcDb2dVertex
 10
25.0
 20
-21.65063619614023
 30
0.0
  0
VERTEX
  5
63B5
330
63B3
100
AcDbEntity
  8
LW 5015-15-01
100
AcDbVertex
100
AcDb2dVertex
 10
25.02101302146912
 20
-21.48914575577169
 30
0.0
  0
VERTEX
  5
63B6
330
63B3
100
AcDbEntity
  8
LW 5015-15-01
100
AcDbVertex
100
AcDb2dVertex
 10
25.08434295654297
 20
-21.32250547409455
 30
0.0
  0
VERTEX
  5
63B7
330
63B3
100
AcDbEntity
  8
LW 5015-15-01
100
AcDbVertex
100
AcDb2dVertex
 10
25.19042253494263
 20
-21.15626573563031
 30
0.0
  0
VERTEX
  5
63B8
330
63B3
100
AcDbEntity
  8
LW 5015-15-01
100
AcDbVertex
100
AcDb2dVertex
 10
25.33830523490906
 20
-20.9959340095561
 30
0.0
  0
VERTEX
  5
63B9
330
63B3
100
AcDbEntity
  8
LW 5015-15-01
100
AcDbVertex
100
AcDb2dVertex
 10
25.52152276039123
 20
-20.84645748138848
 30
0.0
  0
VERTEX
  5
63BA
330
63B3
100
AcDbEntity
  8
LW 5015-15-01
100
AcDbVertex
100
AcDb2dVertex
 10
25.7322347164154
 20
-20.71255683899346
 30
0.0
  0
VERTEX
  5
63BB
330
63B3
100
AcDbEntity
  8
LW 5015-15-01
100
AcDbVertex
100
AcDb2dVertex
 10
25.97259998321533
 20
-20.59347152710393
 30
0.0
  0
VERTEX
  5
63BC
330
63B3
100
AcDbEntity
  8
LW 5015-15-01
100
AcDbVertex
100
AcDb2dVertex
 10
26.24523878097534
 20
-20.48868179321721
 30
0.0
  0
VERTEX
  5
63BD
330
63B3
100
AcDbEntity
  8
LW 5015-15-01
100
AcDbVertex
100
AcDb2dVertex
 10
26.54300212860107
 20
-20.40325641632512
 30
0.0
  0
VERTEX
  5
63BE
330
63B3
100
AcDbEntity
  8
LW 5015-15-01
100
AcDbVertex
100
AcDb2dVertex
 10
26.85816884040832
 20
-20.34152984619573
 30
0.0
  0
VERTEX
  5
63BF
330
63B3
100
AcDbEntity
  8
LW 5015-15-01
100
AcDbVertex
100
AcDb2dVertex
 10
27.1807074546814
 20
-20.30447006226018
 30
0.0
  0
VERTEX
  5
63C0
330
63B3
100
AcDbEntity
  8
LW 5015-15-01
100
AcDbVertex
100
AcDb2dVertex
 10
27.5
 20
-20.29211044311955
 30
0.0
  0
VERTEX
  5
63C1
330
63B3
100
AcDbEntity
  8
LW 5015-15-01
100
AcDbVertex
100
AcDb2dVertex
 10
27.8192925453186
 20
-20.30447006226018
 30
0.0
  0
VERTEX
  5
63C2
330
63B3
100
AcDbEntity
  8
LW 5015-15-01
100
AcDbVertex
100
AcDb2dVertex
 10
28.14183115959167
 20
-20.34152984619573
 30
0.0
  0
VERTEX
  5
63C3
330
63B3
100
AcDbEntity
  8
LW 5015-15-01
100
AcDbVertex
100
AcDb2dVertex
 10
28.45699787139893
 20
-20.40325641632512
 30
0.0
  0
VERTEX
  5
63C4
330
63B3
100
AcDbEntity
  8
LW 5015-15-01
100
AcDbVertex
100
AcDb2dVertex
 10
28.75476121902466
 20
-20.48868179321721
 30
0.0
  0
VERTEX
  5
63C5
330
63B3
100
AcDbEntity
  8
LW 5015-15-01
100
AcDbVertex
100
AcDb2dVertex
 10
29.02740001678467
 20
-20.59347152710393
 30
0.0
  0
VERTEX
  5
63C6
330
63B3
100
AcDbEntity
  8
LW 5015-15-01
100
AcDbVertex
100
AcDb2dVertex
 10
29.26776528358459
 20
-20.71255683899346
 30
0.0
  0
VERTEX
  5
63C7
330
63B3
100
AcDbEntity
  8
LW 5015-15-01
100
AcDbVertex
100
AcDb2dVertex
 10
29.47847723960876
 20
-20.84645748138848
 30
0.0
  0
VERTEX
  5
63C8
330
63B3
100
AcDbEntity
  8
LW 5015-15-01
100
AcDbVertex
100
AcDb2dVertex
 10
29.66169476509094
 20
-20.9959340095561
 30
0.0
  0
VERTEX
  5
63C9
330
63B3
100
AcDbEntity
  8
LW 5015-15-01
100
AcDbVertex
100
AcDb2dVertex
 10
29.80957746505737
 20
-21.15626573563031
 30
0.0
  0
VERTEX
  5
63CA
330
63B3
100
AcDbEntity
  8
LW 5015-15-01
100
AcDbVertex
100
AcDb2dVertex
 10
29.91565704345703
 20
-21.32250547409455
 30
0.0
  0
VERTEX
  5
63CB
330
63B3
100
AcDbEntity
  8
LW 5015-15-01
100
AcDbVertex
100
AcDb2dVertex
 10
29.97898697853088
 20
-21.48914575577169
 30
0.0
  0
VERTEX
  5
63CC
330
63B3
100
AcDbEntity
  8
LW 5015-15-01
100
AcDbVertex
100
AcDb2dVertex
 10
30.0
 20
-21.65063619614023
 30
0.0
  0
SEQEND
  5
63CD
330
63B3
100
AcDbEntity
  8
LW 5015-15-01
  0
POLYLINE
  5
63CE
330
6395
100
AcDbEntity
  8
LW 5015-15-01
100
AcDb2dPolyline
 66
     1
 10
0.0
 20
0.0
 30
0.0
 70
   128
  0
VERTEX
  5
63CF
330
63CE
100
AcDbEntity
  8
LW 5015-15-01
100
AcDbVertex
100
AcDb2dVertex
 10
30.0
 20
21.65063619613272
 30
0.0
  0
VERTEX
  5
63D0
330
63CE
100
AcDbEntity
  8
LW 5015-15-01
100
AcDbVertex
100
AcDb2dVertex
 10
29.97898697853088
 20
21.48914575576396
 30
0.0
  0
VERTEX
  5
63D1
330
63CE
100
AcDbEntity
  8
LW 5015-15-01
100
AcDbVertex
100
AcDb2dVertex
 10
29.91565704345703
 20
21.3225054740866
 30
0.0
  0
VERTEX
  5
63D2
330
63CE
100
AcDbEntity
  8
LW 5015-15-01
100
AcDbVertex
100
AcDb2dVertex
 10
29.80957746505737
 20
21.15626573562213
 30
0.0
  0
VERTEX
  5
63D3
330
63CE
100
AcDbEntity
  8
LW 5015-15-01
100
AcDbVertex
100
AcDb2dVertex
 10
29.66169476509094
 20
20.99593400954791
 30
0.0
  0
VERTEX
  5
63D4
330
63CE
100
AcDbEntity
  8
LW 5015-15-01
100
AcDbVertex
100
AcDb2dVertex
 10
29.47847723960876
 20
20.84645748138007
 30
0.0
  0
VERTEX
  5
63D5
330
63CE
100
AcDbEntity
  8
LW 5015-15-01
100
AcDbVertex
100
AcDb2dVertex
 10
29.26776528358459
 20
20.71255683898505
 30
0.0
  0
VERTEX
  5
63D6
330
63CE
100
AcDbEntity
  8
LW 5015-15-01
100
AcDbVertex
100
AcDb2dVertex
 10
29.02740001678467
 20
20.59347152709529
 30
0.0
  0
VERTEX
  5
63D7
330
63CE
100
AcDbEntity
  8
LW 5015-15-01
100
AcDbVertex
100
AcDb2dVertex
 10
28.75476121902466
 20
20.48868179320857
 30
0.0
  0
VERTEX
  5
63D8
330
63CE
100
AcDbEntity
  8
LW 5015-15-01
100
AcDbVertex
100
AcDb2dVertex
 10
28.45699787139893
 20
20.40325641631648
 30
0.0
  0
VERTEX
  5
63D9
330
63CE
100
AcDbEntity
  8
LW 5015-15-01
100
AcDbVertex
100
AcDb2dVertex
 10
28.14183115959167
 20
20.34152984618708
 30
0.0
  0
VERTEX
  5
63DA
330
63CE
100
AcDbEntity
  8
LW 5015-15-01
100
AcDbVertex
100
AcDb2dVertex
 10
27.8192925453186
 20
20.30447006225154
 30
0.0
  0
VERTEX
  5
63DB
330
63CE
100
AcDbEntity
  8
LW 5015-15-01
100
AcDbVertex
100
AcDb2dVertex
 10
27.5
 20
20.29211044311091
 30
0.0
  0
VERTEX
  5
63DC
330
63CE
100
AcDbEntity
  8
LW 5015-15-01
100
AcDbVertex
100
AcDb2dVertex
 10
27.1807074546814
 20
20.30447006225154
 30
0.0
  0
VERTEX
  5
63DD
330
63CE
100
AcDbEntity
  8
LW 5015-15-01
100
AcDbVertex
100
AcDb2dVertex
 10
26.85816884040832
 20
20.34152984618708
 30
0.0
  0
VERTEX
  5
63DE
330
63CE
100
AcDbEntity
  8
LW 5015-15-01
100
AcDbVertex
100
AcDb2dVertex
 10
26.54300212860107
 20
20.40325641631648
 30
0.0
  0
VERTEX
  5
63DF
330
63CE
100
AcDbEntity
  8
LW 5015-15-01
100
AcDbVertex
100
AcDb2dVertex
 10
26.24523878097534
 20
20.48868179320857
 30
0.0
  0
VERTEX
  5
63E0
330
63CE
100
AcDbEntity
  8
LW 5015-15-01
100
AcDbVertex
100
AcDb2dVertex
 10
25.97259998321533
 20
20.59347152709529
 30
0.0
  0
VERTEX
  5
63E1
330
63CE
100
AcDbEntity
  8
LW 5015-15-01
100
AcDbVertex
100
AcDb2dVertex
 10
25.7322347164154
 20
20.71255683898505
 30
0.0
  0
VERTEX
  5
63E2
330
63CE
100
AcDbEntity
  8
LW 5015-15-01
100
AcDbVertex
100
AcDb2dVertex
 10
25.52152276039123
 20
20.84645748138007
 30
0.0
  0
VERTEX
  5
63E3
330
63CE
100
AcDbEntity
  8
LW 5015-15-01
100
AcDbVertex
100
AcDb2dVertex
 10
25.33830523490906
 20
20.99593400954791
 30
0.0
  0
VERTEX
  5
63E4
330
63CE
100
AcDbEntity
  8
LW 5015-15-01
100
AcDbVertex
100
AcDb2dVertex
 10
25.19042253494263
 20
21.15626573562213
 30
0.0
  0
VERTEX
  5
63E5
330
63CE
100
AcDbEntity
  8
LW 5015-15-01
100
AcDbVertex
100
AcDb2dVertex
 10
25.08434295654297
 20
21.3225054740866
 30
0.0
  0
VERTEX
  5
63E6
330
63CE
100
AcDbEntity
  8
LW 5015-15-01
100
AcDbVertex
100
AcDb2dVertex
 10
25.02101302146912
 20
21.48914575576396
 30
0.0
  0
VERTEX
  5
63E7
330
63CE
100
AcDbEntity
  8
LW 5015-15-01
100
AcDbVertex
100
AcDb2dVertex
 10
25.0
 20
21.65063619613272
 30
0.0
  0
SEQEND
  5
63E8
330
63CE
100
AcDbEntity
  8
LW 5015-15-01
  0
POLYLINE
  5
63E9
330
6395
100
AcDbEntity
  8
LW 5015-15-01
100
AcDb2dPolyline
 66
     1
 10
0.0
 20
0.0
 30
0.0
 70
   128
  0
VERTEX
  5
63EA
330
63E9
100
AcDbEntity
  8
LW 5015-15-01
100
AcDbVertex
100
AcDb2dVertex
 10
25.0
 20
21.65063619613272
 30
0.0
  0
VERTEX
  5
63EB
330
63E9
100
AcDbEntity
  8
LW 5015-15-01
100
AcDbVertex
100
AcDb2dVertex
 10
25.02101302146912
 20
21.80843830108279
 30
0.0
  0
VERTEX
  5
63EC
330
63E9
100
AcDbEntity
  8
LW 5015-15-01
100
AcDbVertex
100
AcDb2dVertex
 10
25.08434295654297
 20
21.96433782577151
 30
0.0
  0
VERTEX
  5
63ED
330
63E9
100
AcDbEntity
  8
LW 5015-15-01
100
AcDbVertex
100
AcDb2dVertex
 10
25.19042253494263
 20
22.1132659912073
 30
0.0
  0
VERTEX
  5
63EE
330
63E9
100
AcDbEntity
  8
LW 5015-15-01
100
AcDbVertex
100
AcDb2dVertex
 10
25.33830523490906
 20
22.25069761275904
 30
0.0
  0
VERTEX
  5
63EF
330
63E9
100
AcDbEntity
  8
LW 5015-15-01
100
AcDbVertex
100
AcDb2dVertex
 10
25.52152276039123
 20
22.37386226653712
 30
0.0
  0
VERTEX
  5
63F0
330
63E9
100
AcDbEntity
  8
LW 5015-15-01
100
AcDbVertex
100
AcDb2dVertex
 10
25.7322347164154
 20
22.48032569884913
 30
0.0
  0
VERTEX
  5
63F1
330
63E9
100
AcDbEntity
  8
LW 5015-15-01
100
AcDbVertex
100
AcDb2dVertex
 10
25.97259998321533
 20
22.57195234298388
 30
0.0
  0
VERTEX
  5
63F2
330
63E9
100
AcDbEntity
  8
LW 5015-15-01
100
AcDbVertex
100
AcDb2dVertex
 10
26.24523878097534
 20
22.65038013457933
 30
0.0
  0
VERTEX
  5
63F3
330
63E9
100
AcDbEntity
  8
LW 5015-15-01
100
AcDbVertex
100
AcDb2dVertex
 10
26.54300212860107
 20
22.71283626556078
 30
0.0
  0
VERTEX
  5
63F4
330
63E9
100
AcDbEntity
  8
LW 5015-15-01
100
AcDbVertex
100
AcDb2dVertex
 10
26.85816884040832
 20
22.75718688964525
 30
0.0
  0
VERTEX
  5
63F5
330
63E9
100
AcDbEntity
  8
LW 5015-15-01
100
AcDbVertex
100
AcDb2dVertex
 10
27.1807074546814
 20
22.78345584869066
 30
0.0
  0
VERTEX
  5
63F6
330
63E9
100
AcDbEntity
  8
LW 5015-15-01
100
AcDbVertex
100
AcDb2dVertex
 10
27.5
 20
22.79211044311205
 30
0.0
  0
VERTEX
  5
63F7
330
63E9
100
AcDbEntity
  8
LW 5015-15-01
100
AcDbVertex
100
AcDb2dVertex
 10
27.8192925453186
 20
22.78345584869066
 30
0.0
  0
VERTEX
  5
63F8
330
63E9
100
AcDbEntity
  8
LW 5015-15-01
100
AcDbVertex
100
AcDb2dVertex
 10
28.14183115959167
 20
22.75718688964525
 30
0.0
  0
VERTEX
  5
63F9
330
63E9
100
AcDbEntity
  8
LW 5015-15-01
100
AcDbVertex
100
AcDb2dVertex
 10
28.45699787139893
 20
22.71283626556078
 30
0.0
  0
VERTEX
  5
63FA
330
63E9
100
AcDbEntity
  8
LW 5015-15-01
100
AcDbVertex
100
AcDb2dVertex
 10
28.75476121902466
 20
22.65038013457933
 30
0.0
  0
VERTEX
  5
63FB
330
63E9
100
AcDbEntity
  8
LW 5015-15-01
100
AcDbVertex
100
AcDb2dVertex
 10
29.02740001678467
 20
22.57195234298388
 30
0.0
  0
VERTEX
  5
63FC
330
63E9
100
AcDbEntity
  8
LW 5015-15-01
100
AcDbVertex
100
AcDb2dVertex
 10
29.26776528358459
 20
22.48032569884913
 30
0.0
  0
VERTEX
  5
63FD
330
63E9
100
AcDbEntity
  8
LW 5015-15-01
100
AcDbVertex
100
AcDb2dVertex
 10
29.47847723960876
 20
22.37386226653712
 30
0.0
  0
VERTEX
  5
63FE
330
63E9
100
AcDbEntity
  8
LW 5015-15-01
100
AcDbVertex
100
AcDb2dVertex
 10
29.66169476509094
 20
22.25069761275904
 30
0.0
  0
VERTEX
  5
63FF
330
63E9
100
AcDbEntity
  8
LW 5015-15-01
100
AcDbVertex
100
AcDb2dVertex
 10
29.80957746505737
 20
22.1132659912073
 30
0.0
  0
VERTEX
  5
6400
330
63E9
100
AcDbEntity
  8
LW 5015-15-01
100
AcDbVertex
100
AcDb2dVertex
 10
29.91565704345703
 20
21.96433782577151
 30
0.0
  0
VERTEX
  5
6401
330
63E9
100
AcDbEntity
  8
LW 5015-15-01
100
AcDbVertex
100
AcDb2dVertex
 10
29.97898697853088
 20
21.80843830108279
 30
0.0
  0
VERTEX
  5
6402
330
63E9
100
AcDbEntity
  8
LW 5015-15-01
100
AcDbVertex
100
AcDb2dVertex
 10
30.0
 20
21.65063619613272
 30
0.0
  0
SEQEND
  5
6403
330
63E9
100
AcDbEntity
  8
LW 5015-15-01
  0
LINE
  5
6404
330
6395
100
AcDbEntity
  8
LW 5015-15-01
100
AcDbLine
 10
31.5
 20
-25.0
 30
0.0
 11
31.5
 21
25.0
 31
0.0
  0
LINE
  5
6405
330
6395
100
AcDbEntity
  8
LW 5015-15-01
100
AcDbLine
 10
37.5
 20
-19.0
 30
0.0
 11
37.5
 21
19.0
 31
0.0
  0
LINE
  5
6406
330
6395
100
AcDbEntity
  8
LW 5015-15-01
100
AcDbLine
 10
131.5
 20
-10.0
 30
0.0
 11
131.5
 21
10.0
 31
0.0
  0
LINE
  5
6407
330
6395
100
AcDbEntity
  8
LW 5015-15-01
100
AcDbLine
 10
132.5
 20
-9.0
 30
0.0
 11
132.5
 21
9.0
 31
0.0
  0
LINE
  5
6408
330
6395
100
AcDbEntity
  8
LW 5015-15-01
100
AcDbLine
 10
12.5
 20
25.0
 30
0.0
 11
31.5
 21
25.0
 31
0.0
  0
LINE
  5
6409
330
6395
100
AcDbEntity
  8
LW 5015-15-01
100
AcDbLine
 10
12.5
 20
-25.0
 30
0.0
 11
31.5
 21
-25.0
 31
0.0
  0
LINE
  5
640A
330
6395
100
AcDbEntity
  8
LW 5015-15-01
100
AcDbLine
 10
37.5
 20
-19.0
 30
0.0
 11
31.5
 21
-25.0
 31
0.0
  0
LINE
  5
640B
330
6395
100
AcDbEntity
  8
LW 5015-15-01
100
AcDbLine
 10
37.5
 20
19.0
 30
0.0
 11
31.5
 21
25.0
 31
0.0
  0
ARC
  5
640C
330
6395
100
AcDbEntity
  8
LW 5015-15-01
100
AcDbCircle
 10
38.5
 20
-11.0
 30
0.0
 40
1.000000000000001
100
AcDbArc
 50
90.0
 51
180.0
  0
ARC
  5
640D
330
6395
100
AcDbEntity
  8
LW 5015-15-01
100
AcDbCircle
 10
38.5
 20
11.0
 30
0.0
 40
1.000000000000001
100
AcDbArc
 50
180.0
 51
270.0
  0
LINE
  5
640E
330
6395
100
AcDbEntity
  8
LW 5015-15-01
100
AcDbLine
 10
38.5
 20
10.0
 30
0.0
 11
80.72949016875318
 21
9.999999999999971
 31
0.0
  0
LINE
  5
640F
330
6395
100
AcDbEntity
  8
LW 5015-15-01
100
AcDbLine
 10
114.2705098312468
 20
9.999999999999971
 30
0.0
 11
131.5
 21
10.0
 31
0.0
  0
LINE
  5
6410
330
6395
100
AcDbEntity
  8
LW 5015-15-01
100
AcDbLine
 10
38.5
 20
-10.0
 30
0.0
 11
88.48612181133098
 21
-10.00000000000003
 31
0.0
  0
LINE
  5
6411
330
6395
100
AcDbEntity
  8
LW 5015-15-01
100
AcDbLine
 10
106.513878188669
 20
-10.0
 30
0.0
 11
131.5
 21
-10.0
 31
0.0
  0
LINE
  5
6412
330
6395
100
AcDbEntity
  8
LW 5015-15-01
100
AcDbLine
 10
132.5
 20
-9.0
 30
0.0
 11
131.5
 21
-10.0
 31
0.0
  0
LINE
  5
6413
330
6395
100
AcDbEntity
  8
LW 5015-15-01
100
AcDbLine
 10
132.5
 20
9.0
 30
0.0
 11
131.5
 21
10.0
 31
0.0
  0
POLYLINE
  5
6414
330
6395
100
AcDbEntity
  8
LW 5015-15-01
100
AcDb2dPolyline
 66
     1
 10
0.0
 20
0.0
 30
0.0
 70
   128
  0
VERTEX
  5
6415
330
6414
100
AcDbEntity
  8
LW 5015-15-01
100
AcDbVertex
100
AcDb2dVertex
 10
-30.0
 20
21.65063619613272
 30
0.0
  0
VERTEX
  5
6416
330
6414
100
AcDbEntity
  8
LW 5015-15-01
100
AcDbVertex
100
AcDb2dVertex
 10
-29.97898697853088
 20
21.80843830108279
 30
0.0
  0
VERTEX
  5
6417
330
6414
100
AcDbEntity
  8
LW 5015-15-01
100
AcDbVertex
100
AcDb2dVertex
 10
-29.91565704345703
 20
21.96433782577151
 30
0.0
  0
VERTEX
  5
6418
330
6414
100
AcDbEntity
  8
LW 5015-15-01
100
AcDbVertex
100
AcDb2dVertex
 10
-29.80957746505737
 20
22.1132659912073
 30
0.0
  0
VERTEX
  5
6419
330
6414
100
AcDbEntity
  8
LW 5015-15-01
100
AcDbVertex
100
AcDb2dVertex
 10
-29.66169476509094
 20
22.25069761275904
 30
0.0
  0
VERTEX
  5
641A
330
6414
100
AcDbEntity
  8
LW 5015-15-01
100
AcDbVertex
100
AcDb2dVertex
 10
-29.47847723960876
 20
22.37386226653712
 30
0.0
  0
VERTEX
  5
641B
330
6414
100
AcDbEntity
  8
LW 5015-15-01
100
AcDbVertex
100
AcDb2dVertex
 10
-29.26776528358459
 20
22.48032569884913
 30
0.0
  0
VERTEX
  5
641C
330
6414
100
AcDbEntity
  8
LW 5015-15-01
100
AcDbVertex
100
AcDb2dVertex
 10
-29.02740001678467
 20
22.57195234298388
 30
0.0
  0
VERTEX
  5
641D
330
6414
100
AcDbEntity
  8
LW 5015-15-01
100
AcDbVertex
100
AcDb2dVertex
 10
-28.75476121902466
 20
22.65038013457933
 30
0.0
  0
VERTEX
  5
641E
330
6414
100
AcDbEntity
  8
LW 5015-15-01
100
AcDbVertex
100
AcDb2dVertex
 10
-28.45699787139893
 20
22.71283626556078
 30
0.0
  0
VERTEX
  5
641F
330
6414
100
AcDbEntity
  8
LW 5015-15-01
100
AcDbVertex
100
AcDb2dVertex
 10
-28.14183115959167
 20
22.75718688964525
 30
0.0
  0
VERTEX
  5
6420
330
6414
100
AcDbEntity
  8
LW 5015-15-01
100
AcDbVertex
100
AcDb2dVertex
 10
-27.8192925453186
 20
22.78345584869066
 30
0.0
  0
VERTEX
  5
6421
330
6414
100
AcDbEntity
  8
LW 5015-15-01
100
AcDbVertex
100
AcDb2dVertex
 10
-27.5
 20
22.79211044311205
 30
0.0
  0
VERTEX
  5
6422
330
6414
100
AcDbEntity
  8
LW 5015-15-01
100
AcDbVertex
100
AcDb2dVertex
 10
-27.1807074546814
 20
22.78345584869066
 30
0.0
  0
VERTEX
  5
6423
330
6414
100
AcDbEntity
  8
LW 5015-15-01
100
AcDbVertex
100
AcDb2dVertex
 10
-26.85816884040832
 20
22.75718688964525
 30
0.0
  0
VERTEX
  5
6424
330
6414
100
AcDbEntity
  8
LW 5015-15-01
100
AcDbVertex
100
AcDb2dVertex
 10
-26.54300212860107
 20
22.71283626556078
 30
0.0
  0
VERTEX
  5
6425
330
6414
100
AcDbEntity
  8
LW 5015-15-01
100
AcDbVertex
100
AcDb2dVertex
 10
-26.24523878097534
 20
22.65038013457933
 30
0.0
  0
VERTEX
  5
6426
330
6414
100
AcDbEntity
  8
LW 5015-15-01
100
AcDbVertex
100
AcDb2dVertex
 10
-25.97259998321533
 20
22.57195234298388
 30
0.0
  0
VERTEX
  5
6427
330
6414
100
AcDbEntity
  8
LW 5015-15-01
100
AcDbVertex
100
AcDb2dVertex
 10
-25.7322347164154
 20
22.48032569884913
 30
0.0
  0
VERTEX
  5
6428
330
6414
100
AcDbEntity
  8
LW 5015-15-01
100
AcDbVertex
100
AcDb2dVertex
 10
-25.52152276039123
 20
22.37386226653712
 30
0.0
  0
VERTEX
  5
6429
330
6414
100
AcDbEntity
  8
LW 5015-15-01
100
AcDbVertex
100
AcDb2dVertex
 10
-25.33830523490906
 20
22.25069761275904
 30
0.0
  0
VERTEX
  5
642A
330
6414
100
AcDbEntity
  8
LW 5015-15-01
100
AcDbVertex
100
AcDb2dVertex
 10
-25.19042253494263
 20
22.1132659912073
 30
0.0
  0
VERTEX
  5
642B
330
6414
100
AcDbEntity
  8
LW 5015-15-01
100
AcDbVertex
100
AcDb2dVertex
 10
-25.08434295654297
 20
21.96433782577151
 30
0.0
  0
VERTEX
  5
642C
330
6414
100
AcDbEntity
  8
LW 5015-15-01
100
AcDbVertex
100
AcDb2dVertex
 10
-25.02101302146912
 20
21.80843830108279
 30
0.0
  0
VERTEX
  5
642D
330
6414
100
AcDbEntity
  8
LW 5015-15-01
100
AcDbVertex
100
AcDb2dVertex
 10
-25.0
 20
21.65063619613272
 30
0.0
  0
SEQEND
  5
642E
330
6414
100
AcDbEntity
  8
LW 5015-15-01
  0
POLYLINE
  5
642F
330
6395
100
AcDbEntity
  8
LW 5015-15-01
100
AcDb2dPolyline
 66
     1
 10
0.0
 20
0.0
 30
0.0
 70
   128
  0
VERTEX
  5
6430
330
642F
100
AcDbEntity
  8
LW 5015-15-01
100
AcDbVertex
100
AcDb2dVertex
 10
-25.0
 20
21.65063619613272
 30
0.0
  0
VERTEX
  5
6431
330
642F
100
AcDbEntity
  8
LW 5015-15-01
100
AcDbVertex
100
AcDb2dVertex
 10
-25.02101302146912
 20
21.48914575576396
 30
0.0
  0
VERTEX
  5
6432
330
642F
100
AcDbEntity
  8
LW 5015-15-01
100
AcDbVertex
100
AcDb2dVertex
 10
-25.08434295654297
 20
21.3225054740866
 30
0.0
  0
VERTEX
  5
6433
330
642F
100
AcDbEntity
  8
LW 5015-15-01
100
AcDbVertex
100
AcDb2dVertex
 10
-25.19042253494263
 20
21.15626573562213
 30
0.0
  0
VERTEX
  5
6434
330
642F
100
AcDbEntity
  8
LW 5015-15-01
100
AcDbVertex
100
AcDb2dVertex
 10
-25.33830523490906
 20
20.99593400954791
 30
0.0
  0
VERTEX
  5
6435
330
642F
100
AcDbEntity
  8
LW 5015-15-01
100
AcDbVertex
100
AcDb2dVertex
 10
-25.52152276039123
 20
20.84645748138007
 30
0.0
  0
VERTEX
  5
6436
330
642F
100
AcDbEntity
  8
LW 5015-15-01
100
AcDbVertex
100
AcDb2dVertex
 10
-25.7322347164154
 20
20.71255683898494
 30
0.0
  0
VERTEX
  5
6437
330
642F
100
AcDbEntity
  8
LW 5015-15-01
100
AcDbVertex
100
AcDb2dVertex
 10
-25.97259998321533
 20
20.59347152709529
 30
0.0
  0
VERTEX
  5
6438
330
642F
100
AcDbEntity
  8
LW 5015-15-01
100
AcDbVertex
100
AcDb2dVertex
 10
-26.24523878097534
 20
20.48868179320857
 30
0.0
  0
VERTEX
  5
6439
330
642F
100
AcDbEntity
  8
LW 5015-15-01
100
AcDbVertex
100
AcDb2dVertex
 10
-26.54300212860107
 20
20.40325641631648
 30
0.0
  0
VERTEX
  5
643A
330
642F
100
AcDbEntity
  8
LW 5015-15-01
100
AcDbVertex
100
AcDb2dVertex
 10
-26.85816884040832
 20
20.34152984618708
 30
0.0
  0
VERTEX
  5
643B
330
642F
100
AcDbEntity
  8
LW 5015-15-01
100
AcDbVertex
100
AcDb2dVertex
 10
-27.1807074546814
 20
20.30447006225154
 30
0.0
  0
VERTEX
  5
643C
330
642F
100
AcDbEntity
  8
LW 5015-15-01
100
AcDbVertex
100
AcDb2dVertex
 10
-27.5
 20
20.29211044311091
 30
0.0
  0
VERTEX
  5
643D
330
642F
100
AcDbEntity
  8
LW 5015-15-01
100
AcDbVertex
100
AcDb2dVertex
 10
-27.8192925453186
 20
20.30447006225154
 30
0.0
  0
VERTEX
  5
643E
330
642F
100
AcDbEntity
  8
LW 5015-15-01
100
AcDbVertex
100
AcDb2dVertex
 10
-28.14183115959167
 20
20.34152984618708
 30
0.0
  0
VERTEX
  5
643F
330
642F
100
AcDbEntity
  8
LW 5015-15-01
100
AcDbVertex
100
AcDb2dVertex
 10
-28.45699787139893
 20
20.40325641631648
 30
0.0
  0
VERTEX
  5
6440
330
642F
100
AcDbEntity
  8
LW 5015-15-01
100
AcDbVertex
100
AcDb2dVertex
 10
-28.75476121902466
 20
20.48868179320857
 30
0.0
  0
VERTEX
  5
6441
330
642F
100
AcDbEntity
  8
LW 5015-15-01
100
AcDbVertex
100
AcDb2dVertex
 10
-29.02740001678467
 20
20.59347152709529
 30
0.0
  0
VERTEX
  5
6442
330
642F
100
AcDbEntity
  8
LW 5015-15-01
100
AcDbVertex
100
AcDb2dVertex
 10
-29.26776528358459
 20
20.71255683898494
 30
0.0
  0
VERTEX
  5
6443
330
642F
100
AcDbEntity
  8
LW 5015-15-01
100
AcDbVertex
100
AcDb2dVertex
 10
-29.47847723960876
 20
20.84645748138007
 30
0.0
  0
VERTEX
  5
6444
330
642F
100
AcDbEntity
  8
LW 5015-15-01
100
AcDbVertex
100
AcDb2dVertex
 10
-29.66169476509094
 20
20.99593400954791
 30
0.0
  0
VERTEX
  5
6445
330
642F
100
AcDbEntity
  8
LW 5015-15-01
100
AcDbVertex
100
AcDb2dVertex
 10
-29.80957746505737
 20
21.15626573562213
 30
0.0
  0
VERTEX
  5
6446
330
642F
100
AcDbEntity
  8
LW 5015-15-01
100
AcDbVertex
100
AcDb2dVertex
 10
-29.91565704345703
 20
21.3225054740866
 30
0.0
  0
VERTEX
  5
6447
330
642F
100
AcDbEntity
  8
LW 5015-15-01
100
AcDbVertex
100
AcDb2dVertex
 10
-29.97898697853088
 20
21.48914575576396
 30
0.0
  0
VERTEX
  5
6448
330
642F
100
AcDbEntity
  8
LW 5015-15-01
100
AcDbVertex
100
AcDb2dVertex
 10
-30.0
 20
21.65063619613272
 30
0.0
  0
SEQEND
  5
6449
330
642F
100
AcDbEntity
  8
LW 5015-15-01
  0
POLYLINE
  5
644A
330
6395
100
AcDbEntity
  8
LW 5015-15-01
100
AcDb2dPolyline
 66
     1
 10
0.0
 20
0.0
 30
0.0
 70
   128
  0
VERTEX
  5
644B
330
644A
100
AcDbEntity
  8
LW 5015-15-01
100
AcDbVertex
100
AcDb2dVertex
 10
-30.0
 20
-21.65063619614023
 30
0.0
  0
VERTEX
  5
644C
330
644A
100
AcDbEntity
  8
LW 5015-15-01
100
AcDbVertex
100
AcDb2dVertex
 10
-29.97898697853088
 20
-21.48914575577169
 30
0.0
  0
VERTEX
  5
644D
330
644A
100
AcDbEntity
  8
LW 5015-15-01
100
AcDbVertex
100
AcDb2dVertex
 10
-29.91565704345703
 20
-21.32250547409455
 30
0.0
  0
VERTEX
  5
644E
330
644A
100
AcDbEntity
  8
LW 5015-15-01
100
AcDbVertex
100
AcDb2dVertex
 10
-29.80957746505737
 20
-21.15626573563031
 30
0.0
  0
VERTEX
  5
644F
330
644A
100
AcDbEntity
  8
LW 5015-15-01
100
AcDbVertex
100
AcDb2dVertex
 10
-29.66169476509094
 20
-20.9959340095561
 30
0.0
  0
VERTEX
  5
6450
330
644A
100
AcDbEntity
  8
LW 5015-15-01
100
AcDbVertex
100
AcDb2dVertex
 10
-29.47847723960876
 20
-20.84645748138848
 30
0.0
  0
VERTEX
  5
6451
330
644A
100
AcDbEntity
  8
LW 5015-15-01
100
AcDbVertex
100
AcDb2dVertex
 10
-29.26776528358459
 20
-20.71255683899358
 30
0.0
  0
VERTEX
  5
6452
330
644A
100
AcDbEntity
  8
LW 5015-15-01
100
AcDbVertex
100
AcDb2dVertex
 10
-29.02740001678467
 20
-20.59347152710393
 30
0.0
  0
VERTEX
  5
6453
330
644A
100
AcDbEntity
  8
LW 5015-15-01
100
AcDbVertex
100
AcDb2dVertex
 10
-28.75476121902466
 20
-20.48868179321721
 30
0.0
  0
VERTEX
  5
6454
330
644A
100
AcDbEntity
  8
LW 5015-15-01
100
AcDbVertex
100
AcDb2dVertex
 10
-28.45699787139893
 20
-20.40325641632512
 30
0.0
  0
VERTEX
  5
6455
330
644A
100
AcDbEntity
  8
LW 5015-15-01
100
AcDbVertex
100
AcDb2dVertex
 10
-28.14183115959167
 20
-20.34152984619573
 30
0.0
  0
VERTEX
  5
6456
330
644A
100
AcDbEntity
  8
LW 5015-15-01
100
AcDbVertex
100
AcDb2dVertex
 10
-27.8192925453186
 20
-20.30447006226018
 30
0.0
  0
VERTEX
  5
6457
330
644A
100
AcDbEntity
  8
LW 5015-15-01
100
AcDbVertex
100
AcDb2dVertex
 10
-27.5
 20
-20.29211044311955
 30
0.0
  0
VERTEX
  5
6458
330
644A
100
AcDbEntity
  8
LW 5015-15-01
100
AcDbVertex
100
AcDb2dVertex
 10
-27.1807074546814
 20
-20.30447006226018
 30
0.0
  0
VERTEX
  5
6459
330
644A
100
AcDbEntity
  8
LW 5015-15-01
100
AcDbVertex
100
AcDb2dVertex
 10
-26.85816884040832
 20
-20.34152984619573
 30
0.0
  0
VERTEX
  5
645A
330
644A
100
AcDbEntity
  8
LW 5015-15-01
100
AcDbVertex
100
AcDb2dVertex
 10
-26.54300212860107
 20
-20.40325641632512
 30
0.0
  0
VERTEX
  5
645B
330
644A
100
AcDbEntity
  8
LW 5015-15-01
100
AcDbVertex
100
AcDb2dVertex
 10
-26.24523878097534
 20
-20.48868179321721
 30
0.0
  0
VERTEX
  5
645C
330
644A
100
AcDbEntity
  8
LW 5015-15-01
100
AcDbVertex
100
AcDb2dVertex
 10
-25.97259998321533
 20
-20.59347152710393
 30
0.0
  0
VERTEX
  5
645D
330
644A
100
AcDbEntity
  8
LW 5015-15-01
100
AcDbVertex
100
AcDb2dVertex
 10
-25.7322347164154
 20
-20.71255683899358
 30
0.0
  0
VERTEX
  5
645E
330
644A
100
AcDbEntity
  8
LW 5015-15-01
100
AcDbVertex
100
AcDb2dVertex
 10
-25.52152276039123
 20
-20.84645748138848
 30
0.0
  0
VERTEX
  5
645F
330
644A
100
AcDbEntity
  8
LW 5015-15-01
100
AcDbVertex
100
AcDb2dVertex
 10
-25.33830523490906
 20
-20.9959340095561
 30
0.0
  0
VERTEX
  5
6460
330
644A
100
AcDbEntity
  8
LW 5015-15-01
100
AcDbVertex
100
AcDb2dVertex
 10
-25.19042253494263
 20
-21.15626573563031
 30
0.0
  0
VERTEX
  5
6461
330
644A
100
AcDbEntity
  8
LW 5015-15-01
100
AcDbVertex
100
AcDb2dVertex
 10
-25.08434295654297
 20
-21.32250547409455
 30
0.0
  0
VERTEX
  5
6462
330
644A
100
AcDbEntity
  8
LW 5015-15-01
100
AcDbVertex
100
AcDb2dVertex
 10
-25.02101302146912
 20
-21.48914575577169
 30
0.0
  0
VERTEX
  5
6463
330
644A
100
AcDbEntity
  8
LW 5015-15-01
100
AcDbVertex
100
AcDb2dVertex
 10
-25.0
 20
-21.65063619614023
 30
0.0
  0
SEQEND
  5
6464
330
644A
100
AcDbEntity
  8
LW 5015-15-01
  0
POLYLINE
  5
6465
330
6395
100
AcDbEntity
  8
LW 5015-15-01
100
AcDb2dPolyline
 66
     1
 10
0.0
 20
0.0
 30
0.0
 70
   128
  0
VERTEX
  5
6466
330
6465
100
AcDbEntity
  8
LW 5015-15-01
100
AcDbVertex
100
AcDb2dVertex
 10
-25.0
 20
-21.65063619614023
 30
0.0
  0
VERTEX
  5
6467
330
6465
100
AcDbEntity
  8
LW 5015-15-01
100
AcDbVertex
100
AcDb2dVertex
 10
-25.02101302146912
 20
-21.80843830109006
 30
0.0
  0
VERTEX
  5
6468
330
6465
100
AcDbEntity
  8
LW 5015-15-01
100
AcDbVertex
100
AcDb2dVertex
 10
-25.08434295654297
 20
-21.96433782577878
 30
0.0
  0
VERTEX
  5
6469
330
6465
100
AcDbEntity
  8
LW 5015-15-01
100
AcDbVertex
100
AcDb2dVertex
 10
-25.19042253494263
 20
-22.11326599121457
 30
0.0
  0
VERTEX
  5
646A
330
6465
100
AcDbEntity
  8
LW 5015-15-01
100
AcDbVertex
100
AcDb2dVertex
 10
-25.33830523490906
 20
-22.25069761276586
 30
0.0
  0
VERTEX
  5
646B
330
6465
100
AcDbEntity
  8
LW 5015-15-01
100
AcDbVertex
100
AcDb2dVertex
 10
-25.52152276039123
 20
-22.37386226654394
 30
0.0
  0
VERTEX
  5
646C
330
6465
100
AcDbEntity
  8
LW 5015-15-01
100
AcDbVertex
100
AcDb2dVertex
 10
-25.7322347164154
 20
-22.48032569885595
 30
0.0
  0
VERTEX
  5
646D
330
6465
100
AcDbEntity
  8
LW 5015-15-01
100
AcDbVertex
100
AcDb2dVertex
 10
-25.97259998321533
 20
-22.57195234299024
 30
0.0
  0
VERTEX
  5
646E
330
6465
100
AcDbEntity
  8
LW 5015-15-01
100
AcDbVertex
100
AcDb2dVertex
 10
-26.24523878097534
 20
-22.6503801345857
 30
0.0
  0
VERTEX
  5
646F
330
6465
100
AcDbEntity
  8
LW 5015-15-01
100
AcDbVertex
100
AcDb2dVertex
 10
-26.54300212860107
 20
-22.71283626556715
 30
0.0
  0
VERTEX
  5
6470
330
6465
100
AcDbEntity
  8
LW 5015-15-01
100
AcDbVertex
100
AcDb2dVertex
 10
-26.85816884040832
 20
-22.75718688965162
 30
0.0
  0
VERTEX
  5
6471
330
6465
100
AcDbEntity
  8
LW 5015-15-01
100
AcDbVertex
100
AcDb2dVertex
 10
-27.1807074546814
 20
-22.78345584869703
 30
0.0
  0
VERTEX
  5
6472
330
6465
100
AcDbEntity
  8
LW 5015-15-01
100
AcDbVertex
100
AcDb2dVertex
 10
-27.5
 20
-22.79211044311842
 30
0.0
  0
VERTEX
  5
6473
330
6465
100
AcDbEntity
  8
LW 5015-15-01
100
AcDbVertex
100
AcDb2dVertex
 10
-27.8192925453186
 20
-22.78345584869703
 30
0.0
  0
VERTEX
  5
6474
330
6465
100
AcDbEntity
  8
LW 5015-15-01
100
AcDbVertex
100
AcDb2dVertex
 10
-28.14183115959167
 20
-22.75718688965162
 30
0.0
  0
VERTEX
  5
6475
330
6465
100
AcDbEntity
  8
LW 5015-15-01
100
AcDbVertex
100
AcDb2dVertex
 10
-28.45699787139893
 20
-22.71283626556715
 30
0.0
  0
VERTEX
  5
6476
330
6465
100
AcDbEntity
  8
LW 5015-15-01
100
AcDbVertex
100
AcDb2dVertex
 10
-28.75476121902466
 20
-22.6503801345857
 30
0.0
  0
VERTEX
  5
6477
330
6465
100
AcDbEntity
  8
LW 5015-15-01
100
AcDbVertex
100
AcDb2dVertex
 10
-29.02740001678467
 20
-22.57195234299024
 30
0.0
  0
VERTEX
  5
6478
330
6465
100
AcDbEntity
  8
LW 5015-15-01
100
AcDbVertex
100
AcDb2dVertex
 10
-29.26776528358459
 20
-22.48032569885595
 30
0.0
  0
VERTEX
  5
6479
330
6465
100
AcDbEntity
  8
LW 5015-15-01
100
AcDbVertex
100
AcDb2dVertex
 10
-29.47847723960876
 20
-22.37386226654394
 30
0.0
  0
VERTEX
  5
647A
330
6465
100
AcDbEntity
  8
LW 5015-15-01
100
AcDbVertex
100
AcDb2dVertex
 10
-29.66169476509094
 20
-22.25069761276586
 30
0.0
  0
VERTEX
  5
647B
330
6465
100
AcDbEntity
  8
LW 5015-15-01
100
AcDbVertex
100
AcDb2dVertex
 10
-29.80957746505737
 20
-22.11326599121457
 30
0.0
  0
VERTEX
  5
647C
330
6465
100
AcDbEntity
  8
LW 5015-15-01
100
AcDbVertex
100
AcDb2dVertex
 10
-29.91565704345703
 20
-21.96433782577878
 30
0.0
  0
VERTEX
  5
647D
330
6465
100
AcDbEntity
  8
LW 5015-15-01
100
AcDbVertex
100
AcDb2dVertex
 10
-29.97898697853088
 20
-21.80843830109006
 30
0.0
  0
VERTEX
  5
647E
330
6465
100
AcDbEntity
  8
LW 5015-15-01
100
AcDbVertex
100
AcDb2dVertex
 10
-30.0
 20
-21.65063619614023
 30
0.0
  0
SEQEND
  5
647F
330
6465
100
AcDbEntity
  8
LW 5015-15-01
  0
LINE
  5
6480
330
6395
100
AcDbEntity
  8
LW 5015-15-01
100
AcDbLine
 10
-31.5
 20
25.0
 30
0.0
 11
-31.5
 21
-25.0
 31
0.0
  0
LINE
  5
6481
330
6395
100
AcDbEntity
  8
LW 5015-15-01
100
AcDbLine
 10
-37.5
 20
19.0
 30
0.0
 11
-37.5
 21
-19.0
 31
0.0
  0
LINE
  5
6482
330
6395
100
AcDbEntity
  8
LW 5015-15-01
100
AcDbLine
 10
-131.5
 20
10.0
 30
0.0
 11
-131.5
 21
-10.0
 31
0.0
  0
LINE
  5
6483
330
6395
100
AcDbEntity
  8
LW 5015-15-01
100
AcDbLine
 10
-132.5
 20
9.0
 30
0.0
 11
-132.5
 21
-9.0
 31
0.0
  0
LINE
  5
6484
330
6395
100
AcDbEntity
  8
LW 5015-15-01
100
AcDbLine
 10
-12.5
 20
-25.0
 30
0.0
 11
-31.5
 21
-25.0
 31
0.0
  0
LINE
  5
6485
330
6395
100
AcDbEntity
  8
LW 5015-15-01
100
AcDbLine
 10
-12.5
 20
25.0
 30
0.0
 11
-31.5
 21
25.0
 31
0.0
  0
LINE
  5
6486
330
6395
100
AcDbEntity
  8
LW 5015-15-01
100
AcDbLine
 10
-37.5
 20
19.0
 30
0.0
 11
-31.5
 21
25.0
 31
0.0
  0
LINE
  5
6487
330
6395
100
AcDbEntity
  8
LW 5015-15-01
100
AcDbLine
 10
-37.5
 20
-19.0
 30
0.0
 11
-31.5
 21
-25.0
 31
0.0
  0
ARC
  5
6488
330
6395
100
AcDbEntity
  8
LW 5015-15-01
100
AcDbCircle
 10
-38.5
 20
11.0
 30
0.0
 40
1.000000000000002
100
AcDbArc
 50
270.0
 51
0.0
  0
ARC
  5
6489
330
6395
100
AcDbEntity
  8
LW 5015-15-01
100
AcDbCircle
 10
-38.5
 20
-11.0
 30
0.0
 40
1.000000000000002
100
AcDbArc
 50
0.0
 51
90.0
  0
LINE
  5
648A
330
6395
100
AcDbEntity
  8
LW 5015-15-01
100
AcDbLine
 10
-38.5
 20
-10.0
 30
0.0
 11
-88.48612181133097
 21
-10.00000000000003
 31
0.0
  0
LINE
  5
648B
330
6395
100
AcDbEntity
  8
LW 5015-15-01
100
AcDbLine
 10
-106.5138781886691
 20
-10.0
 30
0.0
 11
-131.5
 21
-10.0
 31
0.0
  0
LINE
  5
648C
330
6395
100
AcDbEntity
  8
LW 5015-15-01
100
AcDbLine
 10
-38.5
 20
10.0
 30
0.0
 11
-80.72949016875318
 21
9.999999999999971
 31
0.0
  0
LINE
  5
648D
330
6395
100
AcDbEntity
  8
LW 5015-15-01
100
AcDbLine
 10
-114.2705098312468
 20
10.0
 30
0.0
 11
-131.5
 21
10.0
 31
0.0
  0
LINE
  5
648E
330
6395
100
AcDbEntity
  8
LW 5015-15-01
100
AcDbLine
 10
-132.5
 20
9.0
 30
0.0
 11
-131.5
 21
10.0
 31
0.0
  0
LINE
  5
648F
330
6395
100
AcDbEntity
  8
LW 5015-15-01
100
AcDbLine
 10
-132.5
 20
-9.0
 30
0.0
 11
-131.5
 21
-10.0
 31
0.0
  0
CIRCLE
  5
6490
330
6395
100
AcDbEntity
  8
LW 5015-15-01
100
AcDbCircle
 10
-97.5
 20
4.999999999994543
 30
0.0
 40
17.50000000000001
  0
CIRCLE
  5
6491
330
6395
100
AcDbEntity
  8
LW 5015-15-01
100
AcDbCircle
 10
97.5
 20
4.999999999994543
 30
0.0
 40
17.5
  0
LINE
  5
6492
330
6395
100
AcDbEntity
  8
LW 5015-15-01
100
AcDbLine
 10
6.5
 20
12.0
 30
0.0
 11
6.5
 21
-12.00000000000011
 31
0.0
  0
LINE
  5
6493
330
6395
100
AcDbEntity
  8
LW 5015-15-01
100
AcDbLine
 10
-6.5
 20
12.0
 30
0.0
 11
-6.5
 21
-12.00000000000011
 31
0.0
  0
LINE
  5
6494
330
6395
100
AcDbEntity
  8
LW 5015-15-01
100
AcDbLine
 10
-6.5
 20
12.0
 30
0.0
 11
6.5
 21
12.0
 31
0.0
  0
LINE
  5
6495
330
6395
100
AcDbEntity
  8
LW 5015-15-01
100
AcDbLine
 10
-6.5
 20
-12.00000000000011
 30
0.0
 11
6.5
 21
-12.00000000000011
 31
0.0
  0
LINE
  5
6496
330
6395
100
AcDbEntity
  8
LW 5015-15-01
100
AcDbLine
 10
-9.5
 20
32.5
 30
0.0
 11
-9.5
 21
-32.5
 31
0.0
  0
LINE
  5
6497
330
6395
100
AcDbEntity
  8
LW 5015-15-01
100
AcDbLine
 10
-12.5
 20
32.5
 30
0.0
 11
-12.5
 21
-32.5
 31
0.0
  0
LINE
  5
6498
330
6395
100
AcDbEntity
  8
LW 5015-15-01
100
AcDbLine
 10
-12.5
 20
32.5
 30
0.0
 11
-9.5
 21
32.5
 31
0.0
  0
LINE
  5
6499
330
6395
100
AcDbEntity
  8
LW 5015-15-01
100
AcDbLine
 10
-12.5
 20
-32.5
 30
0.0
 11
-9.5
 21
-32.5
 31
0.0
  0
LINE
  5
649A
330
6395
100
AcDbEntity
  8
LW 5015-15-01
100
AcDbLine
 10
9.5
 20
-32.5
 30
0.0
 11
9.5
 21
32.5
 31
0.0
  0
LINE
  5
649B
330
6395
100
AcDbEntity
  8
LW 5015-15-01
100
AcDbLine
 10
12.5
 20
-32.5
 30
0.0
 11
12.5
 21
32.5
 31
0.0
  0
LINE
  5
649C
330
6395
100
AcDbEntity
  8
LW 5015-15-01
100
AcDbLine
 10
12.5
 20
-32.5
 30
0.0
 11
9.5
 21
-32.5
 31
0.0
  0
LINE
  5
649D
330
6395
100
AcDbEntity
  8
LW 5015-15-01
100
AcDbLine
 10
12.5
 20
32.5
 30
0.0
 11
9.5
 21
32.5
 31
0.0
  0
LINE
  5
649E
330
6395
100
AcDbEntity
  8
LW 5015-15-01
100
AcDbLine
 10
-7.5
 20
32.0
 30
0.0
 11
-7.5
 21
-32.00000000000012
 31
0.0
  0
LINE
  5
649F
330
6395
100
AcDbEntity
  8
LW 5015-15-01
100
AcDbLine
 10
-9.5
 20
32.0
 30
0.0
 11
-7.5
 21
32.0
 31
0.0
  0
LINE
  5
64A0
330
6395
100
AcDbEntity
  8
LW 5015-15-01
100
AcDbLine
 10
-9.5
 20
-32.0
 30
0.0
 11
-7.5
 21
-32.0
 31
0.0
  0
LINE
  5
64A1
330
6395
100
AcDbEntity
  8
LW 5015-15-01
100
AcDbLine
 10
7.5
 20
-32.00000000000012
 30
0.0
 11
7.5
 21
32.0
 31
0.0
  0
LINE
  5
64A2
330
6395
100
AcDbEntity
  8
LW 5015-15-01
100
AcDbLine
 10
9.5
 20
-32.0
 30
0.0
 11
7.5
 21
-32.0
 31
0.0
  0
LINE
  5
64A3
330
6395
100
AcDbEntity
  8
LW 5015-15-01
100
AcDbLine
 10
9.5
 20
32.0
 30
0.0
 11
7.5
 21
32.0
 31
0.0
  0
LINE
  5
64A4
330
6395
100
AcDbEntity
  8
LW 5015-15-01
100
AcDbLine
 10
7.5
 20
-7.000000000000113
 30
0.0
 11
6.5
 21
-7.000000000000113
 31
0.0
  0
LINE
  5
64A5
330
6395
100
AcDbEntity
  8
LW 5015-15-01
100
AcDbLine
 10
-6.5
 20
-7.000000000000113
 30
0.0
 11
-7.5
 21
-7.000000000000113
 31
0.0
  0
LINE
  5
64A6
330
6395
100
AcDbEntity
  8
LW 5015-15-01
100
AcDbLine
 10
7.5
 20
7.0
 30
0.0
 11
6.5
 21
7.0
 31
0.0
  0
LINE
  5
64A7
330
6395
100
AcDbEntity
  8
LW 5015-15-01
100
AcDbLine
 10
-6.5
 20
7.0
 30
0.0
 11
-7.5
 21
7.0
 31
0.0
  0
LINE
  5
64A8
330
6395
100
AcDbEntity
  8
LW 5015-15-01
 62
     3
100
AcDbLine
 10
-7.5
 20
-5.794500000000084
 30
0.0
 11
-6.5
 21
-5.794500000000084
 31
0.0
  0
LINE
  5
64A9
330
6395
100
AcDbEntity
  8
LW 5015-15-01
 62
     3
100
AcDbLine
 10
6.5
 20
-5.794500000000084
 30
0.0
 11
7.5
 21
-5.794500000000084
 31
0.0
  0
LINE
  5
64AA
330
6395
100
AcDbEntity
  8
LW 5015-15-01
 62
     3
100
AcDbLine
 10
7.5
 20
5.79449999999997
 30
0.0
 11
6.5
 21
5.79449999999997
 31
0.0
  0
LINE
  5
64AB
330
6395
100
AcDbEntity
  8
LW 5015-15-01
 62
     3
100
AcDbLine
 10
-6.500000000000227
 20
5.79449999999997
 30
0.0
 11
-7.5
 21
5.79449999999997
 31
0.0
  0
LINE
  5
64AC
330
6395
100
AcDbEntity
  8
LW 5015-15-01
  6
MITTE2
 62
     3
100
AcDbLine
 10
-97.5
 20
27.49999999999455
 30
0.0
 11
-97.5
 21
-17.50000000000546
 31
0.0
  0
LINE
  5
64AD
330
6395
100
AcDbEntity
  8
LW 5015-15-01
  6
MITTE2
 62
     3
100
AcDbLine
 10
97.5
 20
27.49999999999432
 30
0.0
 11
97.5
 21
-17.50000000000568
 31
0.0
  0
LINE
  5
64AE
330
6395
100
AcDbEntity
  8
LW 5015-15-01
  6
MITTE2
 62
     3
100
AcDbLine
 10
135.8443034851964
 20
0.0
 30
0.0
 11
-135.8443034851966
 21
0.0
 31
0.0
  0
HATCH
  5
64AF
330
6395
100
AcDbEntity
  8
LW 5015-15-01
 62
     1
100
AcDbHatch
 10
0.0
 20
0.0
 30
0.0
210
0.0
220
0.0
230
1.0
  2
SOLID
 70
     1
 71
     0
 91
        5
 92
        7
 72
     0
 73
     1
 93
       76
 10
50.17907163391033
 20
5.869698514444621
 10
50.21093046328314
 20
5.921279476286372
 10
50.32908858751444
 20
6.0725218753023
 10
50.46356666272709
 20
6.212946005564845
 10
50.60958656918865
 20
6.341330567278191
 10
50.77325536527064
 20
6.458236850193998
 10
50.94864231863539
 20
6.560414732015601
 10
51.13039525123577
 20
6.651766411598487
 10
51.31156418670139
 20
6.721284724044608
 10
49.05442624850138
 20
6.721284724044608
 10
48.84152969610136
 20
6.71259506884462
 10
48.63949521270138
 20
6.686526103244659
 10
48.44397797070133
 20
6.64525024104455
 10
48.25932279770154
 20
6.590939896044574
 10
48.08335727990129
 20
6.521422654444563
 10
47.91608141730148
 20
6.438870930044458
 10
47.76551315475444
 20
6.343545412500589
 10
47.62280555430152
 20
6.236836446644474
 10
47.49736429873087
 20
6.117788170404423
 10
47.3860993466535
 20
5.989528859652523
 10
47.28608141530139
 20
5.852319204044533
 10
47.2035296909014
 20
5.706767479444465
 10
47.14052969070144
 20
5.55252609964441
 10
47.09056417330157
 20
5.391767478444535
 10
47.06232279390156
 20
5.226664029644553
 10
47.05363313870157
 20
5.052870925644583
 10
47.06449520770161
 20
4.879077821644386
 10
47.09490900090145
 20
4.711801959044464
 10
47.14921934590165
 20
4.551043337844475
 10
47.21873658750155
 20
4.39462954424448
 10
47.3078055533017
 20
4.246905405844472
 10
47.4142538295016
 20
4.105698508844625
 10
47.5369517609256
 20
3.974484715324479
 10
47.67315080963385
 20
3.853350921836636
 10
47.82049521010162
 20
3.742905404244538
 10
47.98125383130173
 20
3.645146783244626
 10
48.15688045254887
 20
3.560248851940514
 10
48.33752969450142
 20
3.486560575844578
 10
48.52870210890159
 20
3.430077817044548
 10
48.72856417850153
 20
3.386629541044612
 10
48.93711590330145
 20
3.360560575444537
 10
49.14784004190142
 20
3.35187092024455
 10
51.26701112765409
 20
3.351870920244664
 10
51.10646726360164
 20
3.414941723979609
 10
50.92290311979922
 20
3.505561997502354
 10
50.75443671362904
 20
3.610091690433819
 10
50.5916038188684
 20
3.725709928859259
 10
50.44769145049826
 20
3.855499525399181
 10
50.32025555701398
 20
3.994853208627773
 10
50.20655020227059
 20
4.145341453340279
 10
50.15457897082183
 20
4.229526095444612
 10
49.12611590390156
 20
4.229526095444498
 10
48.99400707589598
 20
4.237086095468612
 10
48.86325383410144
 20
4.257419888636604
 10
48.73508141990169
 20
4.290353681844521
 10
48.61994348850157
 20
4.335974371644624
 10
48.51499852265124
 20
4.39245713044454
 10
48.41684886716712
 20
4.460062647900485
 10
48.32666762550161
 20
4.538008855044495
 10
48.25497797010166
 20
4.62273299324454
 10
49.9824992843603
 20
4.622732993244653
 10
49.97191481708728
 20
4.655368434002866
 10
49.93580300912299
 20
4.840742381554036
 10
49.92375935634118
 20
5.03103209550477
 10
49.93578102877063
 20
5.22578318885985
 10
49.97208675044589
 20
5.412152560126287
 10
49.98868545312075
 20
5.461284720044545
 10
48.21804693550143
 20
5.461284720044545
 10
48.28756417710156
 20
5.556870927244517
 10
48.37011590150154
 20
5.639422651644508
 10
48.46520679835498
 20
5.709287479452541
 10
48.56780555730143
 20
5.767595065844602
 10
48.68649755767819
 20
5.811564721156514
 10
48.80894348910146
 20
5.843629548844546
 10
48.94580555850144
 20
5.863181273044574
 10
49.08918486930156
 20
5.869698514444507
 97
        0
 92
        7
 72
     0
 73
     1
 93
       72
 10
51.90753549893816
 20
5.855099893708597
 10
52.03039853381096
 20
5.873174376524616
 10
52.1544607411015
 20
5.878388169644722
 10
53.42315040030143
 20
5.878388169644722
 10
52.57590901830145
 20
5.063732994644851
 10
54.34208143770161
 20
3.34535367884473
 10
55.66073661430142
 20
3.34535367884473
 10
53.94670212610162
 20
5.087629546444759
 10
55.62815040730152
 20
6.721284724044835
 10
52.18921936190145
 20
6.721284724044608
 10
51.98123246468935
 20
6.710509551596715
 10
51.77451425713662
 20
6.68504886186065
 10
51.5700814289014
 20
6.645250241044664
 10
51.37673660070141
 20
6.588767482244634
 10
51.18990901390134
 20
6.51707782684457
 10
51.01874887542703
 20
6.431050240364584
 10
50.85318487490145
 20
6.334595067644613
 10
50.70111590890156
 20
6.225974377644661
 10
50.56541825329827
 20
6.106665411748622
 10
50.44042625290149
 20
5.976146790644634
 10
50.33180556290131
 20
5.837112307444613
 10
50.24056418330156
 20
5.689388169044718
 10
50.16887452790138
 20
5.535146789244663
 10
50.11456418290141
 20
5.374388168044561
 10
50.08197797590151
 20
5.207112305444525
 10
50.07111590690147
 20
5.031146787644502
 10
50.08197797590151
 20
4.859526097444586
 10
50.11456418290163
 20
4.692250234844664
 10
50.16670211410155
 20
4.531491613644675
 10
50.23621935570145
 20
4.37725023384462
 10
50.32806032151029
 20
4.228483336820772
 10
50.43343977012068
 20
4.089014370860581
 10
50.5514452877369
 20
3.959972991140716
 10
50.68373659850158
 20
3.840664025244677
 10
50.8358577024328
 20
3.732651611108622
 10
50.99439177190152
 20
3.634284714244586
 10
51.16601246210166
 20
3.549560576044655
 10
51.34849522130162
 20
3.477870920644591
 10
51.54272639433202
 20
3.423821265300603
 10
51.73952970530149
 20
3.380112299644679
 10
51.94808143010163
 20
3.354043334044717
 10
52.1588055687016
 20
3.34535367884473
 10
54.06184005750152
 20
3.34535367884473
 10
53.17549522710146
 20
4.218664026444685
 10
52.1588055687016
 20
4.218664026444685
 10
52.09213853400706
 20
4.222411319384036
 10
51.99119080954869
 20
4.232393681660596
 10
51.87105632640873
 20
4.253857130004689
 10
51.75393715362315
 20
4.288181268044581
 10
51.65244198088726
 20
4.329109544036668
 10
51.59630680829514
 20
4.357264026884649
 10
51.54262211846958
 20
4.389850233884772
 10
51.41006142839342
 20
4.489172992820613
 10
51.33646004884963
 20
4.559211613732713
 10
51.28139370384724
 20
4.627077820844533
 10
51.23268818645101
 20
4.699636441764596
 10
51.19332404839497
 20
4.776800579940527
 10
51.16390087588797
 20
4.858222649164645
 10
51.14320211720155
 20
4.945379890820731
 10
51.13568556545351
 20
5.034709546276531
 10
51.13704115166479
 20
5.097014374060563
 10
51.143045703408
 20
5.159145408740528
 10
51.15520253103273
 20
5.222319202044673
 10
51.173416048332
 20
5.284015753964695
 10
51.21706418640133
 20
5.382730237036525
 10
51.2585920486024
 20
5.450596444148573
 10
51.32167025569902
 20
5.528629547844616
 10
51.45107219606393
 20
5.655152284898349
 10
51.51034004940152
 20
5.695210238028721
 10
51.58663522205756
 20
5.739527479548542
 10
51.6706554981863
 20
5.78167230726865
 10
51.78719246407354
 20
5.824512307404688
 97
        0
 92
        7
 72
     0
 73
     1
 93
       57
 10
56.46557247892565
 20
5.833028169500948
 10
56.59704696210155
 20
5.873000583420889
 10
56.73173661770147
 20
5.900112307644917
 10
56.87511592850137
 20
5.90880196284479
 10
58.11556420830152
 20
5.908801962844904
 10
58.11556420830152
 20
6.734319206844929
 10
56.88163316990153
 20
6.734319206844816
 10
56.67090903130156
 20
6.725629551644829
 10
56.46452972030147
 20
6.697388172244814
 10
56.26684006450159
 20
6.656112310044818
 10
56.07784006390147
 20
6.601801965044842
 10
55.89318489090146
 20
6.530112309644891
 10
55.72677799382131
 20
6.447473688692753
 10
55.56795716573105
 20
6.351018515972782
 10
55.41787813077189
 20
6.241528860452717
 10
55.28331881999998
 20
6.122306791108826
 10
55.16325385410141
 20
5.993526101044835
 10
55.05897799170156
 20
5.854491617844814
 10
54.97425385350152
 20
5.708939893244746
 10
54.90256419810134
 20
5.554698513444691
 10
54.85259868070148
 20
5.393939892244816
 10
54.82001247370158
 20
5.226664029644894
 10
54.80915040470154
 20
5.05287092564481
 10
54.82001247370158
 20
4.879077821644841
 10
54.85259868070148
 20
4.711801959044805
 10
54.9047366119014
 20
4.551043337844703
 10
54.97642626730158
 20
4.394629544244821
 10
55.06332281930167
 20
4.246905405844813
 10
55.1721694403368
 20
4.107349543332816
 10
55.29202585451026
 20
3.977004715332896
 10
55.4284534411504
 20
3.855697128740757
 10
55.57601247610159
 20
3.745077818044819
 10
55.73677109730147
 20
3.64731919704468
 10
55.91056420130144
 20
3.562595058844863
 10
56.09521937430168
 20
3.488732989644859
 10
56.28639178870162
 20
3.432250230844829
 10
56.48625385830155
 20
3.388801954844893
 10
56.69263316930164
 20
3.364905403044758
 10
56.90552972170166
 20
3.356215747844771
 10
58.11556420830152
 20
3.356215747844885
 10
58.11556420830152
 20
4.214319198844805
 10
56.88163316990153
 20
4.214319198844805
 10
56.74798627292557
 20
4.224659888532755
 10
56.6157297207817
 20
4.246644716188939
 10
56.4951173066056
 20
4.280968854228831
 10
56.3791104096856
 20
4.328935750932942
 10
56.26944696106147
 20
4.389850233884885
 10
56.17238351247761
 20
4.45745575134083
 10
56.08496558116553
 20
4.537226786076871
 10
56.01049523610163
 20
4.622732993244881
 10
58.11556420830152
 20
4.622732993244881
 10
58.11556420830152
 20
5.450422651044846
 10
55.9735642015014
 20
5.450422651044846
 10
56.04308144310152
 20
5.548181272044757
 10
56.12997799510139
 20
5.637250237844682
 10
56.23112558162961
 20
5.713545410500842
 10
56.33852971990155
 20
5.78062954864481
 97
        0
 92
        7
 72
     0
 73
     1
 93
        6
 10
58.34584007110152
 20
6.721284724044949
 10
58.34584007110152
 20
3.351870920244891
 10
60.58342628510172
 20
3.351870920245005
 10
60.5834262851015
 20
4.218664026445026
 10
59.36904697090153
 20
4.218664026445026
 10
59.36904697090153
 20
6.721284724044949
 97
        0
 92
        7
 72
     0
 73
     1
 93
        8
 10
59.60149524750136
 20
6.721284724044949
 10
59.60149524750136
 20
5.895767480044924
 10
60.83542628590158
 20
5.895767480045037
 10
60.83542628590158
 20
3.345353678844958
 10
61.86080559950164
 20
3.345353678844958
 10
61.86080559950141
 20
5.895767480044924
 10
63.10342629310139
 20
5.895767480045037
 10
63.10342629310139
 20
6.721284724045062
 97
        0
 75
     0
 76
     1
 47
0.0142553043587597
 98
        5
 10
49.48873175997665
 20
6.278835054455498
 10
51.75622897331937
 20
6.136282069449862
 10
56.24844070552081
 20
6.193303241997682
 10
58.97228978935254
 20
6.435643466690066
 10
60.38412777157919
 20
6.335856334276741
450
        0
451
        0
460
0.0
461
0.0
452
        0
462
0.0
453
        0
470

  0
LWPOLYLINE
  5
64B0
330
6395
100
AcDbEntity
  8
LW 5015-15-01
 62
     1
100
AcDbPolyline
 90
        8
 70
     1
 43
0.0
 10
61.86080559950141
 20
5.895767480044924
 10
61.86080559950164
 20
3.345353678844958
 10
60.83542628590158
 20
3.345353678844958
 10
60.83542628590158
 20
5.895767480045037
 10
59.60149524750136
 20
5.895767480044924
 10
59.60149524750136
 20
6.721284724044949
 10
63.10342629310139
 20
6.721284724045062
 10
63.10342629310139
 20
5.895767480045037
  0
LWPOLYLINE
  5
64B1
330
6395
100
AcDbEntity
  8
LW 5015-15-01
 62
     1
100
AcDbPolyline
 90
       73
 70
     1
 43
0.0
 10
52.1588055687016
 20
4.218664026444685
 10
53.17549522710146
 20
4.218664026444685
 10
54.06184005750152
 20
3.34535367884473
 10
52.1588055687016
 20
3.345353678844617
 10
51.94808143010163
 20
3.354043334044717
 10
51.73952970530149
 20
3.380112299644679
 10
51.54272639433202
 20
3.423821265300603
 10
51.34849522130162
 20
3.477870920644591
 10
51.16601246210166
 20
3.549560576044655
 10
50.99439177190152
 20
3.634284714244586
 10
50.8358577024328
 20
3.732651611108622
 10
50.68373659850158
 20
3.840664025244677
 10
50.55144528773666
 20
3.959972991140602
 10
50.43343977012068
 20
4.089014370860581
 10
50.32806032151029
 20
4.228483336820659
 10
50.23621935570145
 20
4.37725023384462
 10
50.16670211410155
 20
4.531491613644675
 10
50.11456418290163
 20
4.692250234844664
 10
50.08197797590151
 20
4.859526097444586
 10
50.07111590690147
 20
5.031146787644615
 10
50.08197797590151
 20
5.207112305444525
 10
50.11456418290141
 20
5.374388168044561
 10
50.16887452790161
 20
5.535146789244663
 10
50.24056418330156
 20
5.689388169044605
 10
50.33180556290154
 20
5.837112307444613
 10
50.44042625290149
 20
5.976146790644634
 10
50.56541825329827
 20
6.106665411748736
 10
50.70111590890133
 20
6.225974377644661
 10
50.85318487490145
 20
6.334595067644613
 10
51.01874887542703
 20
6.431050240364584
 10
51.18990901390134
 20
6.51707782684457
 10
51.37673660070141
 20
6.588767482244634
 10
51.5700814289014
 20
6.645250241044777
 10
51.77451425713662
 20
6.68504886186065
 10
51.98123246468935
 20
6.710509551596715
 10
52.18921936190145
 20
6.721284724044608
 10
55.62815040730152
 20
6.721284724044835
 10
53.94670212610162
 20
5.087629546444759
 10
55.66073661430142
 20
3.34535367884473
 10
54.34208143770161
 20
3.34535367884473
 10
52.57590901830145
 20
5.063732994644851
 10
53.42315040030143
 20
5.878388169644722
 10
52.1544607411015
 20
5.878388169644722
 10
52.03039853381096
 20
5.873174376524616
 10
51.90753549893816
 20
5.855099893708597
 10
51.78719246407354
 20
5.824512307404688
 10
51.6706554981863
 20
5.781672307268536
 10
51.58663522205734
 20
5.739527479548655
 10
51.51034004940152
 20
5.695210238028721
 10
51.47009825617033
 20
5.668011617252659
 10
51.43258501467198
 20
5.637076444740614
 10
51.32167025569902
 20
5.528629547844616
 10
51.2585920486024
 20
5.450596444148573
 10
51.21706418640155
 20
5.382730237036639
 10
51.173416048332
 20
5.284015753964695
 10
51.15520253103273
 20
5.222319202044673
 10
51.143045703408
 20
5.159145408740641
 10
51.13704115166479
 20
5.097014374060677
 10
51.13568556545351
 20
5.034709546276644
 10
51.14320211720155
 20
4.945379890820731
 10
51.16390087588797
 20
4.858222649164645
 10
51.1933240483952
 20
4.776800579940641
 10
51.23268818645101
 20
4.699636441764596
 10
51.28139370384701
 20
4.627077820844647
 10
51.33646004884963
 20
4.559211613732713
 10
51.41006142839342
 20
4.489172992820613
 10
51.54262211846958
 20
4.389850233884772
 10
51.59630680829514
 20
4.357264026884649
 10
51.65244198088726
 20
4.329109544036668
 10
51.75393715362315
 20
4.288181268044581
 10
51.87105632640873
 20
4.253857130004689
 10
51.99119080954869
 20
4.232393681660596
 10
52.09213853400706
 20
4.222411319384036
  0
LWPOLYLINE
  5
64B2
330
6395
100
AcDbEntity
  8
LW 5015-15-01
 62
     1
100
AcDbPolyline
 90
       76
 70
     1
 43
0.0
 10
50.94864231863539
 20
6.560414732015601
 10
50.77325536527064
 20
6.458236850193884
 10
50.60958656918865
 20
6.341330567278191
 10
50.46356666272709
 20
6.212946005564845
 10
50.32908858751444
 20
6.0725218753023
 10
50.21093046328314
 20
5.921279476286372
 10
50.17907163391033
 20
5.869698514444621
 10
49.08918486930156
 20
5.869698514444621
 10
48.94580555850144
 20
5.863181273044574
 10
48.80894348910146
 20
5.843629548844546
 10
48.68649755767819
 20
5.811564721156514
 10
48.56780555730143
 20
5.767595065844602
 10
48.46520679835521
 20
5.709287479452541
 10
48.37011590150154
 20
5.639422651644508
 10
48.28756417710133
 20
5.556870927244517
 10
48.21804693550143
 20
5.461284720044545
 10
49.98868545312075
 20
5.461284720044545
 10
49.97208675044589
 20
5.412152560126287
 10
49.93578102877041
 20
5.225783188859622
 10
49.92375935634118
 20
5.03103209550477
 10
49.93580300912299
 20
4.840742381554036
 10
49.97191481708751
 20
4.65536843400298
 10
49.9824992843603
 20
4.622732993244653
 10
48.25497797010166
 20
4.62273299324454
 10
48.32666762550161
 20
4.538008855044495
 10
48.41684886716712
 20
4.460062647900485
 10
48.51499852265124
 20
4.39245713044454
 10
48.61994348850157
 20
4.335974371644624
 10
48.73508141990169
 20
4.290353681844635
 10
48.86325383410144
 20
4.257419888636604
 10
48.99400707589598
 20
4.237086095468612
 10
49.12611590390156
 20
4.229526095444498
 10
50.15457897082183
 20
4.229526095444612
 10
50.20655020227059
 20
4.145341453340279
 10
50.32025555701398
 20
3.994853208627773
 10
50.44769145049826
 20
3.855499525399181
 10
50.5916038188684
 20
3.725709928859487
 10
50.75443671362904
 20
3.610091690433819
 10
50.92290311979922
 20
3.505561997502354
 10
51.10646726360164
 20
3.414941723979609
 10
51.26701112765409
 20
3.351870920244664
 10
49.14784004190164
 20
3.351870920244437
 10
48.93711590330145
 20
3.360560575444537
 10
48.72856417850153
 20
3.386629541044612
 10
48.52870210890159
 20
3.430077817044548
 10
48.33752969450165
 20
3.486560575844464
 10
48.15688045254865
 20
3.560248851940514
 10
47.98125383130173
 20
3.645146783244626
 10
47.82049521010162
 20
3.742905404244538
 10
47.67315080963385
 20
3.853350921836522
 10
47.5369517609256
 20
3.974484715324479
 10
47.4142538295016
 20
4.105698508844511
 10
47.30780555330148
 20
4.246905405844472
 10
47.21873658750155
 20
4.39462954424448
 10
47.14921934590165
 20
4.551043337844475
 10
47.09490900090145
 20
4.711801959044464
 10
47.06449520770161
 20
4.879077821644614
 10
47.05363313870157
 20
5.052870925644469
 10
47.06232279390133
 20
5.226664029644439
 10
47.09056417330157
 20
5.391767478444535
 10
47.14052969070144
 20
5.55252609964441
 10
47.2035296909014
 20
5.706767479444465
 10
47.28608141530139
 20
5.852319204044533
 10
47.3860993466535
 20
5.989528859652523
 10
47.49736429873087
 20
6.117788170404537
 10
47.62280555430152
 20
6.236836446644474
 10
47.76551315475444
 20
6.343545412500589
 10
47.91608141730148
 20
6.438870930044572
 10
48.08335727990152
 20
6.52142265444445
 10
48.25932279770154
 20
6.590939896044574
 10
48.44397797070155
 20
6.64525024104455
 10
48.63949521270138
 20
6.686526103244659
 10
48.84152969610136
 20
6.71259506884462
 10
49.05442624850138
 20
6.721284724044608
 10
51.31156418670162
 20
6.721284724044721
 10
51.13039525123577
 20
6.651766411598487
  0
LWPOLYLINE
  5
64B3
330
6395
100
AcDbEntity
  8
LW 5015-15-01
 62
     1
100
AcDbPolyline
 90
        6
 70
     1
 43
0.0
 10
60.58342628510172
 20
3.351870920245005
 10
58.34584007110152
 20
3.351870920244891
 10
58.34584007110152
 20
6.721284724044949
 10
59.36904697090153
 20
6.721284724044949
 10
59.36904697090153
 20
4.218664026445026
 10
60.5834262851015
 20
4.218664026445026
  0
LWPOLYLINE
  5
64B4
330
6395
100
AcDbEntity
  8
LW 5015-15-01
 62
     1
100
AcDbPolyline
 90
       57
 70
     1
 43
0.0
 10
55.29202585451026
 20
3.977004715332896
 10
55.1721694403368
 20
4.107349543332702
 10
55.06332281930145
 20
4.246905405844699
 10
54.97642626730158
 20
4.394629544244821
 10
54.9047366119014
 20
4.551043337844703
 10
54.85259868070148
 20
4.711801959044805
 10
54.82001247370158
 20
4.879077821644841
 10
54.80915040470154
 20
5.05287092564481
 10
54.82001247370158
 20
5.22666402964478
 10
54.85259868070148
 20
5.393939892244816
 10
54.90256419810134
 20
5.554698513444691
 10
54.97425385350152
 20
5.70893989324486
 10
55.05897799170134
 20
5.854491617844701
 10
55.16325385410141
 20
5.993526101044835
 10
55.28331881999974
 20
6.122306791108712
 10
55.41787813077189
 20
6.241528860452717
 10
55.56795716573105
 20
6.351018515972782
 10
55.72677799382154
 20
6.447473688692866
 10
55.89318489090146
 20
6.530112309644891
 10
56.07784006390147
 20
6.601801965044842
 10
56.26684006450159
 20
6.656112310044818
 10
56.46452972030147
 20
6.697388172244814
 10
56.67090903130156
 20
6.725629551644829
 10
56.88163316990153
 20
6.734319206844816
 10
58.11556420830152
 20
6.734319206844929
 10
58.11556420830152
 20
5.908801962844904
 10
56.8751159285016
 20
5.90880196284479
 10
56.73173661770147
 20
5.900112307644803
 10
56.59704696210155
 20
5.873000583420889
 10
56.46557247892542
 20
5.833028169500835
 10
56.33852971990155
 20
5.78062954864481
 10
56.23112558162961
 20
5.713545410500842
 10
56.12997799510139
 20
5.637250237844909
 10
56.04308144310152
 20
5.548181272044757
 10
55.9735642015014
 20
5.450422651044846
 10
58.11556420830152
 20
5.450422651044846
 10
58.11556420830152
 20
4.622732993244881
 10
56.01049523610163
 20
4.622732993244881
 10
56.08496558116553
 20
4.537226786076871
 10
56.17238351247761
 20
4.45745575134083
 10
56.26944696106147
 20
4.389850233884885
 10
56.3791104096856
 20
4.328935750932942
 10
56.4951173066056
 20
4.280968854228831
 10
56.6157297207817
 20
4.246644716188939
 10
56.74798627292557
 20
4.224659888532755
 10
56.88163316990153
 20
4.214319198844805
 10
58.11556420830152
 20
4.214319198844805
 10
58.11556420830152
 20
3.356215747844885
 10
56.90552972170166
 20
3.356215747844771
 10
56.69263316930164
 20
3.364905403044758
 10
56.48625385830155
 20
3.388801954844893
 10
56.28639178870162
 20
3.432250230844829
 10
56.09521937430168
 20
3.488732989644859
 10
55.91056420130144
 20
3.562595058844863
 10
55.73677109730147
 20
3.647319197044907
 10
55.57601247610159
 20
3.745077818044819
 10
55.4284534411504
 20
3.855697128740757
  0
LINE
  5
64B5
330
6395
100
AcDbEntity
  8
LW 5015-15-01
  6
MITTE2
 62
     3
100
AcDbLine
 10
0.0
 20
37.0
 30
0.0
 11
0.0
 21
-37.00000000000012
 31
0.0
  0
INSERT
  5
64B6
330
6395
100
AcDbEntity
  8
LW 5015-15-01
100
AcDbBlockReference
 66
     1
  2
insertpoint-ECKELT
 10
0.0
 20
0.0
 30
0.0
  0
ATTRIB
  5
64B7
330
64B6
100
AcDbEntity
  8
insertpoint_ECKELT
100
AcDbText
 10
-6.93151432469286
 20
0.0
 30
0.0
 40
0.6
  1
LW 5015/15-01
 72
     2
 11
-1.199999999999818
 21
0.0
 31
0.0
100
AcDbAttribute
  2
LINKS
 70
     0
  0
ATTRIB
  5
64B8
330
64B6
100
AcDbEntity
  8
insertpoint_ECKELT
100
AcDbText
 10
1.199999999999818
 20
0.0
 30
0.0
 40
0.6
  1

100
AcDbAttribute
  2
RECHTS
 70
     0
  0
SEQEND
  5
64B9
330
64B6
100
AcDbEntity
  8
LW 5015-15-01
  0
LINE
  5
64BA
330
6395
100
AcDbEntity
  8
LW 5015-15-01
  6
MITTE2
 62
     3
100
AcDbLine
 10
-75.0
 20
4.999999999994543
 30
0.0
 11
-120.0
 21
4.999999999994543
 31
0.0
  0
LINE
  5
64BB
330
6395
100
AcDbEntity
  8
LW 5015-15-01
  6
MITTE2
 62
     3
100
AcDbLine
 10
120.0
 20
4.999999999994543
 30
0.0
 11
75.0
 21
4.999999999994543
 31
0.0
  0
ENDBLK
  5
6397
330
6395
100
AcDbEntity
  8
0
100
AcDbBlockEnd
  0
BLOCK
  5
64BE
330
64BD
100
AcDbEntity
  8
0
100
AcDbBlockBegin
  2
LW 5015-15-01_c
 70
     0
 10
0.0
 20
0.0
 30
0.0
  3
LW 5015-15-01_c
  1

  0
LINE
  5
64C0
330
64BD
100
AcDbEntity
  8
LW 5015-15-01
  6
VERDECKT
 62
     6
100
AcDbLine
 10
7.334936490539348
 20
17.70448267190204
 30
0.0
 11
11.6650635094611
 21
15.2044826719009
 31
0.0
  0
LINE
  5
64C1
330
64BD
100
AcDbEntity
  8
LW 5015-15-01
  6
VERDECKT
 62
     6
100
AcDbLine
 10
11.66506350945201
 20
-15.20448267190795
 30
0.0
 11
7.334936490528889
 21
-17.70448267190659
 31
0.0
  0
LINE
  5
64C2
330
64BD
100
AcDbEntity
  8
LW 5015-15-01
  6
VERDECKT
 62
     6
100
AcDbLine
 10
8.748924226215422
 20
15.1535812713729
 30
0.0
 11
7.334936490539348
 21
17.70448267190204
 31
0.0
  0
LINE
  5
64C3
330
64BD
100
AcDbEntity
  8
LW 5015-15-01
  6
VERDECKT
 62
     6
100
AcDbLine
 10
8.748924226215422
 20
15.1535812713729
 30
0.0
 11
11.6650635094611
 21
15.2044826719009
 31
0.0
  0
LINE
  5
64C4
330
64BD
100
AcDbEntity
  8
LW 5015-15-01
  6
VERDECKT
 62
     6
100
AcDbLine
 10
14.6024064732951
 20
20.29210992451317
 30
0.0
 11
11.6650635094611
 21
15.20448267190068
 31
0.0
  0
LINE
  5
64C5
330
64BD
100
AcDbEntity
  8
LW 5015-15-01
  6
VERDECKT
 62
     6
100
AcDbLine
 10
10.2722794543738
 20
22.79210992451453
 30
0.0
 11
7.334936490539348
 21
17.70448267190204
 31
0.0
  0
LINE
  5
64C6
330
64BD
100
AcDbEntity
  8
LW 5015-15-01
  6
VERDECKT
 62
     6
100
AcDbLine
 10
8.748924226206327
 20
-15.15358127137824
 30
0.0
 11
11.66506350945201
 21
-15.20448267190795
 31
0.0
  0
LINE
  5
64C7
330
64BD
100
AcDbEntity
  8
LW 5015-15-01
  6
VERDECKT
 62
     6
100
AcDbLine
 10
8.748924226206327
 20
-15.15358127137824
 30
0.0
 11
7.334936490528889
 21
-17.70448267190659
 31
0.0
  0
LINE
  5
64C8
330
64BD
100
AcDbEntity
  8
LW 5015-15-01
  6
VERDECKT
 62
     6
100
AcDbLine
 10
10.27227945436016
 20
-22.79210992452068
 30
0.0
 11
7.334936490528889
 21
-17.70448267190659
 31
0.0
  0
LINE
  5
64C9
330
64BD
100
AcDbEntity
  8
LW 5015-15-01
  6
VERDECKT
 62
     6
100
AcDbLine
 10
14.60240647328328
 20
-20.29210992452204
 30
0.0
 11
11.66506350945201
 21
-15.20448267190795
 31
0.0
  0
LINE
  5
64CA
330
64BD
100
AcDbEntity
  8
LW 5015-15-01
  6
VERDECKT
 62
     6
100
AcDbLine
 10
-19.00000000000545
 20
-2.499999999994543
 30
0.0
 11
-19.00000000000409
 21
2.500000000005456
 31
0.0
  0
LINE
  5
64CB
330
64BD
100
AcDbEntity
  8
LW 5015-15-01
  6
VERDECKT
 62
     6
100
AcDbLine
 10
-17.49784845243584
 20
0.0000000000051159
 30
0.0
 11
-19.00000000000545
 21
-2.499999999994543
 31
0.0
  0
LINE
  5
64CC
330
64BD
100
AcDbEntity
  8
LW 5015-15-01
  6
VERDECKT
 62
     6
100
AcDbLine
 10
-17.49784845243584
 20
0.0000000000051159
 30
0.0
 11
-19.00000000000409
 21
2.500000000005456
 31
0.0
  0
LINE
  5
64CD
330
64BD
100
AcDbEntity
  8
LW 5015-15-01
  6
VERDECKT
 62
     6
100
AcDbLine
 10
-24.87468592766936
 20
2.500000000007275
 30
0.0
 11
-19.00000000000409
 21
2.500000000005456
 31
0.0
  0
LINE
  5
64CE
330
64BD
100
AcDbEntity
  8
LW 5015-15-01
  6
VERDECKT
 62
     6
100
AcDbLine
 10
-24.87468592767072
 20
-2.499999999992724
 30
0.0
 11
-19.00000000000545
 21
-2.499999999994543
 31
0.0
  0
ARC
  5
64CF
330
64BD
100
AcDbEntity
  8
LW 5015-15-01
100
AcDbCircle
 10
-0.0000000000059117
 20
0.0
 30
0.0
 40
25.0
100
AcDbArc
 50
209.999999999983
 51
36.86989764582579
  0
ARC
  5
64D0
330
64BD
100
AcDbEntity
  8
LW 5015-15-01
100
AcDbCircle
 10
-0.0000000000059117
 20
0.0
 30
0.0
 40
25.0
100
AcDbArc
 50
64.15806723681654
 51
115.8419327631507
  0
ARC
  5
64D1
330
64BD
100
AcDbEntity
  8
LW 5015-15-01
100
AcDbCircle
 10
-0.0000000000077875
 20
-0.0000000000000568
 30
0.0
 40
18.99999999999993
100
AcDbArc
 50
221.1395104148819
 51
318.8604895850835
  0
CIRCLE
  5
64D2
330
64BD
100
AcDbEntity
  8
LW 5015-15-01
100
AcDbCircle
 10
-0.0000000000354703
 20
0.0
 30
0.0
 40
10.00000000000001
  0
CIRCLE
  5
64D3
330
64BD
100
AcDbEntity
  8
LW 5015-15-01
100
AcDbCircle
 10
-0.000000000035925
 20
0.0
 30
0.0
 40
9.000000000000008
  0
ARC
  5
64D4
330
64BD
100
AcDbEntity
  8
LW 5015-15-01
  6
VERDECKT
 62
     6
100
AcDbCircle
 10
-0.000000000005457
 20
0.0000000000002274
 30
0.0
 40
24.99999999999958
100
AcDbArc
 50
36.86989764582579
 51
64.15806723681723
  0
ARC
  5
64D5
330
64BD
100
AcDbEntity
  8
LW 5015-15-01
  6
VERDECKT
 62
     6
100
AcDbCircle
 10
-0.0000000000059117
 20
0.0
 30
0.0
 40
25.00000000000001
100
AcDbArc
 50
115.8419327631507
 51
209.999999999983
  0
ARC
  5
64D6
330
64BD
100
AcDbEntity
  8
LW 5015-15-01
  6
VERDECKT
 62
     6
100
AcDbCircle
 10
-0.0000000000077307
 20
-0.0000000000000284
 30
0.0
 40
19.00000000000004
100
AcDbArc
 50
318.8604895850835
 51
221.1395104148819
  0
LINE
  5
64D7
330
64BD
100
AcDbEntity
  8
LW 5015-15-01
100
AcDbLine
 10
10.09999999997126
 20
-2.000000000003069
 30
0.0
 11
10.09999999997262
 21
1.999999999996816
 31
0.0
  0
LINE
  5
64D8
330
64BD
100
AcDbEntity
  8
LW 5015-15-01
100
AcDbLine
 10
-10.10000000002719
 20
2.000000000002955
 30
0.0
 11
-10.10000000002856
 21
-1.999999999997044
 31
0.0
  0
LINE
  5
64D9
330
64BD
100
AcDbEntity
  8
LW 5015-15-01
  6
VERDECKT
 62
     6
100
AcDbLine
 10
-60.00000000002728
 20
-9.660108542720195
 30
0.0
 11
-60.00000000001865
 21
19.66010854275578
 31
0.0
  0
ARC
  5
64DA
330
64BD
100
AcDbEntity
  8
LW 5015-15-01
  6
VERDECKT
 62
     6
100
AcDbCircle
 10
-62.00000000002728
 20
-9.660108542719626
 30
0.0
 40
2.0
100
AcDbArc
 50
340.7099537807874
 51
0.0
  0
ARC
  5
64DB
330
64BD
100
AcDbEntity
  8
LW 5015-15-01
  6
VERDECKT
 62
     6
100
AcDbCircle
 10
-62.00000000001864
 20
19.66010854275623
 30
0.0
 40
2.0
100
AcDbArc
 50
0.0
 51
19.29004621917444
  0
LINE
  5
64DC
330
64BD
100
AcDbEntity
  8
LW 5015-15-01
  6
VERDECKT
 62
     6
100
AcDbLine
 10
-60.11228328729567
 20
-10.32080939217644
 30
0.0
 11
-60.87500000002819
 21
-12.49999999998204
 31
0.0
  0
LINE
  5
64DD
330
64BD
100
AcDbEntity
  8
LW 5015-15-01
  6
VERDECKT
 62
     6
100
AcDbLine
 10
-60.11228328728657
 20
20.32080939221192
 30
0.0
 11
-60.87500000001774
 21
22.50000000001796
 31
0.0
  0
LINE
  5
64DE
330
64BD
100
AcDbEntity
  8
LW 5015-15-01
100
AcDbLine
 10
-60.87500000002819
 20
-12.49999999998204
 30
0.0
 11
-60.87500000001774
 21
22.50000000001796
 31
0.0
  0
LINE
  5
64DF
330
64BD
100
AcDbEntity
  8
LW 5015-15-01
100
AcDbLine
 10
19.99999999997226
 20
-11.00000000000591
 30
0.0
 11
19.99999999998181
 21
20.99999999999409
 31
0.0
  0
LINE
  5
64E0
330
64BD
100
AcDbEntity
  8
LW 5015-15-01
100
AcDbLine
 10
-60.87500000001774
 20
22.50000000001796
 30
0.0
 11
18.49999999998215
 21
22.49999999999454
 31
0.0
  0
LINE
  5
64E1
330
64BD
100
AcDbEntity
  8
LW 5015-15-01
100
AcDbLine
 10
-60.87500000002819
 20
-12.49999999998204
 30
0.0
 11
-10.10000000002793
 21
-12.49999999999701
 31
0.0
  0
LINE
  5
64E2
330
64BD
100
AcDbEntity
  8
LW 5015-15-01
100
AcDbLine
 10
10.0999999999716
 20
-12.50000000000298
 30
0.0
 11
18.4999999999718
 21
-12.50000000000546
 31
0.0
  0
ARC
  5
64E3
330
64BD
100
AcDbEntity
  8
LW 5015-15-01
100
AcDbCircle
 10
18.49999999997226
 20
-11.00000000000545
 30
0.0
 40
1.500000000000012
100
AcDbArc
 50
269.999999999987
 51
0.0
  0
ARC
  5
64E4
330
64BD
100
AcDbEntity
  8
LW 5015-15-01
100
AcDbCircle
 10
18.49999999998181
 20
20.99999999999454
 30
0.0
 40
1.500000000000012
100
AcDbArc
 50
0.0
 51
89.99999999998697
  0
LINE
  5
64E5
330
64BD
100
AcDbEntity
  8
LW 5015-15-01
100
AcDbLine
 10
-77.00000000002455
 20
-0.7730999999771484
 30
0.0
 11
-77.00000000002138
 21
10.77310000002285
 31
0.0
  0
LINE
  5
64E6
330
64BD
100
AcDbEntity
  8
LW 5015-15-01
100
AcDbLine
 10
-75.7731000000208
 20
12.00000000002251
 30
0.0
 11
-75.7731000000249
 21
-1.99999999997749
 31
0.0
  0
LINE
  5
64E7
330
64BD
100
AcDbEntity
  8
LW 5015-15-01
100
AcDbLine
 10
-77.00000000002138
 20
10.77310000002285
 30
0.0
 11
-75.7731000000208
 21
12.00000000002251
 31
0.0
  0
LINE
  5
64E8
330
64BD
100
AcDbEntity
  8
LW 5015-15-01
100
AcDbLine
 10
-77.00000000002455
 20
-0.7730999999771484
 30
0.0
 11
-75.7731000000249
 21
-1.99999999997749
 31
0.0
  0
LINE
  5
64E9
330
64BD
100
AcDbEntity
  8
LW 5015-15-01
100
AcDbLine
 10
-75.7731000000208
 20
12.00000000002251
 30
0.0
 11
-60.87500000002092
 21
12.00000000001796
 31
0.0
  0
LINE
  5
64EA
330
64BD
100
AcDbEntity
  8
LW 5015-15-01
100
AcDbLine
 10
-75.7731000000249
 20
-1.99999999997749
 30
0.0
 11
-60.87500000002501
 21
-1.999999999982037
 31
0.0
  0
LINE
  5
64EB
330
64BD
100
AcDbEntity
  8
LW 5015-15-01
 62
     3
100
AcDbLine
 10
-60.87500000002137
 20
10.79450000001805
 30
0.0
 11
-76.97860000002129
 21
10.79450000002282
 31
0.0
  0
LINE
  5
64EC
330
64BD
100
AcDbEntity
  8
LW 5015-15-01
 62
     3
100
AcDbLine
 10
-76.97860000002447
 20
-0.7944999999772336
 30
0.0
 11
-60.87500000002456
 21
-0.7944999999820084
 31
0.0
  0
ARC
  5
64ED
330
64BD
100
AcDbEntity
  8
LW 5015-15-01
  6
VERDECKT
 62
     6
100
AcDbCircle
 10
0.0
 20
0.0
 30
0.0
 40
32.50000000000001
100
AcDbArc
 50
136.1869385395798
 51
202.6198649480234
  0
ARC
  5
64EE
330
64BD
100
AcDbEntity
  8
LW 5015-15-01
100
AcDbCircle
 10
0.0
 20
0.0
 30
0.0
 40
32.5
100
AcDbArc
 50
202.6198649480234
 51
136.1869385395798
  0
LINE
  5
64EF
330
64BD
100
AcDbEntity
  8
LW 5015-15-01
100
AcDbLine
 10
-60.87500000001774
 20
22.50000000001796
 30
0.0
 11
-60.87500000002819
 21
-12.49999999998204
 31
0.0
  0
LINE
  5
64F0
330
64BD
100
AcDbEntity
  8
LW 5015-15-01
  6
MITTE2
 62
     3
100
AcDbLine
 10
14.93734296383582
 20
25.87223694343527
 30
0.0
 11
6.99999999999909
 21
12.12435565298006
 31
0.0
  0
LINE
  5
64F1
330
64BD
100
AcDbEntity
  8
LW 5015-15-01
  6
MITTE2
 62
     3
100
AcDbLine
 10
14.93734296382035
 20
-25.87223694344425
 30
0.0
 11
6.999999999991814
 21
-12.12435565298426
 31
0.0
  0
LINE
  5
64F2
330
64BD
100
AcDbEntity
  8
LW 5015-15-01
  6
MITTE2
 62
     3
100
AcDbLine
 10
-38.96970689549403
 20
0.0000000000173941
 30
0.0
 11
38.96970689542218
 21
-0.0000000000173941
 31
0.0
  0
LINE
  5
64F3
330
64BD
100
AcDbEntity
  8
LW 5015-15-01
  6
MITTE2
 62
     3
100
AcDbLine
 10
-0.0000000000295586
 20
22.6209724824912
 30
0.0
 11
-0.0000000000427463
 21
-22.6209724824912
 31
0.0
  0
HATCH
  5
64F4
330
64BD
100
AcDbEntity
  8
LW 5015-15-01
 62
     1
100
AcDbHatch
 10
0.0
 20
0.0
 30
0.0
210
0.0
220
0.0
230
1.0
  2
SOLID
 70
     1
 71
     0
 91
        5
 92
        7
 72
     0
 73
     1
 93
       76
 10
-47.24928876597823
 20
18.15603796707853
 10
-47.21742993660564
 20
18.20761892892028
 10
-47.09927181237389
 20
18.35886132793621
 10
-46.96479373716146
 20
18.49928545819875
 10
-46.81877383070013
 20
18.6276700199121
 10
-46.65510503461791
 20
18.74457630282791
 10
-46.4797180812534
 20
18.84675418464951
 10
-46.29796514865256
 20
18.9381058642324
 10
-46.11679621318717
 20
19.00762417667852
 10
-48.37393415138695
 20
19.00762417667852
 10
-48.5868307037872
 20
18.99893452147853
 10
-48.78886518718719
 20
18.97286555587857
 10
-48.984382429187
 20
18.93158969367846
 10
-49.16903760218701
 20
18.87727934867848
 10
-49.34500311998727
 20
18.80776210707847
 10
-49.51227898258685
 20
18.72521038267837
 10
-49.66284724513434
 20
18.6298848651345
 10
-49.80555484558727
 20
18.52317589927838
 10
-49.93099610115769
 20
18.40412762303833
 10
-50.04226105323505
 20
18.27586831228643
 10
-50.14227898458694
 20
18.13865865667844
 10
-50.22483070898715
 20
17.99310693207837
 10
-50.28783070918734
 20
17.83886555227832
 10
-50.33779622658721
 20
17.67810693107844
 10
-50.366037605987
 20
17.51300348227846
 10
-50.37472726118676
 20
17.33921037827849
 10
-50.36386519218694
 20
17.1654172742783
 10
-50.33345139898711
 20
16.99814141167837
 10
-50.27914105398713
 20
16.83738279047839
 10
-50.20962381238724
 20
16.68096899687839
 10
-50.12055484658685
 20
16.53324485847838
 10
-50.01410657038696
 20
16.39203796147853
 10
-49.89140863896273
 20
16.26082416795839
 10
-49.7552095902547
 20
16.13969037447054
 10
-49.60786518978693
 20
16.02924485687845
 10
-49.44710656858706
 20
15.93148623587854
 10
-49.27147994733968
 20
15.84658830457442
 10
-49.09083070538736
 20
15.77290002847849
 10
-48.89965829098719
 20
15.71641726967846
 10
-48.6997962213868
 20
15.67296899367852
 10
-48.49124449658711
 20
15.64690002807845
 10
-48.28052035798691
 20
15.63821037287846
 10
-46.16134927223447
 20
15.63821037287857
 10
-46.32189313628669
 20
15.70128117661352
 10
-46.50545728008956
 20
15.79190145013626
 10
-46.67392368625951
 20
15.89643114306773
 10
-46.83675658101992
 20
16.01204938149317
 10
-46.98066894939029
 20
16.14183897803309
 10
-47.10810484287458
 20
16.28119266126168
 10
-47.22181019761819
 20
16.43168090597419
 10
-47.27378142906673
 20
16.51586554807852
 10
-48.30224449598699
 20
16.51586554807841
 10
-48.43435332399258
 20
16.52342554810252
 10
-48.56510656578712
 20
16.54375934127051
 10
-48.6932789799871
 20
16.57669313447843
 10
-48.80841691138676
 20
16.62231382427853
 10
-48.91336187723709
 20
16.67879658307845
 10
-49.01151153272121
 20
16.74640210053439
 10
-49.10169277438718
 20
16.8243483076784
 10
-49.17338242978667
 20
16.90907244587845
 10
-47.44586111552826
 20
16.90907244587856
 10
-47.45644558280128
 20
16.94170788663678
 10
-47.49255739076533
 20
17.12708183418795
 10
-47.5046010435476
 20
17.31737154813868
 10
-47.4925793711177
 20
17.51212264149376
 10
-47.45627364944266
 20
17.6984920127602
 10
-47.4396749467678
 20
17.74762417267846
 10
-49.21031346438713
 20
17.74762417267846
 10
-49.14079622278723
 20
17.84321037987843
 10
-49.05824449838701
 20
17.92576210427842
 10
-48.96315360153358
 20
17.99562693208645
 10
-48.86055484258713
 20
18.05393451847851
 10
-48.74186284221059
 20
18.09790417379042
 10
-48.61941691078709
 20
18.12996900147846
 10
-48.4825548413869
 20
18.14952072567848
 10
-48.339175530587
 20
18.15603796707842
 97
        0
 92
        7
 72
     0
 73
     1
 93
       72
 10
-45.52082490095062
 20
18.14143934634251
 10
-45.39796186607737
 20
18.15951382915853
 10
-45.27389965878728
 20
18.16472762227863
 10
-44.00520999958689
 20
18.16472762227863
 10
-44.85245138158688
 20
17.35007244727876
 10
-43.08627896218695
 20
15.63169313147864
 10
-41.76762378558715
 20
15.63169313147864
 10
-43.48165827378716
 20
17.37396899907867
 10
-41.80020999258704
 20
19.00762417667875
 10
-45.23914103798733
 20
19.00762417667852
 10
-45.4471279351992
 20
18.99684900423062
 10
-45.65384614275217
 20
18.97138831449456
 10
-45.85827897098716
 20
18.93158969367857
 10
-46.05162379918738
 20
18.87510693487854
 10
-46.23845138598745
 20
18.80341727947848
 10
-46.40961152446152
 20
18.71738969299849
 10
-46.57517552498712
 20
18.62093452027852
 10
-46.72724449098723
 20
18.51231383027857
 10
-46.86294214659028
 20
18.39300486438253
 10
-46.98793414698729
 20
18.26248624327854
 10
-47.09655483698725
 20
18.12345176007852
 10
-47.18779621658677
 20
17.97572762167863
 10
-47.25948587198717
 20
17.82148624187857
 10
-47.31379621698716
 20
17.66072762067847
 10
-47.34638242398705
 20
17.49345175807843
 10
-47.35724449298731
 20
17.31748624027841
 10
-47.34638242398705
 20
17.1458655500785
 10
-47.31379621698716
 20
16.97858968747857
 10
-47.26165828578678
 20
16.81783106627859
 10
-47.19214104418688
 20
16.66358968647853
 10
-47.10030007837803
 20
16.51482278945468
 10
-46.99492062976787
 20
16.37535382349449
 10
-46.87691511215189
 20
16.24631244377463
 10
-46.74462380138675
 20
16.12700347787859
 10
-46.59250269745598
 20
16.01899106374253
 10
-46.43396862798681
 20
15.9206241668785
 10
-46.26234793778666
 20
15.83590002867856
 10
-46.07986517858671
 20
15.7642103732785
 10
-45.88563400555677
 20
15.71016071793451
 10
-45.68883069458706
 20
15.66645175227859
 10
-45.48027896978692
 20
15.64038278667863
 10
-45.26955483118718
 20
15.63169313147864
 10
-43.36652034238705
 20
15.63169313147864
 10
-44.25286517278709
 20
16.50500347907859
 10
-45.26955483118718
 20
16.50500347907859
 10
-45.33622186588172
 20
16.50875077201795
 10
-45.43716959033964
 20
16.5187331342945
 10
-45.55730407347982
 20
16.5401965826386
 10
-45.67442324626563
 20
16.57452072067849
 10
-45.7759184190013
 20
16.61544899667058
 10
-45.83205359159319
 20
16.64360347951856
 10
-45.88573828141898
 20
16.67618968651868
 10
-46.01829897149537
 20
16.77551244545452
 10
-46.09190035103893
 20
16.84555106636662
 10
-46.14696669604154
 20
16.91341727347844
 10
-46.19567221343777
 20
16.98597589439851
 10
-46.23503635149382
 20
17.06314003257444
 10
-46.26445952400035
 20
17.14456210179855
 10
-46.285158282687
 20
17.23171934345464
 10
-46.29267483443482
 20
17.32104899891044
 10
-46.29131924822377
 20
17.38335382669447
 10
-46.28531469648033
 20
17.44548486137444
 10
-46.27315786885583
 20
17.50865865467858
 10
-46.25494435155679
 20
17.5703552065986
 10
-46.21129621348745
 20
17.66906968967044
 10
-46.16976835128617
 20
17.73693589678248
 10
-46.10669014418954
 20
17.81496900047853
 10
-45.97728820382463
 20
17.94149173753226
 10
-45.91802035048703
 20
17.98154969066263
 10
-45.84172517783099
 20
18.02586693218245
 10
-45.75770490170225
 20
18.06801175990256
 10
-45.64116793581479
 20
18.1108517600386
 97
        0
 92
        7
 72
     0
 73
     1
 93
       57
 10
-40.96278792096291
 20
18.11936762213486
 10
-40.83131343778723
 20
18.1593400360548
 10
-40.69662378218708
 20
18.18645176027883
 10
-40.55324447138718
 20
18.1951414154787
 10
-39.31279619158704
 20
18.19514141547881
 10
-39.31279619158704
 20
19.02065865947884
 10
-40.54672722998702
 20
19.02065865947873
 10
-40.75745136858722
 20
19.01196900427874
 10
-40.96383067958732
 20
18.98372762487872
 10
-41.16152033538719
 20
18.94245176267873
 10
-41.35052033598685
 20
18.88814141767875
 10
-41.53517550898732
 20
18.8164517622788
 10
-41.70158240606724
 20
18.73381314132666
 10
-41.86040323415773
 20
18.63735796860669
 10
-42.01048226911689
 20
18.52786831308663
 10
-42.14504157988858
 20
18.40864624374274
 10
-42.26510654578714
 20
18.27986555367874
 10
-42.36938240818699
 20
18.14083107047872
 10
-42.45410654638681
 20
17.99527934587866
 10
-42.52579620178721
 20
17.8410379660786
 10
-42.57576171918708
 20
17.68027934487873
 10
-42.60834792618697
 20
17.5130034822788
 10
-42.61920999518724
 20
17.33921037827872
 10
-42.60834792618697
 20
17.16541727427875
 10
-42.57576171918708
 20
16.99814141167871
 10
-42.52362378798716
 20
16.83738279047861
 10
-42.45193413258721
 20
16.68096899687873
 10
-42.36503758058688
 20
16.53324485847872
 10
-42.25619095955198
 20
16.39368899596673
 10
-42.1363345453783
 20
16.2633441679668
 10
-41.99990695873793
 20
16.14203658137467
 10
-41.85234792378696
 20
16.03141727067873
 10
-41.69158930258709
 20
15.93365864967859
 10
-41.51779619858689
 20
15.84893451147877
 10
-41.33314102558688
 20
15.77507244227877
 10
-41.14196861118716
 20
15.71858968347874
 10
-40.94210654158678
 20
15.6751414074788
 10
-40.73572723058669
 20
15.65124485567867
 10
-40.52283067818689
 20
15.64255520047868
 10
-39.31279619158704
 20
15.64255520047879
 10
-39.31279619158704
 20
16.50065865147871
 10
-40.54672722998702
 20
16.50065865147871
 10
-40.68037412696276
 20
16.51099934116667
 10
-40.81263067910685
 20
16.53298416882285
 10
-40.93324309328318
 20
16.56730830686274
 10
-41.04924999020295
 20
16.61527520356685
 10
-41.15891343882731
 20
16.67618968651879
 10
-41.25597688741118
 20
16.74379520397474
 10
-41.34339481872302
 20
16.82356623871078
 10
-41.41786516378715
 20
16.90907244587879
 10
-39.31279619158704
 20
16.90907244587879
 10
-39.31279619158704
 20
17.73676210367876
 10
-41.45479619838716
 20
17.73676210367876
 10
-41.3852789567868
 20
17.83452072467867
 10
-41.29838240478739
 20
17.92358969047859
 10
-41.19723481825895
 20
17.99988486313475
 10
-41.08983067998678
 20
18.06696900127872
 97
        0
 92
        7
 72
     0
 73
     1
 93
        6
 10
-39.08252032878727
 20
19.00762417667886
 10
-39.08252032878727
 20
15.6382103728788
 10
-36.84493411478661
 20
15.63821037287892
 10
-36.84493411478707
 20
16.50500347907893
 10
-38.05931342898702
 20
16.50500347907893
 10
-38.05931342898702
 20
19.00762417667886
 97
        0
 92
        7
 72
     0
 73
     1
 93
        8
 10
-37.8268651523872
 20
19.00762417667886
 10
-37.8268651523872
 20
18.18210693267883
 10
-36.59293411398676
 20
18.18210693267895
 10
-36.59293411398676
 20
15.63169313147887
 10
-35.56755480038692
 20
15.63169313147887
 10
-35.56755480038692
 20
18.18210693267883
 10
-34.32493410678717
 20
18.18210693267895
 10
-34.32493410678717
 20
19.00762417667897
 97
        0
 75
     0
 76
     1
 47
0.0142553043587597
 98
        5
 10
-47.93962863991191
 20
18.56517450708941
 10
-45.67213142656919
 20
18.42262152208377
 10
-41.17991969436798
 20
18.47964269463159
 10
-38.45607061053625
 20
18.72198291932398
 10
-37.0442326283096
 20
18.62219578691065
450
        0
451
        0
460
0.0
461
0.0
452
        0
462
0.0
453
        0
470

  0
LWPOLYLINE
  5
64F5
330
64BD
100
AcDbEntity
  8
LW 5015-15-01
 62
     1
100
AcDbPolyline
 90
        8
 70
     1
 43
0.0
 10
-35.56755480038692
 20
18.18210693267883
 10
-35.56755480038692
 20
15.63169313147887
 10
-36.59293411398676
 20
15.63169313147887
 10
-36.59293411398676
 20
18.18210693267895
 10
-37.8268651523872
 20
18.18210693267883
 10
-37.8268651523872
 20
19.00762417667886
 10
-34.32493410678717
 20
19.00762417667897
 10
-34.32493410678717
 20
18.18210693267895
  0
LWPOLYLINE
  5
64F6
330
64BD
100
AcDbEntity
  8
LW 5015-15-01
 62
     1
100
AcDbPolyline
 90
       73
 70
     1
 43
0.0
 10
-45.26955483118718
 20
16.50500347907859
 10
-44.25286517278709
 20
16.50500347907859
 10
-43.36652034238705
 20
15.63169313147864
 10
-45.26955483118718
 20
15.63169313147853
 10
-45.48027896978692
 20
15.64038278667863
 10
-45.68883069458706
 20
15.66645175227859
 10
-45.88563400555677
 20
15.71016071793451
 10
-46.07986517858671
 20
15.7642103732785
 10
-46.26234793778666
 20
15.83590002867856
 10
-46.43396862798681
 20
15.9206241668785
 10
-46.59250269745598
 20
16.01899106374253
 10
-46.74462380138675
 20
16.12700347787859
 10
-46.87691511215189
 20
16.24631244377451
 10
-46.99492062976787
 20
16.37535382349449
 10
-47.10030007837803
 20
16.51482278945457
 10
-47.19214104418688
 20
16.66358968647853
 10
-47.26165828578678
 20
16.81783106627859
 10
-47.31379621698716
 20
16.97858968747857
 10
-47.34638242398705
 20
17.1458655500785
 10
-47.35724449298731
 20
17.31748624027853
 10
-47.34638242398705
 20
17.49345175807843
 10
-47.31379621698716
 20
17.66072762067847
 10
-47.25948587198717
 20
17.82148624187857
 10
-47.18779621658677
 20
17.97572762167851
 10
-47.09655483698725
 20
18.12345176007852
 10
-46.98793414698729
 20
18.26248624327854
 10
-46.86294214659028
 20
18.39300486438264
 10
-46.72724449098723
 20
18.51231383027857
 10
-46.57517552498712
 20
18.62093452027852
 10
-46.40961152446152
 20
18.71738969299849
 10
-46.23845138598745
 20
18.80341727947848
 10
-46.05162379918738
 20
18.87510693487854
 10
-45.85827897098716
 20
18.93158969367869
 10
-45.65384614275217
 20
18.97138831449456
 10
-45.4471279351992
 20
18.99684900423062
 10
-45.23914103798733
 20
19.00762417667852
 10
-41.80020999258704
 20
19.00762417667875
 10
-43.48165827378716
 20
17.37396899907867
 10
-41.76762378558715
 20
15.63169313147864
 10
-43.08627896218695
 20
15.63169313147864
 10
-44.85245138158688
 20
17.35007244727876
 10
-44.00520999958689
 20
18.16472762227863
 10
-45.27389965878728
 20
18.16472762227863
 10
-45.39796186607737
 20
18.15951382915853
 10
-45.52082490095062
 20
18.14143934634251
 10
-45.64116793581479
 20
18.1108517600386
 10
-45.75770490170225
 20
18.06801175990244
 10
-45.84172517783144
 20
18.02586693218257
 10
-45.91802035048703
 20
17.98154969066263
 10
-45.958262143718
 20
17.95435106988657
 10
-45.99577538521635
 20
17.92341589737452
 10
-46.10669014418954
 20
17.81496900047853
 10
-46.16976835128617
 20
17.73693589678248
 10
-46.211296213487
 20
17.66906968967055
 10
-46.25494435155679
 20
17.5703552065986
 10
-46.27315786885583
 20
17.50865865467858
 10
-46.28531469648033
 20
17.44548486137455
 10
-46.29131924822377
 20
17.38335382669459
 10
-46.29267483443482
 20
17.32104899891055
 10
-46.285158282687
 20
17.23171934345464
 10
-46.26445952400035
 20
17.14456210179855
 10
-46.23503635149336
 20
17.06314003257455
 10
-46.19567221343777
 20
16.98597589439851
 10
-46.14696669604154
 20
16.91341727347856
 10
-46.09190035103893
 20
16.84555106636662
 10
-46.01829897149537
 20
16.77551244545452
 10
-45.88573828141898
 20
16.67618968651868
 10
-45.83205359159319
 20
16.64360347951856
 10
-45.7759184190013
 20
16.61544899667058
 10
-45.67442324626563
 20
16.57452072067849
 10
-45.55730407347982
 20
16.5401965826386
 10
-45.43716959033964
 20
16.5187331342945
 10
-45.33622186588172
 20
16.50875077201795
  0
LWPOLYLINE
  5
64F7
330
64BD
100
AcDbEntity
  8
LW 5015-15-01
 62
     1
100
AcDbPolyline
 90
       76
 70
     1
 43
0.0
 10
-46.4797180812534
 20
18.84675418464951
 10
-46.65510503461791
 20
18.74457630282779
 10
-46.81877383070013
 20
18.6276700199121
 10
-46.96479373716146
 20
18.49928545819875
 10
-47.09927181237389
 20
18.35886132793621
 10
-47.21742993660564
 20
18.20761892892028
 10
-47.24928876597823
 20
18.15603796707853
 10
-48.339175530587
 20
18.15603796707853
 10
-48.4825548413869
 20
18.14952072567848
 10
-48.61941691078709
 20
18.12996900147846
 10
-48.74186284221059
 20
18.09790417379042
 10
-48.86055484258713
 20
18.05393451847851
 10
-48.96315360153358
 20
17.99562693208645
 10
-49.05824449838701
 20
17.92576210427842
 10
-49.14079622278723
 20
17.84321037987843
 10
-49.21031346438713
 20
17.74762417267846
 10
-47.4396749467678
 20
17.74762417267846
 10
-47.45627364944266
 20
17.6984920127602
 10
-47.49257937111815
 20
17.51212264149353
 10
-47.5046010435476
 20
17.31737154813868
 10
-47.49255739076533
 20
17.12708183418795
 10
-47.45644558280083
 20
16.94170788663689
 10
-47.44586111552826
 20
16.90907244587856
 10
-49.17338242978667
 20
16.90907244587845
 10
-49.10169277438718
 20
16.8243483076784
 10
-49.01151153272121
 20
16.74640210053439
 10
-48.91336187723709
 20
16.67879658307845
 10
-48.80841691138676
 20
16.62231382427853
 10
-48.6932789799871
 20
16.57669313447854
 10
-48.56510656578712
 20
16.54375934127051
 10
-48.43435332399258
 20
16.52342554810252
 10
-48.30224449598699
 20
16.51586554807841
 10
-47.27378142906673
 20
16.51586554807852
 10
-47.22181019761819
 20
16.43168090597419
 10
-47.10810484287458
 20
16.28119266126168
 10
-46.98066894939029
 20
16.14183897803309
 10
-46.83675658101992
 20
16.0120493814934
 10
-46.67392368625951
 20
15.89643114306773
 10
-46.50545728008956
 20
15.79190145013626
 10
-46.32189313628669
 20
15.70128117661352
 10
-46.16134927223447
 20
15.63821037287857
 10
-48.28052035798691
 20
15.63821037287835
 10
-48.49124449658711
 20
15.64690002807845
 10
-48.6997962213868
 20
15.67296899367852
 10
-48.89965829098719
 20
15.71641726967846
 10
-49.09083070538691
 20
15.77290002847837
 10
-49.27147994734013
 20
15.84658830457442
 10
-49.44710656858706
 20
15.93148623587854
 10
-49.60786518978693
 20
16.02924485687845
 10
-49.7552095902547
 20
16.13969037447043
 10
-49.89140863896273
 20
16.26082416795839
 10
-50.01410657038696
 20
16.39203796147842
 10
-50.12055484658731
 20
16.53324485847838
 10
-50.20962381238724
 20
16.68096899687839
 10
-50.27914105398713
 20
16.83738279047839
 10
-50.33345139898711
 20
16.99814141167837
 10
-50.36386519218694
 20
17.16541727427852
 10
-50.37472726118676
 20
17.33921037827838
 10
-50.36603760598746
 20
17.51300348227835
 10
-50.33779622658721
 20
17.67810693107844
 10
-50.28783070918734
 20
17.83886555227832
 10
-50.22483070898715
 20
17.99310693207837
 10
-50.14227898458694
 20
18.13865865667844
 10
-50.04226105323505
 20
18.27586831228643
 10
-49.93099610115769
 20
18.40412762303845
 10
-49.80555484558727
 20
18.52317589927838
 10
-49.66284724513434
 20
18.6298848651345
 10
-49.51227898258685
 20
18.72521038267848
 10
-49.34500311998681
 20
18.80776210707836
 10
-49.16903760218701
 20
18.87727934867848
 10
-48.984382429187
 20
18.93158969367846
 10
-48.78886518718719
 20
18.97286555587857
 10
-48.5868307037872
 20
18.99893452147853
 10
-48.37393415138695
 20
19.00762417667852
 10
-46.11679621318717
 20
19.00762417667863
 10
-46.29796514865256
 20
18.9381058642324
  0
LWPOLYLINE
  5
64F8
330
64BD
100
AcDbEntity
  8
LW 5015-15-01
 62
     1
100
AcDbPolyline
 90
        6
 70
     1
 43
0.0
 10
-36.84493411478661
 20
15.63821037287892
 10
-39.08252032878727
 20
15.6382103728788
 10
-39.08252032878727
 20
19.00762417667886
 10
-38.05931342898702
 20
19.00762417667886
 10
-38.05931342898702
 20
16.50500347907893
 10
-36.84493411478707
 20
16.50500347907893
  0
LWPOLYLINE
  5
64F9
330
64BD
100
AcDbEntity
  8
LW 5015-15-01
 62
     1
100
AcDbPolyline
 90
       57
 70
     1
 43
0.0
 10
-42.1363345453783
 20
16.2633441679668
 10
-42.25619095955198
 20
16.39368899596661
 10
-42.36503758058688
 20
16.53324485847861
 10
-42.45193413258721
 20
16.68096899687873
 10
-42.52362378798716
 20
16.83738279047861
 10
-42.57576171918708
 20
16.99814141167871
 10
-42.60834792618697
 20
17.16541727427875
 10
-42.61920999518724
 20
17.33921037827872
 10
-42.60834792618697
 20
17.51300348227869
 10
-42.57576171918708
 20
17.68027934487873
 10
-42.52579620178721
 20
17.8410379660786
 10
-42.45410654638681
 20
17.99527934587877
 10
-42.36938240818699
 20
18.14083107047861
 10
-42.26510654578714
 20
18.27986555367874
 10
-42.14504157988858
 20
18.40864624374262
 10
-42.01048226911689
 20
18.52786831308663
 10
-41.86040323415773
 20
18.63735796860669
 10
-41.70158240606679
 20
18.73381314132678
 10
-41.53517550898732
 20
18.8164517622788
 10
-41.35052033598685
 20
18.88814141767875
 10
-41.16152033538719
 20
18.94245176267873
 10
-40.96383067958732
 20
18.98372762487872
 10
-40.75745136858722
 20
19.01196900427874
 10
-40.54672722998702
 20
19.02065865947873
 10
-39.31279619158704
 20
19.02065865947884
 10
-39.31279619158704
 20
18.19514141547881
 10
-40.55324447138673
 20
18.1951414154787
 10
-40.69662378218708
 20
18.18645176027871
 10
-40.83131343778723
 20
18.1593400360548
 10
-40.96278792096336
 20
18.11936762213474
 10
-41.08983067998678
 20
18.06696900127872
 10
-41.19723481825895
 20
17.99988486313475
 10
-41.29838240478739
 20
17.92358969047882
 10
-41.3852789567868
 20
17.83452072467867
 10
-41.45479619838716
 20
17.73676210367876
 10
-39.31279619158704
 20
17.73676210367876
 10
-39.31279619158704
 20
16.90907244587879
 10
-41.41786516378715
 20
16.90907244587879
 10
-41.34339481872302
 20
16.82356623871078
 10
-41.25597688741118
 20
16.74379520397474
 10
-41.15891343882731
 20
16.67618968651879
 10
-41.04924999020295
 20
16.61527520356685
 10
-40.93324309328318
 20
16.56730830686274
 10
-40.81263067910685
 20
16.53298416882285
 10
-40.68037412696276
 20
16.51099934116667
 10
-40.54672722998702
 20
16.50065865147871
 10
-39.31279619158704
 20
16.50065865147871
 10
-39.31279619158704
 20
15.64255520047879
 10
-40.52283067818689
 20
15.64255520047868
 10
-40.73572723058669
 20
15.65124485567867
 10
-40.94210654158678
 20
15.6751414074788
 10
-41.14196861118716
 20
15.71858968347874
 10
-41.33314102558688
 20
15.77507244227877
 10
-41.51779619858689
 20
15.84893451147877
 10
-41.69158930258709
 20
15.93365864967882
 10
-41.85234792378696
 20
16.03141727067873
 10
-41.99990695873793
 20
16.14203658137467
  0
INSERT
  5
64FA
330
64BD
100
AcDbEntity
  8
LW 5015-15-01
100
AcDbBlockReference
 66
     1
  2
insertpoint-ECKELT
 10
-0.000000000035925
 20
0.0
 30
0.0
  0
ATTRIB
  5
64FB
330
64FA
100
AcDbEntity
  8
insertpoint_ECKELT
100
AcDbText
 10
-6.931514324728785
 20
0.0
 30
0.0
 40
0.6
  1
LW 5015/15-01
 72
     2
 11
-1.200000000035743
 21
0.0
 31
0.0
100
AcDbAttribute
  2
LINKS
 70
     0
  0
ATTRIB
  5
64FC
330
64FA
100
AcDbEntity
  8
insertpoint_ECKELT
100
AcDbText
 10
1.199999999963893
 20
0.0
 30
0.0
 40
0.6
  1

100
AcDbAttribute
  2
RECHTS
 70
     0
  0
SEQEND
  5
64FD
330
64FA
100
AcDbEntity
  8
LW 5015-15-01
  0
LINE
  5
64FE
330
64BD
100
AcDbEntity
  8
LW 5015-15-01
100
AcDbLine
 10
-10.10000000002765
 20
5.500000000003012
 30
0.0
 11
-10.10000000002787
 21
-12.49999999999701
 31
0.0
  0
POLYLINE
  5
64FF
330
64BD
100
AcDbEntity
  8
LW 5015-15-01
100
AcDb2dPolyline
 66
     1
 10
0.0
 20
0.0
 30
0.0
 70
   128
  0
VERTEX
  5
6500
330
64FF
100
AcDbEntity
  8
LW 5015-15-01
100
AcDbVertex
100
AcDb2dVertex
 10
-10.1000022888461
 20
5.500000007453593
 30
0.0
  0
VERTEX
  5
6501
330
64FF
100
AcDbEntity
  8
LW 5015-15-01
100
AcDbVertex
100
AcDb2dVertex
 10
-10.07782459261761
 20
6.152630448344325
 30
0.0
  0
VERTEX
  5
6502
330
64FF
100
AcDbEntity
  8
LW 5015-15-01
100
AcDbVertex
100
AcDb2dVertex
 10
-10.0115919113432
 20
6.810174882414912
 30
0.0
  0
VERTEX
  5
6503
330
64FF
100
AcDbEntity
  8
LW 5015-15-01
100
AcDbVertex
100
AcDb2dVertex
 10
-9.901742935207494
 20
7.467362880709742
 30
0.0
  0
VERTEX
  5
6504
330
64FF
100
AcDbEntity
  8
LW 5015-15-01
100
AcDbVertex
100
AcDb2dVertex
 10
-9.748716354396947
 20
8.118924200537719
 30
0.0
  0
VERTEX
  5
6505
330
64FF
100
AcDbEntity
  8
LW 5015-15-01
100
AcDbVertex
100
AcDb2dVertex
 10
-9.552946090724617
 20
8.759588897231083
 30
0.0
  0
VERTEX
  5
6506
330
64FF
100
AcDbEntity
  8
LW 5015-15-01
100
AcDbVertex
100
AcDb2dVertex
 10
-9.314870834376733
 20
9.384086430075569
 30
0.0
  0
VERTEX
  5
6507
330
64FF
100
AcDbEntity
  8
LW 5015-15-01
100
AcDbVertex
100
AcDb2dVertex
 10
-9.035677909876994
 20
9.987690150740434
 30
0.0
  0
VERTEX
  5
6508
330
64FF
100
AcDbEntity
  8
LW 5015-15-01
100
AcDbVertex
100
AcDb2dVertex
 10
-8.718976974513225
 20
10.56716978550213
 30
0.0
  0
VERTEX
  5
6509
330
64FF
100
AcDbEntity
  8
LW 5015-15-01
100
AcDbVertex
100
AcDb2dVertex
 10
-8.368849754359189
 20
11.11950039863831
 30
0.0
  0
VERTEX
  5
650A
330
64FF
100
AcDbEntity
  8
LW 5015-15-01
100
AcDbVertex
100
AcDb2dVertex
 10
-7.989382743860915
 20
11.64165675640339
 30
0.0
  0
VERTEX
  5
650B
330
64FF
100
AcDbEntity
  8
LW 5015-15-01
100
AcDbVertex
100
AcDb2dVertex
 10
-7.584662437464203
 20
12.13061451912148
 30
0.0
  0
VERTEX
  5
650C
330
64FF
100
AcDbEntity
  8
LW 5015-15-01
100
AcDbVertex
100
AcDb2dVertex
 10
-7.15876579287169
 20
12.58334755897732
 30
0.0
  0
VERTEX
  5
650D
330
64FF
100
AcDbEntity
  8
LW 5015-15-01
100
AcDbVertex
100
AcDb2dVertex
 10
-6.705121994043338
 20
13.00724446773728
 30
0.0
  0
VERTEX
  5
650E
330
64FF
100
AcDbEntity
  8
LW 5015-15-01
100
AcDbVertex
100
AcDb2dVertex
 10
-6.216325759912251
 20
13.40922176838103
 30
0.0
  0
VERTEX
  5
650F
330
64FF
100
AcDbEntity
  8
LW 5015-15-01
100
AcDbVertex
100
AcDb2dVertex
 10
-5.695304870630025
 20
13.78546059131787
 30
0.0
  0
VERTEX
  5
6510
330
64FF
100
AcDbEntity
  8
LW 5015-15-01
100
AcDbVertex
100
AcDb2dVertex
 10
-5.144987106347571
 20
14.13214206695704
 30
0.0
  0
VERTEX
  5
6511
330
64FF
100
AcDbEntity
  8
LW 5015-15-01
100
AcDbVertex
100
AcDb2dVertex
 10
-4.568305015588066
 20
14.44544792175423
 30
0.0
  0
VERTEX
  5
6512
330
64FF
100
AcDbEntity
  8
LW 5015-15-01
100
AcDbVertex
100
AcDb2dVertex
 10
-3.968186378503105
 20
14.72155869007224
 30
0.0
  0
VERTEX
  5
6513
330
64FF
100
AcDbEntity
  8
LW 5015-15-01
100
AcDbVertex
100
AcDb2dVertex
 10
-3.347783088707956
 20
14.95777785778136
 30
0.0
  0
VERTEX
  5
6514
330
64FF
100
AcDbEntity
  8
LW 5015-15-01
100
AcDbVertex
100
AcDb2dVertex
 10
-2.711348533654017
 20
15.15290260315015
 30
0.0
  0
VERTEX
  5
6515
330
64FF
100
AcDbEntity
  8
LW 5015-15-01
100
AcDbVertex
100
AcDb2dVertex
 10
-2.063431739830775
 20
15.3053522109991
 30
0.0
  0
VERTEX
  5
6516
330
64FF
100
AcDbEntity
  8
LW 5015-15-01
100
AcDbVertex
100
AcDb2dVertex
 10
-1.408705711388392
 20
15.4138541221622
 30
0.0
  0
VERTEX
  5
6517
330
64FF
100
AcDbEntity
  8
LW 5015-15-01
100
AcDbVertex
100
AcDb2dVertex
 10
-0.752420425438686
 20
15.47855496406572
 30
0.0
  0
VERTEX
  5
6518
330
64FF
100
AcDbEntity
  8
LW 5015-15-01
100
AcDbVertex
100
AcDb2dVertex
 10
-0.1000022888420062
 20
15.49999952316284
 30
0.0
  0
SEQEND
  5
6519
330
64FF
100
AcDbEntity
  8
LW 5015-15-01
  0
POLYLINE
  5
651A
330
64BD
100
AcDbEntity
  8
LW 5015-15-01
100
AcDb2dPolyline
 66
     1
 10
0.0
 20
0.0
 30
0.0
 70
   128
  0
VERTEX
  5
651B
330
651A
100
AcDbEntity
  8
LW 5015-15-01
100
AcDbVertex
100
AcDb2dVertex
 10
0.1000022887947125
 20
15.49999952316278
 30
0.0
  0
VERTEX
  5
651C
330
651A
100
AcDbEntity
  8
LW 5015-15-01
100
AcDbVertex
100
AcDb2dVertex
 10
0.7524204253913922
 20
15.47855496406526
 30
0.0
  0
VERTEX
  5
651D
330
651A
100
AcDbEntity
  8
LW 5015-15-01
100
AcDbVertex
100
AcDb2dVertex
 10
1.408705711341099
 20
15.41385412216141
 30
0.0
  0
VERTEX
  5
651E
330
651A
100
AcDbEntity
  8
LW 5015-15-01
100
AcDbVertex
100
AcDb2dVertex
 10
2.063431739783482
 20
15.30535221099791
 30
0.0
  0
VERTEX
  5
651F
330
651A
100
AcDbEntity
  8
LW 5015-15-01
100
AcDbVertex
100
AcDb2dVertex
 10
2.711348533606496
 20
15.15290260314856
 30
0.0
  0
VERTEX
  5
6520
330
651A
100
AcDbEntity
  8
LW 5015-15-01
100
AcDbVertex
100
AcDb2dVertex
 10
3.34778308865998
 20
14.95777785777943
 30
0.0
  0
VERTEX
  5
6521
330
651A
100
AcDbEntity
  8
LW 5015-15-01
100
AcDbVertex
100
AcDb2dVertex
 10
3.968186378454902
 20
14.72155869006991
 30
0.0
  0
VERTEX
  5
6522
330
651A
100
AcDbEntity
  8
LW 5015-15-01
100
AcDbVertex
100
AcDb2dVertex
 10
4.568305015539863
 20
14.44544792175151
 30
0.0
  0
VERTEX
  5
6523
330
651A
100
AcDbEntity
  8
LW 5015-15-01
100
AcDbVertex
100
AcDb2dVertex
 10
5.144987106298685
 20
14.13214206695397
 30
0.0
  0
VERTEX
  5
6524
330
651A
100
AcDbEntity
  8
LW 5015-15-01
100
AcDbVertex
100
AcDb2dVertex
 10
5.695304870580912
 20
13.78546059131452
 30
0.0
  0
VERTEX
  5
6525
330
651A
100
AcDbEntity
  8
LW 5015-15-01
100
AcDbVertex
100
AcDb2dVertex
 10
6.216325759862911
 20
13.40922176837733
 30
0.0
  0
VERTEX
  5
6526
330
651A
100
AcDbEntity
  8
LW 5015-15-01
100
AcDbVertex
100
AcDb2dVertex
 10
6.705121993993543
 20
13.0072444677333
 30
0.0
  0
VERTEX
  5
6527
330
651A
100
AcDbEntity
  8
LW 5015-15-01
100
AcDbVertex
100
AcDb2dVertex
 10
7.158765792821441
 20
12.58334755897306
 30
0.0
  0
VERTEX
  5
6528
330
651A
100
AcDbEntity
  8
LW 5015-15-01
100
AcDbVertex
100
AcDb2dVertex
 10
7.584662437413498
 20
12.13061451911699
 30
0.0
  0
VERTEX
  5
6529
330
651A
100
AcDbEntity
  8
LW 5015-15-01
100
AcDbVertex
100
AcDb2dVertex
 10
7.989382743809755
 20
11.64165675639861
 30
0.0
  0
VERTEX
  5
652A
330
651A
100
AcDbEntity
  8
LW 5015-15-01
100
AcDbVertex
100
AcDb2dVertex
 10
8.368849754307575
 20
11.11950039863336
 30
0.0
  0
VERTEX
  5
652B
330
651A
100
AcDbEntity
  8
LW 5015-15-01
100
AcDbVertex
100
AcDb2dVertex
 10
8.718976974461384
 20
10.5671697854969
 30
0.0
  0
VERTEX
  5
652C
330
651A
100
AcDbEntity
  8
LW 5015-15-01
100
AcDbVertex
100
AcDb2dVertex
 10
9.035677909824926
 20
9.987690150735033
 30
0.0
  0
VERTEX
  5
652D
330
651A
100
AcDbEntity
  8
LW 5015-15-01
100
AcDbVertex
100
AcDb2dVertex
 10
9.31487083432421
 20
9.384086430069999
 30
0.0
  0
VERTEX
  5
652E
330
651A
100
AcDbEntity
  8
LW 5015-15-01
100
AcDbVertex
100
AcDb2dVertex
 10
9.552946090671412
 20
8.759588897225398
 30
0.0
  0
VERTEX
  5
652F
330
651A
100
AcDbEntity
  8
LW 5015-15-01
100
AcDbVertex
100
AcDb2dVertex
 10
9.748716354343287
 20
8.118924200531921
 30
0.0
  0
VERTEX
  5
6530
330
651A
100
AcDbEntity
  8
LW 5015-15-01
100
AcDbVertex
100
AcDb2dVertex
 10
9.901742935153379
 20
7.467362880703888
 30
0.0
  0
VERTEX
  5
6531
330
651A
100
AcDbEntity
  8
LW 5015-15-01
100
AcDbVertex
100
AcDb2dVertex
 10
10.01159191128863
 20
6.810174882408944
 30
0.0
  0
VERTEX
  5
6532
330
651A
100
AcDbEntity
  8
LW 5015-15-01
100
AcDbVertex
100
AcDb2dVertex
 10
10.07782459256259
 20
6.152630448338356
 30
0.0
  0
VERTEX
  5
6533
330
651A
100
AcDbEntity
  8
LW 5015-15-01
100
AcDbVertex
100
AcDb2dVertex
 10
10.10000228879062
 20
5.500000007447567
 30
0.0
  0
SEQEND
  5
6534
330
651A
100
AcDbEntity
  8
LW 5015-15-01
  0
LINE
  5
6535
330
64BD
100
AcDbEntity
  8
LW 5015-15-01
100
AcDbLine
 10
10.0999999999716
 20
-12.50000000000298
 30
0.0
 11
10.09999999997217
 21
5.499999999997044
 31
0.0
  0
LINE
  5
6536
330
64BD
100
AcDbEntity
  8
LW 5015-15-01
  6
MITTE2
 62
     3
100
AcDbLine
 10
-80.54152403635407
 20
5.000000000023874
 30
0.0
 11
37.06495985652419
 21
4.999999999989086
 31
0.0
  0
ENDBLK
  5
64BF
330
64BD
100
AcDbEntity
  8
0
100
AcDbBlockEnd
  0
BLOCK
  5
6539
330
6538
100
AcDbEntity
  8
0
100
AcDbBlockBegin
  2
LW 5015-15-01_d
 70
     0
 10
0.0
 20
0.0
 30
0.0
  3
LW 5015-15-01_d
  1

  0
LINE
  5
653C
330
6538
100
AcDbEntity
  8
LW 5015-15-01
  6
VERDECKT
 62
     6
100
AcDbLine
 10
-7.334936490574818
 20
17.70448267190204
 30
0.0
 11
-11.66506350949657
 21
15.2044826719009
 31
0.0
  0
LINE
  5
653D
330
6538
100
AcDbEntity
  8
LW 5015-15-01
  6
VERDECKT
 62
     6
100
AcDbLine
 10
-11.66506350948748
 20
-15.20448267190795
 30
0.0
 11
-7.334936490564359
 21
-17.70448267190659
 31
0.0
  0
LINE
  5
653E
330
6538
100
AcDbEntity
  8
LW 5015-15-01
  6
VERDECKT
 62
     6
100
AcDbLine
 10
-8.748924226250892
 20
15.1535812713729
 30
0.0
 11
-7.334936490574818
 21
17.70448267190204
 31
0.0
  0
LINE
  5
653F
330
6538
100
AcDbEntity
  8
LW 5015-15-01
  6
VERDECKT
 62
     6
100
AcDbLine
 10
-8.748924226250892
 20
15.1535812713729
 30
0.0
 11
-11.66506350949657
 21
15.2044826719009
 31
0.0
  0
LINE
  5
6540
330
6538
100
AcDbEntity
  8
LW 5015-15-01
  6
VERDECKT
 62
     6
100
AcDbLine
 10
-14.60240647333057
 20
20.29210992451317
 30
0.0
 11
-11.66506350949657
 21
15.20448267190068
 31
0.0
  0
LINE
  5
6541
330
6538
100
AcDbEntity
  8
LW 5015-15-01
  6
VERDECKT
 62
     6
100
AcDbLine
 10
-10.27227945440927
 20
22.79210992451453
 30
0.0
 11
-7.334936490574818
 21
17.70448267190204
 31
0.0
  0
LINE
  5
6542
330
6538
100
AcDbEntity
  8
LW 5015-15-01
  6
VERDECKT
 62
     6
100
AcDbLine
 10
-8.748924226241797
 20
-15.15358127137824
 30
0.0
 11
-11.66506350948748
 21
-15.20448267190795
 31
0.0
  0
LINE
  5
6543
330
6538
100
AcDbEntity
  8
LW 5015-15-01
  6
VERDECKT
 62
     6
100
AcDbLine
 10
-8.748924226241797
 20
-15.15358127137824
 30
0.0
 11
-7.334936490564359
 21
-17.70448267190659
 31
0.0
  0
LINE
  5
6544
330
6538
100
AcDbEntity
  8
LW 5015-15-01
  6
VERDECKT
 62
     6
100
AcDbLine
 10
-10.27227945439563
 20
-22.79210992452068
 30
0.0
 11
-7.334936490564359
 21
-17.70448267190659
 31
0.0
  0
LINE
  5
6545
330
6538
100
AcDbEntity
  8
LW 5015-15-01
  6
VERDECKT
 62
     6
100
AcDbLine
 10
-14.60240647331875
 20
-20.29210992452204
 30
0.0
 11
-11.66506350948748
 21
-15.20448267190795
 31
0.0
  0
LINE
  5
6546
330
6538
100
AcDbEntity
  8
LW 5015-15-01
  6
VERDECKT
 62
     6
100
AcDbLine
 10
18.99999999996998
 20
-2.499999999994543
 30
0.0
 11
18.99999999996862
 21
2.500000000005456
 31
0.0
  0
LINE
  5
6547
330
6538
100
AcDbEntity
  8
LW 5015-15-01
  6
VERDECKT
 62
     6
100
AcDbLine
 10
17.49784845240037
 20
0.0000000000051159
 30
0.0
 11
18.99999999996998
 21
-2.499999999994543
 31
0.0
  0
LINE
  5
6548
330
6538
100
AcDbEntity
  8
LW 5015-15-01
  6
VERDECKT
 62
     6
100
AcDbLine
 10
17.49784845240037
 20
0.0000000000051159
 30
0.0
 11
18.99999999996862
 21
2.500000000005456
 31
0.0
  0
LINE
  5
6549
330
6538
100
AcDbEntity
  8
LW 5015-15-01
  6
VERDECKT
 62
     6
100
AcDbLine
 10
24.87468592763389
 20
2.500000000007275
 30
0.0
 11
18.99999999996862
 21
2.500000000005456
 31
0.0
  0
LINE
  5
654A
330
6538
100
AcDbEntity
  8
LW 5015-15-01
  6
VERDECKT
 62
     6
100
AcDbLine
 10
24.87468592763526
 20
-2.499999999992724
 30
0.0
 11
18.99999999996998
 21
-2.499999999994543
 31
0.0
  0
ARC
  5
654B
330
6538
100
AcDbEntity
  8
LW 5015-15-01
100
AcDbCircle
 10
-0.0000000000295586
 20
0.0
 30
0.0
 40
25.0
100
AcDbArc
 50
143.1301023541742
 51
330.0000000000171
  0
ARC
  5
654C
330
6538
100
AcDbEntity
  8
LW 5015-15-01
100
AcDbCircle
 10
-0.0000000000295586
 20
0.0
 30
0.0
 40
25.0
100
AcDbArc
 50
64.1580672368493
 51
115.8419327631834
  0
ARC
  5
654D
330
6538
100
AcDbEntity
  8
LW 5015-15-01
100
AcDbCircle
 10
-0.0000000000276827
 20
-0.0000000000000568
 30
0.0
 40
18.99999999999993
100
AcDbArc
 50
221.1395104149165
 51
318.8604895851181
  0
CIRCLE
  5
654E
330
6538
100
AcDbEntity
  8
LW 5015-15-01
100
AcDbCircle
 10
0.0
 20
0.0
 30
0.0
 40
10.00000000000001
  0
CIRCLE
  5
654F
330
6538
100
AcDbEntity
  8
LW 5015-15-01
100
AcDbCircle
 10
0.0000000000004547
 20
0.0
 30
0.0
 40
9.000000000000008
  0
ARC
  5
6550
330
6538
100
AcDbEntity
  8
LW 5015-15-01
  6
VERDECKT
 62
     6
100
AcDbCircle
 10
-0.0000000000300133
 20
0.0000000000002274
 30
0.0
 40
24.99999999999958
100
AcDbArc
 50
115.8419327631827
 51
143.1301023541742
  0
ARC
  5
6551
330
6538
100
AcDbEntity
  8
LW 5015-15-01
  6
VERDECKT
 62
     6
100
AcDbCircle
 10
-0.0000000000295586
 20
0.0
 30
0.0
 40
25.00000000000001
100
AcDbArc
 50
330.0000000000171
 51
64.1580672368493
  0
ARC
  5
6552
330
6538
100
AcDbEntity
  8
LW 5015-15-01
  6
VERDECKT
 62
     6
100
AcDbCircle
 10
-0.0000000000277396
 20
-0.0000000000000284
 30
0.0
 40
19.00000000000004
100
AcDbArc
 50
318.8604895851181
 51
221.1395104149165
  0
LINE
  5
6553
330
6538
100
AcDbEntity
  8
LW 5015-15-01
100
AcDbLine
 10
-10.10000000000673
 20
-2.000000000003069
 30
0.0
 11
-10.10000000000809
 21
1.999999999996816
 31
0.0
  0
LINE
  5
6554
330
6538
100
AcDbEntity
  8
LW 5015-15-01
100
AcDbLine
 10
10.09999999999172
 20
2.000000000002955
 30
0.0
 11
10.09999999999309
 21
-1.999999999997044
 31
0.0
  0
LINE
  5
6555
330
6538
100
AcDbEntity
  8
LW 5015-15-01
  6
VERDECKT
 62
     6
100
AcDbLine
 10
59.99999999999184
 20
-9.660108542720223
 30
0.0
 11
59.9999999999832
 21
19.66010854275575
 31
0.0
  0
ARC
  5
6556
330
6538
100
AcDbEntity
  8
LW 5015-15-01
  6
VERDECKT
 62
     6
100
AcDbCircle
 10
61.99999999999184
 20
-9.660108542719655
 30
0.0
 40
2.0
100
AcDbArc
 50
180.0
 51
199.2900462192125
  0
ARC
  5
6557
330
6538
100
AcDbEntity
  8
LW 5015-15-01
  6
VERDECKT
 62
     6
100
AcDbCircle
 10
61.9999999999832
 20
19.6601085427562
 30
0.0
 40
2.0
100
AcDbArc
 50
160.7099537808255
 51
180.0
  0
LINE
  5
6558
330
6538
100
AcDbEntity
  8
LW 5015-15-01
  6
VERDECKT
 62
     6
100
AcDbLine
 10
60.11228328726023
 20
-10.32080939217647
 30
0.0
 11
60.87499999999275
 21
-12.49999999998206
 31
0.0
  0
LINE
  5
6559
330
6538
100
AcDbEntity
  8
LW 5015-15-01
  6
VERDECKT
 62
     6
100
AcDbLine
 10
60.11228328725113
 20
20.32080939221188
 30
0.0
 11
60.87499999998229
 21
22.50000000001794
 31
0.0
  0
LINE
  5
655A
330
6538
100
AcDbEntity
  8
LW 5015-15-01
100
AcDbLine
 10
60.87499999999275
 20
-12.49999999998206
 30
0.0
 11
60.87499999998229
 21
22.50000000001794
 31
0.0
  0
LINE
  5
655B
330
6538
100
AcDbEntity
  8
LW 5015-15-01
100
AcDbLine
 10
-20.00000000000773
 20
-11.00000000000591
 30
0.0
 11
-20.00000000001728
 21
20.99999999999409
 31
0.0
  0
LINE
  5
655C
330
6538
100
AcDbEntity
  8
LW 5015-15-01
100
AcDbLine
 10
60.87499999998229
 20
22.50000000001794
 30
0.0
 11
-18.50000000001762
 21
22.49999999999454
 31
0.0
  0
LINE
  5
655D
330
6538
100
AcDbEntity
  8
LW 5015-15-01
100
AcDbLine
 10
60.87499999999275
 20
-12.49999999998206
 30
0.0
 11
10.09999999999246
 21
-12.49999999999701
 31
0.0
  0
LINE
  5
655E
330
6538
100
AcDbEntity
  8
LW 5015-15-01
100
AcDbLine
 10
-10.10000000000707
 20
-12.50000000000298
 30
0.0
 11
-18.50000000000727
 21
-12.50000000000546
 31
0.0
  0
ARC
  5
655F
330
6538
100
AcDbEntity
  8
LW 5015-15-01
100
AcDbCircle
 10
-18.50000000000773
 20
-11.00000000000545
 30
0.0
 40
1.500000000000012
100
AcDbArc
 50
180.0
 51
270.000000000013
  0
ARC
  5
6560
330
6538
100
AcDbEntity
  8
LW 5015-15-01
100
AcDbCircle
 10
-18.50000000001728
 20
20.99999999999454
 30
0.0
 40
1.500000000000012
100
AcDbArc
 50
90.00000000001303
 51
180.0
  0
LINE
  5
6561
330
6538
100
AcDbEntity
  8
LW 5015-15-01
100
AcDbLine
 10
76.99999999998912
 20
-0.7730999999771769
 30
0.0
 11
76.99999999998593
 21
10.77310000002282
 31
0.0
  0
LINE
  5
6562
330
6538
100
AcDbEntity
  8
LW 5015-15-01
100
AcDbLine
 10
75.77309999998536
 20
12.00000000002248
 30
0.0
 11
75.77309999998945
 21
-1.999999999977518
 31
0.0
  0
LINE
  5
6563
330
6538
100
AcDbEntity
  8
LW 5015-15-01
100
AcDbLine
 10
76.99999999998593
 20
10.77310000002282
 30
0.0
 11
75.77309999998536
 21
12.00000000002248
 31
0.0
  0
LINE
  5
6564
330
6538
100
AcDbEntity
  8
LW 5015-15-01
100
AcDbLine
 10
76.99999999998912
 20
-0.7730999999771769
 30
0.0
 11
75.77309999998945
 21
-1.999999999977518
 31
0.0
  0
LINE
  5
6565
330
6538
100
AcDbEntity
  8
LW 5015-15-01
100
AcDbLine
 10
75.77309999998536
 20
12.00000000002248
 30
0.0
 11
60.87499999998548
 21
12.00000000001793
 31
0.0
  0
LINE
  5
6566
330
6538
100
AcDbEntity
  8
LW 5015-15-01
100
AcDbLine
 10
75.77309999998945
 20
-1.999999999977518
 30
0.0
 11
60.87499999998957
 21
-1.999999999982065
 31
0.0
  0
LINE
  5
6567
330
6538
100
AcDbEntity
  8
LW 5015-15-01
 62
     3
100
AcDbLine
 10
60.87499999998593
 20
10.79450000001802
 30
0.0
 11
76.97859999998584
 21
10.79450000002279
 31
0.0
  0
LINE
  5
6568
330
6538
100
AcDbEntity
  8
LW 5015-15-01
 62
     3
100
AcDbLine
 10
76.97859999998903
 20
-0.794499999977262
 30
0.0
 11
60.87499999998911
 21
-0.7944999999820368
 31
0.0
  0
ARC
  5
6569
330
6538
100
AcDbEntity
  8
LW 5015-15-01
  6
VERDECKT
 62
     6
100
AcDbCircle
 10
-0.0000000000354703
 20
0.0
 30
0.0
 40
32.50000000000001
100
AcDbArc
 50
337.3801350519766
 51
43.81306146042019
  0
ARC
  5
656A
330
6538
100
AcDbEntity
  8
LW 5015-15-01
100
AcDbCircle
 10
-0.0000000000354703
 20
0.0
 30
0.0
 40
32.5
100
AcDbArc
 50
43.81306146042019
 51
337.3801350519766
  0
LINE
  5
656B
330
6538
100
AcDbEntity
  8
LW 5015-15-01
100
AcDbLine
 10
60.87499999998229
 20
22.50000000001794
 30
0.0
 11
60.87499999999275
 21
-12.49999999998206
 31
0.0
  0
LINE
  5
656C
330
6538
100
AcDbEntity
  8
LW 5015-15-01
  6
MITTE2
 62
     3
100
AcDbLine
 10
-14.93734296387123
 20
25.87223694343527
 30
0.0
 11
-7.00000000003456
 21
12.12435565298006
 31
0.0
  0
LINE
  5
656D
330
6538
100
AcDbEntity
  8
LW 5015-15-01
  6
MITTE2
 62
     3
100
AcDbLine
 10
-14.93734296385582
 20
-25.87223694344425
 30
0.0
 11
-7.000000000027284
 21
-12.12435565298426
 31
0.0
  0
LINE
  5
656E
330
6538
100
AcDbEntity
  8
LW 5015-15-01
  6
MITTE2
 62
     3
100
AcDbLine
 10
38.96970689545856
 20
0.0000000000173657
 30
0.0
 11
-38.96970689545765
 21
-0.0000000000173941
 31
0.0
  0
LINE
  5
656F
330
6538
100
AcDbEntity
  8
LW 5015-15-01
  6
MITTE2
 62
     3
100
AcDbLine
 10
-0.0000000000059117
 20
22.6209724824912
 30
0.0
 11
0.000000000007276
 21
-22.6209724824912
 31
0.0
  0
INSERT
  5
6570
330
6538
100
AcDbEntity
  8
LW 5015-15-01
100
AcDbBlockReference
 66
     1
  2
insertpoint-ECKELT
 10
0.0000000000004547
 20
0.0
 30
0.0
 41
-1.0
  0
ATTRIB
  5
6571
330
6570
100
AcDbEntity
  8
insertpoint_ECKELT
100
AcDbText
 10
1.200000000000254
 20
0.0
 30
0.0
 40
0.6
  1
LW 5015/15-01
 72
     2
 11
6.931514324693296
 21
0.0
 31
0.0
100
AcDbAttribute
  2
LINKS
 70
     0
  0
ATTRIB
  5
6572
330
6570
100
AcDbEntity
  8
insertpoint_ECKELT
100
AcDbText
 10
-1.199999999999363
 20
0.0
 30
0.0
 40
0.6
  1

100
AcDbAttribute
  2
RECHTS
 70
     0
  0
SEQEND
  5
6573
330
6570
100
AcDbEntity
  8
LW 5015-15-01
  0
LINE
  5
6574
330
6538
100
AcDbEntity
  8
LW 5015-15-01
100
AcDbLine
 10
10.09999999999218
 20
5.500000000003012
 30
0.0
 11
10.0999999999924
 21
-12.49999999999701
 31
0.0
  0
POLYLINE
  5
6575
330
6538
100
AcDbEntity
  8
LW 5015-15-01
100
AcDb2dPolyline
 66
     1
 10
0.0
 20
0.0
 30
0.0
 70
   128
  0
VERTEX
  5
6576
330
6575
100
AcDbEntity
  8
LW 5015-15-01
100
AcDbVertex
100
AcDb2dVertex
 10
10.10000228881063
 20
5.500000007453593
 30
0.0
  0
VERTEX
  5
6577
330
6575
100
AcDbEntity
  8
LW 5015-15-01
100
AcDbVertex
100
AcDb2dVertex
 10
10.07782459258214
 20
6.152630448344325
 30
0.0
  0
VERTEX
  5
6578
330
6575
100
AcDbEntity
  8
LW 5015-15-01
100
AcDbVertex
100
AcDb2dVertex
 10
10.01159191130773
 20
6.810174882414912
 30
0.0
  0
VERTEX
  5
6579
330
6575
100
AcDbEntity
  8
LW 5015-15-01
100
AcDbVertex
100
AcDb2dVertex
 10
9.901742935172023
 20
7.467362880709742
 30
0.0
  0
VERTEX
  5
657A
330
6575
100
AcDbEntity
  8
LW 5015-15-01
100
AcDbVertex
100
AcDb2dVertex
 10
9.748716354361476
 20
8.118924200537719
 30
0.0
  0
VERTEX
  5
657B
330
6575
100
AcDbEntity
  8
LW 5015-15-01
100
AcDbVertex
100
AcDb2dVertex
 10
9.552946090689147
 20
8.759588897231083
 30
0.0
  0
VERTEX
  5
657C
330
6575
100
AcDbEntity
  8
LW 5015-15-01
100
AcDbVertex
100
AcDb2dVertex
 10
9.314870834341263
 20
9.384086430075569
 30
0.0
  0
VERTEX
  5
657D
330
6575
100
AcDbEntity
  8
LW 5015-15-01
100
AcDbVertex
100
AcDb2dVertex
 10
9.035677909841524
 20
9.987690150740434
 30
0.0
  0
VERTEX
  5
657E
330
6575
100
AcDbEntity
  8
LW 5015-15-01
100
AcDbVertex
100
AcDb2dVertex
 10
8.718976974477754
 20
10.56716978550213
 30
0.0
  0
VERTEX
  5
657F
330
6575
100
AcDbEntity
  8
LW 5015-15-01
100
AcDbVertex
100
AcDb2dVertex
 10
8.368849754323719
 20
11.11950039863831
 30
0.0
  0
VERTEX
  5
6580
330
6575
100
AcDbEntity
  8
LW 5015-15-01
100
AcDbVertex
100
AcDb2dVertex
 10
7.989382743825444
 20
11.64165675640339
 30
0.0
  0
VERTEX
  5
6581
330
6575
100
AcDbEntity
  8
LW 5015-15-01
100
AcDbVertex
100
AcDb2dVertex
 10
7.584662437428733
 20
12.13061451912148
 30
0.0
  0
VERTEX
  5
6582
330
6575
100
AcDbEntity
  8
LW 5015-15-01
100
AcDbVertex
100
AcDb2dVertex
 10
7.15876579283622
 20
12.58334755897732
 30
0.0
  0
VERTEX
  5
6583
330
6575
100
AcDbEntity
  8
LW 5015-15-01
100
AcDbVertex
100
AcDb2dVertex
 10
6.705121994007868
 20
13.00724446773728
 30
0.0
  0
VERTEX
  5
6584
330
6575
100
AcDbEntity
  8
LW 5015-15-01
100
AcDbVertex
100
AcDb2dVertex
 10
6.216325759876781
 20
13.40922176838103
 30
0.0
  0
VERTEX
  5
6585
330
6575
100
AcDbEntity
  8
LW 5015-15-01
100
AcDbVertex
100
AcDb2dVertex
 10
5.695304870594554
 20
13.78546059131787
 30
0.0
  0
VERTEX
  5
6586
330
6575
100
AcDbEntity
  8
LW 5015-15-01
100
AcDbVertex
100
AcDb2dVertex
 10
5.1449871063121
 20
14.13214206695704
 30
0.0
  0
VERTEX
  5
6587
330
6575
100
AcDbEntity
  8
LW 5015-15-01
100
AcDbVertex
100
AcDb2dVertex
 10
4.568305015552596
 20
14.44544792175423
 30
0.0
  0
VERTEX
  5
6588
330
6575
100
AcDbEntity
  8
LW 5015-15-01
100
AcDbVertex
100
AcDb2dVertex
 10
3.968186378467635
 20
14.72155869007224
 30
0.0
  0
VERTEX
  5
6589
330
6575
100
AcDbEntity
  8
LW 5015-15-01
100
AcDbVertex
100
AcDb2dVertex
 10
3.347783088672485
 20
14.95777785778136
 30
0.0
  0
VERTEX
  5
658A
330
6575
100
AcDbEntity
  8
LW 5015-15-01
100
AcDbVertex
100
AcDb2dVertex
 10
2.711348533618547
 20
15.15290260315015
 30
0.0
  0
VERTEX
  5
658B
330
6575
100
AcDbEntity
  8
LW 5015-15-01
100
AcDbVertex
100
AcDb2dVertex
 10
2.063431739795305
 20
15.3053522109991
 30
0.0
  0
VERTEX
  5
658C
330
6575
100
AcDbEntity
  8
LW 5015-15-01
100
AcDbVertex
100
AcDb2dVertex
 10
1.408705711352922
 20
15.4138541221622
 30
0.0
  0
VERTEX
  5
658D
330
6575
100
AcDbEntity
  8
LW 5015-15-01
100
AcDbVertex
100
AcDb2dVertex
 10
0.7524204254032157
 20
15.47855496406572
 30
0.0
  0
VERTEX
  5
658E
330
6575
100
AcDbEntity
  8
LW 5015-15-01
100
AcDbVertex
100
AcDb2dVertex
 10
0.1000022888065359
 20
15.49999952316284
 30
0.0
  0
SEQEND
  5
658F
330
6575
100
AcDbEntity
  8
LW 5015-15-01
  0
POLYLINE
  5
6590
330
6538
100
AcDbEntity
  8
LW 5015-15-01
100
AcDb2dPolyline
 66
     1
 10
0.0
 20
0.0
 30
0.0
 70
   128
  0
VERTEX
  5
6591
330
6590
100
AcDbEntity
  8
LW 5015-15-01
100
AcDbVertex
100
AcDb2dVertex
 10
-0.1000022888301828
 20
15.49999952316278
 30
0.0
  0
VERTEX
  5
6592
330
6590
100
AcDbEntity
  8
LW 5015-15-01
100
AcDbVertex
100
AcDb2dVertex
 10
-0.7524204254268625
 20
15.47855496406526
 30
0.0
  0
VERTEX
  5
6593
330
6590
100
AcDbEntity
  8
LW 5015-15-01
100
AcDbVertex
100
AcDb2dVertex
 10
-1.408705711376569
 20
15.41385412216141
 30
0.0
  0
VERTEX
  5
6594
330
6590
100
AcDbEntity
  8
LW 5015-15-01
100
AcDbVertex
100
AcDb2dVertex
 10
-2.063431739818952
 20
15.30535221099791
 30
0.0
  0
VERTEX
  5
6595
330
6590
100
AcDbEntity
  8
LW 5015-15-01
100
AcDbVertex
100
AcDb2dVertex
 10
-2.711348533641967
 20
15.15290260314856
 30
0.0
  0
VERTEX
  5
6596
330
6590
100
AcDbEntity
  8
LW 5015-15-01
100
AcDbVertex
100
AcDb2dVertex
 10
-3.34778308869545
 20
14.95777785777943
 30
0.0
  0
VERTEX
  5
6597
330
6590
100
AcDbEntity
  8
LW 5015-15-01
100
AcDbVertex
100
AcDb2dVertex
 10
-3.968186378490372
 20
14.72155869006991
 30
0.0
  0
VERTEX
  5
6598
330
6590
100
AcDbEntity
  8
LW 5015-15-01
100
AcDbVertex
100
AcDb2dVertex
 10
-4.568305015575333
 20
14.44544792175151
 30
0.0
  0
VERTEX
  5
6599
330
6590
100
AcDbEntity
  8
LW 5015-15-01
100
AcDbVertex
100
AcDb2dVertex
 10
-5.144987106334156
 20
14.13214206695397
 30
0.0
  0
VERTEX
  5
659A
330
6590
100
AcDbEntity
  8
LW 5015-15-01
100
AcDbVertex
100
AcDb2dVertex
 10
-5.695304870616382
 20
13.78546059131452
 30
0.0
  0
VERTEX
  5
659B
330
6590
100
AcDbEntity
  8
LW 5015-15-01
100
AcDbVertex
100
AcDb2dVertex
 10
-6.216325759898381
 20
13.40922176837733
 30
0.0
  0
VERTEX
  5
659C
330
6590
100
AcDbEntity
  8
LW 5015-15-01
100
AcDbVertex
100
AcDb2dVertex
 10
-6.705121994029013
 20
13.0072444677333
 30
0.0
  0
VERTEX
  5
659D
330
6590
100
AcDbEntity
  8
LW 5015-15-01
100
AcDbVertex
100
AcDb2dVertex
 10
-7.158765792856911
 20
12.58334755897306
 30
0.0
  0
VERTEX
  5
659E
330
6590
100
AcDbEntity
  8
LW 5015-15-01
100
AcDbVertex
100
AcDb2dVertex
 10
-7.584662437448969
 20
12.13061451911699
 30
0.0
  0
VERTEX
  5
659F
330
6590
100
AcDbEntity
  8
LW 5015-15-01
100
AcDbVertex
100
AcDb2dVertex
 10
-7.989382743845226
 20
11.64165675639861
 30
0.0
  0
VERTEX
  5
65A0
330
6590
100
AcDbEntity
  8
LW 5015-15-01
100
AcDbVertex
100
AcDb2dVertex
 10
-8.368849754343045
 20
11.11950039863336
 30
0.0
  0
VERTEX
  5
65A1
330
6590
100
AcDbEntity
  8
LW 5015-15-01
100
AcDbVertex
100
AcDb2dVertex
 10
-8.718976974496854
 20
10.5671697854969
 30
0.0
  0
VERTEX
  5
65A2
330
6590
100
AcDbEntity
  8
LW 5015-15-01
100
AcDbVertex
100
AcDb2dVertex
 10
-9.035677909860396
 20
9.987690150735033
 30
0.0
  0
VERTEX
  5
65A3
330
6590
100
AcDbEntity
  8
LW 5015-15-01
100
AcDbVertex
100
AcDb2dVertex
 10
-9.31487083435968
 20
9.384086430069999
 30
0.0
  0
VERTEX
  5
65A4
330
6590
100
AcDbEntity
  8
LW 5015-15-01
100
AcDbVertex
100
AcDb2dVertex
 10
-9.552946090706882
 20
8.759588897225398
 30
0.0
  0
VERTEX
  5
65A5
330
6590
100
AcDbEntity
  8
LW 5015-15-01
100
AcDbVertex
100
AcDb2dVertex
 10
-9.748716354378757
 20
8.118924200531921
 30
0.0
  0
VERTEX
  5
65A6
330
6590
100
AcDbEntity
  8
LW 5015-15-01
100
AcDbVertex
100
AcDb2dVertex
 10
-9.901742935188849
 20
7.467362880703888
 30
0.0
  0
VERTEX
  5
65A7
330
6590
100
AcDbEntity
  8
LW 5015-15-01
100
AcDbVertex
100
AcDb2dVertex
 10
-10.0115919113241
 20
6.810174882408944
 30
0.0
  0
VERTEX
  5
65A8
330
6590
100
AcDbEntity
  8
LW 5015-15-01
100
AcDbVertex
100
AcDb2dVertex
 10
-10.07782459259806
 20
6.152630448338356
 30
0.0
  0
VERTEX
  5
65A9
330
6590
100
AcDbEntity
  8
LW 5015-15-01
100
AcDbVertex
100
AcDb2dVertex
 10
-10.10000228882609
 20
5.500000007447567
 30
0.0
  0
SEQEND
  5
65AA
330
6590
100
AcDbEntity
  8
LW 5015-15-01
  0
LINE
  5
65AB
330
6538
100
AcDbEntity
  8
LW 5015-15-01
100
AcDbLine
 10
-10.10000000000707
 20
-12.50000000000298
 30
0.0
 11
-10.10000000000764
 21
5.499999999997044
 31
0.0
  0
LINE
  5
65AC
330
6538
100
AcDbEntity
  8
LW 5015-15-01
  6
MITTE2
 62
     3
100
AcDbLine
 10
80.54152403631864
 20
5.000000000023845
 30
0.0
 11
-37.06495985655966
 21
4.999999999989086
 31
0.0
  0
HATCH
  5
65AD
330
6538
100
AcDbEntity
  8
LW 5015-15-01
 62
     1
100
AcDbHatch
 10
0.0
 20
0.0
 30
0.0
210
0.0
220
0.0
230
1.0
  2
SOLID
 70
     1
 71
     0
 91
        5
 92
        7
 72
     0
 73
     1
 93
       76
 10
40.23351265046403
 20
18.15603796707847
 10
40.26537147983662
 20
18.20761892892022
 10
40.38352960406837
 20
18.35886132793615
 10
40.5180076792808
 20
18.4992854581987
 10
40.66402758574213
 20
18.62767001991204
 10
40.82769638182435
 20
18.74457630282785
 10
41.00308333518888
 20
18.84675418464945
 10
41.1848362677897
 20
18.93810586423234
 10
41.3660052032551
 20
19.00762417667846
 10
39.10886726505533
 20
19.00762417667846
 10
38.89597071265507
 20
18.99893452147847
 10
38.69393622925509
 20
18.97286555587851
 10
38.49841898725526
 20
18.9315896936784
 10
38.31376381425525
 20
18.87727934867843
 10
38.137798296455
 20
18.80776210707842
 10
37.97052243385542
 20
18.72521038267831
 10
37.81995417130793
 20
18.62988486513444
 10
37.677246570855
 20
18.52317589927833
 10
37.55180531528458
 20
18.40412762303827
 10
37.44054036320722
 20
18.27586831228638
 10
37.34052243185534
 20
18.13865865667839
 10
37.25797070745512
 20
17.99310693207832
 10
37.19497070725493
 20
17.83886555227826
 10
37.14500518985506
 20
17.67810693107839
 10
37.11676381045527
 20
17.51300348227841
 10
37.10807415525551
 20
17.33921037827844
 10
37.11893622425532
 20
17.16541727427824
 10
37.14935001745516
 20
16.99814141167832
 10
37.20366036245514
 20
16.83738279047833
 10
37.27317760405504
 20
16.68096899687833
 10
37.36224656985541
 20
16.53324485847832
 10
37.46869484605531
 20
16.39203796147848
 10
37.59139277747954
 20
16.26082416795833
 10
37.72759182618756
 20
16.13969037447049
 10
37.87493622665534
 20
16.02924485687839
 10
38.03569484785521
 20
15.93148623587848
 10
38.21132146910259
 20
15.84658830457437
 10
38.39197071105491
 20
15.77290002847843
 10
38.58314312545508
 20
15.7164172696784
 10
38.78300519505547
 20
15.67296899367846
 10
38.99155691985516
 20
15.64690002807839
 10
39.20228105845536
 20
15.6382103728784
 10
41.3214521442078
 20
15.63821037287852
 10
41.16090828015558
 20
15.70128117661346
 10
40.97734413635271
 20
15.79190145013621
 10
40.80887773018275
 20
15.89643114306767
 10
40.64604483542234
 20
16.01204938149311
 10
40.50213246705197
 20
16.14183897803303
 10
40.37469657356768
 20
16.28119266126162
 10
40.26099121882407
 20
16.43168090597413
 10
40.20901998737554
 20
16.51586554807846
 10
39.18055692045527
 20
16.51586554807835
 10
39.04844809244969
 20
16.52342554810246
 10
38.91769485065515
 20
16.54375934127046
 10
38.78952243645517
 20
16.57669313447837
 10
38.67438450505551
 20
16.62231382427848
 10
38.56943953920518
 20
16.67879658307839
 10
38.47128988372106
 20
16.74640210053434
 10
38.3811086420551
 20
16.82434830767835
 10
38.3094189866556
 20
16.90907244587839
 10
40.03694030091401
 20
16.90907244587851
 10
40.02635583364098
 20
16.94170788663672
 10
39.99024402567693
 20
17.12708183418789
 10
39.97820037289466
 20
17.31737154813862
 10
39.99022204532457
 20
17.5121226414937
 10
40.0265277669996
 20
17.69849201276014
 10
40.04312646967446
 20
17.7476241726784
 10
38.27248795205515
 20
17.7476241726784
 10
38.34200519365504
 20
17.84321037987837
 10
38.42455691805526
 20
17.92576210427836
 10
38.51964781490869
 20
17.99562693208639
 10
38.62224657385514
 20
18.05393451847846
 10
38.74093857423168
 20
18.09790417379037
 10
38.86338450565518
 20
18.1299690014784
 10
39.00024657505537
 20
18.14952072567843
 10
39.14362588585527
 20
18.15603796707836
 97
        0
 92
        7
 72
     0
 73
     1
 93
       72
 10
41.96197651549164
 20
18.14143934634245
 10
42.0848395503649
 20
18.15951382915847
 10
42.20890175765498
 20
18.16472762227858
 10
43.47759141685537
 20
18.16472762227858
 10
42.63035003485538
 20
17.3500724472787
 10
44.39652245425532
 20
15.63169313147858
 10
45.71517763085512
 20
15.63169313147858
 10
44.0011431426551
 20
17.37396899907861
 10
45.68259142385523
 20
19.00762417667869
 10
42.24366037845493
 20
19.00762417667846
 10
42.03567348124306
 20
18.99684900423057
 10
41.8289552736901
 20
18.9713883144945
 10
41.62452244545511
 20
18.93158969367852
 10
41.43117761725489
 20
18.87510693487849
 10
41.24435003045483
 20
18.80341727947842
 10
41.07318989198074
 20
18.71738969299844
 10
40.90762589145515
 20
18.62093452027847
 10
40.75555692545504
 20
18.51231383027851
 10
40.61985926985198
 20
18.39300486438247
 10
40.49486726945497
 20
18.26248624327849
 10
40.38624657945502
 20
18.12345176007847
 10
40.29500519985549
 20
17.97572762167857
 10
40.22331554445509
 20
17.82148624187852
 10
40.16900519945511
 20
17.66072762067841
 10
40.13641899245522
 20
17.49345175807838
 10
40.12555692345495
 20
17.31748624027835
 10
40.13641899245522
 20
17.14586555007844
 10
40.16900519945511
 20
16.97858968747852
 10
40.22114313065549
 20
16.81783106627853
 10
40.29066037225539
 20
16.66358968647847
 10
40.38250133806423
 20
16.51482278945463
 10
40.48788078667439
 20
16.37535382349443
 10
40.60588630429037
 20
16.24631244377457
 10
40.73817761505551
 20
16.12700347787853
 10
40.89029871898628
 20
16.01899106374247
 10
41.04883278845545
 20
15.92062416687844
 10
41.2204534786556
 20
15.83590002867851
 10
41.40293623785555
 20
15.76421037327844
 10
41.5971674108855
 20
15.71016071793446
 10
41.7939707218552
 20
15.66645175227853
 10
42.00252244665534
 20
15.64038278667857
 10
42.21324658525509
 20
15.63169313147858
 10
44.11628107405522
 20
15.63169313147858
 10
43.22993624365517
 20
16.50500347907854
 10
42.21324658525509
 20
16.50500347907854
 10
42.14657955056054
 20
16.50875077201789
 10
42.04563182610264
 20
16.51873313429445
 10
41.92549734296244
 20
16.54019658263854
 10
41.80837817017663
 20
16.57452072067843
 10
41.70688299744097
 20
16.61544899667052
 10
41.65074782484907
 20
16.6436034795185
 10
41.59706313502328
 20
16.67618968651862
 10
41.4645024449469
 20
16.77551244545447
 10
41.39090106540334
 20
16.84555106636657
 10
41.33583472040072
 20
16.91341727347839
 10
41.2871292030045
 20
16.98597589439845
 10
41.24776506494845
 20
17.06314003257438
 10
41.21834189244191
 20
17.1445621017985
 10
41.19764313375526
 20
17.23171934345458
 10
41.19012658200745
 20
17.32104899891038
 10
41.1914821682185
 20
17.38335382669442
 10
41.19748671996194
 20
17.44548486137438
 10
41.20964354758643
 20
17.50865865467853
 10
41.22785706488548
 20
17.57035520659855
 10
41.27150520295481
 20
17.66906968967038
 10
41.31303306515611
 20
17.73693589678243
 10
41.37611127225272
 20
17.81496900047847
 10
41.50551321261764
 20
17.9414917375322
 10
41.56478106595523
 20
17.98154969066257
 10
41.64107623861127
 20
18.02586693218239
 10
41.72509651474001
 20
18.0680117599025
 10
41.84163348062748
 20
18.11085176003854
 97
        0
 92
        7
 72
     0
 73
     1
 93
       57
 10
46.52001349547936
 20
18.1193676221348
 10
46.65148797865504
 20
18.15934003605474
 10
46.78617763425518
 20
18.18645176027877
 10
46.92955694505508
 20
18.19514141547864
 10
48.17000522485523
 20
18.19514141547876
 10
48.17000522485523
 20
19.02065865947878
 10
46.93607418645524
 20
19.02065865947867
 10
46.72535004785504
 20
19.01196900427868
 10
46.51897073685495
 20
18.98372762487867
 10
46.32128108105507
 20
18.94245176267867
 10
46.13228108045541
 20
18.88814141767869
 10
45.94762590745495
 20
18.81645176227874
 10
45.78121901037502
 20
18.7338131413266
 10
45.62239818228454
 20
18.63735796860664
 10
45.47231914732537
 20
18.52786831308657
 10
45.33775983655369
 20
18.40864624374268
 10
45.21769487065512
 20
18.27986555367869
 10
45.11341900825527
 20
18.14083107047867
 10
45.02869487005546
 20
17.9952793458786
 10
44.95700521465505
 20
17.84103796607854
 10
44.90703969725518
 20
17.68027934487867
 10
44.87445349025529
 20
17.51300348227875
 10
44.86359142125502
 20
17.33921037827866
 10
44.87445349025529
 20
17.16541727427869
 10
44.90703969725518
 20
16.99814141167866
 10
44.9591776284551
 20
16.83738279047856
 10
45.03086728385506
 20
16.68096899687867
 10
45.11776383585538
 20
16.53324485847867
 10
45.22661045689028
 20
16.39368899596667
 10
45.34646687106397
 20
16.26334416796675
 10
45.48289445770433
 20
16.14203658137461
 10
45.6304534926553
 20
16.03141727067867
 10
45.79121211385518
 20
15.93365864967853
 10
45.96500521785538
 20
15.84893451147872
 10
46.14966039085539
 20
15.77507244227871
 10
46.3408328052551
 20
15.71858968347868
 10
46.54069487485549
 20
15.67514140747874
 10
46.74707418585557
 20
15.65124485567861
 10
46.95997073825537
 20
15.64255520047862
 10
48.17000522485523
 20
15.64255520047874
 10
48.17000522485523
 20
16.50065865147866
 10
46.93607418645524
 20
16.50065865147866
 10
46.80242728947951
 20
16.51099934116661
 10
46.67017073733541
 20
16.53298416882279
 10
46.54955832315908
 20
16.56730830686268
 10
46.43355142623931
 20
16.61527520356679
 10
46.32388797761495
 20
16.67618968651874
 10
46.22682452903108
 20
16.74379520397468
 10
46.13940659771924
 20
16.82356623871072
 10
46.06493625265511
 20
16.90907244587873
 10
48.17000522485523
 20
16.90907244587873
 10
48.17000522485523
 20
17.7367621036787
 10
46.02800521805511
 20
17.7367621036787
 10
46.09752245965546
 20
17.83452072467861
 10
46.18441901165488
 20
17.92358969047853
 10
46.28556659818332
 20
17.99988486313469
 10
46.39297073645548
 20
18.06696900127866
 97
        0
 92
        7
 72
     0
 73
     1
 93
        6
 10
48.400281087655
 20
19.0076241766788
 10
48.400281087655
 20
15.63821037287874
 10
50.63786730165566
 20
15.63821037287886
 10
50.63786730165521
 20
16.50500347907888
 10
49.42348798745524
 20
16.50500347907888
 10
49.42348798745524
 20
19.0076241766788
 97
        0
 92
        7
 72
     0
 73
     1
 93
        8
 10
49.65593626405507
 20
19.0076241766788
 10
49.65593626405507
 20
18.18210693267878
 10
50.88986730245551
 20
18.18210693267889
 10
50.88986730245551
 20
15.63169313147881
 10
51.91524661605535
 20
15.63169313147881
 10
51.91524661605535
 20
18.18210693267878
 10
53.1578673096551
 20
18.18210693267889
 10
53.1578673096551
 20
19.00762417667891
 97
        0
 75
     0
 76
     1
 47
0.0142553043587597
 98
        5
 10
39.54317277653036
 20
18.56517450708935
 10
41.81066998987307
 20
18.42262152208371
 10
46.30288172207428
 20
18.47964269463153
 10
49.02673080590602
 20
18.72198291932392
 10
50.43856878813267
 20
18.62219578691059
450
        0
451
        0
460
0.0
461
0.0
452
        0
462
0.0
453
        0
470

  0
LWPOLYLINE
  5
65AE
330
6538
100
AcDbEntity
  8
LW 5015-15-01
 62
     1
100
AcDbPolyline
 90
        8
 70
     1
 43
0.0
 10
51.91524661605535
 20
18.18210693267878
 10
51.91524661605535
 20
15.63169313147881
 10
50.88986730245551
 20
15.63169313147881
 10
50.88986730245551
 20
18.18210693267889
 10
49.65593626405507
 20
18.18210693267878
 10
49.65593626405507
 20
19.0076241766788
 10
53.1578673096551
 20
19.00762417667891
 10
53.1578673096551
 20
18.18210693267889
  0
LWPOLYLINE
  5
65AF
330
6538
100
AcDbEntity
  8
LW 5015-15-01
 62
     1
100
AcDbPolyline
 90
       73
 70
     1
 43
0.0
 10
42.21324658525509
 20
16.50500347907854
 10
43.22993624365517
 20
16.50500347907854
 10
44.11628107405522
 20
15.63169313147858
 10
42.21324658525509
 20
15.63169313147847
 10
42.00252244665534
 20
15.64038278667857
 10
41.7939707218552
 20
15.66645175227853
 10
41.5971674108855
 20
15.71016071793446
 10
41.40293623785555
 20
15.76421037327844
 10
41.2204534786556
 20
15.83590002867851
 10
41.04883278845545
 20
15.92062416687844
 10
40.89029871898628
 20
16.01899106374247
 10
40.73817761505551
 20
16.12700347787853
 10
40.60588630429037
 20
16.24631244377445
 10
40.48788078667439
 20
16.37535382349443
 10
40.38250133806423
 20
16.51482278945451
 10
40.29066037225539
 20
16.66358968647847
 10
40.22114313065549
 20
16.81783106627853
 10
40.16900519945511
 20
16.97858968747852
 10
40.13641899245522
 20
17.14586555007844
 10
40.12555692345495
 20
17.31748624027847
 10
40.13641899245522
 20
17.49345175807838
 10
40.16900519945511
 20
17.66072762067841
 10
40.22331554445509
 20
17.82148624187852
 10
40.29500519985549
 20
17.97572762167846
 10
40.38624657945502
 20
18.12345176007847
 10
40.49486726945497
 20
18.26248624327849
 10
40.61985926985198
 20
18.39300486438259
 10
40.75555692545504
 20
18.51231383027851
 10
40.90762589145515
 20
18.62093452027847
 10
41.07318989198074
 20
18.71738969299844
 10
41.24435003045483
 20
18.80341727947842
 10
41.43117761725489
 20
18.87510693487849
 10
41.62452244545511
 20
18.93158969367863
 10
41.8289552736901
 20
18.9713883144945
 10
42.03567348124306
 20
18.99684900423057
 10
42.24366037845493
 20
19.00762417667846
 10
45.68259142385523
 20
19.00762417667869
 10
44.0011431426551
 20
17.37396899907861
 10
45.71517763085512
 20
15.63169313147858
 10
44.39652245425532
 20
15.63169313147858
 10
42.63035003485538
 20
17.3500724472787
 10
43.47759141685537
 20
18.16472762227858
 10
42.20890175765498
 20
18.16472762227858
 10
42.0848395503649
 20
18.15951382915847
 10
41.96197651549164
 20
18.14143934634245
 10
41.84163348062748
 20
18.11085176003854
 10
41.72509651474001
 20
18.06801175990239
 10
41.64107623861082
 20
18.02586693218251
 10
41.56478106595523
 20
17.98154969066257
 10
41.52453927272427
 20
17.95435106988651
 10
41.48702603122592
 20
17.92341589737447
 10
41.37611127225272
 20
17.81496900047847
 10
41.31303306515611
 20
17.73693589678243
 10
41.27150520295526
 20
17.66906968967049
 10
41.22785706488548
 20
17.57035520659855
 10
41.20964354758643
 20
17.50865865467853
 10
41.19748671996194
 20
17.44548486137449
 10
41.1914821682185
 20
17.38335382669453
 10
41.19012658200745
 20
17.3210489989105
 10
41.19764313375526
 20
17.23171934345458
 10
41.21834189244191
 20
17.1445621017985
 10
41.24776506494891
 20
17.06314003257449
 10
41.2871292030045
 20
16.98597589439845
 10
41.33583472040072
 20
16.9134172734785
 10
41.39090106540334
 20
16.84555106636657
 10
41.4645024449469
 20
16.77551244545447
 10
41.59706313502328
 20
16.67618968651862
 10
41.65074782484907
 20
16.6436034795185
 10
41.70688299744097
 20
16.61544899667052
 10
41.80837817017663
 20
16.57452072067843
 10
41.92549734296244
 20
16.54019658263854
 10
42.04563182610264
 20
16.51873313429445
 10
42.14657955056054
 20
16.50875077201789
  0
LWPOLYLINE
  5
65B0
330
6538
100
AcDbEntity
  8
LW 5015-15-01
 62
     1
100
AcDbPolyline
 90
       76
 70
     1
 43
0.0
 10
41.00308333518888
 20
18.84675418464945
 10
40.82769638182435
 20
18.74457630282774
 10
40.66402758574213
 20
18.62767001991204
 10
40.5180076792808
 20
18.4992854581987
 10
40.38352960406837
 20
18.35886132793615
 10
40.26537147983662
 20
18.20761892892022
 10
40.23351265046403
 20
18.15603796707847
 10
39.14362588585527
 20
18.15603796707847
 10
39.00024657505537
 20
18.14952072567843
 10
38.86338450565518
 20
18.1299690014784
 10
38.74093857423168
 20
18.09790417379037
 10
38.62224657385514
 20
18.05393451847846
 10
38.51964781490869
 20
17.99562693208639
 10
38.42455691805526
 20
17.92576210427836
 10
38.34200519365504
 20
17.84321037987837
 10
38.27248795205515
 20
17.7476241726784
 10
40.04312646967446
 20
17.7476241726784
 10
40.0265277669996
 20
17.69849201276014
 10
39.99022204532412
 20
17.51212264149347
 10
39.97820037289466
 20
17.31737154813862
 10
39.99024402567693
 20
17.12708183418789
 10
40.02635583364145
 20
16.94170788663683
 10
40.03694030091401
 20
16.90907244587851
 10
38.3094189866556
 20
16.90907244587839
 10
38.3811086420551
 20
16.82434830767835
 10
38.47128988372106
 20
16.74640210053434
 10
38.56943953920518
 20
16.67879658307839
 10
38.67438450505551
 20
16.62231382427848
 10
38.78952243645517
 20
16.57669313447849
 10
38.91769485065515
 20
16.54375934127046
 10
39.04844809244969
 20
16.52342554810246
 10
39.18055692045527
 20
16.51586554807835
 10
40.20901998737554
 20
16.51586554807846
 10
40.26099121882407
 20
16.43168090597413
 10
40.37469657356768
 20
16.28119266126162
 10
40.50213246705197
 20
16.14183897803303
 10
40.64604483542234
 20
16.01204938149334
 10
40.80887773018275
 20
15.89643114306767
 10
40.97734413635271
 20
15.79190145013621
 10
41.16090828015558
 20
15.70128117661346
 10
41.3214521442078
 20
15.63821037287852
 10
39.20228105845536
 20
15.63821037287829
 10
38.99155691985516
 20
15.64690002807839
 10
38.78300519505547
 20
15.67296899367846
 10
38.58314312545508
 20
15.7164172696784
 10
38.39197071105536
 20
15.77290002847832
 10
38.21132146910213
 20
15.84658830457437
 10
38.03569484785521
 20
15.93148623587848
 10
37.87493622665534
 20
16.02924485687839
 10
37.72759182618756
 20
16.13969037447037
 10
37.59139277747954
 20
16.26082416795833
 10
37.46869484605531
 20
16.39203796147836
 10
37.36224656985496
 20
16.53324485847832
 10
37.27317760405504
 20
16.68096899687833
 10
37.20366036245514
 20
16.83738279047833
 10
37.14935001745516
 20
16.99814141167832
 10
37.11893622425532
 20
17.16541727427847
 10
37.10807415525551
 20
17.33921037827832
 10
37.11676381045482
 20
17.51300348227829
 10
37.14500518985506
 20
17.67810693107839
 10
37.19497070725493
 20
17.83886555227826
 10
37.25797070745512
 20
17.99310693207832
 10
37.34052243185534
 20
18.13865865667839
 10
37.44054036320722
 20
18.27586831228638
 10
37.55180531528458
 20
18.40412762303839
 10
37.677246570855
 20
18.52317589927833
 10
37.81995417130793
 20
18.62988486513444
 10
37.97052243385542
 20
18.72521038267842
 10
38.13779829645546
 20
18.8077621070783
 10
38.31376381425525
 20
18.87727934867843
 10
38.49841898725526
 20
18.9315896936784
 10
38.69393622925509
 20
18.97286555587851
 10
38.89597071265507
 20
18.99893452147847
 10
39.10886726505533
 20
19.00762417667846
 10
41.3660052032551
 20
19.00762417667857
 10
41.1848362677897
 20
18.93810586423234
  0
LWPOLYLINE
  5
65B1
330
6538
100
AcDbEntity
  8
LW 5015-15-01
 62
     1
100
AcDbPolyline
 90
        6
 70
     1
 43
0.0
 10
50.63786730165566
 20
15.63821037287886
 10
48.400281087655
 20
15.63821037287874
 10
48.400281087655
 20
19.0076241766788
 10
49.42348798745524
 20
19.0076241766788
 10
49.42348798745524
 20
16.50500347907888
 10
50.63786730165521
 20
16.50500347907888
  0
LWPOLYLINE
  5
65B2
330
6538
100
AcDbEntity
  8
LW 5015-15-01
 62
     1
100
AcDbPolyline
 90
       57
 70
     1
 43
0.0
 10
45.34646687106397
 20
16.26334416796675
 10
45.22661045689028
 20
16.39368899596655
 10
45.11776383585538
 20
16.53324485847855
 10
45.03086728385506
 20
16.68096899687867
 10
44.9591776284551
 20
16.83738279047856
 10
44.90703969725518
 20
16.99814141167866
 10
44.87445349025529
 20
17.16541727427869
 10
44.86359142125502
 20
17.33921037827866
 10
44.87445349025529
 20
17.51300348227863
 10
44.90703969725518
 20
17.68027934487867
 10
44.95700521465505
 20
17.84103796607854
 10
45.02869487005546
 20
17.99527934587871
 10
45.11341900825527
 20
18.14083107047855
 10
45.21769487065512
 20
18.27986555367869
 10
45.33775983655369
 20
18.40864624374257
 10
45.47231914732537
 20
18.52786831308657
 10
45.62239818228454
 20
18.63735796860664
 10
45.78121901037548
 20
18.73381314132672
 10
45.94762590745495
 20
18.81645176227874
 10
46.13228108045541
 20
18.88814141767869
 10
46.32128108105507
 20
18.94245176267867
 10
46.51897073685495
 20
18.98372762487867
 10
46.72535004785504
 20
19.01196900427868
 10
46.93607418645524
 20
19.02065865947867
 10
48.17000522485523
 20
19.02065865947878
 10
48.17000522485523
 20
18.19514141547876
 10
46.92955694505553
 20
18.19514141547864
 10
46.78617763425518
 20
18.18645176027866
 10
46.65148797865504
 20
18.15934003605474
 10
46.5200134954789
 20
18.11936762213469
 10
46.39297073645548
 20
18.06696900127866
 10
46.28556659818332
 20
17.99988486313469
 10
46.18441901165488
 20
17.92358969047876
 10
46.09752245965546
 20
17.83452072467861
 10
46.02800521805511
 20
17.7367621036787
 10
48.17000522485523
 20
17.7367621036787
 10
48.17000522485523
 20
16.90907244587873
 10
46.06493625265511
 20
16.90907244587873
 10
46.13940659771924
 20
16.82356623871072
 10
46.22682452903108
 20
16.74379520397468
 10
46.32388797761495
 20
16.67618968651874
 10
46.43355142623931
 20
16.61527520356679
 10
46.54955832315908
 20
16.56730830686268
 10
46.67017073733541
 20
16.53298416882279
 10
46.80242728947951
 20
16.51099934116661
 10
46.93607418645524
 20
16.50065865147866
 10
48.17000522485523
 20
16.50065865147866
 10
48.17000522485523
 20
15.64255520047874
 10
46.95997073825537
 20
15.64255520047862
 10
46.74707418585557
 20
15.65124485567861
 10
46.54069487485549
 20
15.67514140747874
 10
46.3408328052551
 20
15.71858968347868
 10
46.14966039085539
 20
15.77507244227871
 10
45.96500521785538
 20
15.84893451147872
 10
45.79121211385518
 20
15.93365864967876
 10
45.6304534926553
 20
16.03141727067867
 10
45.48289445770433
 20
16.14203658137461
  0
ENDBLK
  5
653A
330
6538
100
AcDbEntity
  8
0
100
AcDbBlockEnd
  0
ENDSEC
  0
SECTION
  2
ENTITIES
  0
INSERT
  5
6394
330
23
100
AcDbEntity
  8
0
100
AcDbBlockReference
  2
LW 5015-15-01_a
 10
0.0
 20
0.0
 30
0.0
  0
INSERT
  5
64BC
330
23
100
AcDbEntity
  8
0
100
AcDbBlockReference
  2
LW 5015-15-01_b
 10
0.000000000165528
 20
207.0345158723449
 30
0.0
  0
INSERT
  5
6537
330
23
100
AcDbEntity
  8
0
100
AcDbBlockReference
  2
LW 5015-15-01_c
 10
303.6796665411248
 20
207.0345158723449
 30
0.0
  0
INSERT
  5
653B
330
23
100
AcDbEntity
  8
0
100
AcDbBlockReference
  2
LW 5015-15-01_d
 10
-303.6796665407578
 20
207.034515872345
 30
0.0
  0
INSERT
  5
65B3
330
23
100
AcDbEntity
  8
0
100
AcDbBlockReference
  2
LW 5015-15-01_d
 10
-303.6796665407583
 20
207.034515872345
 30
0.0
  0
ENDSEC
  0
SECTION
  2
OBJECTS
  0
DICTIONARY
  5
C
330
0
100
AcDbDictionary
281
     1
  3
ACAD_COLOR
350
1C
  3
ACAD_GROUP
350
D
  3
ACAD_LAYOUT
350
1A
  3
ACAD_MATERIAL
350
1B
  3
ACAD_MLINESTYLE
350
17
  3
ACAD_PLOTSETTINGS
350
19
  3
ACAD_PLOTSTYLENAME
350
E
  3
ACAD_TABLESTYLE
350
1D
  3
AcDbVariableDictionary
350
1064
  0
DICTIONARY
  5
16C1
330
2
100
AcDbDictionary
280
     1
281
     1
  3
ACAD_LAYERFILTERS
360
618F
  3
ACLYDICTIONARY
360
618E
  0
DICTIONARY
  5
15A2
330
23
100
AcDbDictionary
280
     1
281
     1
  3
ACAD_SORTENTS
360
15A3
  0
DICTIONARY
  5
106F
330
106E
100
AcDbDictionary
280
     1
281
     1
  3
ACAD_SORTENTS
360
1070
  0
DICTIONARY
  5
1C
102
{ACAD_REACTORS
330
C
102
}
330
C
100
AcDbDictionary
281
     1
  0
DICTIONARY
  5
D
102
{ACAD_REACTORS
330
C
102
}
330
C
100
AcDbDictionary
281
     1
  0
DICTIONARY
  5
1A
102
{ACAD_REACTORS
330
C
102
}
330
C
100
AcDbDictionary
281
     1
  3
Layout1
350
22
  3
Layout2
350
2A
  3
Model
350
26
  0
DICTIONARY
  5
1B
102
{ACAD_REACTORS
330
C
102
}
330
C
100
AcDbDictionary
281
     1
  0
DICTIONARY
  5
17
102
{ACAD_REACTORS
330
C
102
}
330
C
100
AcDbDictionary
281
     1
  3
Standard
350
18
  0
DICTIONARY
  5
19
102
{ACAD_REACTORS
330
C
102
}
330
C
100
AcDbDictionary
281
     1
  0
ACDBDICTIONARYWDFLT
  5
E
102
{ACAD_REACTORS
330
C
102
}
330
C
100
AcDbDictionary
281
     1
  3
Normal
350
F
100
AcDbDictionaryWithDefault
340
F
  0
DICTIONARY
  5
1D
102
{ACAD_REACTORS
330
C
102
}
330
C
100
AcDbDictionary
281
     1
  3
Standard
350
1E
  0
DICTIONARY
  5
1064
102
{ACAD_REACTORS
330
C
102
}
330
C
100
AcDbDictionary
281
     1
  3
CTABLESTYLE
350
1065
  3
DIMASSOC
350
18F4
  3
HIDETEXT
350
18F3
  3
PROJECTNAME
350
18F5
  0
DICTIONARY
  5
618F
102
{ACAD_REACTORS
330
16C1
102
}
330
16C1
100
AcDbDictionary
281
     1
  0
DICTIONARY
  5
618E
102
{ACAD_REACTORS
330
16C1
102
}
330
16C1
100
AcDbDictionary
281
     1
1001
ACAD
1000
<All
  0
SORTENTSTABLE
  5
15A3
102
{ACAD_REACTORS
330
15A2
102
}
330
15A2
100
AcDbSortentsTable
330
23
  0
SORTENTSTABLE
  5
1070
102
{ACAD_REACTORS
330
106F
102
}
330
106F
100
AcDbSortentsTable
330
106E
  0
LAYOUT
  5
22
102
{ACAD_REACTORS
330
1A
102
}
330
1A
100
AcDbPlotSettings
  1

  2

  4

  6

 40
0.0
 41
0.0
 42
0.0
 43
0.0
 44
0.0
 45
0.0
 46
0.0
 47
0.0
 48
0.0
 49
0.0
140
0.0
141
0.0
142
1.0
143
1.0
 70
   688
 72
     0
 73
     0
 74
     5
  7

 75
    16
147
1.0
 76
     0
 77
     2
 78
   300
148
0.0
149
0.0
100
AcDbLayout
  1
Layout1
 70
     1
 71
     1
 10
0.0
 20
0.0
 11
2100.0
 21
1485.0
 12
0.0
 22
0.0
 32
0.0
 14
0.0
 24
0.0
 34
0.0
 15
2100.0
 25
1485.0
 35
0.0
146
0.0
 13
0.0
 23
0.0
 33
0.0
 16
1.0
 26
0.0
 36
0.0
 17
0.0
 27
1.0
 37
0.0
 76
     0
330
1F
  0
LAYOUT
  5
2A
102
{ACAD_REACTORS
330
1A
102
}
330
1A
100
AcDbPlotSettings
  1

  2

  4

  6

 40
0.0
 41
0.0
 42
0.0
 43
0.0
 44
0.0
 45
0.0
 46
0.0
 47
0.0
 48
0.0
 49
0.0
140
0.0
141
0.0
142
1.0
143
1.0
 70
   688
 72
     0
 73
     0
 74
     5
  7

 75
    16
147
1.0
 76
     0
 77
     2
 78
   300
148
0.0
149
0.0
100
AcDbLayout
  1
Layout2
 70
     1
 71
     2
 10
0.0
 20
0.0
 11
12.0
 21
9.0
 12
0.0
 22
0.0
 32
0.0
 14
0.0
 24
0.0
 34
0.0
 15
0.0
 25
0.0
 35
0.0
146
0.0
 13
0.0
 23
0.0
 33
0.0
 16
1.0
 26
0.0
 36
0.0
 17
0.0
 27
1.0
 37
0.0
 76
     0
330
27
  0
LAYOUT
  5
26
102
{ACAD_REACTORS
330
1A
102
}
330
1A
100
AcDbPlotSettings
  1

  2

  4

  6

 40
0.0
 41
0.0
 42
0.0
 43
0.0
 44
0.0
 45
0.0
 46
0.0
 47
0.0
 48
0.0
 49
0.0
140
0.0
141
0.0
142
1.0
143
1.0
 70
  1712
 72
     0
 73
     0
 74
     0
  7

 75
     0
147
1.0
 76
     0
 77
     2
 78
   300
148
0.0
149
0.0
100
AcDbLayout
  1
Model
 70
     1
 71
     0
 10
0.0
 20
0.0
 11
12.0
 21
9.0
 12
0.0
 22
0.0
 32
0.0
 14
0.0
 24
0.0
 34
0.0
 15
0.0
 25
0.0
 35
0.0
146
0.0
 13
0.0
 23
0.0
 33
0.0
 16
1.0
 26
0.0
 36
0.0
 17
0.0
 27
1.0
 37
0.0
 76
     0
330
23
  0
MLINESTYLE
  5
18
102
{ACAD_REACTORS
330
17
102
}
330
17
100
AcDbMlineStyle
  2
STANDARD
 70
     0
  3

 62
   256
 51
90.0
 52
90.0
 71
     2
 49
0.5
 62
   256
  6
BYLAYER
 49
-0.5
 62
   256
  6
BYLAYER
  0
ACDBPLACEHOLDER
  5
F
102
{ACAD_REACTORS
330
E
102
}
330
E
  0
TABLESTYLE
  5
1E
102
{ACAD_REACTORS
330
1D
102
}
330
1D
100
AcDbTableStyle
  3
Standard
 70
     0
 71
     0
 40
0.06
 41
0.06
280
     0
281
     0
  7
Standard
140
0.18
170
     2
 62
     0
 63
     7
283
     0
274
    -2
284
     1
 64
     0
275
    -2
285
     1
 65
     0
276
    -2
286
     1
 66
     0
277
    -2
287
     1
 67
     0
278
    -2
288
     1
 68
     0
279
    -2
289
     1
 69
     0
  7
Standard
140
0.25
170
     5
 62
     0
 63
     7
283
     0
274
    -2
284
     1
 64
     0
275
    -2
285
     1
 65
     0
276
    -2
286
     1
 66
     0
277
    -2
287
     1
 67
     0
278
    -2
288
     1
 68
     0
279
    -2
289
     1
 69
     0
  7
Standard
140
0.18
170
     5
 62
     0
 63
     7
283
     0
274
    -2
284
     1
 64
     0
275
    -2
285
     1
 65
     0
276
    -2
286
     1
 66
     0
277
    -2
287
     1
 67
     0
278
    -2
288
     1
 68
     0
279
    -2
289
     1
 69
     0
  0
DICTIONARYVAR
  5
1065
102
{ACAD_REACTORS
330
1064
102
}
330
1064
100
DictionaryVariables
280
     0
  1
STANDARD
  0
DICTIONARYVAR
  5
18F4
102
{ACAD_REACTORS
330
1064
102
}
330
1064
100
DictionaryVariables
280
     0
  1
1
  0
DICTIONARYVAR
  5
18F3
102
{ACAD_REACTORS
330
1064
102
}
330
1064
100
DictionaryVariables
280
     0
  1
1
  0
DICTIONARYVAR
  5
18F5
102
{ACAD_REACTORS
330
1064
102
}
330
1064
100
DictionaryVariables
280
     0
  1

  0
ENDSEC
  0
EOF
