  0
SECTION
  2
HEADER
  9
$ACADVER
  1
AC1018
  9
$ACADMAINTVER
 70
    76
  9
$DWGCODEPAGE
  3
ANSI_1252
  9
$AUTHOR
  1
Grandl
  9
$CUSTOMPROPERTYTAG
  1
Manager
  9
$CUSTOMPROPERTY
  1

  9
$CUSTOMPROPERTYTAG
  1
Firma
  9
$CUSTOMPROPERTY
  1

  9
$CUSTOMPROPERTYTAG
  1
Kategorie
  9
$CUSTOMPROPERTY
  1

  9
$CUSTOMPROPERTYTAG
  1
Bauteilnummer
  9
$CUSTOMPROPERTY
  1
3250-40-00
  9
$CUSTOMPROPERTYTAG
  1
Bezeichnung
  9
$CUSTOMPROPERTY
  1

  9
$CUSTOMPROPERTYTAG
  1
Projekt
  9
$CUSTOMPROPERTY
  1

  9
$CUSTOMPROPERTYTAG
  1
Konstrukteur
  9
$CUSTOMPROPERTY
  1
Grandl
  9
$CUSTOMPROPERTYTAG
  1
Ingenieur
  9
$CUSTOMPROPERTY
  1

  9
$CUSTOMPROPERTYTAG
  1
Bevollmächtigter
  9
$CUSTOMPROPERTY
  1

  9
$CUSTOMPROPERTYTAG
  1
Kostenstelle
  9
$CUSTOMPROPERTY
  1

  9
$CUSTOMPROPERTYTAG
  1
Händler
  9
$CUSTOMPROPERTY
  1

  9
$CUSTOMPROPERTYTAG
  1
Benutzerstatus
  9
$CUSTOMPROPERTY
  1

  9
$CUSTOMPROPERTYTAG
  1
Konstruktionsstatus
  9
$CUSTOMPROPERTY
  1
InBearbeitung
  9
$CUSTOMPROPERTYTAG
  1
Überprüft von
  9
$CUSTOMPROPERTY
  1

  9
$CUSTOMPROPERTYTAG
  1
Konstruktion genehmigt von
  9
$CUSTOMPROPERTY
  1

  9
$CUSTOMPROPERTYTAG
  1
Fertigung genehmigt von
  9
$CUSTOMPROPERTY
  1

  9
$INSBASE
 10
0.0
 20
0.0
 30
0.0
  9
$EXTMIN
 10
-342.6493734362159
 20
-37.00000000000006
 30
0.0
  9
$EXTMAX
 10
342.649373436547
 20
244.0345158723449
 30
0.0
  9
$LIMMIN
 10
0.0
 20
0.0
  9
$LIMMAX
 10
2100.0
 20
1485.0
  9
$ORTHOMODE
 70
     1
  9
$REGENMODE
 70
     1
  9
$FILLMODE
 70
     1
  9
$QTEXTMODE
 70
     0
  9
$MIRRTEXT
 70
     0
  9
$LTSCALE
 40
0.5
  9
$ATTMODE
 70
     1
  9
$TEXTSIZE
 40
0.2
  9
$TRACEWID
 40
0.05
  9
$TEXTSTYLE
  7
Standard
  9
$CLAYER
  8
0
  9
$CELTYPE
  6
ByLayer
  9
$CECOLOR
 62
   256
  9
$CELTSCALE
 40
1.0
  9
$DISPSILH
 70
     0
  9
$DIMSCALE
 40
1.0
  9
$DIMASZ
 40
0.18
  9
$DIMEXO
 40
0.0625
  9
$DIMDLI
 40
0.38
  9
$DIMRND
 40
0.0
  9
$DIMDLE
 40
0.0
  9
$DIMEXE
 40
0.18
  9
$DIMTP
 40
0.0
  9
$DIMTM
 40
0.0
  9
$DIMTXT
 40
0.18
  9
$DIMCEN
 40
0.09
  9
$DIMTSZ
 40
0.0
  9
$DIMTOL
 70
     0
  9
$DIMLIM
 70
     0
  9
$DIMTIH
 70
     1
  9
$DIMTOH
 70
     1
  9
$DIMSE1
 70
     0
  9
$DIMSE2
 70
     0
  9
$DIMTAD
 70
     0
  9
$DIMZIN
 70
     0
  9
$DIMBLK
  1

  9
$DIMASO
 70
     1
  9
$DIMSHO
 70
     1
  9
$DIMPOST
  1

  9
$DIMAPOST
  1

  9
$DIMALT
 70
     0
  9
$DIMALTD
 70
     2
  9
$DIMALTF
 40
25.4
  9
$DIMLFAC
 40
1.0
  9
$DIMTOFL
 70
     0
  9
$DIMTVP
 40
0.0
  9
$DIMTIX
 70
     0
  9
$DIMSOXD
 70
     0
  9
$DIMSAH
 70
     0
  9
$DIMBLK1
  1

  9
$DIMBLK2
  1

  9
$DIMSTYLE
  2
Standard
  9
$DIMCLRD
 70
     0
  9
$DIMCLRE
 70
     0
  9
$DIMCLRT
 70
     0
  9
$DIMTFAC
 40
1.0
  9
$DIMGAP
 40
0.09
  9
$DIMJUST
 70
     0
  9
$DIMSD1
 70
     0
  9
$DIMSD2
 70
     0
  9
$DIMTOLJ
 70
     1
  9
$DIMTZIN
 70
     0
  9
$DIMALTZ
 70
     0
  9
$DIMALTTZ
 70
     0
  9
$DIMUPT
 70
     0
  9
$DIMDEC
 70
     4
  9
$DIMTDEC
 70
     4
  9
$DIMALTU
 70
     2
  9
$DIMALTTD
 70
     2
  9
$DIMTXSTY
  7
Standard
  9
$DIMAUNIT
 70
     0
  9
$DIMADEC
 70
     0
  9
$DIMALTRND
 40
0.0
  9
$DIMAZIN
 70
     0
  9
$DIMDSEP
 70
    46
  9
$DIMATFIT
 70
     3
  9
$DIMFRAC
 70
     0
  9
$DIMLDRBLK
  1

  9
$DIMLUNIT
 70
     2
  9
$DIMLWD
 70
    -2
  9
$DIMLWE
 70
    -2
  9
$DIMTMOVE
 70
     0
  9
$LUNITS
 70
     2
  9
$LUPREC
 70
     4
  9
$SKETCHINC
 40
0.1
  9
$FILLETRAD
 40
0.0
  9
$AUNITS
 70
     0
  9
$AUPREC
 70
     0
  9
$MENU
  1
.
  9
$ELEVATION
 40
0.0
  9
$PELEVATION
 40
0.0
  9
$THICKNESS
 40
0.0
  9
$LIMCHECK
 70
     0
  9
$CHAMFERA
 40
0.0
  9
$CHAMFERB
 40
0.0
  9
$CHAMFERC
 40
0.0
  9
$CHAMFERD
 40
0.0
  9
$SKPOLY
 70
     0
  9
$TDCREATE
 40
2453712.483610903
  9
$TDUCREATE
 40
2453712.441944236
  9
$TDUPDATE
 40
2453717.685472847
  9
$TDUUPDATE
 40
2453717.643806180
  9
$TDINDWG
 40
0.1349997106
  9
$TDUSRTIMER
 40
0.1349997106
  9
$USRTIMER
 70
     1
  9
$ANGBASE
 50
0.0
  9
$ANGDIR
 70
     0
  9
$PDMODE
 70
     0
  9
$PDSIZE
 40
0.0
  9
$PLINEWID
 40
0.0
  9
$SPLFRAME
 70
     0
  9
$SPLINETYPE
 70
     6
  9
$SPLINESEGS
 70
     8
  9
$HANDSEED
  5
6EE8
  9
$SURFTAB1
 70
     6
  9
$SURFTAB2
 70
     6
  9
$SURFTYPE
 70
     6
  9
$SURFU
 70
     6
  9
$SURFV
 70
     6
  9
$UCSBASE
  2

  9
$UCSNAME
  2

  9
$UCSORG
 10
0.0
 20
0.0
 30
0.0
  9
$UCSXDIR
 10
1.0
 20
0.0
 30
0.0
  9
$UCSYDIR
 10
0.0
 20
1.0
 30
0.0
  9
$UCSORTHOREF
  2

  9
$UCSORTHOVIEW
 70
     0
  9
$UCSORGTOP
 10
0.0
 20
0.0
 30
0.0
  9
$UCSORGBOTTOM
 10
0.0
 20
0.0
 30
0.0
  9
$UCSORGLEFT
 10
0.0
 20
0.0
 30
0.0
  9
$UCSORGRIGHT
 10
0.0
 20
0.0
 30
0.0
  9
$UCSORGFRONT
 10
0.0
 20
0.0
 30
0.0
  9
$UCSORGBACK
 10
0.0
 20
0.0
 30
0.0
  9
$PUCSBASE
  2

  9
$PUCSNAME
  2

  9
$PUCSORG
 10
0.0
 20
0.0
 30
0.0
  9
$PUCSXDIR
 10
1.0
 20
0.0
 30
0.0
  9
$PUCSYDIR
 10
0.0
 20
1.0
 30
0.0
  9
$PUCSORTHOREF
  2

  9
$PUCSORTHOVIEW
 70
     0
  9
$PUCSORGTOP
 10
0.0
 20
0.0
 30
0.0
  9
$PUCSORGBOTTOM
 10
0.0
 20
0.0
 30
0.0
  9
$PUCSORGLEFT
 10
0.0
 20
0.0
 30
0.0
  9
$PUCSORGRIGHT
 10
0.0
 20
0.0
 30
0.0
  9
$PUCSORGFRONT
 10
0.0
 20
0.0
 30
0.0
  9
$PUCSORGBACK
 10
0.0
 20
0.0
 30
0.0
  9
$USERI1
 70
     0
  9
$USERI2
 70
     0
  9
$USERI3
 70
     0
  9
$USERI4
 70
     0
  9
$USERI5
 70
     0
  9
$USERR1
 40
0.0
  9
$USERR2
 40
0.0
  9
$USERR3
 40
0.0
  9
$USERR4
 40
0.0
  9
$USERR5
 40
0.0
  9
$WORLDVIEW
 70
     1
  9
$SHADEDGE
 70
     3
  9
$SHADEDIF
 70
    70
  9
$TILEMODE
 70
     1
  9
$MAXACTVP
 70
    64
  9
$PINSBASE
 10
0.0
 20
0.0
 30
0.0
  9
$PLIMCHECK
 70
     0
  9
$PEXTMIN
 10
0.0
 20
0.0
 30
0.0
  9
$PEXTMAX
 10
2100.0
 20
1485.0
 30
0.0
  9
$PLIMMIN
 10
0.0
 20
0.0
  9
$PLIMMAX
 10
2100.0
 20
1485.0
  9
$UNITMODE
 70
     0
  9
$VISRETAIN
 70
     1
  9
$PLINEGEN
 70
     0
  9
$PSLTSCALE
 70
     1
  9
$TREEDEPTH
 70
  3020
  9
$CMLSTYLE
  2
Standard
  9
$CMLJUST
 70
     0
  9
$CMLSCALE
 40
1.0
  9
$PROXYGRAPHICS
 70
     1
  9
$MEASUREMENT
 70
     1
  9
$CELWEIGHT
370
    -1
  9
$ENDCAPS
280
     0
  9
$JOINSTYLE
280
     0
  9
$LWDISPLAY
290
     0
  9
$INSUNITS
 70
     0
  9
$HYPERLINKBASE
  1

  9
$STYLESHEET
  1

  9
$XEDIT
290
     1
  9
$CEPSNTYPE
380
     0
  9
$PSTYLEMODE
290
     1
  9
$FINGERPRINTGUID
  2
{C0D17482-A639-492A-87FF-6D529B9E67CF}
  9
$VERSIONGUID
  2
{B2B2CEFC-B79C-4A75-895B-C67DFD016FC8}
  9
$EXTNAMES
290
     1
  9
$PSVPSCALE
 40
0.0
  9
$OLESTARTUP
290
     0
  9
$SORTENTS
280
   127
  9
$INDEXCTL
280
     0
  9
$HIDETEXT
280
     1
  9
$XCLIPFRAME
290
     0
  9
$HALOGAP
280
     0
  9
$OBSCOLOR
 70
   257
  9
$OBSLTYPE
280
     0
  9
$INTERSECTIONDISPLAY
280
     0
  9
$INTERSECTIONCOLOR
 70
   257
  9
$DIMASSOC
280
     1
  9
$PROJECTNAME
  1

  0
ENDSEC
  0
SECTION
  2
CLASSES
  0
CLASS
  1
ACDBDICTIONARYWDFLT
  2
AcDbDictionaryWithDefault
  3
ObjectDBX Classes
 90
        0
 91
        1
280
     0
281
     0
  0
CLASS
  1
TABLESTYLE
  2
AcDbTableStyle
  3
ObjectDBX Classes
 90
     2047
 91
        1
280
     0
281
     0
  0
CLASS
  1
DICTIONARYVAR
  2
AcDbDictionaryVar
  3
ObjectDBX Classes
 90
        0
 91
        4
280
     0
281
     0
  0
CLASS
  1
SORTENTSTABLE
  2
AcDbSortentsTable
  3
ObjectDBX Classes
 90
        0
 91
        2
280
     0
281
     0
  0
ENDSEC
  0
SECTION
  2
TABLES
  0
TABLE
  2
VPORT
  5
8
330
0
100
AcDbSymbolTable
 70
     3
  0
VPORT
  5
6EE7
330
8
100
AcDbSymbolTableRecord
100
AcDbViewportTableRecord
  2
*Active
 70
     0
 10
0.0
 20
0.0
 11
1.0
 21
1.0
 12
0.0456874633082407
 22
103.5160703262268
 13
0.0
 23
0.0
 14
1.0
 24
1.0
 15
0.0
 25
0.0
 16
0.0
 26
0.0
 36
1.0
 17
0.0
 27
0.0
 37
0.0
 40
388.5025200988063
 41
1.773333333333333
 42
50.0
 43
0.0
 44
0.0
 50
0.0
 51
0.0
 71
     0
 72
   100
 73
     1
 74
     1
 75
     0
 76
     0
 77
     0
 78
     0
281
     0
 65
     1
110
0.0
120
0.0
130
0.0
111
1.0
121
0.0
131
0.0
112
0.0
122
1.0
132
0.0
 79
     0
146
0.0
  0
ENDTAB
  0
TABLE
  2
LTYPE
  5
5
330
0
100
AcDbSymbolTable
 70
     3
  0
LTYPE
  5
14
330
5
100
AcDbSymbolTableRecord
100
AcDbLinetypeTableRecord
  2
ByBlock
 70
     0
  3

 72
    65
 73
     0
 40
0.0
  0
LTYPE
  5
15
330
5
100
AcDbSymbolTableRecord
100
AcDbLinetypeTableRecord
  2
ByLayer
 70
     0
  3

 72
    65
 73
     0
 40
0.0
  0
LTYPE
  5
16
330
5
100
AcDbSymbolTableRecord
100
AcDbLinetypeTableRecord
  2
Continuous
 70
     0
  3
Solid line
 72
    65
 73
     0
 40
0.0
  0
LTYPE
  5
1309
330
5
100
AcDbSymbolTableRecord
100
AcDbLinetypeTableRecord
  2
MITTE2
 70
     0
  3
Mitte (.5x) ___ _ ___ _ ___ _ ___ _ ___ _ ___
 72
    65
 73
     4
 40
28.575
 49
19.05
 74
     0
 49
-3.174999999999999
 74
     0
 49
3.174999999999999
 74
     0
 49
-3.174999999999999
 74
     0
  0
LTYPE
  5
16DC
330
5
100
AcDbSymbolTableRecord
100
AcDbLinetypeTableRecord
  2
VERDECKT
 70
     0
  3
Verdeckt __ __ __ __ __ __ __ __ __ __ __ __ __
 72
    65
 73
     2
 40
9.524999999999998
 49
6.349999999999999
 74
     0
 49
-3.174999999999999
 74
     0
  0
ENDTAB
  0
TABLE
  2
LAYER
  5
2
102
{ACAD_XDICTIONARY
360
16C1
102
}
330
0
100
AcDbSymbolTable
 70
     4
  0
LAYER
  5
10
330
2
100
AcDbSymbolTableRecord
100
AcDbLayerTableRecord
  2
0
 70
     0
 62
     7
  6
Continuous
370
    -3
390
F
  0
LAYER
  5
646
330
2
100
AcDbSymbolTableRecord
100
AcDbLayerTableRecord
  2
Defpoints
 70
     0
 62
     7
  6
Continuous
290
     0
370
    -3
390
F
  0
LAYER
  5
130A
330
2
100
AcDbSymbolTableRecord
100
AcDbLayerTableRecord
  2
LW 5015-19-01
 70
     0
 62
     7
  6
Continuous
370
    -3
390
F
  0
LAYER
  5
130B
330
2
100
AcDbSymbolTableRecord
100
AcDbLayerTableRecord
  2
insertpoint_ECKELT
 70
     0
 62
   141
  6
Continuous
370
    -3
390
F
  0
ENDTAB
  0
TABLE
  2
STYLE
  5
3
330
0
100
AcDbSymbolTable
 70
     1
  0
STYLE
  5
11
330
3
100
AcDbSymbolTableRecord
100
AcDbTextStyleTableRecord
  2
Standard
 70
     0
 40
0.0
 41
1.0
 50
0.0
 71
     0
 42
0.2
  3
ARIAL.TTF
  4

1001
ACAD
1000
Arial
1071
      256
  0
ENDTAB
  0
TABLE
  2
VIEW
  5
6
330
0
100
AcDbSymbolTable
 70
     0
  0
ENDTAB
  0
TABLE
  2
UCS
  5
7
330
0
100
AcDbSymbolTable
 70
     0
  0
ENDTAB
  0
TABLE
  2
APPID
  5
9
330
0
100
AcDbSymbolTable
 70
     2
  0
APPID
  5
12
330
9
100
AcDbSymbolTableRecord
100
AcDbRegAppTableRecord
  2
ACAD
 70
     0
  0
APPID
  5
15AA
330
9
100
AcDbSymbolTableRecord
100
AcDbRegAppTableRecord
  2
ACAD_EXEMPT_FROM_CAD_STANDARDS
 70
     0
  0
ENDTAB
  0
TABLE
  2
DIMSTYLE
  5
A
330
0
100
AcDbSymbolTable
 70
     1
100
AcDbDimStyleTable
 71
     1
340
2B
  0
DIMSTYLE
105
2B
330
A
100
AcDbSymbolTableRecord
100
AcDbDimStyleTableRecord
  2
Standard
 70
     0
340
11
  0
ENDTAB
  0
TABLE
  2
BLOCK_RECORD
  5
1
330
0
100
AcDbSymbolTable
 70
     6
  0
BLOCK_RECORD
  5
23
102
{ACAD_XDICTIONARY
360
15A2
102
}
330
1
100
AcDbSymbolTableRecord
100
AcDbBlockTableRecord
  2
*Model_Space
340
26
  0
BLOCK_RECORD
  5
1F
330
1
100
AcDbSymbolTableRecord
100
AcDbBlockTableRecord
  2
*Paper_Space
340
22
  0
BLOCK_RECORD
  5
27
330
1
100
AcDbSymbolTableRecord
100
AcDbBlockTableRecord
  2
*Paper_Space0
340
2A
  0
BLOCK_RECORD
  5
106E
102
{ACAD_XDICTIONARY
360
106F
102
}
330
1
100
AcDbSymbolTableRecord
100
AcDbBlockTableRecord
  2
insertpoint-ECKELT
340
0
102
{BLKREFS
331
6B5E
331
6D68
331
6DAC
331
6E21
102
}
  0
BLOCK_RECORD
  5
6A45
330
1
100
AcDbSymbolTableRecord
100
AcDbBlockTableRecord
  2
LW 5015-19-01_a
340
0
310
2800000020000000200000000100080000000000000400000000000000000000000000000000000000000000000080000080000000808000800000008000800080800000C0C0C000C0DCC000F0CAA6000020400000206000002080000020A0000020C0000020E00000400000004020000040400000406000004080000040A0
310
000040C0000040E00000600000006020000060400000606000006080000060A0000060C0000060E00000800000008020000080400000806000008080000080A0000080C0000080E00000A0000000A0200000A0400000A0600000A0800000A0A00000A0C00000A0E00000C0000000C0200000C0400000C0600000C0800000C0
310
A00000C0C00000C0E00000E0000000E0200000E0400000E0600000E0800000E0A00000E0C00000E0E00040000000400020004000400040006000400080004000A0004000C0004000E00040200000402020004020400040206000402080004020A0004020C0004020E000404000004040200040404000404060004040800040
310
40A0004040C0004040E00040600000406020004060400040606000406080004060A0004060C0004060E00040800000408020004080400040806000408080004080A0004080C0004080E00040A0000040A0200040A0400040A0600040A0800040A0A00040A0C00040A0E00040C0000040C0200040C0400040C0600040C08000
310
40C0A00040C0C00040C0E00040E0000040E0200040E0400040E0600040E0800040E0A00040E0C00040E0E00080000000800020008000400080006000800080008000A0008000C0008000E00080200000802020008020400080206000802080008020A0008020C0008020E00080400000804020008040400080406000804080
310
008040A0008040C0008040E00080600000806020008060400080606000806080008060A0008060C0008060E00080800000808020008080400080806000808080008080A0008080C0008080E00080A0000080A0200080A0400080A0600080A0800080A0A00080A0C00080A0E00080C0000080C0200080C0400080C0600080C0
310
800080C0A00080C0C00080C0E00080E0000080E0200080E0400080E0600080E0800080E0A00080E0C00080E0E000C0000000C0002000C0004000C0006000C0008000C000A000C000C000C000E000C0200000C0202000C0204000C0206000C0208000C020A000C020C000C020E000C0400000C0402000C0404000C0406000C0
310
408000C040A000C040C000C040E000C0600000C0602000C0604000C0606000C0608000C060A000C060C000C060E000C0800000C0802000C0804000C0806000C0808000C080A000C080C000C080E000C0A00000C0A02000C0A04000C0A06000C0A08000C0A0A000C0A0C000C0A0E000C0C00000C0C02000C0C04000C0C06000
310
C0C08000C0C0A000F0FBFF00A4A0A000808080000000FF0000FF000000FFFF00FF000000FF00FF00FFFF0000FFFFFF0000000000000000000000000000000000000000000000000000000000000000000000000000000000000000000000000000000000000000000000000000000000000000000000000000000000000000
310
00000000000000000000000000000000000000000000000000000000000000000000000000000000000000000000000000000000000000000000000000000000000000000000000000000000000000000000000000000000000000000000000000000000000000000000000000000000000000000000000000000000000000
310
000000000000000000000000000000000000000000000000000000000000000000000000000000000000000000000000000000000000000000000000000000000000000000000000000000000000000000000000000000000000000000000000FFFFFAFF000000000000000000000000000000000000FFFAFFFF000000FFFF
310
FFFFFFFAFFFFFFFF000000FFFFFAFF000000000000FFFFFFFA00FFFFFFFFFFFFFFFFFFFAFFFFFFFFFFFFFFFF00FAFFFFFF000000FAFAFAFFFAFAFFFAFAFAFAFAFAFA0909FAFAFAFAFAFAFAFFFAFAFFFAFAFA000000FFFFFFFA00FFFFFFFFFFFF00FF0909FF00FFFFFFFFFFFF00FAFFFFFF000000000000FFFA00FF000000FF
310
FF00FFFFFAFF00FFFF000000FF00FAFF0000000000000000F9F900FF00000000FFFFFFFFFAFFFFFF00000000FF00FAFF0000000000000000F9F900FF000000000000FFFFFAFF000000000000FF00FAFF0000000000000000F9F900FF00000000000000000000000000000000FF00FAFF0000000000000000FFFA00FF000000
310
00000000000000000000000000FF00FAFF0000000000000000FDFDFDFD00000000000000000000000000000000FDFDFDFD000000000000000000FAFA000000000000000000000000000000000000FAFA00000000000000000000FA0000000000000000000000000000000000000000FA00000000000000000000FA00000000
310
00000000000000000000000000000000FA0000000000000000000000000000000000000000000000000000000000000000000000000000000000000000000000000000000000000000000000000000000000000000000000000000000000000000000000000000000000000000000000000000000000000000000000000000
310
00000000000000000000000000000000000000000000000000000000000000000000000000000000000000000000000000000000000000000000000000000000000000000000000000000000000000000000000000000000000000000000000000000000000000000000000000000000000000000000000000000000000000
310
0000000000000000000000000000000000000000000000000000000000000000000000000000000000000000000000000000000000000000
102
{BLKREFS
331
6C46
102
}
  0
BLOCK_RECORD
  5
6C47
330
1
100
AcDbSymbolTableRecord
100
AcDbBlockTableRecord
  2
LW 5015-19-01_b
340
0
310
2800000020000000200000000100080000000000000400000000000000000000000000000000000000000000000080000080000000808000800000008000800080800000C0C0C000C0DCC000F0CAA6000020400000206000002080000020A0000020C0000020E00000400000004020000040400000406000004080000040A0
310
000040C0000040E00000600000006020000060400000606000006080000060A0000060C0000060E00000800000008020000080400000806000008080000080A0000080C0000080E00000A0000000A0200000A0400000A0600000A0800000A0A00000A0C00000A0E00000C0000000C0200000C0400000C0600000C0800000C0
310
A00000C0C00000C0E00000E0000000E0200000E0400000E0600000E0800000E0A00000E0C00000E0E00040000000400020004000400040006000400080004000A0004000C0004000E00040200000402020004020400040206000402080004020A0004020C0004020E000404000004040200040404000404060004040800040
310
40A0004040C0004040E00040600000406020004060400040606000406080004060A0004060C0004060E00040800000408020004080400040806000408080004080A0004080C0004080E00040A0000040A0200040A0400040A0600040A0800040A0A00040A0C00040A0E00040C0000040C0200040C0400040C0600040C08000
310
40C0A00040C0C00040C0E00040E0000040E0200040E0400040E0600040E0800040E0A00040E0C00040E0E00080000000800020008000400080006000800080008000A0008000C0008000E00080200000802020008020400080206000802080008020A0008020C0008020E00080400000804020008040400080406000804080
310
008040A0008040C0008040E00080600000806020008060400080606000806080008060A0008060C0008060E00080800000808020008080400080806000808080008080A0008080C0008080E00080A0000080A0200080A0400080A0600080A0800080A0A00080A0C00080A0E00080C0000080C0200080C0400080C0600080C0
310
800080C0A00080C0C00080C0E00080E0000080E0200080E0400080E0600080E0800080E0A00080E0C00080E0E000C0000000C0002000C0004000C0006000C0008000C000A000C000C000C000E000C0200000C0202000C0204000C0206000C0208000C020A000C020C000C020E000C0400000C0402000C0404000C0406000C0
310
408000C040A000C040C000C040E000C0600000C0602000C0604000C0606000C0608000C060A000C060C000C060E000C0800000C0802000C0804000C0806000C0808000C080A000C080C000C080E000C0A00000C0A02000C0A04000C0A06000C0A08000C0A0A000C0A0C000C0A0E000C0C00000C0C02000C0C04000C0C06000
310
C0C08000C0C0A000F0FBFF00A4A0A000808080000000FF0000FF000000FFFF00FF000000FF00FF00FFFF0000FFFFFF0000000000000000000000000000000000000000000000000000000000000000000000000000000000000000000000000000000000000000000000000000000000000000000000000000000000000000
310
00000000000000000000000000000000000000000000000000000000000000000000000000000000000000000000000000000000000000000000000000000000000000000000000000000000000000000000000000000000000000000000000000000000000000000000000000000000000000000000000000000000000000
310
00000000000000000000000000000000000000000000000000000000000000000000000000000000000000000000000000000000000000000000000000000000000000000000000000000000000000000000000000000000000000000000000000000000000000000000000000000000000000000000000000000000000000
310
0000000000000000000000000000000000000000000000000000000000000000000000000000000000000000000000000000000000000000000000000000000000FFFFFAFF0000000000000000000000000000000000000000000000000000FFFFFFFFFAFFFFFF0000000000000000000000000000FFFFFFFAFFFFFFFFFFFF
310
FF00FFFFFAFF00FFFFFFFFFFFFFFFAFFFFFF00000000FF00FFFAFFFF000000FFFF00FFFA09FF00FFFF000000FFFFFAFF00FF000000FAFAFAFAFAFAFAFAFAFAFAFAFAFA0909FAFAFAFAF9F9FAFAFAFAFAFAFAFA000000FFFFFFFA00FFFFFFFFFFFF00FFFFFAFF00FFFFFFFFFFFF00FAFFFFFF00000000000000FAFF00000000
310
00FFFFFFFFFAFFFFFF0000000000FFFA00000000000000000000000000000000000000FFFFFAFF00000000000000000000000000000000000000000000000000000000000000000000000000000000000000000000000000000000000000000000000000000000000000000000000000000000000000000000000000000000
310
00000000000000000000000000000000000000000000000000000000000000000000000000000000000000000000000000000000000000000000000000000000000000000000000000000000000000000000000000000000000000000000000000000000000000000000000000000000000000000000000000000000000000
310
00000000000000000000000000000000000000000000000000000000000000000000000000000000000000000000000000000000000000000000000000000000000000000000000000000000000000000000000000000000000000000000000000000000000000000000000000000000000000000000000000000000000000
310
0000000000000000000000000000000000000000000000000000000000000000000000000000000000000000000000000000000000000000
102
{BLKREFS
331
6D6E
102
}
  0
BLOCK_RECORD
  5
6D6F
330
1
100
AcDbSymbolTableRecord
100
AcDbBlockTableRecord
  2
LW 5015-19-01_c
340
0
310
2800000020000000200000000100080000000000000400000000000000000000000000000000000000000000000080000080000000808000800000008000800080800000C0C0C000C0DCC000F0CAA6000020400000206000002080000020A0000020C0000020E00000400000004020000040400000406000004080000040A0
310
000040C0000040E00000600000006020000060400000606000006080000060A0000060C0000060E00000800000008020000080400000806000008080000080A0000080C0000080E00000A0000000A0200000A0400000A0600000A0800000A0A00000A0C00000A0E00000C0000000C0200000C0400000C0600000C0800000C0
310
A00000C0C00000C0E00000E0000000E0200000E0400000E0600000E0800000E0A00000E0C00000E0E00040000000400020004000400040006000400080004000A0004000C0004000E00040200000402020004020400040206000402080004020A0004020C0004020E000404000004040200040404000404060004040800040
310
40A0004040C0004040E00040600000406020004060400040606000406080004060A0004060C0004060E00040800000408020004080400040806000408080004080A0004080C0004080E00040A0000040A0200040A0400040A0600040A0800040A0A00040A0C00040A0E00040C0000040C0200040C0400040C0600040C08000
310
40C0A00040C0C00040C0E00040E0000040E0200040E0400040E0600040E0800040E0A00040E0C00040E0E00080000000800020008000400080006000800080008000A0008000C0008000E00080200000802020008020400080206000802080008020A0008020C0008020E00080400000804020008040400080406000804080
310
008040A0008040C0008040E00080600000806020008060400080606000806080008060A0008060C0008060E00080800000808020008080400080806000808080008080A0008080C0008080E00080A0000080A0200080A0400080A0600080A0800080A0A00080A0C00080A0E00080C0000080C0200080C0400080C0600080C0
310
800080C0A00080C0C00080C0E00080E0000080E0200080E0400080E0600080E0800080E0A00080E0C00080E0E000C0000000C0002000C0004000C0006000C0008000C000A000C000C000C000E000C0200000C0202000C0204000C0206000C0208000C020A000C020C000C020E000C0400000C0402000C0404000C0406000C0
310
408000C040A000C040C000C040E000C0600000C0602000C0604000C0606000C0608000C060A000C060C000C060E000C0800000C0802000C0804000C0806000C0808000C080A000C080C000C080E000C0A00000C0A02000C0A04000C0A06000C0A08000C0A0A000C0A0C000C0A0E000C0C00000C0C02000C0C04000C0C06000
310
C0C08000C0C0A000F0FBFF00A4A0A000808080000000FF0000FF000000FFFF00FF000000FF00FF00FFFF0000FFFFFF0000000000000000000000000000000000000000000000000000000000000000000000000000000000000000000000000000000000000000000000000000000000000000000000000000000000000000
310
00000000000000000000000000000000000000000000000000000000000000000000000000000000000000000000000000000000000000000000000000000000000000000000000000000000000000000000000000000000000000000000000000000000000000000000000000000000000000000000000000000000000000
310
000000000000000000000000000000000000000000000000000000000000000000000000000000000000000000000000000000000000000000000000000000000000000000FFFFFFFF0000000000000000000000000000000000000000000000000000FFFF00000000FFFA0000000000000000000000000000000000000000
310
0000FFFF00FFFFFAFFFFFDFAFF0000000000000000000000000000000000000000FF0000FF0000FA00FDFAFF00FF00000000000000000000000000000000000000FF00FF000000FA00FDFA00FF00FF00000000000000000000FFFFFFFFFFFFFFFFFFFFFFFFFFFFFAFFFAFFFFFFFFFF00000000000000000000FF0000000000
310
00FD00FD00FDFFFFFAFFFFFFFDFFFF00FF0000000000FAFAFAFAFF00000000000000FDFDFD00FF090909FAFFFAFAFAFAFAFAFA000000FFFF0000FF00000000FAFAFAFAFAFAFAFF090900FFFF00FFFF00FF00000000FAFAFAFAFAFAFAFAFAFAFAFAFAFAFAFAFAFAFAFAFAFAFAFAFAFAFAFAFA00000000FAFAFAFAFF00000000
310
000000FD00FDFDFFFFFAFFFFFFFDFF00FF00000000000000000000FF0000F9F9F9F90000FD00FDFDFFFFFFFFFA00FF00FF00000000000000000000FF0000F9F9F9F90000FD00FD00FDFAFDFDFAFDFFFF0000000000000000000000FFFFFFFFFFFFFFFFFFFFFFFFFFFFFAFFFFFFFAFFFF000000000000000000000000000000
310
000000000000FFFF000000000000FAFF000000000000000000000000000000000000000000000000FFFFFFFFFFFF000000000000000000000000000000000000000000000000000000000000000000000000000000000000000000000000000000000000000000000000000000000000000000000000000000000000000000
310
00000000000000000000000000000000000000000000000000000000000000000000000000000000000000000000000000000000000000000000000000000000000000000000000000000000000000000000000000000000000000000000000000000000000000000000000000000000000000000000000000000000000000
310
0000000000000000000000000000000000000000000000000000000000000000000000000000000000000000000000000000000000000000
102
{BLKREFS
331
6DE9
102
}
  0
BLOCK_RECORD
  5
6DEA
330
1
100
AcDbSymbolTableRecord
100
AcDbBlockTableRecord
  2
LW 5015-19-01_d
340
0
310
2800000020000000200000000100080000000000000400000000000000000000000000000000000000000000000080000080000000808000800000008000800080800000C0C0C000C0DCC000F0CAA6000020400000206000002080000020A0000020C0000020E00000400000004020000040400000406000004080000040A0
310
000040C0000040E00000600000006020000060400000606000006080000060A0000060C0000060E00000800000008020000080400000806000008080000080A0000080C0000080E00000A0000000A0200000A0400000A0600000A0800000A0A00000A0C00000A0E00000C0000000C0200000C0400000C0600000C0800000C0
310
A00000C0C00000C0E00000E0000000E0200000E0400000E0600000E0800000E0A00000E0C00000E0E00040000000400020004000400040006000400080004000A0004000C0004000E00040200000402020004020400040206000402080004020A0004020C0004020E000404000004040200040404000404060004040800040
310
40A0004040C0004040E00040600000406020004060400040606000406080004060A0004060C0004060E00040800000408020004080400040806000408080004080A0004080C0004080E00040A0000040A0200040A0400040A0600040A0800040A0A00040A0C00040A0E00040C0000040C0200040C0400040C0600040C08000
310
40C0A00040C0C00040C0E00040E0000040E0200040E0400040E0600040E0800040E0A00040E0C00040E0E00080000000800020008000400080006000800080008000A0008000C0008000E00080200000802020008020400080206000802080008020A0008020C0008020E00080400000804020008040400080406000804080
310
008040A0008040C0008040E00080600000806020008060400080606000806080008060A0008060C0008060E00080800000808020008080400080806000808080008080A0008080C0008080E00080A0000080A0200080A0400080A0600080A0800080A0A00080A0C00080A0E00080C0000080C0200080C0400080C0600080C0
310
800080C0A00080C0C00080C0E00080E0000080E0200080E0400080E0600080E0800080E0A00080E0C00080E0E000C0000000C0002000C0004000C0006000C0008000C000A000C000C000C000E000C0200000C0202000C0204000C0206000C0208000C020A000C020C000C020E000C0400000C0402000C0404000C0406000C0
310
408000C040A000C040C000C040E000C0600000C0602000C0604000C0606000C0608000C060A000C060C000C060E000C0800000C0802000C0804000C0806000C0808000C080A000C080C000C080E000C0A00000C0A02000C0A04000C0A06000C0A08000C0A0A000C0A0C000C0A0E000C0C00000C0C02000C0C04000C0C06000
310
C0C08000C0C0A000F0FBFF00A4A0A000808080000000FF0000FF000000FFFF00FF000000FF00FF00FFFF0000FFFFFF0000000000000000000000000000000000000000000000000000000000000000000000000000000000000000000000000000000000000000000000000000000000000000000000000000000000000000
310
00000000000000000000000000000000000000000000000000000000000000000000000000000000000000000000000000000000000000000000000000000000000000000000000000000000000000000000000000000000000000000000000000000000000000000000000000000000000000000000000000000000000000
310
0000000000000000000000000000000000000000000000000000000000000000000000000000000000000000000000000000000000000000000000FFFFFFFF0000000000000000000000000000000000000000000000000000FAFF00000000FFFF0000000000000000000000000000000000000000000000FF00FAFFFFFAFF
310
FF00FFFF0000000000000000000000000000000000000000FF00FFFAFD00FA0000FF0000FF000000000000000000000000000000000000FF00FF00FDFA00FA000000FF00FF000000000000000000000000000000000000FFFFFFFFFFFAFFFAFFFFFFFFFFFFFFFFFFFFFFFFFFFF00000000000000000000FFFFFFFDFFFFFFFA
310
FFFFFD00FD00FD000000000000FF00000000000000FAFAFAFAFAFAFAFFFAFAFA00FF00FDFD00FD000000000000FFFAFAFAFA0000000000FF00FFFF00FF0009FAFAFFFAFAFAFAFAFAFA00000000FF0000FFFF00000000FAFAFAFAFAFAFAFAFAFAFAFAFAFAFAFAFAFAFAFAFAFAFAFAFAFAFAFAFA0000000000FF00FFFDFFFFFF
310
FAFFFFFDFD00FD00000000000000FFFAFAFAFA000000000000FF00FF00FDFFFFFFFFFDFDFD00FD00F9F9F9F9F900FF0000000000000000000000FFFFFDFAFDFDFAFD00FD00FD0000F9F9F9F9F900FF0000000000000000000000FFFFFFFAFFFFFAFFFFFFFFFFFFFFFFFFFFFFFFFFFF000000000000000000000000FFFA0000
310
00000000FFFF000000000000000000000000000000000000000000000000FFFFFFFFFFFF00000000000000000000000000000000000000000000000000000000000000000000000000000000000000000000000000000000000000000000000000000000000000000000000000000000000000000000000000000000000000
310
00000000000000000000000000000000000000000000000000000000000000000000000000000000000000000000000000000000000000000000000000000000000000000000000000000000000000000000000000000000000000000000000000000000000000000000000000000000000000000000000000000000000000
310
0000000000000000000000000000000000000000000000000000000000000000000000000000000000000000000000000000000000000000
102
{BLKREFS
331
6ED7
102
}
  0
ENDTAB
  0
ENDSEC
  0
SECTION
  2
BLOCKS
  0
BLOCK
  5
24
330
23
100
AcDbEntity
  8
0
100
AcDbBlockBegin
  2
*Model_Space
 70
     0
 10
0.0
 20
0.0
 30
0.0
  3
*Model_Space
  1

  0
ENDBLK
  5
25
330
23
100
AcDbEntity
  8
0
100
AcDbBlockEnd
  0
BLOCK
  5
20
330
1F
100
AcDbEntity
 67
     1
  8
0
100
AcDbBlockBegin
  2
*Paper_Space
 70
     0
 10
0.0
 20
0.0
 30
0.0
  3
*Paper_Space
  1

  0
ENDBLK
  5
21
330
1F
100
AcDbEntity
 67
     1
  8
0
100
AcDbBlockEnd
  0
BLOCK
  5
28
330
27
100
AcDbEntity
 67
     1
  8
0
100
AcDbBlockBegin
  2
*Paper_Space0
 70
     0
 10
0.0
 20
0.0
 30
0.0
  3
*Paper_Space0
  1

  0
ENDBLK
  5
29
330
27
100
AcDbEntity
 67
     1
  8
0
100
AcDbBlockEnd
  0
BLOCK
  5
1071
330
106E
100
AcDbEntity
  8
0
100
AcDbBlockBegin
  2
insertpoint-ECKELT
 70
     2
 10
0.0
 20
0.0
 30
0.0
  3
insertpoint-ECKELT
  1

  0
ATTDEF
  5
1072
330
106E
100
AcDbEntity
  8
insertpoint_ECKELT
100
AcDbText
 10
-2.457298772169167
 20
-0.0000000000000284
 30
0.0
 40
0.6
  1
LW
 72
     2
 11
-1.199999999999999
 21
-0.0000000000000284
 31
0.0
100
AcDbAttributeDefinition
  3
Nr. links
  2
LINKS
 70
     0
  0
ATTDEF
  5
1073
330
106E
100
AcDbEntity
  8
insertpoint_ECKELT
100
AcDbText
 10
1.199999999999999
 20
-0.0000000000000284
 30
0.0
 40
0.6
  1
LW
100
AcDbAttributeDefinition
  3
Nr. rechts
  2
RECHTS
 70
     0
  0
LINE
  5
1074
102
{ACAD_REACTORS
330
1077
102
}
330
106E
100
AcDbEntity
  8
insertpoint_ECKELT
100
AcDbLine
 10
0.0
 20
1.799999999999997
 30
0.0
 11
0.0
 21
-1.799999999999997
 31
0.0
  0
LINE
  5
1075
102
{ACAD_REACTORS
330
1077
102
}
330
106E
100
AcDbEntity
  8
insertpoint_ECKELT
100
AcDbLine
 10
-1.8
 20
-0.0000000000000284
 30
0.0
 11
1.8
 21
-0.0000000000000284
 31
0.0
  0
CIRCLE
  5
1076
102
{ACAD_REACTORS
330
1077
102
}
330
106E
100
AcDbEntity
  8
insertpoint_ECKELT
100
AcDbCircle
 10
0.0
 20
0.0
 30
0.0
 40
1.199999999999999
  0
HATCH
  5
1077
330
106E
100
AcDbEntity
  8
insertpoint_ECKELT
100
AcDbHatch
 10
0.0
 20
0.0
 30
0.0
210
0.0
220
0.0
230
1.0
  2
SOLID
 70
     1
 71
     1
 91
        2
 92
        7
 72
     1
 73
     1
 93
        3
 10
0.0
 20
-0.0000000000000284
 42
0.0
 10
0.0
 20
1.200000000000002
 42
0.4142135623731013
 10
-1.199999999999999
 20
-0.0000000000000284
 42
0.0
 97
        3
330
1076
330
1075
330
1074
 92
        7
 72
     1
 73
     1
 93
        3
 10
1.199999999999999
 20
-0.0000000000000284
 42
0.0
 10
0.0
 20
-0.0000000000000284
 42
0.0
 10
0.0
 20
-1.200000000000002
 42
0.4142135623730888
 97
        3
330
1075
330
1074
330
1076
 75
     0
 76
     1
 47
0.0223086566480813
 98
        2
 10
-0.3163651093721391
 20
0.271413292077348
 10
0.7415965996738798
 20
-0.4513871917946233
450
        0
451
        0
460
0.0
461
0.0
452
        0
462
0.0
453
        0
470

  0
ENDBLK
  5
1078
330
106E
100
AcDbEntity
  8
0
100
AcDbBlockEnd
  0
BLOCK
  5
6A46
330
6A45
100
AcDbEntity
  8
0
100
AcDbBlockBegin
  2
LW 5015-19-01_a
 70
     0
 10
0.0
 20
0.0
 30
0.0
  3
LW 5015-19-01_a
  1

  0
ELLIPSE
  5
6A48
330
6A45
100
AcDbEntity
  8
LW 5015-19-01
100
AcDbEllipse
 10
29.50000000000023
 20
-9.499999999999943
 30
0.0
 11
-2.499999999999999
 21
0.0000000000002166
 31
0.0
210
0.0
220
0.0
230
1.0
 40
0.8660254037844381
 41
0.7560039322268093
 42
2.385588721363194
  0
POLYLINE
  5
6A49
330
6A45
100
AcDbEntity
  8
LW 5015-19-01
100
AcDb2dPolyline
 66
     1
 10
0.0
 20
0.0
 30
0.0
 70
   128
  0
VERTEX
  5
6A4A
330
6A49
100
AcDbEntity
  8
LW 5015-19-01
100
AcDbVertex
100
AcDb2dVertex
 10
32.00000000000023
 20
-12.49999999999994
 30
0.0
  0
VERTEX
  5
6A4B
330
6A49
100
AcDbEntity
  8
LW 5015-19-01
100
AcDbVertex
100
AcDb2dVertex
 10
31.97898697853111
 20
-12.77545213699335
 30
0.0
  0
VERTEX
  5
6A4C
330
6A49
100
AcDbEntity
  8
LW 5015-19-01
100
AcDbVertex
100
AcDb2dVertex
 10
31.91565704345726
 20
-13.05167794227594
 30
0.0
  0
VERTEX
  5
6A4D
330
6A49
100
AcDbEntity
  8
LW 5015-19-01
100
AcDbVertex
100
AcDb2dVertex
 10
31.8095774650576
 20
-13.31962585449213
 30
0.0
  0
VERTEX
  5
6A4E
330
6A49
100
AcDbEntity
  8
LW 5015-19-01
100
AcDbVertex
100
AcDb2dVertex
 10
31.66169476509117
 20
-13.5708856582641
 30
0.0
  0
VERTEX
  5
6A4F
330
6A49
100
AcDbEntity
  8
LW 5015-19-01
100
AcDbVertex
100
AcDb2dVertex
 10
31.47847723960899
 20
-13.79940271377558
 30
0.0
  0
VERTEX
  5
6A50
330
6A49
100
AcDbEntity
  8
LW 5015-19-01
100
AcDbVertex
100
AcDb2dVertex
 10
31.26776528358482
 20
-13.99964332580561
 30
0.0
  0
VERTEX
  5
6A51
330
6A49
100
AcDbEntity
  8
LW 5015-19-01
100
AcDbVertex
100
AcDb2dVertex
 10
31.0274000167849
 20
-14.17419910430902
 30
0.0
  0
VERTEX
  5
6A52
330
6A49
100
AcDbEntity
  8
LW 5015-19-01
100
AcDbVertex
100
AcDb2dVertex
 10
30.75476121902489
 20
-14.32525992393488
 30
0.0
  0
VERTEX
  5
6A53
330
6A49
100
AcDbEntity
  8
LW 5015-19-01
100
AcDbVertex
100
AcDb2dVertex
 10
30.45699787139915
 20
-14.44669842720026
 30
0.0
  0
VERTEX
  5
6A54
330
6A49
100
AcDbEntity
  8
LW 5015-19-01
100
AcDbVertex
100
AcDb2dVertex
 10
30.1418311595919
 20
-14.53354954719538
 30
0.0
  0
VERTEX
  5
6A55
330
6A49
100
AcDbEntity
  8
LW 5015-19-01
100
AcDbVertex
100
AcDb2dVertex
 10
29.81929254531883
 20
-14.58527922630304
 30
0.0
  0
VERTEX
  5
6A56
330
6A49
100
AcDbEntity
  8
LW 5015-19-01
100
AcDbVertex
100
AcDb2dVertex
 10
29.50000000000023
 20
-14.6024060249328
 30
0.0
  0
VERTEX
  5
6A57
330
6A49
100
AcDbEntity
  8
LW 5015-19-01
100
AcDbVertex
100
AcDb2dVertex
 10
29.18070745468162
 20
-14.58527922630304
 30
0.0
  0
VERTEX
  5
6A58
330
6A49
100
AcDbEntity
  8
LW 5015-19-01
100
AcDbVertex
100
AcDb2dVertex
 10
28.85816884040855
 20
-14.53354954719538
 30
0.0
  0
VERTEX
  5
6A59
330
6A49
100
AcDbEntity
  8
LW 5015-19-01
100
AcDbVertex
100
AcDb2dVertex
 10
28.5430021286013
 20
-14.44669842720026
 30
0.0
  0
VERTEX
  5
6A5A
330
6A49
100
AcDbEntity
  8
LW 5015-19-01
100
AcDbVertex
100
AcDb2dVertex
 10
28.24523878097557
 20
-14.32525992393488
 30
0.0
  0
VERTEX
  5
6A5B
330
6A49
100
AcDbEntity
  8
LW 5015-19-01
100
AcDbVertex
100
AcDb2dVertex
 10
27.97259998321556
 20
-14.17419910430902
 30
0.0
  0
VERTEX
  5
6A5C
330
6A49
100
AcDbEntity
  8
LW 5015-19-01
100
AcDbVertex
100
AcDb2dVertex
 10
27.73223471641563
 20
-13.99964332580561
 30
0.0
  0
VERTEX
  5
6A5D
330
6A49
100
AcDbEntity
  8
LW 5015-19-01
100
AcDbVertex
100
AcDb2dVertex
 10
27.52152276039146
 20
-13.79940271377558
 30
0.0
  0
VERTEX
  5
6A5E
330
6A49
100
AcDbEntity
  8
LW 5015-19-01
100
AcDbVertex
100
AcDb2dVertex
 10
27.33830523490929
 20
-13.5708856582641
 30
0.0
  0
VERTEX
  5
6A5F
330
6A49
100
AcDbEntity
  8
LW 5015-19-01
100
AcDbVertex
100
AcDb2dVertex
 10
27.19042253494285
 20
-13.31962585449213
 30
0.0
  0
VERTEX
  5
6A60
330
6A49
100
AcDbEntity
  8
LW 5015-19-01
100
AcDbVertex
100
AcDb2dVertex
 10
27.0843429565432
 20
-13.05167794227594
 30
0.0
  0
VERTEX
  5
6A61
330
6A49
100
AcDbEntity
  8
LW 5015-19-01
100
AcDbVertex
100
AcDb2dVertex
 10
27.02101302146934
 20
-12.77545213699335
 30
0.0
  0
VERTEX
  5
6A62
330
6A49
100
AcDbEntity
  8
LW 5015-19-01
100
AcDbVertex
100
AcDb2dVertex
 10
27.00000000000023
 20
-12.49999999999994
 30
0.0
  0
SEQEND
  5
6A63
330
6A49
100
AcDbEntity
  8
LW 5015-19-01
  0
POLYLINE
  5
6A64
330
6A45
100
AcDbEntity
  8
LW 5015-19-01
100
AcDb2dPolyline
 66
     1
 10
0.0
 20
0.0
 30
0.0
 70
   128
  0
VERTEX
  5
6A65
330
6A64
100
AcDbEntity
  8
LW 5015-19-01
100
AcDbVertex
100
AcDb2dVertex
 10
27.00000000000023
 20
-12.49999999999994
 30
0.0
  0
VERTEX
  5
6A66
330
6A64
100
AcDbEntity
  8
LW 5015-19-01
100
AcDbVertex
100
AcDb2dVertex
 10
27.02101302146934
 20
-12.22241878509516
 30
0.0
  0
VERTEX
  5
6A67
330
6A64
100
AcDbEntity
  8
LW 5015-19-01
100
AcDbVertex
100
AcDb2dVertex
 10
27.0843429565432
 20
-11.93999171257013
 30
0.0
  0
VERTEX
  5
6A68
330
6A64
100
AcDbEntity
  8
LW 5015-19-01
100
AcDbVertex
100
AcDb2dVertex
 10
27.19042253494285
 20
-11.6620504856109
 30
0.0
  0
VERTEX
  5
6A69
330
6A64
100
AcDbEntity
  8
LW 5015-19-01
100
AcDbVertex
100
AcDb2dVertex
 10
27.33830523490929
 20
-11.39756798744196
 30
0.0
  0
VERTEX
  5
6A6A
330
6A64
100
AcDbEntity
  8
LW 5015-19-01
100
AcDbVertex
100
AcDb2dVertex
 10
27.52152276039146
 20
-11.15386009216303
 30
0.0
  0
VERTEX
  5
6A6B
330
6A64
100
AcDbEntity
  8
LW 5015-19-01
100
AcDbVertex
100
AcDb2dVertex
 10
27.73223471641563
 20
-10.9377777576446
 30
0.0
  0
VERTEX
  5
6A6C
330
6A64
100
AcDbEntity
  8
LW 5015-19-01
100
AcDbVertex
100
AcDb2dVertex
 10
27.97259998321556
 20
-10.74736952781671
 30
0.0
  0
VERTEX
  5
6A6D
330
6A64
100
AcDbEntity
  8
LW 5015-19-01
100
AcDbVertex
100
AcDb2dVertex
 10
28.24523878097557
 20
-10.58108925819391
 30
0.0
  0
VERTEX
  5
6A6E
330
6A64
100
AcDbEntity
  8
LW 5015-19-01
100
AcDbVertex
100
AcDb2dVertex
 10
28.5430021286013
 20
-10.4463899135589
 30
0.0
  0
VERTEX
  5
6A6F
330
6A64
100
AcDbEntity
  8
LW 5015-19-01
100
AcDbVertex
100
AcDb2dVertex
 10
28.85816884040855
 20
-10.34950613975519
 30
0.0
  0
VERTEX
  5
6A70
330
6A64
100
AcDbEntity
  8
LW 5015-19-01
100
AcDbVertex
100
AcDb2dVertex
 10
29.18070745468162
 20
-10.2915477752685
 30
0.0
  0
VERTEX
  5
6A71
330
6A64
100
AcDbEntity
  8
LW 5015-19-01
100
AcDbVertex
100
AcDb2dVertex
 10
29.50000000000023
 20
-10.2722799777984
 30
0.0
  0
VERTEX
  5
6A72
330
6A64
100
AcDbEntity
  8
LW 5015-19-01
100
AcDbVertex
100
AcDb2dVertex
 10
29.81929254531883
 20
-10.2915477752685
 30
0.0
  0
VERTEX
  5
6A73
330
6A64
100
AcDbEntity
  8
LW 5015-19-01
100
AcDbVertex
100
AcDb2dVertex
 10
30.1418311595919
 20
-10.34950613975519
 30
0.0
  0
VERTEX
  5
6A74
330
6A64
100
AcDbEntity
  8
LW 5015-19-01
100
AcDbVertex
100
AcDb2dVertex
 10
30.45699787139915
 20
-10.4463899135589
 30
0.0
  0
VERTEX
  5
6A75
330
6A64
100
AcDbEntity
  8
LW 5015-19-01
100
AcDbVertex
100
AcDb2dVertex
 10
30.75476121902489
 20
-10.58108925819391
 30
0.0
  0
VERTEX
  5
6A76
330
6A64
100
AcDbEntity
  8
LW 5015-19-01
100
AcDbVertex
100
AcDb2dVertex
 10
31.0274000167849
 20
-10.74736952781671
 30
0.0
  0
VERTEX
  5
6A77
330
6A64
100
AcDbEntity
  8
LW 5015-19-01
100
AcDbVertex
100
AcDb2dVertex
 10
31.26776528358482
 20
-10.9377777576446
 30
0.0
  0
VERTEX
  5
6A78
330
6A64
100
AcDbEntity
  8
LW 5015-19-01
100
AcDbVertex
100
AcDb2dVertex
 10
31.47847723960899
 20
-11.15386009216303
 30
0.0
  0
VERTEX
  5
6A79
330
6A64
100
AcDbEntity
  8
LW 5015-19-01
100
AcDbVertex
100
AcDb2dVertex
 10
31.66169476509117
 20
-11.39756798744196
 30
0.0
  0
VERTEX
  5
6A7A
330
6A64
100
AcDbEntity
  8
LW 5015-19-01
100
AcDbVertex
100
AcDb2dVertex
 10
31.8095774650576
 20
-11.6620504856109
 30
0.0
  0
VERTEX
  5
6A7B
330
6A64
100
AcDbEntity
  8
LW 5015-19-01
100
AcDbVertex
100
AcDb2dVertex
 10
31.91565704345726
 20
-11.93999171257013
 30
0.0
  0
VERTEX
  5
6A7C
330
6A64
100
AcDbEntity
  8
LW 5015-19-01
100
AcDbVertex
100
AcDb2dVertex
 10
31.97898697853111
 20
-12.22241878509516
 30
0.0
  0
VERTEX
  5
6A7D
330
6A64
100
AcDbEntity
  8
LW 5015-19-01
100
AcDbVertex
100
AcDb2dVertex
 10
32.00000000000023
 20
-12.49999999999994
 30
0.0
  0
SEQEND
  5
6A7E
330
6A64
100
AcDbEntity
  8
LW 5015-19-01
  0
POLYLINE
  5
6A7F
330
6A45
100
AcDbEntity
  8
LW 5015-19-01
100
AcDb2dPolyline
 66
     1
 10
0.0
 20
0.0
 30
0.0
 70
   128
  0
VERTEX
  5
6A80
330
6A7F
100
AcDbEntity
  8
LW 5015-19-01
100
AcDbVertex
100
AcDb2dVertex
 10
32.00000000000023
 20
25.00000000000011
 30
0.0
  0
VERTEX
  5
6A81
330
6A7F
100
AcDbEntity
  8
LW 5015-19-01
100
AcDbVertex
100
AcDb2dVertex
 10
31.97898697853111
 20
24.99787092208874
 30
0.0
  0
VERTEX
  5
6A82
330
6A7F
100
AcDbEntity
  8
LW 5015-19-01
100
AcDbVertex
100
AcDb2dVertex
 10
31.91565704345726
 20
24.99166965484631
 30
0.0
  0
VERTEX
  5
6A83
330
6A7F
100
AcDbEntity
  8
LW 5015-19-01
100
AcDbVertex
100
AcDb2dVertex
 10
31.8095774650576
 20
24.98167514801037
 30
0.0
  0
VERTEX
  5
6A84
330
6A7F
100
AcDbEntity
  8
LW 5015-19-01
100
AcDbVertex
100
AcDb2dVertex
 10
31.66169476509117
 20
24.96845483779919
 30
0.0
  0
VERTEX
  5
6A85
330
6A7F
100
AcDbEntity
  8
LW 5015-19-01
100
AcDbVertex
100
AcDb2dVertex
 10
31.47847723960899
 20
24.95326280593884
 30
0.0
  0
VERTEX
  5
6A86
330
6A7F
100
AcDbEntity
  8
LW 5015-19-01
100
AcDbVertex
100
AcDb2dVertex
 10
31.26776528358482
 20
24.93742227554333
 30
0.0
  0
VERTEX
  5
6A87
330
6A7F
100
AcDbEntity
  8
LW 5015-19-01
100
AcDbVertex
100
AcDb2dVertex
 10
31.0274000167849
 20
24.92156982421886
 30
0.0
  0
VERTEX
  5
6A88
330
6A7F
100
AcDbEntity
  8
LW 5015-19-01
100
AcDbVertex
100
AcDb2dVertex
 10
30.75476121902489
 20
24.90634918212902
 30
0.0
  0
VERTEX
  5
6A89
330
6A7F
100
AcDbEntity
  8
LW 5015-19-01
100
AcDbVertex
100
AcDb2dVertex
 10
30.45699787139915
 20
24.89308834075939
 30
0.0
  0
VERTEX
  5
6A8A
330
6A7F
100
AcDbEntity
  8
LW 5015-19-01
100
AcDbVertex
100
AcDb2dVertex
 10
30.1418311595919
 20
24.8830556869508
 30
0.0
  0
VERTEX
  5
6A8B
330
6A7F
100
AcDbEntity
  8
LW 5015-19-01
100
AcDbVertex
100
AcDb2dVertex
 10
29.81929254531883
 20
24.87682580947887
 30
0.0
  0
VERTEX
  5
6A8C
330
6A7F
100
AcDbEntity
  8
LW 5015-19-01
100
AcDbVertex
100
AcDb2dVertex
 10
29.50000000000023
 20
24.87468481063854
 30
0.0
  0
VERTEX
  5
6A8D
330
6A7F
100
AcDbEntity
  8
LW 5015-19-01
100
AcDbVertex
100
AcDb2dVertex
 10
29.18070745468162
 20
24.87682580947887
 30
0.0
  0
VERTEX
  5
6A8E
330
6A7F
100
AcDbEntity
  8
LW 5015-19-01
100
AcDbVertex
100
AcDb2dVertex
 10
28.85816884040855
 20
24.8830556869508
 30
0.0
  0
VERTEX
  5
6A8F
330
6A7F
100
AcDbEntity
  8
LW 5015-19-01
100
AcDbVertex
100
AcDb2dVertex
 10
28.5430021286013
 20
24.89308834075939
 30
0.0
  0
VERTEX
  5
6A90
330
6A7F
100
AcDbEntity
  8
LW 5015-19-01
100
AcDbVertex
100
AcDb2dVertex
 10
28.24523878097557
 20
24.90634918212902
 30
0.0
  0
VERTEX
  5
6A91
330
6A7F
100
AcDbEntity
  8
LW 5015-19-01
100
AcDbVertex
100
AcDb2dVertex
 10
27.97259998321556
 20
24.92156982421886
 30
0.0
  0
VERTEX
  5
6A92
330
6A7F
100
AcDbEntity
  8
LW 5015-19-01
100
AcDbVertex
100
AcDb2dVertex
 10
27.73223471641563
 20
24.93742227554333
 30
0.0
  0
VERTEX
  5
6A93
330
6A7F
100
AcDbEntity
  8
LW 5015-19-01
100
AcDbVertex
100
AcDb2dVertex
 10
27.52152276039146
 20
24.95326280593884
 30
0.0
  0
VERTEX
  5
6A94
330
6A7F
100
AcDbEntity
  8
LW 5015-19-01
100
AcDbVertex
100
AcDb2dVertex
 10
27.33830523490929
 20
24.96845483779919
 30
0.0
  0
VERTEX
  5
6A95
330
6A7F
100
AcDbEntity
  8
LW 5015-19-01
100
AcDbVertex
100
AcDb2dVertex
 10
27.19042253494285
 20
24.98167514801037
 30
0.0
  0
VERTEX
  5
6A96
330
6A7F
100
AcDbEntity
  8
LW 5015-19-01
100
AcDbVertex
100
AcDb2dVertex
 10
27.0843429565432
 20
24.99166965484631
 30
0.0
  0
VERTEX
  5
6A97
330
6A7F
100
AcDbEntity
  8
LW 5015-19-01
100
AcDbVertex
100
AcDb2dVertex
 10
27.02101302146934
 20
24.99787092208874
 30
0.0
  0
VERTEX
  5
6A98
330
6A7F
100
AcDbEntity
  8
LW 5015-19-01
100
AcDbVertex
100
AcDb2dVertex
 10
27.00000000000023
 20
25.00000000000011
 30
0.0
  0
SEQEND
  5
6A99
330
6A7F
100
AcDbEntity
  8
LW 5015-19-01
  0
LINE
  5
6A9A
330
6A45
100
AcDbEntity
  8
LW 5015-19-01
100
AcDbLine
 10
33.50000000000023
 20
-24.99999999999995
 30
0.0
 11
33.50000000000023
 21
25.00000000000011
 31
0.0
  0
LINE
  5
6A9B
330
6A45
100
AcDbEntity
  8
LW 5015-19-01
100
AcDbLine
 10
39.50000000000023
 20
-18.99999999999989
 30
0.0
 11
39.50000000000023
 21
19.00000000000005
 31
0.0
  0
LINE
  5
6A9C
330
6A45
100
AcDbEntity
  8
LW 5015-19-01
100
AcDbLine
 10
133.5000000000002
 20
-9.999999999999943
 30
0.0
 11
133.5000000000002
 21
10.00000000000011
 31
0.0
  0
LINE
  5
6A9D
330
6A45
100
AcDbEntity
  8
LW 5015-19-01
100
AcDbLine
 10
134.5000000000002
 20
-8.999999999999943
 30
0.0
 11
134.5000000000002
 21
9.000000000000113
 31
0.0
  0
LINE
  5
6A9E
330
6A45
100
AcDbEntity
  8
LW 5015-19-01
100
AcDbLine
 10
14.50000000000023
 20
25.00000000000011
 30
0.0
 11
27.00000000000023
 21
25.00000000000011
 31
0.0
  0
LINE
  5
6A9F
330
6A45
100
AcDbEntity
  8
LW 5015-19-01
100
AcDbLine
 10
32.00000000000023
 20
25.00000000000011
 30
0.0
 11
33.50000000000023
 21
25.00000000000011
 31
0.0
  0
LINE
  5
6AA0
330
6A45
100
AcDbEntity
  8
LW 5015-19-01
100
AcDbLine
 10
14.50000000000023
 20
-24.99999999999995
 30
0.0
 11
33.50000000000023
 21
-24.99999999999995
 31
0.0
  0
LINE
  5
6AA1
330
6A45
100
AcDbEntity
  8
LW 5015-19-01
100
AcDbLine
 10
39.50000000000023
 20
-18.99999999999989
 30
0.0
 11
33.50000000000023
 21
-24.99999999999995
 31
0.0
  0
LINE
  5
6AA2
330
6A45
100
AcDbEntity
  8
LW 5015-19-01
100
AcDbLine
 10
39.50000000000023
 20
19.00000000000005
 30
0.0
 11
33.50000000000023
 21
25.00000000000011
 31
0.0
  0
ARC
  5
6AA3
330
6A45
100
AcDbEntity
  8
LW 5015-19-01
100
AcDbCircle
 10
40.50000000000022
 20
-10.99999999999988
 30
0.0
 40
1.000000000000001
100
AcDbArc
 50
90.0
 51
180.0
  0
ARC
  5
6AA4
330
6A45
100
AcDbEntity
  8
LW 5015-19-01
100
AcDbCircle
 10
40.50000000000022
 20
11.00000000000011
 30
0.0
 40
1.000000000000001
100
AcDbArc
 50
180.0
 51
270.0
  0
LINE
  5
6AA5
330
6A45
100
AcDbEntity
  8
LW 5015-19-01
100
AcDbLine
 10
40.50000000000022
 20
10.00000000000011
 30
0.0
 11
82.10435004493524
 21
10.00000000000011
 31
0.0
  0
LINE
  5
6AA6
330
6A45
100
AcDbEntity
  8
LW 5015-19-01
100
AcDbLine
 10
116.8956499550653
 20
10.00000000000011
 30
0.0
 11
133.5000000000002
 21
10.00000000000011
 31
0.0
  0
LINE
  5
6AA7
330
6A45
100
AcDbEntity
  8
LW 5015-19-01
100
AcDbLine
 10
40.50000000000022
 20
-9.999999999999943
 30
0.0
 11
82.1043500449344
 21
-9.999999999999941
 31
0.0
  0
LINE
  5
6AA8
330
6A45
100
AcDbEntity
  8
LW 5015-19-01
100
AcDbLine
 10
116.8956499550661
 20
-9.999999999999943
 30
0.0
 11
133.5000000000002
 21
-9.999999999999943
 31
0.0
  0
LINE
  5
6AA9
330
6A45
100
AcDbEntity
  8
LW 5015-19-01
100
AcDbLine
 10
134.5000000000002
 20
-8.999999999999886
 30
0.0
 11
133.5000000000002
 21
-9.999999999999943
 31
0.0
  0
LINE
  5
6AAA
330
6A45
100
AcDbEntity
  8
LW 5015-19-01
100
AcDbLine
 10
134.5000000000002
 20
9.000000000000113
 30
0.0
 11
133.5000000000002
 21
10.00000000000011
 31
0.0
  0
ELLIPSE
  5
6AAB
330
6A45
100
AcDbEntity
  8
LW 5015-19-01
100
AcDbEllipse
 10
-29.49999999999977
 20
-9.499999999999943
 30
0.0
 11
-2.499999999999998
 21
0.0000000000002311
 31
0.0
210
0.0
220
0.0
230
1.0
 40
0.866025403784439
 41
0.7560039322268258
 42
2.385588721363201
  0
POLYLINE
  5
6AAC
330
6A45
100
AcDbEntity
  8
LW 5015-19-01
100
AcDb2dPolyline
 66
     1
 10
0.0
 20
0.0
 30
0.0
 70
   128
  0
VERTEX
  5
6AAD
330
6AAC
100
AcDbEntity
  8
LW 5015-19-01
100
AcDbVertex
100
AcDb2dVertex
 10
-31.99999999999977
 20
-12.49999999999994
 30
0.0
  0
VERTEX
  5
6AAE
330
6AAC
100
AcDbEntity
  8
LW 5015-19-01
100
AcDbVertex
100
AcDb2dVertex
 10
-31.97898697853066
 20
-12.22241878509516
 30
0.0
  0
VERTEX
  5
6AAF
330
6AAC
100
AcDbEntity
  8
LW 5015-19-01
100
AcDbVertex
100
AcDb2dVertex
 10
-31.91565704345681
 20
-11.93999171257013
 30
0.0
  0
VERTEX
  5
6AB0
330
6AAC
100
AcDbEntity
  8
LW 5015-19-01
100
AcDbVertex
100
AcDb2dVertex
 10
-31.80957746505715
 20
-11.6620504856109
 30
0.0
  0
VERTEX
  5
6AB1
330
6AAC
100
AcDbEntity
  8
LW 5015-19-01
100
AcDbVertex
100
AcDb2dVertex
 10
-31.66169476509072
 20
-11.39756798744196
 30
0.0
  0
VERTEX
  5
6AB2
330
6AAC
100
AcDbEntity
  8
LW 5015-19-01
100
AcDbVertex
100
AcDb2dVertex
 10
-31.47847723960854
 20
-11.15386009216303
 30
0.0
  0
VERTEX
  5
6AB3
330
6AAC
100
AcDbEntity
  8
LW 5015-19-01
100
AcDbVertex
100
AcDb2dVertex
 10
-31.26776528358437
 20
-10.9377777576446
 30
0.0
  0
VERTEX
  5
6AB4
330
6AAC
100
AcDbEntity
  8
LW 5015-19-01
100
AcDbVertex
100
AcDb2dVertex
 10
-31.02740001678444
 20
-10.74736952781671
 30
0.0
  0
VERTEX
  5
6AB5
330
6AAC
100
AcDbEntity
  8
LW 5015-19-01
100
AcDbVertex
100
AcDb2dVertex
 10
-30.75476121902443
 20
-10.58108925819391
 30
0.0
  0
VERTEX
  5
6AB6
330
6AAC
100
AcDbEntity
  8
LW 5015-19-01
100
AcDbVertex
100
AcDb2dVertex
 10
-30.4569978713987
 20
-10.4463899135589
 30
0.0
  0
VERTEX
  5
6AB7
330
6AAC
100
AcDbEntity
  8
LW 5015-19-01
100
AcDbVertex
100
AcDb2dVertex
 10
-30.14183115959145
 20
-10.34950613975519
 30
0.0
  0
VERTEX
  5
6AB8
330
6AAC
100
AcDbEntity
  8
LW 5015-19-01
100
AcDbVertex
100
AcDb2dVertex
 10
-29.81929254531838
 20
-10.2915477752685
 30
0.0
  0
VERTEX
  5
6AB9
330
6AAC
100
AcDbEntity
  8
LW 5015-19-01
100
AcDbVertex
100
AcDb2dVertex
 10
-29.49999999999977
 20
-10.2722799777984
 30
0.0
  0
VERTEX
  5
6ABA
330
6AAC
100
AcDbEntity
  8
LW 5015-19-01
100
AcDbVertex
100
AcDb2dVertex
 10
-29.18070745468117
 20
-10.2915477752685
 30
0.0
  0
VERTEX
  5
6ABB
330
6AAC
100
AcDbEntity
  8
LW 5015-19-01
100
AcDbVertex
100
AcDb2dVertex
 10
-28.8581688404081
 20
-10.34950613975519
 30
0.0
  0
VERTEX
  5
6ABC
330
6AAC
100
AcDbEntity
  8
LW 5015-19-01
100
AcDbVertex
100
AcDb2dVertex
 10
-28.54300212860085
 20
-10.4463899135589
 30
0.0
  0
VERTEX
  5
6ABD
330
6AAC
100
AcDbEntity
  8
LW 5015-19-01
100
AcDbVertex
100
AcDb2dVertex
 10
-28.24523878097512
 20
-10.58108925819391
 30
0.0
  0
VERTEX
  5
6ABE
330
6AAC
100
AcDbEntity
  8
LW 5015-19-01
100
AcDbVertex
100
AcDb2dVertex
 10
-27.97259998321511
 20
-10.74736952781671
 30
0.0
  0
VERTEX
  5
6ABF
330
6AAC
100
AcDbEntity
  8
LW 5015-19-01
100
AcDbVertex
100
AcDb2dVertex
 10
-27.73223471641518
 20
-10.9377777576446
 30
0.0
  0
VERTEX
  5
6AC0
330
6AAC
100
AcDbEntity
  8
LW 5015-19-01
100
AcDbVertex
100
AcDb2dVertex
 10
-27.52152276039101
 20
-11.15386009216303
 30
0.0
  0
VERTEX
  5
6AC1
330
6AAC
100
AcDbEntity
  8
LW 5015-19-01
100
AcDbVertex
100
AcDb2dVertex
 10
-27.33830523490883
 20
-11.39756798744196
 30
0.0
  0
VERTEX
  5
6AC2
330
6AAC
100
AcDbEntity
  8
LW 5015-19-01
100
AcDbVertex
100
AcDb2dVertex
 10
-27.1904225349424
 20
-11.6620504856109
 30
0.0
  0
VERTEX
  5
6AC3
330
6AAC
100
AcDbEntity
  8
LW 5015-19-01
100
AcDbVertex
100
AcDb2dVertex
 10
-27.08434295654274
 20
-11.93999171257013
 30
0.0
  0
VERTEX
  5
6AC4
330
6AAC
100
AcDbEntity
  8
LW 5015-19-01
100
AcDbVertex
100
AcDb2dVertex
 10
-27.02101302146889
 20
-12.22241878509516
 30
0.0
  0
VERTEX
  5
6AC5
330
6AAC
100
AcDbEntity
  8
LW 5015-19-01
100
AcDbVertex
100
AcDb2dVertex
 10
-26.99999999999977
 20
-12.49999999999994
 30
0.0
  0
SEQEND
  5
6AC6
330
6AAC
100
AcDbEntity
  8
LW 5015-19-01
  0
POLYLINE
  5
6AC7
330
6A45
100
AcDbEntity
  8
LW 5015-19-01
100
AcDb2dPolyline
 66
     1
 10
0.0
 20
0.0
 30
0.0
 70
   128
  0
VERTEX
  5
6AC8
330
6AC7
100
AcDbEntity
  8
LW 5015-19-01
100
AcDbVertex
100
AcDb2dVertex
 10
-26.99999999999977
 20
-12.49999999999994
 30
0.0
  0
VERTEX
  5
6AC9
330
6AC7
100
AcDbEntity
  8
LW 5015-19-01
100
AcDbVertex
100
AcDb2dVertex
 10
-27.02101302146889
 20
-12.77545213699335
 30
0.0
  0
VERTEX
  5
6ACA
330
6AC7
100
AcDbEntity
  8
LW 5015-19-01
100
AcDbVertex
100
AcDb2dVertex
 10
-27.08434295654274
 20
-13.05167794227594
 30
0.0
  0
VERTEX
  5
6ACB
330
6AC7
100
AcDbEntity
  8
LW 5015-19-01
100
AcDbVertex
100
AcDb2dVertex
 10
-27.1904225349424
 20
-13.31962585449213
 30
0.0
  0
VERTEX
  5
6ACC
330
6AC7
100
AcDbEntity
  8
LW 5015-19-01
100
AcDbVertex
100
AcDb2dVertex
 10
-27.33830523490883
 20
-13.5708856582641
 30
0.0
  0
VERTEX
  5
6ACD
330
6AC7
100
AcDbEntity
  8
LW 5015-19-01
100
AcDbVertex
100
AcDb2dVertex
 10
-27.52152276039101
 20
-13.79940271377558
 30
0.0
  0
VERTEX
  5
6ACE
330
6AC7
100
AcDbEntity
  8
LW 5015-19-01
100
AcDbVertex
100
AcDb2dVertex
 10
-27.73223471641518
 20
-13.99964332580561
 30
0.0
  0
VERTEX
  5
6ACF
330
6AC7
100
AcDbEntity
  8
LW 5015-19-01
100
AcDbVertex
100
AcDb2dVertex
 10
-27.97259998321511
 20
-14.17419910430902
 30
0.0
  0
VERTEX
  5
6AD0
330
6AC7
100
AcDbEntity
  8
LW 5015-19-01
100
AcDbVertex
100
AcDb2dVertex
 10
-28.24523878097512
 20
-14.32525992393488
 30
0.0
  0
VERTEX
  5
6AD1
330
6AC7
100
AcDbEntity
  8
LW 5015-19-01
100
AcDbVertex
100
AcDb2dVertex
 10
-28.54300212860085
 20
-14.44669842720026
 30
0.0
  0
VERTEX
  5
6AD2
330
6AC7
100
AcDbEntity
  8
LW 5015-19-01
100
AcDbVertex
100
AcDb2dVertex
 10
-28.8581688404081
 20
-14.53354954719538
 30
0.0
  0
VERTEX
  5
6AD3
330
6AC7
100
AcDbEntity
  8
LW 5015-19-01
100
AcDbVertex
100
AcDb2dVertex
 10
-29.18070745468117
 20
-14.58527922630304
 30
0.0
  0
VERTEX
  5
6AD4
330
6AC7
100
AcDbEntity
  8
LW 5015-19-01
100
AcDbVertex
100
AcDb2dVertex
 10
-29.49999999999977
 20
-14.6024060249328
 30
0.0
  0
VERTEX
  5
6AD5
330
6AC7
100
AcDbEntity
  8
LW 5015-19-01
100
AcDbVertex
100
AcDb2dVertex
 10
-29.81929254531838
 20
-14.58527922630304
 30
0.0
  0
VERTEX
  5
6AD6
330
6AC7
100
AcDbEntity
  8
LW 5015-19-01
100
AcDbVertex
100
AcDb2dVertex
 10
-30.14183115959145
 20
-14.53354954719538
 30
0.0
  0
VERTEX
  5
6AD7
330
6AC7
100
AcDbEntity
  8
LW 5015-19-01
100
AcDbVertex
100
AcDb2dVertex
 10
-30.4569978713987
 20
-14.44669842720026
 30
0.0
  0
VERTEX
  5
6AD8
330
6AC7
100
AcDbEntity
  8
LW 5015-19-01
100
AcDbVertex
100
AcDb2dVertex
 10
-30.75476121902443
 20
-14.32525992393488
 30
0.0
  0
VERTEX
  5
6AD9
330
6AC7
100
AcDbEntity
  8
LW 5015-19-01
100
AcDbVertex
100
AcDb2dVertex
 10
-31.02740001678444
 20
-14.17419910430902
 30
0.0
  0
VERTEX
  5
6ADA
330
6AC7
100
AcDbEntity
  8
LW 5015-19-01
100
AcDbVertex
100
AcDb2dVertex
 10
-31.26776528358437
 20
-13.99964332580561
 30
0.0
  0
VERTEX
  5
6ADB
330
6AC7
100
AcDbEntity
  8
LW 5015-19-01
100
AcDbVertex
100
AcDb2dVertex
 10
-31.47847723960854
 20
-13.79940271377558
 30
0.0
  0
VERTEX
  5
6ADC
330
6AC7
100
AcDbEntity
  8
LW 5015-19-01
100
AcDbVertex
100
AcDb2dVertex
 10
-31.66169476509072
 20
-13.5708856582641
 30
0.0
  0
VERTEX
  5
6ADD
330
6AC7
100
AcDbEntity
  8
LW 5015-19-01
100
AcDbVertex
100
AcDb2dVertex
 10
-31.80957746505715
 20
-13.31962585449213
 30
0.0
  0
VERTEX
  5
6ADE
330
6AC7
100
AcDbEntity
  8
LW 5015-19-01
100
AcDbVertex
100
AcDb2dVertex
 10
-31.91565704345681
 20
-13.05167794227594
 30
0.0
  0
VERTEX
  5
6ADF
330
6AC7
100
AcDbEntity
  8
LW 5015-19-01
100
AcDbVertex
100
AcDb2dVertex
 10
-31.97898697853066
 20
-12.77545213699335
 30
0.0
  0
VERTEX
  5
6AE0
330
6AC7
100
AcDbEntity
  8
LW 5015-19-01
100
AcDbVertex
100
AcDb2dVertex
 10
-31.99999999999977
 20
-12.49999999999994
 30
0.0
  0
SEQEND
  5
6AE1
330
6AC7
100
AcDbEntity
  8
LW 5015-19-01
  0
POLYLINE
  5
6AE2
330
6A45
100
AcDbEntity
  8
LW 5015-19-01
100
AcDb2dPolyline
 66
     1
 10
0.0
 20
0.0
 30
0.0
 70
   128
  0
VERTEX
  5
6AE3
330
6AE2
100
AcDbEntity
  8
LW 5015-19-01
100
AcDbVertex
100
AcDb2dVertex
 10
-26.99999999999977
 20
25.00000000000011
 30
0.0
  0
VERTEX
  5
6AE4
330
6AE2
100
AcDbEntity
  8
LW 5015-19-01
100
AcDbVertex
100
AcDb2dVertex
 10
-27.02101302146889
 20
24.99787092208874
 30
0.0
  0
VERTEX
  5
6AE5
330
6AE2
100
AcDbEntity
  8
LW 5015-19-01
100
AcDbVertex
100
AcDb2dVertex
 10
-27.08434295654274
 20
24.99166965484631
 30
0.0
  0
VERTEX
  5
6AE6
330
6AE2
100
AcDbEntity
  8
LW 5015-19-01
100
AcDbVertex
100
AcDb2dVertex
 10
-27.1904225349424
 20
24.98167514801037
 30
0.0
  0
VERTEX
  5
6AE7
330
6AE2
100
AcDbEntity
  8
LW 5015-19-01
100
AcDbVertex
100
AcDb2dVertex
 10
-27.33830523490883
 20
24.96845483779919
 30
0.0
  0
VERTEX
  5
6AE8
330
6AE2
100
AcDbEntity
  8
LW 5015-19-01
100
AcDbVertex
100
AcDb2dVertex
 10
-27.52152276039101
 20
24.95326280593884
 30
0.0
  0
VERTEX
  5
6AE9
330
6AE2
100
AcDbEntity
  8
LW 5015-19-01
100
AcDbVertex
100
AcDb2dVertex
 10
-27.73223471641518
 20
24.93742227554333
 30
0.0
  0
VERTEX
  5
6AEA
330
6AE2
100
AcDbEntity
  8
LW 5015-19-01
100
AcDbVertex
100
AcDb2dVertex
 10
-27.97259998321511
 20
24.92156982421886
 30
0.0
  0
VERTEX
  5
6AEB
330
6AE2
100
AcDbEntity
  8
LW 5015-19-01
100
AcDbVertex
100
AcDb2dVertex
 10
-28.24523878097512
 20
24.90634918212902
 30
0.0
  0
VERTEX
  5
6AEC
330
6AE2
100
AcDbEntity
  8
LW 5015-19-01
100
AcDbVertex
100
AcDb2dVertex
 10
-28.54300212860085
 20
24.89308834075939
 30
0.0
  0
VERTEX
  5
6AED
330
6AE2
100
AcDbEntity
  8
LW 5015-19-01
100
AcDbVertex
100
AcDb2dVertex
 10
-28.8581688404081
 20
24.8830556869508
 30
0.0
  0
VERTEX
  5
6AEE
330
6AE2
100
AcDbEntity
  8
LW 5015-19-01
100
AcDbVertex
100
AcDb2dVertex
 10
-29.18070745468117
 20
24.87682580947887
 30
0.0
  0
VERTEX
  5
6AEF
330
6AE2
100
AcDbEntity
  8
LW 5015-19-01
100
AcDbVertex
100
AcDb2dVertex
 10
-29.49999999999977
 20
24.87468481063854
 30
0.0
  0
VERTEX
  5
6AF0
330
6AE2
100
AcDbEntity
  8
LW 5015-19-01
100
AcDbVertex
100
AcDb2dVertex
 10
-29.81929254531838
 20
24.87682580947887
 30
0.0
  0
VERTEX
  5
6AF1
330
6AE2
100
AcDbEntity
  8
LW 5015-19-01
100
AcDbVertex
100
AcDb2dVertex
 10
-30.14183115959145
 20
24.8830556869508
 30
0.0
  0
VERTEX
  5
6AF2
330
6AE2
100
AcDbEntity
  8
LW 5015-19-01
100
AcDbVertex
100
AcDb2dVertex
 10
-30.4569978713987
 20
24.89308834075939
 30
0.0
  0
VERTEX
  5
6AF3
330
6AE2
100
AcDbEntity
  8
LW 5015-19-01
100
AcDbVertex
100
AcDb2dVertex
 10
-30.75476121902443
 20
24.90634918212902
 30
0.0
  0
VERTEX
  5
6AF4
330
6AE2
100
AcDbEntity
  8
LW 5015-19-01
100
AcDbVertex
100
AcDb2dVertex
 10
-31.02740001678444
 20
24.92156982421886
 30
0.0
  0
VERTEX
  5
6AF5
330
6AE2
100
AcDbEntity
  8
LW 5015-19-01
100
AcDbVertex
100
AcDb2dVertex
 10
-31.26776528358437
 20
24.93742227554333
 30
0.0
  0
VERTEX
  5
6AF6
330
6AE2
100
AcDbEntity
  8
LW 5015-19-01
100
AcDbVertex
100
AcDb2dVertex
 10
-31.47847723960854
 20
24.95326280593884
 30
0.0
  0
VERTEX
  5
6AF7
330
6AE2
100
AcDbEntity
  8
LW 5015-19-01
100
AcDbVertex
100
AcDb2dVertex
 10
-31.66169476509072
 20
24.96845483779919
 30
0.0
  0
VERTEX
  5
6AF8
330
6AE2
100
AcDbEntity
  8
LW 5015-19-01
100
AcDbVertex
100
AcDb2dVertex
 10
-31.80957746505715
 20
24.98167514801037
 30
0.0
  0
VERTEX
  5
6AF9
330
6AE2
100
AcDbEntity
  8
LW 5015-19-01
100
AcDbVertex
100
AcDb2dVertex
 10
-31.91565704345681
 20
24.99166965484631
 30
0.0
  0
VERTEX
  5
6AFA
330
6AE2
100
AcDbEntity
  8
LW 5015-19-01
100
AcDbVertex
100
AcDb2dVertex
 10
-31.97898697853066
 20
24.99787092208874
 30
0.0
  0
VERTEX
  5
6AFB
330
6AE2
100
AcDbEntity
  8
LW 5015-19-01
100
AcDbVertex
100
AcDb2dVertex
 10
-31.99999999999977
 20
25.00000000000011
 30
0.0
  0
SEQEND
  5
6AFC
330
6AE2
100
AcDbEntity
  8
LW 5015-19-01
  0
LINE
  5
6AFD
330
6A45
100
AcDbEntity
  8
LW 5015-19-01
100
AcDbLine
 10
-33.49999999999977
 20
25.00000000000011
 30
0.0
 11
-33.49999999999977
 21
-24.99999999999995
 31
0.0
  0
LINE
  5
6AFE
330
6A45
100
AcDbEntity
  8
LW 5015-19-01
100
AcDbLine
 10
-39.49999999999977
 20
19.00000000000005
 30
0.0
 11
-39.49999999999977
 21
-18.99999999999989
 31
0.0
  0
LINE
  5
6AFF
330
6A45
100
AcDbEntity
  8
LW 5015-19-01
100
AcDbLine
 10
-133.5
 20
10.00000000000011
 30
0.0
 11
-133.5
 21
-9.999999999999943
 31
0.0
  0
LINE
  5
6B00
330
6A45
100
AcDbEntity
  8
LW 5015-19-01
100
AcDbLine
 10
-134.5
 20
9.000000000000113
 30
0.0
 11
-134.5
 21
-8.999999999999943
 31
0.0
  0
LINE
  5
6B01
330
6A45
100
AcDbEntity
  8
LW 5015-19-01
100
AcDbLine
 10
-14.49999999999977
 20
-24.99999999999995
 30
0.0
 11
-33.49999999999977
 21
-24.99999999999995
 31
0.0
  0
LINE
  5
6B02
330
6A45
100
AcDbEntity
  8
LW 5015-19-01
100
AcDbLine
 10
-14.49999999999977
 20
25.00000000000011
 30
0.0
 11
-26.99999999999977
 21
25.00000000000011
 31
0.0
  0
LINE
  5
6B03
330
6A45
100
AcDbEntity
  8
LW 5015-19-01
100
AcDbLine
 10
-31.99999999999977
 20
25.00000000000011
 30
0.0
 11
-33.49999999999977
 21
25.00000000000011
 31
0.0
  0
LINE
  5
6B04
330
6A45
100
AcDbEntity
  8
LW 5015-19-01
100
AcDbLine
 10
-39.49999999999977
 20
19.00000000000005
 30
0.0
 11
-33.49999999999977
 21
25.00000000000011
 31
0.0
  0
LINE
  5
6B05
330
6A45
100
AcDbEntity
  8
LW 5015-19-01
100
AcDbLine
 10
-39.49999999999977
 20
-18.99999999999989
 30
0.0
 11
-33.49999999999977
 21
-24.99999999999995
 31
0.0
  0
ARC
  5
6B06
330
6A45
100
AcDbEntity
  8
LW 5015-19-01
100
AcDbCircle
 10
-40.49999999999999
 20
11.00000000000011
 30
0.0
 40
1.000000000000002
100
AcDbArc
 50
270.0
 51
0.0
  0
ARC
  5
6B07
330
6A45
100
AcDbEntity
  8
LW 5015-19-01
100
AcDbCircle
 10
-40.49999999999999
 20
-10.99999999999994
 30
0.0
 40
1.000000000000002
100
AcDbArc
 50
0.0
 51
90.0
  0
LINE
  5
6B08
330
6A45
100
AcDbEntity
  8
LW 5015-19-01
100
AcDbLine
 10
-40.49999999999999
 20
-9.999999999999943
 30
0.0
 11
-82.10435004493385
 21
-9.999999999999943
 31
0.0
  0
LINE
  5
6B09
330
6A45
100
AcDbEntity
  8
LW 5015-19-01
100
AcDbLine
 10
-116.8956499550656
 20
-9.999999999999943
 30
0.0
 11
-133.5
 21
-9.999999999999943
 31
0.0
  0
LINE
  5
6B0A
330
6A45
100
AcDbEntity
  8
LW 5015-19-01
100
AcDbLine
 10
-40.49999999999999
 20
10.00000000000011
 30
0.0
 11
-82.10435004493469
 21
10.00000000000011
 31
0.0
  0
LINE
  5
6B0B
330
6A45
100
AcDbEntity
  8
LW 5015-19-01
100
AcDbLine
 10
-116.8956499550647
 20
10.00000000000011
 30
0.0
 11
-133.5
 21
10.00000000000011
 31
0.0
  0
LINE
  5
6B0C
330
6A45
100
AcDbEntity
  8
LW 5015-19-01
100
AcDbLine
 10
-134.5
 20
9.000000000000056
 30
0.0
 11
-133.5
 21
10.00000000000011
 31
0.0
  0
LINE
  5
6B0D
330
6A45
100
AcDbEntity
  8
LW 5015-19-01
100
AcDbLine
 10
-134.5
 20
-8.999999999999943
 30
0.0
 11
-133.5
 21
-9.999999999999943
 31
0.0
  0
LINE
  5
6B0E
330
6A45
100
AcDbEntity
  8
LW 5015-19-01
100
AcDbLine
 10
-116.9999999999997
 20
60.87500000000005
 30
0.0
 11
-81.99999999999977
 21
60.87500000000005
 31
0.0
  0
LINE
  5
6B0F
330
6A45
100
AcDbEntity
  8
LW 5015-19-01
100
AcDbLine
 10
-115.4999999999998
 20
-19.99999999999994
 30
0.0
 11
-83.49999999999978
 21
-19.99999999999994
 31
0.0
  0
LINE
  5
6B10
330
6A45
100
AcDbEntity
  8
LW 5015-19-01
100
AcDbLine
 10
-81.99999999999977
 20
60.87500000000005
 30
0.0
 11
-81.99999999999977
 21
10.10000000000008
 31
0.0
  0
LINE
  5
6B11
330
6A45
100
AcDbEntity
  8
LW 5015-19-01
100
AcDbLine
 10
-81.99999999999977
 20
-10.09999999999996
 30
0.0
 11
-81.99999999999977
 21
-18.49999999999994
 31
0.0
  0
LINE
  5
6B12
330
6A45
100
AcDbEntity
  8
LW 5015-19-01
100
AcDbLine
 10
-116.9999999999997
 20
60.87500000000005
 30
0.0
 11
-116.9999999999997
 21
10.10000000000008
 31
0.0
  0
LINE
  5
6B13
330
6A45
100
AcDbEntity
  8
LW 5015-19-01
100
AcDbLine
 10
-116.9999999999997
 20
-10.09999999999996
 30
0.0
 11
-116.9999999999997
 21
-18.49999999999994
 31
0.0
  0
ARC
  5
6B14
330
6A45
100
AcDbEntity
  8
LW 5015-19-01
100
AcDbCircle
 10
-115.4999999999998
 20
-18.49999999999994
 30
0.0
 40
1.500000000000012
100
AcDbArc
 50
180.0
 51
270.0
  0
ARC
  5
6B15
330
6A45
100
AcDbEntity
  8
LW 5015-19-01
100
AcDbCircle
 10
-83.49999999999978
 20
-18.49999999999994
 30
0.0
 40
1.500000000000012
100
AcDbArc
 50
270.0
 51
0.0
  0
LINE
  5
6B16
330
6A45
100
AcDbEntity
  8
LW 5015-19-01
100
AcDbLine
 10
112.2377392028572
 20
-0.0999999999999091
 30
0.0
 11
112.2377392028572
 21
0.1000000000000796
 31
0.0
  0
LINE
  5
6B17
330
6A45
100
AcDbEntity
  8
LW 5015-19-01
100
AcDbLine
 10
86.7622607971432
 20
0.1000000000000796
 30
0.0
 11
86.7622607971432
 21
-0.0999999999999091
 31
0.0
  0
LINE
  5
6B18
330
6A45
100
AcDbEntity
  8
LW 5015-19-01
100
AcDbLine
 10
82.00000000000022
 20
60.87500000000005
 30
0.0
 11
117.0000000000002
 21
60.87500000000005
 31
0.0
  0
LINE
  5
6B19
330
6A45
100
AcDbEntity
  8
LW 5015-19-01
100
AcDbLine
 10
83.50000000000022
 20
-19.99999999999994
 30
0.0
 11
115.5000000000002
 21
-19.99999999999994
 31
0.0
  0
LINE
  5
6B1A
330
6A45
100
AcDbEntity
  8
LW 5015-19-01
100
AcDbLine
 10
117.0000000000002
 20
60.87500000000005
 30
0.0
 11
117.0000000000002
 21
10.10000000000008
 31
0.0
  0
LINE
  5
6B1B
330
6A45
100
AcDbEntity
  8
LW 5015-19-01
100
AcDbLine
 10
117.0000000000002
 20
-10.09999999999991
 30
0.0
 11
117.0000000000002
 21
-18.49999999999994
 31
0.0
  0
LINE
  5
6B1C
330
6A45
100
AcDbEntity
  8
LW 5015-19-01
100
AcDbLine
 10
82.00000000000022
 20
60.87500000000005
 30
0.0
 11
82.00000000000022
 21
10.10000000000008
 31
0.0
  0
LINE
  5
6B1D
330
6A45
100
AcDbEntity
  8
LW 5015-19-01
100
AcDbLine
 10
82.00000000000022
 20
-10.09999999999991
 30
0.0
 11
82.00000000000022
 21
-18.49999999999994
 31
0.0
  0
ARC
  5
6B1E
330
6A45
100
AcDbEntity
  8
LW 5015-19-01
100
AcDbCircle
 10
83.50000000000022
 20
-18.49999999999994
 30
0.0
 40
1.500000000000012
100
AcDbArc
 50
180.0
 51
270.0
  0
ARC
  5
6B1F
330
6A45
100
AcDbEntity
  8
LW 5015-19-01
100
AcDbCircle
 10
115.5000000000002
 20
-18.49999999999994
 30
0.0
 40
1.500000000000012
100
AcDbArc
 50
270.0
 51
0.0
  0
LINE
  5
6B20
330
6A45
100
AcDbEntity
  8
LW 5015-19-01
100
AcDbLine
 10
-105.2730999999999
 20
77.00000000000006
 30
0.0
 11
-93.72689999999989
 21
77.00000000000006
 31
0.0
  0
LINE
  5
6B21
330
6A45
100
AcDbEntity
  8
LW 5015-19-01
100
AcDbLine
 10
-92.49999999999976
 20
75.77310000000017
 30
0.0
 11
-106.4999999999997
 21
75.77310000000017
 31
0.0
  0
LINE
  5
6B22
330
6A45
100
AcDbEntity
  8
LW 5015-19-01
100
AcDbLine
 10
-93.72689999999989
 20
77.00000000000006
 30
0.0
 11
-92.49999999999976
 21
75.77310000000017
 31
0.0
  0
LINE
  5
6B23
330
6A45
100
AcDbEntity
  8
LW 5015-19-01
100
AcDbLine
 10
-105.2730999999999
 20
77.00000000000006
 30
0.0
 11
-106.4999999999997
 21
75.77310000000017
 31
0.0
  0
LINE
  5
6B24
330
6A45
100
AcDbEntity
  8
LW 5015-19-01
100
AcDbLine
 10
-92.49999999999976
 20
75.77310000000017
 30
0.0
 11
-92.49999999999976
 21
60.87500000000005
 31
0.0
  0
LINE
  5
6B25
330
6A45
100
AcDbEntity
  8
LW 5015-19-01
100
AcDbLine
 10
-106.4999999999997
 20
75.77310000000017
 30
0.0
 11
-106.4999999999997
 21
60.87500000000005
 31
0.0
  0
LINE
  5
6B26
330
6A45
100
AcDbEntity
  8
LW 5015-19-01
 62
     3
100
AcDbLine
 10
-93.7054999999998
 20
60.87500000000005
 30
0.0
 11
-93.7054999999998
 21
76.97860000000009
 31
0.0
  0
LINE
  5
6B27
330
6A45
100
AcDbEntity
  8
LW 5015-19-01
 62
     3
100
AcDbLine
 10
-105.2944999999997
 20
76.97860000000009
 30
0.0
 11
-105.2944999999997
 21
60.87500000000005
 31
0.0
  0
LINE
  5
6B28
330
6A45
100
AcDbEntity
  8
LW 5015-19-01
100
AcDbLine
 10
93.72690000000011
 20
77.00000000000006
 30
0.0
 11
105.2731000000001
 21
77.00000000000006
 31
0.0
  0
LINE
  5
6B29
330
6A45
100
AcDbEntity
  8
LW 5015-19-01
100
AcDbLine
 10
106.5000000000002
 20
75.77310000000017
 30
0.0
 11
92.50000000000023
 21
75.77310000000017
 31
0.0
  0
LINE
  5
6B2A
330
6A45
100
AcDbEntity
  8
LW 5015-19-01
100
AcDbLine
 10
105.2731000000001
 20
77.00000000000006
 30
0.0
 11
106.5000000000002
 21
75.77310000000017
 31
0.0
  0
LINE
  5
6B2B
330
6A45
100
AcDbEntity
  8
LW 5015-19-01
100
AcDbLine
 10
93.72690000000011
 20
77.00000000000006
 30
0.0
 11
92.50000000000023
 21
75.77310000000017
 31
0.0
  0
LINE
  5
6B2C
330
6A45
100
AcDbEntity
  8
LW 5015-19-01
100
AcDbLine
 10
106.5000000000002
 20
75.77310000000017
 30
0.0
 11
106.5000000000002
 21
60.87500000000005
 31
0.0
  0
LINE
  5
6B2D
330
6A45
100
AcDbEntity
  8
LW 5015-19-01
100
AcDbLine
 10
92.50000000000023
 20
75.77310000000017
 30
0.0
 11
92.50000000000023
 21
60.87500000000005
 31
0.0
  0
LINE
  5
6B2E
330
6A45
100
AcDbEntity
  8
LW 5015-19-01
 62
     3
100
AcDbLine
 10
105.2945000000002
 20
60.87500000000005
 30
0.0
 11
105.2945000000002
 21
76.97860000000019
 31
0.0
  0
LINE
  5
6B2F
330
6A45
100
AcDbEntity
  8
LW 5015-19-01
 62
     3
100
AcDbLine
 10
93.70550000000026
 20
76.97860000000009
 30
0.0
 11
93.70550000000026
 21
60.87500000000005
 31
0.0
  0
LINE
  5
6B30
330
6A45
100
AcDbEntity
  8
LW 5015-19-01
100
AcDbLine
 10
6.5
 20
12.00000000000005
 30
0.0
 11
6.5
 21
-11.99999999999994
 31
0.0
  0
LINE
  5
6B31
330
6A45
100
AcDbEntity
  8
LW 5015-19-01
100
AcDbLine
 10
-6.5
 20
12.00000000000005
 30
0.0
 11
-6.5
 21
-11.99999999999994
 31
0.0
  0
LINE
  5
6B32
330
6A45
100
AcDbEntity
  8
LW 5015-19-01
100
AcDbLine
 10
-6.5
 20
12.00000000000005
 30
0.0
 11
6.5
 21
12.00000000000005
 31
0.0
  0
LINE
  5
6B33
330
6A45
100
AcDbEntity
  8
LW 5015-19-01
100
AcDbLine
 10
-6.5
 20
-11.99999999999994
 30
0.0
 11
6.5
 21
-11.99999999999994
 31
0.0
  0
LINE
  5
6B34
330
6A45
100
AcDbEntity
  8
LW 5015-19-01
100
AcDbLine
 10
-11.49999999999977
 20
32.50000000000006
 30
0.0
 11
-11.49999999999977
 21
-32.49999999999995
 31
0.0
  0
LINE
  5
6B35
330
6A45
100
AcDbEntity
  8
LW 5015-19-01
100
AcDbLine
 10
-14.49999999999977
 20
32.50000000000006
 30
0.0
 11
-14.49999999999977
 21
-32.49999999999995
 31
0.0
  0
LINE
  5
6B36
330
6A45
100
AcDbEntity
  8
LW 5015-19-01
100
AcDbLine
 10
-14.49999999999977
 20
32.50000000000006
 30
0.0
 11
-11.49999999999977
 21
32.50000000000006
 31
0.0
  0
LINE
  5
6B37
330
6A45
100
AcDbEntity
  8
LW 5015-19-01
100
AcDbLine
 10
-14.49999999999977
 20
-32.49999999999995
 30
0.0
 11
-11.49999999999977
 21
-32.49999999999995
 31
0.0
  0
LINE
  5
6B38
330
6A45
100
AcDbEntity
  8
LW 5015-19-01
100
AcDbLine
 10
11.50000000000023
 20
-32.49999999999995
 30
0.0
 11
11.50000000000023
 21
32.50000000000006
 31
0.0
  0
LINE
  5
6B39
330
6A45
100
AcDbEntity
  8
LW 5015-19-01
100
AcDbLine
 10
14.50000000000023
 20
-32.49999999999995
 30
0.0
 11
14.50000000000023
 21
32.50000000000006
 31
0.0
  0
LINE
  5
6B3A
330
6A45
100
AcDbEntity
  8
LW 5015-19-01
100
AcDbLine
 10
14.50000000000023
 20
-32.49999999999995
 30
0.0
 11
11.50000000000023
 21
-32.49999999999995
 31
0.0
  0
LINE
  5
6B3B
330
6A45
100
AcDbEntity
  8
LW 5015-19-01
100
AcDbLine
 10
14.50000000000023
 20
32.50000000000006
 30
0.0
 11
11.50000000000023
 21
32.50000000000006
 31
0.0
  0
LINE
  5
6B3C
330
6A45
100
AcDbEntity
  8
LW 5015-19-01
100
AcDbLine
 10
-9.499999999999772
 20
32.00000000000006
 30
0.0
 11
-9.499999999999772
 21
-31.99999999999994
 31
0.0
  0
LINE
  5
6B3D
330
6A45
100
AcDbEntity
  8
LW 5015-19-01
100
AcDbLine
 10
-11.49999999999977
 20
32.00000000000006
 30
0.0
 11
-9.499999999999772
 21
32.00000000000006
 31
0.0
  0
LINE
  5
6B3E
330
6A45
100
AcDbEntity
  8
LW 5015-19-01
100
AcDbLine
 10
-11.49999999999977
 20
-31.99999999999994
 30
0.0
 11
-9.499999999999772
 21
-31.99999999999994
 31
0.0
  0
LINE
  5
6B3F
330
6A45
100
AcDbEntity
  8
LW 5015-19-01
100
AcDbLine
 10
9.500000000000227
 20
-31.99999999999994
 30
0.0
 11
9.500000000000227
 21
32.00000000000006
 31
0.0
  0
LINE
  5
6B40
330
6A45
100
AcDbEntity
  8
LW 5015-19-01
100
AcDbLine
 10
11.50000000000023
 20
-31.99999999999994
 30
0.0
 11
9.500000000000227
 21
-31.99999999999994
 31
0.0
  0
LINE
  5
6B41
330
6A45
100
AcDbEntity
  8
LW 5015-19-01
100
AcDbLine
 10
11.50000000000023
 20
32.00000000000006
 30
0.0
 11
9.500000000000227
 21
32.00000000000006
 31
0.0
  0
LINE
  5
6B42
330
6A45
100
AcDbEntity
  8
LW 5015-19-01
100
AcDbLine
 10
9.500000000000227
 20
-6.999999999999943
 30
0.0
 11
6.5
 21
-6.999999999999943
 31
0.0
  0
LINE
  5
6B43
330
6A45
100
AcDbEntity
  8
LW 5015-19-01
100
AcDbLine
 10
-6.499999999999772
 20
-6.999999999999943
 30
0.0
 11
-9.499999999999772
 21
-6.999999999999943
 31
0.0
  0
LINE
  5
6B44
330
6A45
100
AcDbEntity
  8
LW 5015-19-01
100
AcDbLine
 10
9.500000000000227
 20
7.000000000000056
 30
0.0
 11
6.5
 21
7.000000000000056
 31
0.0
  0
LINE
  5
6B45
330
6A45
100
AcDbEntity
  8
LW 5015-19-01
100
AcDbLine
 10
-6.499999999999772
 20
7.000000000000056
 30
0.0
 11
-9.499999999999772
 21
7.000000000000056
 31
0.0
  0
LINE
  5
6B46
330
6A45
100
AcDbEntity
  8
LW 5015-19-01
 62
     3
100
AcDbLine
 10
-9.499999999999772
 20
-5.794499999999914
 30
0.0
 11
-6.499999999999772
 21
-5.794499999999914
 31
0.0
  0
LINE
  5
6B47
330
6A45
100
AcDbEntity
  8
LW 5015-19-01
 62
     3
100
AcDbLine
 10
6.5
 20
-5.794499999999914
 30
0.0
 11
9.500000000000227
 21
-5.794499999999914
 31
0.0
  0
LINE
  5
6B48
330
6A45
100
AcDbEntity
  8
LW 5015-19-01
 62
     3
100
AcDbLine
 10
9.500000000000227
 20
5.794500000000084
 30
0.0
 11
6.5
 21
5.794500000000084
 31
0.0
  0
LINE
  5
6B49
330
6A45
100
AcDbEntity
  8
LW 5015-19-01
 62
     3
100
AcDbLine
 10
-6.5
 20
5.794500000000084
 30
0.0
 11
-9.499999999999772
 21
5.794500000000084
 31
0.0
  0
LINE
  5
6B4A
330
6A45
100
AcDbEntity
  8
LW 5015-19-01
  6
MITTE2
 62
     3
100
AcDbLine
 10
-99.49999999999977
 20
96.48528480478473
 30
0.0
 11
-99.49999999999977
 21
-28.08786257571905
 31
0.0
  0
LINE
  5
6B4B
330
6A45
100
AcDbEntity
  8
LW 5015-19-01
  6
MITTE2
 62
     3
100
AcDbLine
 10
99.50000000000024
 20
97.33561345584604
 30
0.0
 11
99.50000000000024
 21
-28.08786257571899
 31
0.0
  0
LINE
  5
6B4C
330
6A45
100
AcDbEntity
  8
LW 5015-19-01
  6
MITTE2
 62
     3
100
AcDbLine
 10
138.4212863273749
 20
0.0
 30
0.0
 11
-138.4212863273749
 21
0.0
 31
0.0
  0
LINE
  5
6B4D
330
6A45
100
AcDbEntity
  8
LW 5015-19-01
  6
VERDECKT
 62
     6
100
AcDbLine
 10
84.83989145726196
 20
60.00000000000437
 30
0.0
 11
114.160108542738
 21
59.99999999999573
 31
0.0
  0
ARC
  5
6B4E
330
6A45
100
AcDbEntity
  8
LW 5015-19-01
  6
VERDECKT
 62
     6
100
AcDbCircle
 10
84.83989145726241
 20
62.00000000000438
 30
0.0
 40
2.0
100
AcDbArc
 50
250.7099537807859
 51
270.0
  0
ARC
  5
6B4F
330
6A45
100
AcDbEntity
  8
LW 5015-19-01
  6
VERDECKT
 62
     6
100
AcDbCircle
 10
114.1601085427385
 20
61.99999999999573
 30
0.0
 40
2.0
100
AcDbArc
 50
270.0
 51
289.2900462191729
  0
LINE
  5
6B50
330
6A45
100
AcDbEntity
  8
LW 5015-19-01
  6
VERDECKT
 62
     6
100
AcDbLine
 10
84.17919060780581
 20
60.11228328727276
 30
0.0
 11
82.00000000000022
 21
60.87500000000528
 31
0.0
  0
LINE
  5
6B51
330
6A45
100
AcDbEntity
  8
LW 5015-19-01
  6
VERDECKT
 62
     6
100
AcDbLine
 10
114.8208093921942
 20
60.11228328726367
 30
0.0
 11
117.0000000000002
 21
60.87499999999483
 31
0.0
  0
LINE
  5
6B52
330
6A45
100
AcDbEntity
  8
LW 5015-19-01
  6
VERDECKT
 62
     6
100
AcDbLine
 10
-114.160108542738
 20
60.00000000000437
 30
0.0
 11
-84.83989145726196
 21
59.99999999999573
 31
0.0
  0
ARC
  5
6B53
330
6A45
100
AcDbEntity
  8
LW 5015-19-01
  6
VERDECKT
 62
     6
100
AcDbCircle
 10
-114.1601085427376
 20
62.00000000000438
 30
0.0
 40
2.0
100
AcDbArc
 50
250.7099537807859
 51
270.0
  0
ARC
  5
6B54
330
6A45
100
AcDbEntity
  8
LW 5015-19-01
  6
VERDECKT
 62
     6
100
AcDbCircle
 10
-84.8398914572615
 20
61.99999999999573
 30
0.0
 40
2.0
100
AcDbArc
 50
270.0
 51
289.2900462191729
  0
LINE
  5
6B55
330
6A45
100
AcDbEntity
  8
LW 5015-19-01
  6
VERDECKT
 62
     6
100
AcDbLine
 10
-114.8208093921942
 20
60.11228328727276
 30
0.0
 11
-116.9999999999997
 21
60.87500000000528
 31
0.0
  0
LINE
  5
6B56
330
6A45
100
AcDbEntity
  8
LW 5015-19-01
  6
VERDECKT
 62
     6
100
AcDbLine
 10
-84.17919060780581
 20
60.11228328726367
 30
0.0
 11
-81.99999999999977
 21
60.87499999999483
 31
0.0
  0
HATCH
  5
6B57
330
6A45
100
AcDbEntity
  8
LW 5015-19-01
 62
     1
100
AcDbHatch
 10
0.0
 20
0.0
 30
0.0
210
0.0
220
0.0
230
1.0
  2
SOLID
 70
     1
 71
     0
 91
        5
 92
        7
 72
     0
 73
     1
 93
       76
 10
-107.9849828252545
 20
27.54233513799324
 10
-108.0365637870964
 20
27.57419396736606
 10
-108.1878061861121
 20
27.69235209159734
 10
-108.3282303163746
 20
27.82683016681
 10
-108.4566148780882
 20
27.97285007327156
 10
-108.573521161004
 20
28.13651886935355
 10
-108.6756990428255
 20
28.3119058227183
 10
-108.7670507224084
 20
28.49365875531868
 10
-108.8365690348546
 20
28.6748276907843
 10
-108.8365690348546
 20
26.41768975258429
 10
-108.8278793796544
 20
26.20479320018427
 10
-108.8018104140547
 20
26.00275871678429
 10
-108.7605345518545
 20
25.80724147478424
 10
-108.7062242068546
 20
25.62258630178445
 10
-108.6367069652544
 20
25.4466207839842
 10
-108.5541552408544
 20
25.27934492138439
 10
-108.4588297233104
 20
25.12877665883735
 10
-108.3521207574545
 20
24.98606905838443
 10
-108.2330724812143
 20
24.86062780281378
 10
-108.1048131704624
 20
24.74936285073642
 10
-107.9676035148545
 20
24.64934491938431
 10
-107.8220517902543
 20
24.56679319498431
 10
-107.6678104104544
 20
24.50379319478435
 10
-107.5070517892545
 20
24.45382767738448
 10
-107.3419483404545
 20
24.42558629798447
 10
-107.1681552364543
 20
24.41689664278448
 10
-106.9943621324541
 20
24.42775871178452
 10
-106.8270862698543
 20
24.45817250498436
 10
-106.6663276486542
 20
24.51248284998456
 10
-106.5099138550545
 20
24.58200009158446
 10
-106.3621897166544
 20
24.67106905738461
 10
-106.2209828196546
 20
24.77751733358451
 10
-106.0897690261345
 20
24.90021526500851
 10
-105.9686352326466
 20
25.03641431371676
 10
-105.8581897150543
 20
25.18375871418454
 10
-105.7604310940546
 20
25.34451733538464
 10
-105.6755331627505
 20
25.52014395663178
 10
-105.6018448866543
 20
25.70079319858434
 10
-105.5453621278543
 20
25.89196561298451
 10
-105.5019138518546
 20
26.09182768258444
 10
-105.4758448862544
 20
26.30037940738436
 10
-105.4671552310544
 20
26.51110354598433
 10
-105.4671552310546
 20
28.630274631737
 10
-105.5302260347894
 20
28.46973076768455
 10
-105.6208463083121
 20
28.28616662388214
 10
-105.7253760012436
 20
28.11770021771196
 10
-105.8409942396693
 20
27.95486732295132
 10
-105.9707838362092
 20
27.81095495458118
 10
-106.1101375194375
 20
27.68351906109689
 10
-106.26062576415
 20
27.5698137063535
 10
-106.3448104062545
 20
27.51784247490474
 10
-106.3448104062545
 20
26.48937940798447
 10
-106.3523704062786
 20
26.35727057997889
 10
-106.3727041994466
 20
26.22651733818435
 10
-106.4056379926544
 20
26.0983449239846
 10
-106.4512586824544
 20
25.98320699258449
 10
-106.5077414412544
 20
25.87826202673415
 10
-106.5753469587102
 20
25.78011237125003
 10
-106.6532931658544
 20
25.68993112958452
 10
-106.7380173040544
 20
25.61824147418457
 10
-106.7380173040546
 20
27.34576278844321
 10
-106.7706527448126
 20
27.33517832117019
 10
-106.956026692364
 20
27.2990665132059
 10
-107.1463164063148
 20
27.28702286042409
 10
-107.3410674996698
 20
27.29904453285354
 10
-107.527436870936
 20
27.3353502545288
 10
-107.5765690308544
 20
27.35194895720366
 10
-107.5765690308544
 20
25.58131043958435
 10
-107.6721552380545
 20
25.65082768118447
 10
-107.7547069624543
 20
25.73337940558446
 10
-107.8245717902623
 20
25.82847030243789
 10
-107.8828793766545
 20
25.93106906138434
 10
-107.9268490319664
 20
26.0497610617611
 10
-107.9589138596543
 20
26.17220699318437
 10
-107.9784655838543
 20
26.30906906258434
 10
-107.9849828252545
 20
26.45244837338447
 97
        0
 92
        7
 72
     0
 73
     1
 93
       72
 10
-107.9703842045185
 20
29.27079900302107
 10
-107.9884586873345
 20
29.39366203789388
 10
-107.9936724804547
 20
29.51772424518441
 10
-107.9936724804547
 20
30.78641390438435
 10
-107.1790173054546
 20
29.93917252238436
 10
-105.4606379896545
 20
31.70534494178452
 10
-105.4606379896545
 20
33.02400011838432
 10
-107.2029138572548
 20
31.30996563018454
 10
-108.8365690348546
 20
32.99141391138443
 10
-108.8365690348546
 20
29.55248286598436
 10
-108.8257938624065
 20
29.34449596877227
 10
-108.8003331726704
 20
29.13777776121952
 10
-108.7605345518545
 20
28.93334493298431
 10
-108.7040517930545
 20
28.74000010478432
 10
-108.6323621376546
 20
28.55317251798425
 10
-108.5463345511743
 20
28.38201237950995
 10
-108.4498793784546
 20
28.21644837898436
 10
-108.3412586884547
 20
28.06437941298447
 10
-108.2219497225585
 20
27.92868175738119
 10
-108.0914311014544
 20
27.8036897569844
 10
-107.9523966182546
 20
27.69506906698422
 10
-107.8046724798546
 20
27.60382768738447
 10
-107.6504311000544
 20
27.53213803198429
 10
-107.4896724788545
 20
27.47782768698431
 10
-107.3223966162545
 20
27.44524147998442
 10
-107.1464310984543
 20
27.43437941098438
 10
-106.9748104082546
 20
27.44524147998442
 10
-106.8075345456545
 20
27.47782768698454
 10
-106.6467759244547
 20
27.52996561818446
 10
-106.4925345446545
 20
27.59948285978436
 10
-106.3437676476305
 20
27.6913238255932
 10
-106.2042986816704
 20
27.7967032742036
 10
-106.0752573019506
 20
27.91470879181981
 10
-105.9559483360544
 20
28.04700010258449
 10
-105.8479359219186
 20
28.19912120651571
 10
-105.7495690250543
 20
28.35765527598443
 10
-105.6648448868545
 20
28.52927596618457
 10
-105.5931552314546
 20
28.71175872538453
 10
-105.5391055761106
 20
28.90598989841493
 10
-105.4953966104544
 20
29.1027932093844
 10
-105.4693276448547
 20
29.31134493418455
 10
-105.4606379896545
 20
29.52206907278452
 10
-105.4606379896545
 20
31.42510356158442
 10
-106.3339483372547
 20
30.53875873118438
 10
-106.3339483372547
 20
29.52206907278452
 10
-106.337695630194
 20
29.45540203808997
 10
-106.3476779924704
 20
29.35445431363161
 10
-106.3691414408145
 20
29.23431983049165
 10
-106.4034655788546
 20
29.11720065770607
 10
-106.4443938548465
 20
29.01570548497017
 10
-106.4725483376946
 20
28.95957031237805
 10
-106.5051345446945
 20
28.90588562255249
 10
-106.6044573036306
 20
28.77332493247633
 10
-106.6744959245425
 20
28.69972355293254
 10
-106.7423621316543
 20
28.64465720793015
 10
-106.8149207525743
 20
28.59595169053392
 10
-106.8920848907505
 20
28.55658755247788
 10
-106.9735069599746
 20
28.52716437997088
 10
-107.0606642016305
 20
28.50646562128446
 10
-107.1499938570864
 20
28.49894906953642
 10
-107.2122986848703
 20
28.5003046557477
 10
-107.2744297195504
 20
28.50630920749092
 10
-107.3376035128544
 20
28.51846603511564
 10
-107.3993000647747
 20
28.53667955241491
 10
-107.4980145478464
 20
28.58032769048424
 10
-107.5658807549584
 20
28.6218555526853
 10
-107.6439138586545
 20
28.68493375978193
 10
-107.7704365957083
 20
28.81433570014684
 10
-107.8104945488385
 20
28.87360355348443
 10
-107.8548117903583
 20
28.94989872614047
 10
-107.8969566180785
 20
29.03391900226921
 10
-107.9397966182146
 20
29.15045596815645
 97
        0
 92
        7
 72
     0
 73
     1
 93
       57
 10
-107.9483124803109
 20
33.82883598300856
 10
-107.9882848942306
 20
33.96031046618447
 10
-108.0153966184548
 20
34.09500012178438
 10
-108.0240862736546
 20
34.23837943258428
 10
-108.0240862736548
 20
35.47882771238443
 10
-108.8496035176549
 20
35.47882771238443
 10
-108.8496035176547
 20
34.24489667398444
 10
-108.8409138624547
 20
34.03417253538447
 10
-108.8126724830547
 20
33.82779322438438
 10
-108.7713966208548
 20
33.6301035685845
 10
-108.7170862758548
 20
33.44110356798438
 10
-108.6453966204549
 20
33.25644839498437
 10
-108.5627579995025
 20
33.09004149790423
 10
-108.4663028267828
 20
32.93122066981397
 10
-108.3568131712627
 20
32.78114163485481
 10
-108.2375911019187
 20
32.64658232408289
 10
-108.1088104118548
 20
32.52651735818432
 10
-107.9697759286546
 20
32.42224149578448
 10
-107.8242242040546
 20
32.33751735758443
 10
-107.6699828242545
 20
32.26582770218425
 10
-107.5092242030546
 20
32.21586218478439
 10
-107.3419483404548
 20
32.18327597778449
 10
-107.1681552364548
 20
32.17241390878445
 10
-106.9943621324546
 20
32.18327597778449
 10
-106.8270862698546
 20
32.21586218478439
 10
-106.6663276486547
 20
32.26800011598431
 10
-106.5099138550547
 20
32.33968977138449
 10
-106.3621897166547
 20
32.42658632338458
 10
-106.2226338541427
 20
32.53543294441971
 10
-106.0922890261426
 20
32.65528935859317
 10
-105.9709814395505
 20
32.79171694523331
 10
-105.8603621288548
 20
32.93927598018451
 10
-105.7626035078547
 20
33.10003460138438
 10
-105.6778793696548
 20
33.27382770538435
 10
-105.6040173004548
 20
33.45848287838459
 10
-105.5475345416548
 20
33.64965529278453
 10
-105.5040862656547
 20
33.84951736238446
 10
-105.4801897138545
 20
34.05589667338456
 10
-105.4715000586547
 20
34.26879322578458
 10
-105.4715000586547
 20
35.47882771238443
 10
-106.3296035096546
 20
35.47882771238443
 10
-106.3296035096546
 20
34.24489667398444
 10
-106.3399441993426
 20
34.11124977700848
 10
-106.3619290269989
 20
33.97899322486461
 10
-106.3962531650386
 20
33.85838081068852
 10
-106.4442200617427
 20
33.74237391376852
 10
-106.5051345446948
 20
33.63271046514439
 10
-106.5727400621508
 20
33.53564701656052
 10
-106.6525110968869
 20
33.44822908524844
 10
-106.7380173040546
 20
33.37375874018454
 10
-106.7380173040546
 20
35.47882771238443
 10
-107.5657069618546
 20
35.47882771238443
 10
-107.5657069618546
 20
33.33682770558431
 10
-107.6634655828548
 20
33.40634494718444
 10
-107.7525345486547
 20
33.49324149918431
 10
-107.8288297213107
 20
33.59438908571252
 10
-107.8959138594546
 20
33.70179322398445
 97
        0
 92
        7
 72
     0
 73
     1
 93
        6
 10
-108.8365690348548
 20
35.70910357518443
 10
-105.4671552310546
 20
35.70910357518443
 10
-105.4671552310549
 20
37.94668978918463
 10
-106.3339483372549
 20
37.94668978918441
 10
-106.3339483372549
 20
36.73231047498445
 10
-108.8365690348548
 20
36.73231047498445
 97
        0
 92
        7
 72
     0
 73
     1
 93
        8
 10
-108.8365690348548
 20
36.96475875158427
 10
-108.0110517908547
 20
36.96475875158427
 10
-108.0110517908549
 20
38.19868978998449
 10
-105.4606379896549
 20
38.19868978998449
 10
-105.4606379896549
 20
39.22406910358456
 10
-108.0110517908547
 20
39.22406910358433
 10
-108.0110517908549
 20
40.4666897971843
 10
-108.8365690348551
 20
40.4666897971843
 97
        0
 75
     0
 76
     1
 47
0.0142553043587597
 98
        5
 10
-108.3941193652654
 20
26.85199526405956
 10
-108.2515663802596
 20
29.11949247740228
 10
-108.3085875528077
 20
33.61170420960372
 10
-108.5509277774999
 20
36.33555329343546
 10
-108.4511406450865
 20
37.7473912756621
450
        0
451
        0
460
0.0
461
0.0
452
        0
462
0.0
453
        0
470

  0
LWPOLYLINE
  5
6B58
330
6A45
100
AcDbEntity
  8
LW 5015-19-01
 62
     1
100
AcDbPolyline
 90
        8
 70
     1
 43
0.0
 10
-108.0110517908547
 20
39.22406910358433
 10
-105.4606379896549
 20
39.22406910358456
 10
-105.4606379896549
 20
38.19868978998449
 10
-108.0110517908549
 20
38.19868978998449
 10
-108.0110517908547
 20
36.96475875158427
 10
-108.8365690348548
 20
36.96475875158427
 10
-108.8365690348551
 20
40.4666897971843
 10
-108.0110517908549
 20
40.4666897971843
  0
LWPOLYLINE
  5
6B59
330
6A45
100
AcDbEntity
  8
LW 5015-19-01
 62
     1
100
AcDbPolyline
 90
       73
 70
     1
 43
0.0
 10
-106.3339483372547
 20
29.52206907278452
 10
-106.3339483372547
 20
30.53875873118438
 10
-105.4606379896545
 20
31.42510356158442
 10
-105.4606379896545
 20
29.52206907278452
 10
-105.4693276448547
 20
29.31134493418455
 10
-105.4953966104544
 20
29.1027932093844
 10
-105.5391055761106
 20
28.90598989841493
 10
-105.5931552314546
 20
28.71175872538453
 10
-105.6648448868545
 20
28.52927596618457
 10
-105.7495690250543
 20
28.35765527598443
 10
-105.8479359219186
 20
28.19912120651571
 10
-105.9559483360544
 20
28.04700010258449
 10
-106.0752573019504
 20
27.91470879181958
 10
-106.2042986816704
 20
27.7967032742036
 10
-106.3437676476305
 20
27.6913238255932
 10
-106.4925345446545
 20
27.59948285978436
 10
-106.6467759244547
 20
27.52996561818446
 10
-106.8075345456545
 20
27.47782768698454
 10
-106.9748104082546
 20
27.44524147998442
 10
-107.1464310984545
 20
27.43437941098438
 10
-107.3223966162545
 20
27.44524147998442
 10
-107.4896724788545
 20
27.47782768698431
 10
-107.6504311000544
 20
27.53213803198452
 10
-107.8046724798546
 20
27.60382768738447
 10
-107.9523966182546
 20
27.69506906698445
 10
-108.0914311014544
 20
27.8036897569844
 10
-108.2219497225587
 20
27.92868175738119
 10
-108.3412586884547
 20
28.06437941298424
 10
-108.4498793784546
 20
28.21644837898436
 10
-108.5463345511743
 20
28.38201237950995
 10
-108.6323621376546
 20
28.55317251798425
 10
-108.7040517930545
 20
28.74000010478432
 10
-108.7605345518545
 20
28.93334493298431
 10
-108.8003331726704
 20
29.13777776121952
 10
-108.8257938624065
 20
29.34449596877227
 10
-108.8365690348546
 20
29.55248286598436
 10
-108.8365690348546
 20
32.99141391138443
 10
-107.2029138572548
 20
31.30996563018454
 10
-105.4606379896545
 20
33.02400011838432
 10
-105.4606379896545
 20
31.70534494178452
 10
-107.1790173054546
 20
29.93917252238436
 10
-107.9936724804547
 20
30.78641390438435
 10
-107.9936724804547
 20
29.51772424518441
 10
-107.9884586873345
 20
29.39366203789388
 10
-107.9703842045185
 20
29.27079900302107
 10
-107.9397966182146
 20
29.15045596815645
 10
-107.8969566180785
 20
29.03391900226921
 10
-107.8548117903585
 20
28.94989872614025
 10
-107.8104945488385
 20
28.87360355348443
 10
-107.7832959280627
 20
28.83336176025324
 10
-107.7523607555504
 20
28.7958485187549
 10
-107.6439138586545
 20
28.68493375978193
 10
-107.5658807549584
 20
28.6218555526853
 10
-107.4980145478466
 20
28.58032769048447
 10
-107.3993000647747
 20
28.53667955241491
 10
-107.3376035128544
 20
28.51846603511564
 10
-107.2744297195504
 20
28.50630920749092
 10
-107.2122986848706
 20
28.5003046557477
 10
-107.1499938570864
 20
28.49894906953642
 10
-107.0606642016305
 20
28.50646562128446
 10
-106.9735069599746
 20
28.52716437997088
 10
-106.8920848907505
 20
28.55658755247811
 10
-106.8149207525743
 20
28.59595169053392
 10
-106.7423621316545
 20
28.64465720792992
 10
-106.6744959245425
 20
28.69972355293254
 10
-106.6044573036306
 20
28.77332493247633
 10
-106.5051345446945
 20
28.90588562255249
 10
-106.4725483376946
 20
28.95957031237805
 10
-106.4443938548465
 20
29.01570548497017
 10
-106.4034655788546
 20
29.11720065770607
 10
-106.3691414408145
 20
29.23431983049165
 10
-106.3476779924704
 20
29.35445431363161
 10
-106.337695630194
 20
29.45540203808997
  0
LWPOLYLINE
  5
6B5A
330
6A45
100
AcDbEntity
  8
LW 5015-19-01
 62
     1
100
AcDbPolyline
 90
       76
 70
     1
 43
0.0
 10
-108.6756990428255
 20
28.3119058227183
 10
-108.5735211610038
 20
28.13651886935355
 10
-108.4566148780882
 20
27.97285007327156
 10
-108.3282303163746
 20
27.82683016681
 10
-108.1878061861121
 20
27.69235209159734
 10
-108.0365637870964
 20
27.57419396736606
 10
-107.9849828252545
 20
27.54233513799324
 10
-107.9849828252545
 20
26.45244837338447
 10
-107.9784655838543
 20
26.30906906258434
 10
-107.9589138596543
 20
26.17220699318437
 10
-107.9268490319664
 20
26.0497610617611
 10
-107.8828793766545
 20
25.93106906138434
 10
-107.8245717902623
 20
25.82847030243812
 10
-107.7547069624543
 20
25.73337940558446
 10
-107.6721552380545
 20
25.65082768118424
 10
-107.5765690308544
 20
25.58131043958435
 10
-107.5765690308544
 20
27.35194895720366
 10
-107.527436870936
 20
27.3353502545288
 10
-107.3410674996694
 20
27.29904453285332
 10
-107.1463164063148
 20
27.28702286042409
 10
-106.956026692364
 20
27.2990665132059
 10
-106.7706527448128
 20
27.33517832117042
 10
-106.7380173040546
 20
27.34576278844321
 10
-106.7380173040544
 20
25.61824147418457
 10
-106.6532931658544
 20
25.68993112958452
 10
-106.5753469587102
 20
25.78011237125003
 10
-106.5077414412544
 20
25.87826202673415
 10
-106.4512586824544
 20
25.98320699258449
 10
-106.4056379926546
 20
26.0983449239846
 10
-106.3727041994466
 20
26.22651733818435
 10
-106.3523704062786
 20
26.35727057997889
 10
-106.3448104062545
 20
26.48937940798447
 10
-106.3448104062545
 20
27.51784247490474
 10
-106.26062576415
 20
27.5698137063535
 10
-106.1101375194375
 20
27.68351906109689
 10
-105.9707838362092
 20
27.81095495458118
 10
-105.8409942396693
 20
27.95486732295132
 10
-105.7253760012436
 20
28.11770021771196
 10
-105.6208463083121
 20
28.28616662388214
 10
-105.5302260347894
 20
28.46973076768455
 10
-105.4671552310546
 20
28.630274631737
 10
-105.4671552310542
 20
26.51110354598456
 10
-105.4758448862544
 20
26.30037940738436
 10
-105.5019138518546
 20
26.09182768258444
 10
-105.5453621278543
 20
25.89196561298451
 10
-105.6018448866543
 20
25.70079319858456
 10
-105.6755331627505
 20
25.52014395663156
 10
-105.7604310940546
 20
25.34451733538464
 10
-105.8581897150543
 20
25.18375871418454
 10
-105.9686352326464
 20
25.03641431371676
 10
-106.0897690261345
 20
24.90021526500851
 10
-106.2209828196544
 20
24.77751733358451
 10
-106.3621897166544
 20
24.67106905738439
 10
-106.5099138550545
 20
24.58200009158446
 10
-106.6663276486542
 20
24.51248284998456
 10
-106.8270862698543
 20
24.45817250498436
 10
-106.9943621324546
 20
24.42775871178452
 10
-107.1681552364543
 20
24.41689664278448
 10
-107.3419483404543
 20
24.42558629798424
 10
-107.5070517892545
 20
24.45382767738448
 10
-107.6678104104544
 20
24.50379319478435
 10
-107.8220517902543
 20
24.56679319498431
 10
-107.9676035148545
 20
24.64934491938431
 10
-108.1048131704624
 20
24.74936285073642
 10
-108.2330724812145
 20
24.86062780281378
 10
-108.3521207574545
 20
24.98606905838443
 10
-108.4588297233104
 20
25.12877665883735
 10
-108.5541552408544
 20
25.27934492138439
 10
-108.6367069652542
 20
25.44662078398443
 10
-108.7062242068546
 20
25.62258630178445
 10
-108.7605345518545
 20
25.80724147478446
 10
-108.8018104140547
 20
26.00275871678429
 10
-108.8278793796544
 20
26.20479320018427
 10
-108.8365690348546
 20
26.41768975258429
 10
-108.8365690348546
 20
28.67482769078453
 10
-108.7670507224084
 20
28.49365875531868
  0
LWPOLYLINE
  5
6B5B
330
6A45
100
AcDbEntity
  8
LW 5015-19-01
 62
     1
100
AcDbPolyline
 90
        6
 70
     1
 43
0.0
 10
-105.4671552310549
 20
37.94668978918463
 10
-105.4671552310546
 20
35.70910357518443
 10
-108.8365690348548
 20
35.70910357518443
 10
-108.8365690348548
 20
36.73231047498445
 10
-106.3339483372549
 20
36.73231047498445
 10
-106.3339483372549
 20
37.94668978918441
  0
LWPOLYLINE
  5
6B5C
330
6A45
100
AcDbEntity
  8
LW 5015-19-01
 62
     1
100
AcDbPolyline
 90
       57
 70
     1
 43
0.0
 10
-106.0922890261426
 20
32.65528935859317
 10
-106.2226338541427
 20
32.53543294441971
 10
-106.3621897166544
 20
32.42658632338436
 10
-106.5099138550547
 20
32.33968977138449
 10
-106.6663276486547
 20
32.26800011598431
 10
-106.8270862698546
 20
32.21586218478439
 10
-106.9943621324546
 20
32.18327597778449
 10
-107.1681552364548
 20
32.17241390878445
 10
-107.3419483404545
 20
32.18327597778449
 10
-107.5092242030546
 20
32.21586218478439
 10
-107.6699828242545
 20
32.26582770218425
 10
-107.8242242040546
 20
32.33751735758443
 10
-107.9697759286546
 20
32.42224149578425
 10
-108.1088104118548
 20
32.52651735818432
 10
-108.2375911019185
 20
32.64658232408266
 10
-108.3568131712627
 20
32.78114163485481
 10
-108.4663028267828
 20
32.93122066981397
 10
-108.5627579995027
 20
33.09004149790445
 10
-108.6453966204549
 20
33.25644839498437
 10
-108.7170862758548
 20
33.44110356798438
 10
-108.7713966208548
 20
33.6301035685845
 10
-108.8126724830547
 20
33.82779322438438
 10
-108.8409138624547
 20
34.03417253538447
 10
-108.8496035176547
 20
34.24489667398444
 10
-108.8496035176549
 20
35.47882771238443
 10
-108.0240862736548
 20
35.47882771238443
 10
-108.0240862736546
 20
34.23837943258451
 10
-108.0153966184548
 20
34.09500012178438
 10
-107.9882848942306
 20
33.96031046618447
 10
-107.9483124803107
 20
33.82883598300833
 10
-107.8959138594546
 20
33.70179322398445
 10
-107.8288297213107
 20
33.59438908571252
 10
-107.7525345486547
 20
33.49324149918431
 10
-107.6634655828548
 20
33.40634494718444
 10
-107.5657069618546
 20
33.33682770558431
 10
-107.5657069618546
 20
35.47882771238443
 10
-106.7380173040546
 20
35.47882771238443
 10
-106.7380173040546
 20
33.37375874018454
 10
-106.6525110968869
 20
33.44822908524844
 10
-106.5727400621508
 20
33.53564701656052
 10
-106.5051345446948
 20
33.63271046514439
 10
-106.4442200617427
 20
33.74237391376852
 10
-106.3962531650386
 20
33.85838081068852
 10
-106.3619290269989
 20
33.97899322486461
 10
-106.3399441993426
 20
34.11124977700848
 10
-106.3296035096546
 20
34.24489667398444
 10
-106.3296035096546
 20
35.47882771238443
 10
-105.4715000586547
 20
35.47882771238443
 10
-105.4715000586547
 20
34.26879322578458
 10
-105.4801897138545
 20
34.05589667338456
 10
-105.5040862656547
 20
33.84951736238446
 10
-105.5475345416548
 20
33.64965529278453
 10
-105.6040173004548
 20
33.45848287838459
 10
-105.6778793696548
 20
33.27382770538435
 10
-105.7626035078547
 20
33.10003460138438
 10
-105.8603621288548
 20
32.93927598018451
 10
-105.9709814395505
 20
32.79171694523331
  0
LINE
  5
6B5D
330
6A45
100
AcDbEntity
  8
LW 5015-19-01
  6
MITTE2
 62
     3
100
AcDbLine
 10
0.0
 20
37.00000000000006
 30
0.0
 11
0.0
 21
-37.00000000000006
 31
0.0
  0
INSERT
  5
6B5E
330
6A45
100
AcDbEntity
  8
LW 5015-19-01
100
AcDbBlockReference
 66
     1
  2
insertpoint-ECKELT
 10
0.0
 20
0.0
 30
0.0
  0
ATTRIB
  5
6B5F
330
6B5E
100
AcDbEntity
  8
insertpoint_ECKELT
100
AcDbText
 10
-6.93151432469286
 20
0.0
 30
0.0
 40
0.6
  1
LW 5015/19-01
 72
     2
 11
-1.199999999999818
 21
0.0
 31
0.0
100
AcDbAttribute
  2
LINKS
 70
     0
  0
ATTRIB
  5
6B60
330
6B5E
100
AcDbEntity
  8
insertpoint_ECKELT
100
AcDbText
 10
1.199999999999818
 20
0.0
 30
0.0
 40
0.6
  1

100
AcDbAttribute
  2
RECHTS
 70
     0
  0
SEQEND
  5
6B61
330
6B5E
100
AcDbEntity
  8
LW 5015-19-01
  0
POLYLINE
  5
6B62
330
6A45
100
AcDbEntity
  8
LW 5015-19-01
100
AcDb2dPolyline
 66
     1
 10
0.0
 20
0.0
 30
0.0
 70
   128
  0
VERTEX
  5
6B63
330
6B62
100
AcDbEntity
  8
LW 5015-19-01
100
AcDbVertex
100
AcDb2dVertex
 10
-85.50000023841835
 20
0.1000022888189846
 30
0.0
  0
VERTEX
  5
6B64
330
6B62
100
AcDbEntity
  8
LW 5015-19-01
100
AcDbVertex
100
AcDb2dVertex
 10
-85.48383784294106
 20
0.7524204254156644
 30
0.0
  0
VERTEX
  5
6B65
330
6B62
100
AcDbEntity
  8
LW 5015-19-01
100
AcDbVertex
100
AcDb2dVertex
 10
-85.43569993972756
 20
1.408705711365371
 30
0.0
  0
VERTEX
  5
6B66
330
6B62
100
AcDbEntity
  8
LW 5015-19-01
100
AcDbVertex
100
AcDb2dVertex
 10
-85.35610747337319
 20
2.063431739807754
 30
0.0
  0
VERTEX
  5
6B67
330
6B62
100
AcDbEntity
  8
LW 5015-19-01
100
AcDbVertex
100
AcDb2dVertex
 10
-85.24622988700844
 20
2.711348533630996
 30
0.0
  0
VERTEX
  5
6B68
330
6B62
100
AcDbEntity
  8
LW 5015-19-01
100
AcDbVertex
100
AcDb2dVertex
 10
-85.10924053192116
 20
3.347783088684707
 30
0.0
  0
VERTEX
  5
6B69
330
6B62
100
AcDbEntity
  8
LW 5015-19-01
100
AcDbVertex
100
AcDb2dVertex
 10
-84.94866681098915
 20
3.968186378479629
 30
0.0
  0
VERTEX
  5
6B6A
330
6B62
100
AcDbEntity
  8
LW 5015-19-01
100
AcDbVertex
100
AcDb2dVertex
 10
-84.76835083961464
 20
4.56830501556459
 30
0.0
  0
VERTEX
  5
6B6B
330
6B62
100
AcDbEntity
  8
LW 5015-19-01
100
AcDbVertex
100
AcDb2dVertex
 10
-84.57279276847817
 20
5.14498710632381
 30
0.0
  0
VERTEX
  5
6B6C
330
6B62
100
AcDbEntity
  8
LW 5015-19-01
100
AcDbVertex
100
AcDb2dVertex
 10
-84.36650586128212
 20
5.695304870606037
 30
0.0
  0
VERTEX
  5
6B6D
330
6B62
100
AcDbEntity
  8
LW 5015-19-01
100
AcDbVertex
100
AcDb2dVertex
 10
-84.1540045738218
 20
6.216325759888263
 30
0.0
  0
VERTEX
  5
6B6E
330
6B62
100
AcDbEntity
  8
LW 5015-19-01
100
AcDbVertex
100
AcDb2dVertex
 10
-83.93980336189247
 20
6.705121994019123
 30
0.0
  0
VERTEX
  5
6B6F
330
6B62
100
AcDbEntity
  8
LW 5015-19-01
100
AcDbVertex
100
AcDb2dVertex
 10
-83.72841668128945
 20
7.158765792847248
 30
0.0
  0
VERTEX
  5
6B70
330
6B62
100
AcDbEntity
  8
LW 5015-19-01
100
AcDbVertex
100
AcDb2dVertex
 10
-83.51902914047219
 20
7.584662437439533
 30
0.0
  0
VERTEX
  5
6B71
330
6B62
100
AcDbEntity
  8
LW 5015-19-01
100
AcDbVertex
100
AcDb2dVertex
 10
-83.31035447120644
 20
7.989382743836017
 30
0.0
  0
VERTEX
  5
6B72
330
6B62
100
AcDbEntity
  8
LW 5015-19-01
100
AcDbVertex
100
AcDb2dVertex
 10
-83.10615491867043
 20
8.368849754334064
 30
0.0
  0
VERTEX
  5
6B73
330
6B62
100
AcDbEntity
  8
LW 5015-19-01
100
AcDbVertex
100
AcDb2dVertex
 10
-82.91019630432106
 20
8.718976974487816
 30
0.0
  0
VERTEX
  5
6B74
330
6B62
100
AcDbEntity
  8
LW 5015-19-01
100
AcDbVertex
100
AcDb2dVertex
 10
-82.72623848915078
 20
9.035677909851585
 30
0.0
  0
VERTEX
  5
6B75
330
6B62
100
AcDbEntity
  8
LW 5015-19-01
100
AcDbVertex
100
AcDb2dVertex
 10
-82.55804610252358
 20
9.314870834351097
 30
0.0
  0
VERTEX
  5
6B76
330
6B62
100
AcDbEntity
  8
LW 5015-19-01
100
AcDbVertex
100
AcDb2dVertex
 10
-82.40935873985268
 20
9.552946090698753
 30
0.0
  0
VERTEX
  5
6B77
330
6B62
100
AcDbEntity
  8
LW 5015-19-01
100
AcDbVertex
100
AcDb2dVertex
 10
-82.28207540512062
 20
9.748716354370628
 30
0.0
  0
VERTEX
  5
6B78
330
6B62
100
AcDbEntity
  8
LW 5015-19-01
100
AcDbVertex
100
AcDb2dVertex
 10
-82.17720580100991
 20
9.901742935181175
 30
0.0
  0
VERTEX
  5
6B79
330
6B62
100
AcDbEntity
  8
LW 5015-19-01
100
AcDbVertex
100
AcDb2dVertex
 10
-82.09575486183144
 20
10.01159191131643
 30
0.0
  0
VERTEX
  5
6B7A
330
6B62
100
AcDbEntity
  8
LW 5015-19-01
100
AcDbVertex
100
AcDb2dVertex
 10
-82.03873229026772
 20
10.07782459259084
 30
0.0
  0
VERTEX
  5
6B7B
330
6B62
100
AcDbEntity
  8
LW 5015-19-01
100
AcDbVertex
100
AcDb2dVertex
 10
-82.00714421272255
 20
10.10000228881887
 30
0.0
  0
SEQEND
  5
6B7C
330
6B62
100
AcDbEntity
  8
LW 5015-19-01
  0
POLYLINE
  5
6B7D
330
6A45
100
AcDbEntity
  8
LW 5015-19-01
100
AcDb2dPolyline
 66
     1
 10
0.0
 20
0.0
 30
0.0
 70
   128
  0
VERTEX
  5
6B7E
330
6B7D
100
AcDbEntity
  8
LW 5015-19-01
100
AcDbVertex
100
AcDb2dVertex
 10
-116.9928557872768
 20
10.10000228881887
 30
0.0
  0
VERTEX
  5
6B7F
330
6B7D
100
AcDbEntity
  8
LW 5015-19-01
100
AcDbVertex
100
AcDb2dVertex
 10
-116.9612677097317
 20
10.07782459259084
 30
0.0
  0
VERTEX
  5
6B80
330
6B7D
100
AcDbEntity
  8
LW 5015-19-01
100
AcDbVertex
100
AcDb2dVertex
 10
-116.904245138168
 20
10.01159191131643
 30
0.0
  0
VERTEX
  5
6B81
330
6B7D
100
AcDbEntity
  8
LW 5015-19-01
100
AcDbVertex
100
AcDb2dVertex
 10
-116.8227941989895
 20
9.901742935181175
 30
0.0
  0
VERTEX
  5
6B82
330
6B7D
100
AcDbEntity
  8
LW 5015-19-01
100
AcDbVertex
100
AcDb2dVertex
 10
-116.7179245948789
 20
9.748716354370628
 30
0.0
  0
VERTEX
  5
6B83
330
6B7D
100
AcDbEntity
  8
LW 5015-19-01
100
AcDbVertex
100
AcDb2dVertex
 10
-116.5906412601468
 20
9.552946090698753
 30
0.0
  0
VERTEX
  5
6B84
330
6B7D
100
AcDbEntity
  8
LW 5015-19-01
100
AcDbVertex
100
AcDb2dVertex
 10
-116.441953897476
 20
9.314870834351097
 30
0.0
  0
VERTEX
  5
6B85
330
6B7D
100
AcDbEntity
  8
LW 5015-19-01
100
AcDbVertex
100
AcDb2dVertex
 10
-116.2737615108488
 20
9.035677909851585
 30
0.0
  0
VERTEX
  5
6B86
330
6B7D
100
AcDbEntity
  8
LW 5015-19-01
100
AcDbVertex
100
AcDb2dVertex
 10
-116.0898036956785
 20
8.718976974487816
 30
0.0
  0
VERTEX
  5
6B87
330
6B7D
100
AcDbEntity
  8
LW 5015-19-01
100
AcDbVertex
100
AcDb2dVertex
 10
-115.8938450813291
 20
8.368849754334064
 30
0.0
  0
VERTEX
  5
6B88
330
6B7D
100
AcDbEntity
  8
LW 5015-19-01
100
AcDbVertex
100
AcDb2dVertex
 10
-115.6896455287931
 20
7.989382743836017
 30
0.0
  0
VERTEX
  5
6B89
330
6B7D
100
AcDbEntity
  8
LW 5015-19-01
100
AcDbVertex
100
AcDb2dVertex
 10
-115.4809708595273
 20
7.584662437439533
 30
0.0
  0
VERTEX
  5
6B8A
330
6B7D
100
AcDbEntity
  8
LW 5015-19-01
100
AcDbVertex
100
AcDb2dVertex
 10
-115.2715833187101
 20
7.158765792847248
 30
0.0
  0
VERTEX
  5
6B8B
330
6B7D
100
AcDbEntity
  8
LW 5015-19-01
100
AcDbVertex
100
AcDb2dVertex
 10
-115.060196638107
 20
6.705121994019123
 30
0.0
  0
VERTEX
  5
6B8C
330
6B7D
100
AcDbEntity
  8
LW 5015-19-01
100
AcDbVertex
100
AcDb2dVertex
 10
-114.8459954261777
 20
6.216325759888263
 30
0.0
  0
VERTEX
  5
6B8D
330
6B7D
100
AcDbEntity
  8
LW 5015-19-01
100
AcDbVertex
100
AcDb2dVertex
 10
-114.6334941387174
 20
5.695304870606037
 30
0.0
  0
VERTEX
  5
6B8E
330
6B7D
100
AcDbEntity
  8
LW 5015-19-01
100
AcDbVertex
100
AcDb2dVertex
 10
-114.4272072315213
 20
5.14498710632381
 30
0.0
  0
VERTEX
  5
6B8F
330
6B7D
100
AcDbEntity
  8
LW 5015-19-01
100
AcDbVertex
100
AcDb2dVertex
 10
-114.2316491603849
 20
4.56830501556459
 30
0.0
  0
VERTEX
  5
6B90
330
6B7D
100
AcDbEntity
  8
LW 5015-19-01
100
AcDbVertex
100
AcDb2dVertex
 10
-114.0513331890104
 20
3.968186378479629
 30
0.0
  0
VERTEX
  5
6B91
330
6B7D
100
AcDbEntity
  8
LW 5015-19-01
100
AcDbVertex
100
AcDb2dVertex
 10
-113.8907594680784
 20
3.347783088684707
 30
0.0
  0
VERTEX
  5
6B92
330
6B7D
100
AcDbEntity
  8
LW 5015-19-01
100
AcDbVertex
100
AcDb2dVertex
 10
-113.7537701129911
 20
2.711348533630996
 30
0.0
  0
VERTEX
  5
6B93
330
6B7D
100
AcDbEntity
  8
LW 5015-19-01
100
AcDbVertex
100
AcDb2dVertex
 10
-113.6438925266263
 20
2.063431739807754
 30
0.0
  0
VERTEX
  5
6B94
330
6B7D
100
AcDbEntity
  8
LW 5015-19-01
100
AcDbVertex
100
AcDb2dVertex
 10
-113.564300060272
 20
1.408705711365371
 30
0.0
  0
VERTEX
  5
6B95
330
6B7D
100
AcDbEntity
  8
LW 5015-19-01
100
AcDbVertex
100
AcDb2dVertex
 10
-113.5161621570585
 20
0.7524204254156644
 30
0.0
  0
VERTEX
  5
6B96
330
6B7D
100
AcDbEntity
  8
LW 5015-19-01
100
AcDbVertex
100
AcDb2dVertex
 10
-113.4999997615812
 20
0.1000022888189846
 30
0.0
  0
SEQEND
  5
6B97
330
6B7D
100
AcDbEntity
  8
LW 5015-19-01
  0
POLYLINE
  5
6B98
330
6A45
100
AcDbEntity
  8
LW 5015-19-01
100
AcDb2dPolyline
 66
     1
 10
0.0
 20
0.0
 30
0.0
 70
   128
  0
VERTEX
  5
6B99
330
6B98
100
AcDbEntity
  8
LW 5015-19-01
100
AcDbVertex
100
AcDb2dVertex
 10
-82.00714421272255
 20
-10.10000228881756
 30
0.0
  0
VERTEX
  5
6B9A
330
6B98
100
AcDbEntity
  8
LW 5015-19-01
100
AcDbVertex
100
AcDb2dVertex
 10
-82.03873229026772
 20
-10.07782459258953
 30
0.0
  0
VERTEX
  5
6B9B
330
6B98
100
AcDbEntity
  8
LW 5015-19-01
100
AcDbVertex
100
AcDb2dVertex
 10
-82.09575486183144
 20
-10.01159191131512
 30
0.0
  0
VERTEX
  5
6B9C
330
6B98
100
AcDbEntity
  8
LW 5015-19-01
100
AcDbVertex
100
AcDb2dVertex
 10
-82.17720580100991
 20
-9.901742935179868
 30
0.0
  0
VERTEX
  5
6B9D
330
6B98
100
AcDbEntity
  8
LW 5015-19-01
100
AcDbVertex
100
AcDb2dVertex
 10
-82.28207540512062
 20
-9.748716354369321
 30
0.0
  0
VERTEX
  5
6B9E
330
6B98
100
AcDbEntity
  8
LW 5015-19-01
100
AcDbVertex
100
AcDb2dVertex
 10
-82.40935873985268
 20
-9.552946090697446
 30
0.0
  0
VERTEX
  5
6B9F
330
6B98
100
AcDbEntity
  8
LW 5015-19-01
100
AcDbVertex
100
AcDb2dVertex
 10
-82.55804610252358
 20
-9.31487083434979
 30
0.0
  0
VERTEX
  5
6BA0
330
6B98
100
AcDbEntity
  8
LW 5015-19-01
100
AcDbVertex
100
AcDb2dVertex
 10
-82.72623848915078
 20
-9.035677909850335
 30
0.0
  0
VERTEX
  5
6BA1
330
6B98
100
AcDbEntity
  8
LW 5015-19-01
100
AcDbVertex
100
AcDb2dVertex
 10
-82.91019630432106
 20
-8.718976974486565
 30
0.0
  0
VERTEX
  5
6BA2
330
6B98
100
AcDbEntity
  8
LW 5015-19-01
100
AcDbVertex
100
AcDb2dVertex
 10
-83.10615491867043
 20
-8.368849754332757
 30
0.0
  0
VERTEX
  5
6BA3
330
6B98
100
AcDbEntity
  8
LW 5015-19-01
100
AcDbVertex
100
AcDb2dVertex
 10
-83.31035447120644
 20
-7.98938274383471
 30
0.0
  0
VERTEX
  5
6BA4
330
6B98
100
AcDbEntity
  8
LW 5015-19-01
100
AcDbVertex
100
AcDb2dVertex
 10
-83.51902914047219
 20
-7.584662437438225
 30
0.0
  0
VERTEX
  5
6BA5
330
6B98
100
AcDbEntity
  8
LW 5015-19-01
100
AcDbVertex
100
AcDb2dVertex
 10
-83.72841668128945
 20
-7.15876579284594
 30
0.0
  0
VERTEX
  5
6BA6
330
6B98
100
AcDbEntity
  8
LW 5015-19-01
100
AcDbVertex
100
AcDb2dVertex
 10
-83.93980336189247
 20
-6.705121994017815
 30
0.0
  0
VERTEX
  5
6BA7
330
6B98
100
AcDbEntity
  8
LW 5015-19-01
100
AcDbVertex
100
AcDb2dVertex
 10
-84.1540045738218
 20
-6.216325759886956
 30
0.0
  0
VERTEX
  5
6BA8
330
6B98
100
AcDbEntity
  8
LW 5015-19-01
100
AcDbVertex
100
AcDb2dVertex
 10
-84.36650586128212
 20
-5.695304870604729
 30
0.0
  0
VERTEX
  5
6BA9
330
6B98
100
AcDbEntity
  8
LW 5015-19-01
100
AcDbVertex
100
AcDb2dVertex
 10
-84.57279276847817
 20
-5.144987106322503
 30
0.0
  0
VERTEX
  5
6BAA
330
6B98
100
AcDbEntity
  8
LW 5015-19-01
100
AcDbVertex
100
AcDb2dVertex
 10
-84.76835083961464
 20
-4.568305015563225
 30
0.0
  0
VERTEX
  5
6BAB
330
6B98
100
AcDbEntity
  8
LW 5015-19-01
100
AcDbVertex
100
AcDb2dVertex
 10
-84.94866681098915
 20
-3.968186378478264
 30
0.0
  0
VERTEX
  5
6BAC
330
6B98
100
AcDbEntity
  8
LW 5015-19-01
100
AcDbVertex
100
AcDb2dVertex
 10
-85.10924053192116
 20
-3.347783088683343
 30
0.0
  0
VERTEX
  5
6BAD
330
6B98
100
AcDbEntity
  8
LW 5015-19-01
100
AcDbVertex
100
AcDb2dVertex
 10
-85.24622988700844
 20
-2.711348533629688
 30
0.0
  0
VERTEX
  5
6BAE
330
6B98
100
AcDbEntity
  8
LW 5015-19-01
100
AcDbVertex
100
AcDb2dVertex
 10
-85.35610747337319
 20
-2.063431739806446
 30
0.0
  0
VERTEX
  5
6BAF
330
6B98
100
AcDbEntity
  8
LW 5015-19-01
100
AcDbVertex
100
AcDb2dVertex
 10
-85.43569993972756
 20
-1.408705711364063
 30
0.0
  0
VERTEX
  5
6BB0
330
6B98
100
AcDbEntity
  8
LW 5015-19-01
100
AcDbVertex
100
AcDb2dVertex
 10
-85.48383784294106
 20
-0.7524204254144138
 30
0.0
  0
VERTEX
  5
6BB1
330
6B98
100
AcDbEntity
  8
LW 5015-19-01
100
AcDbVertex
100
AcDb2dVertex
 10
-85.50000023841835
 20
-0.1000022888177341
 30
0.0
  0
SEQEND
  5
6BB2
330
6B98
100
AcDbEntity
  8
LW 5015-19-01
  0
POLYLINE
  5
6BB3
330
6A45
100
AcDbEntity
  8
LW 5015-19-01
100
AcDb2dPolyline
 66
     1
 10
0.0
 20
0.0
 30
0.0
 70
   128
  0
VERTEX
  5
6BB4
330
6BB3
100
AcDbEntity
  8
LW 5015-19-01
100
AcDbVertex
100
AcDb2dVertex
 10
-113.4999997615812
 20
-0.1000022888177341
 30
0.0
  0
VERTEX
  5
6BB5
330
6BB3
100
AcDbEntity
  8
LW 5015-19-01
100
AcDbVertex
100
AcDb2dVertex
 10
-113.5161621570585
 20
-0.7524204254144138
 30
0.0
  0
VERTEX
  5
6BB6
330
6BB3
100
AcDbEntity
  8
LW 5015-19-01
100
AcDbVertex
100
AcDb2dVertex
 10
-113.564300060272
 20
-1.408705711364063
 30
0.0
  0
VERTEX
  5
6BB7
330
6BB3
100
AcDbEntity
  8
LW 5015-19-01
100
AcDbVertex
100
AcDb2dVertex
 10
-113.6438925266263
 20
-2.063431739806446
 30
0.0
  0
VERTEX
  5
6BB8
330
6BB3
100
AcDbEntity
  8
LW 5015-19-01
100
AcDbVertex
100
AcDb2dVertex
 10
-113.7537701129911
 20
-2.711348533629688
 30
0.0
  0
VERTEX
  5
6BB9
330
6BB3
100
AcDbEntity
  8
LW 5015-19-01
100
AcDbVertex
100
AcDb2dVertex
 10
-113.8907594680784
 20
-3.347783088683343
 30
0.0
  0
VERTEX
  5
6BBA
330
6BB3
100
AcDbEntity
  8
LW 5015-19-01
100
AcDbVertex
100
AcDb2dVertex
 10
-114.0513331890104
 20
-3.968186378478264
 30
0.0
  0
VERTEX
  5
6BBB
330
6BB3
100
AcDbEntity
  8
LW 5015-19-01
100
AcDbVertex
100
AcDb2dVertex
 10
-114.2316491603849
 20
-4.568305015563225
 30
0.0
  0
VERTEX
  5
6BBC
330
6BB3
100
AcDbEntity
  8
LW 5015-19-01
100
AcDbVertex
100
AcDb2dVertex
 10
-114.4272072315213
 20
-5.144987106322503
 30
0.0
  0
VERTEX
  5
6BBD
330
6BB3
100
AcDbEntity
  8
LW 5015-19-01
100
AcDbVertex
100
AcDb2dVertex
 10
-114.6334941387174
 20
-5.695304870604729
 30
0.0
  0
VERTEX
  5
6BBE
330
6BB3
100
AcDbEntity
  8
LW 5015-19-01
100
AcDbVertex
100
AcDb2dVertex
 10
-114.8459954261777
 20
-6.216325759886956
 30
0.0
  0
VERTEX
  5
6BBF
330
6BB3
100
AcDbEntity
  8
LW 5015-19-01
100
AcDbVertex
100
AcDb2dVertex
 10
-115.060196638107
 20
-6.705121994017815
 30
0.0
  0
VERTEX
  5
6BC0
330
6BB3
100
AcDbEntity
  8
LW 5015-19-01
100
AcDbVertex
100
AcDb2dVertex
 10
-115.2715833187101
 20
-7.15876579284594
 30
0.0
  0
VERTEX
  5
6BC1
330
6BB3
100
AcDbEntity
  8
LW 5015-19-01
100
AcDbVertex
100
AcDb2dVertex
 10
-115.4809708595273
 20
-7.584662437438225
 30
0.0
  0
VERTEX
  5
6BC2
330
6BB3
100
AcDbEntity
  8
LW 5015-19-01
100
AcDbVertex
100
AcDb2dVertex
 10
-115.6896455287931
 20
-7.98938274383471
 30
0.0
  0
VERTEX
  5
6BC3
330
6BB3
100
AcDbEntity
  8
LW 5015-19-01
100
AcDbVertex
100
AcDb2dVertex
 10
-115.8938450813291
 20
-8.368849754332757
 30
0.0
  0
VERTEX
  5
6BC4
330
6BB3
100
AcDbEntity
  8
LW 5015-19-01
100
AcDbVertex
100
AcDb2dVertex
 10
-116.0898036956785
 20
-8.718976974486565
 30
0.0
  0
VERTEX
  5
6BC5
330
6BB3
100
AcDbEntity
  8
LW 5015-19-01
100
AcDbVertex
100
AcDb2dVertex
 10
-116.2737615108488
 20
-9.035677909850335
 30
0.0
  0
VERTEX
  5
6BC6
330
6BB3
100
AcDbEntity
  8
LW 5015-19-01
100
AcDbVertex
100
AcDb2dVertex
 10
-116.441953897476
 20
-9.31487083434979
 30
0.0
  0
VERTEX
  5
6BC7
330
6BB3
100
AcDbEntity
  8
LW 5015-19-01
100
AcDbVertex
100
AcDb2dVertex
 10
-116.5906412601468
 20
-9.552946090697446
 30
0.0
  0
VERTEX
  5
6BC8
330
6BB3
100
AcDbEntity
  8
LW 5015-19-01
100
AcDbVertex
100
AcDb2dVertex
 10
-116.7179245948789
 20
-9.748716354369321
 30
0.0
  0
VERTEX
  5
6BC9
330
6BB3
100
AcDbEntity
  8
LW 5015-19-01
100
AcDbVertex
100
AcDb2dVertex
 10
-116.8227941989895
 20
-9.901742935179868
 30
0.0
  0
VERTEX
  5
6BCA
330
6BB3
100
AcDbEntity
  8
LW 5015-19-01
100
AcDbVertex
100
AcDb2dVertex
 10
-116.904245138168
 20
-10.01159191131512
 30
0.0
  0
VERTEX
  5
6BCB
330
6BB3
100
AcDbEntity
  8
LW 5015-19-01
100
AcDbVertex
100
AcDb2dVertex
 10
-116.9612677097317
 20
-10.07782459258953
 30
0.0
  0
VERTEX
  5
6BCC
330
6BB3
100
AcDbEntity
  8
LW 5015-19-01
100
AcDbVertex
100
AcDb2dVertex
 10
-116.9928557872768
 20
-10.10000228881756
 30
0.0
  0
SEQEND
  5
6BCD
330
6BB3
100
AcDbEntity
  8
LW 5015-19-01
  0
LINE
  5
6BCE
330
6A45
100
AcDbEntity
  8
LW 5015-19-01
100
AcDbLine
 10
-113.4999997615812
 20
-0.1000022888177341
 30
0.0
 11
-113.4999997615812
 21
0.1000022888189846
 31
0.0
  0
LINE
  5
6BCF
330
6A45
100
AcDbEntity
  8
LW 5015-19-01
100
AcDbLine
 10
-85.50000023841835
 20
-0.1000022888177341
 30
0.0
 11
-85.50000023841835
 21
0.1000022888189846
 31
0.0
  0
LINE
  5
6BD0
330
6A45
100
AcDbEntity
  8
LW 5015-19-01
100
AcDbLine
 10
-116.9928557872768
 20
-10.10000228881756
 30
0.0
 11
-116.9999999999998
 21
-10.10000228881756
 31
0.0
  0
LINE
  5
6BD1
330
6A45
100
AcDbEntity
  8
LW 5015-19-01
100
AcDbLine
 10
-116.9928557872768
 20
10.10000228881887
 30
0.0
 11
-116.9999999999997
 21
10.10000000000008
 31
0.0
  0
LINE
  5
6BD2
330
6A45
100
AcDbEntity
  8
LW 5015-19-01
100
AcDbLine
 10
-82.00714421272255
 20
10.10000228881887
 30
0.0
 11
-81.99999999999977
 21
10.10000000000008
 31
0.0
  0
LINE
  5
6BD3
330
6A45
100
AcDbEntity
  8
LW 5015-19-01
100
AcDbLine
 10
-82.00714421272255
 20
-10.10000228881756
 30
0.0
 11
-81.99999999999977
 21
-10.09999999999996
 31
0.0
  0
POLYLINE
  5
6BD4
330
6A45
100
AcDbEntity
  8
LW 5015-19-01
100
AcDb2dPolyline
 66
     1
 10
0.0
 20
0.0
 30
0.0
 70
   128
  0
VERTEX
  5
6BD5
330
6BD4
100
AcDbEntity
  8
LW 5015-19-01
100
AcDbVertex
100
AcDb2dVertex
 10
113.4999997615816
 20
0.1000022888189846
 30
0.0
  0
VERTEX
  5
6BD6
330
6BD4
100
AcDbEntity
  8
LW 5015-19-01
100
AcDbVertex
100
AcDb2dVertex
 10
113.5161621570589
 20
0.7524204254156644
 30
0.0
  0
VERTEX
  5
6BD7
330
6BD4
100
AcDbEntity
  8
LW 5015-19-01
100
AcDbVertex
100
AcDb2dVertex
 10
113.5643000602724
 20
1.408705711365371
 30
0.0
  0
VERTEX
  5
6BD8
330
6BD4
100
AcDbEntity
  8
LW 5015-19-01
100
AcDbVertex
100
AcDb2dVertex
 10
113.6438925266268
 20
2.063431739807754
 30
0.0
  0
VERTEX
  5
6BD9
330
6BD4
100
AcDbEntity
  8
LW 5015-19-01
100
AcDbVertex
100
AcDb2dVertex
 10
113.7537701129915
 20
2.711348533630996
 30
0.0
  0
VERTEX
  5
6BDA
330
6BD4
100
AcDbEntity
  8
LW 5015-19-01
100
AcDbVertex
100
AcDb2dVertex
 10
113.8907594680788
 20
3.347783088684707
 30
0.0
  0
VERTEX
  5
6BDB
330
6BD4
100
AcDbEntity
  8
LW 5015-19-01
100
AcDbVertex
100
AcDb2dVertex
 10
114.0513331890108
 20
3.968186378479629
 30
0.0
  0
VERTEX
  5
6BDC
330
6BD4
100
AcDbEntity
  8
LW 5015-19-01
100
AcDbVertex
100
AcDb2dVertex
 10
114.2316491603853
 20
4.56830501556459
 30
0.0
  0
VERTEX
  5
6BDD
330
6BD4
100
AcDbEntity
  8
LW 5015-19-01
100
AcDbVertex
100
AcDb2dVertex
 10
114.4272072315218
 20
5.14498710632381
 30
0.0
  0
VERTEX
  5
6BDE
330
6BD4
100
AcDbEntity
  8
LW 5015-19-01
100
AcDbVertex
100
AcDb2dVertex
 10
114.6334941387179
 20
5.695304870606037
 30
0.0
  0
VERTEX
  5
6BDF
330
6BD4
100
AcDbEntity
  8
LW 5015-19-01
100
AcDbVertex
100
AcDb2dVertex
 10
114.8459954261782
 20
6.216325759888263
 30
0.0
  0
VERTEX
  5
6BE0
330
6BD4
100
AcDbEntity
  8
LW 5015-19-01
100
AcDbVertex
100
AcDb2dVertex
 10
115.0601966381075
 20
6.705121994019123
 30
0.0
  0
VERTEX
  5
6BE1
330
6BD4
100
AcDbEntity
  8
LW 5015-19-01
100
AcDbVertex
100
AcDb2dVertex
 10
115.2715833187105
 20
7.158765792847248
 30
0.0
  0
VERTEX
  5
6BE2
330
6BD4
100
AcDbEntity
  8
LW 5015-19-01
100
AcDbVertex
100
AcDb2dVertex
 10
115.4809708595278
 20
7.584662437439533
 30
0.0
  0
VERTEX
  5
6BE3
330
6BD4
100
AcDbEntity
  8
LW 5015-19-01
100
AcDbVertex
100
AcDb2dVertex
 10
115.6896455287935
 20
7.989382743836017
 30
0.0
  0
VERTEX
  5
6BE4
330
6BD4
100
AcDbEntity
  8
LW 5015-19-01
100
AcDbVertex
100
AcDb2dVertex
 10
115.8938450813296
 20
8.368849754334064
 30
0.0
  0
VERTEX
  5
6BE5
330
6BD4
100
AcDbEntity
  8
LW 5015-19-01
100
AcDbVertex
100
AcDb2dVertex
 10
116.0898036956789
 20
8.718976974487816
 30
0.0
  0
VERTEX
  5
6BE6
330
6BD4
100
AcDbEntity
  8
LW 5015-19-01
100
AcDbVertex
100
AcDb2dVertex
 10
116.2737615108492
 20
9.035677909851585
 30
0.0
  0
VERTEX
  5
6BE7
330
6BD4
100
AcDbEntity
  8
LW 5015-19-01
100
AcDbVertex
100
AcDb2dVertex
 10
116.4419538974764
 20
9.314870834351097
 30
0.0
  0
VERTEX
  5
6BE8
330
6BD4
100
AcDbEntity
  8
LW 5015-19-01
100
AcDbVertex
100
AcDb2dVertex
 10
116.5906412601473
 20
9.552946090698753
 30
0.0
  0
VERTEX
  5
6BE9
330
6BD4
100
AcDbEntity
  8
LW 5015-19-01
100
AcDbVertex
100
AcDb2dVertex
 10
116.7179245948793
 20
9.748716354370628
 30
0.0
  0
VERTEX
  5
6BEA
330
6BD4
100
AcDbEntity
  8
LW 5015-19-01
100
AcDbVertex
100
AcDb2dVertex
 10
116.8227941989901
 20
9.901742935181175
 30
0.0
  0
VERTEX
  5
6BEB
330
6BD4
100
AcDbEntity
  8
LW 5015-19-01
100
AcDbVertex
100
AcDb2dVertex
 10
116.9042451381685
 20
10.01159191131643
 30
0.0
  0
VERTEX
  5
6BEC
330
6BD4
100
AcDbEntity
  8
LW 5015-19-01
100
AcDbVertex
100
AcDb2dVertex
 10
116.9612677097322
 20
10.07782459259084
 30
0.0
  0
VERTEX
  5
6BED
330
6BD4
100
AcDbEntity
  8
LW 5015-19-01
100
AcDbVertex
100
AcDb2dVertex
 10
116.9928557872774
 20
10.10000228881887
 30
0.0
  0
SEQEND
  5
6BEE
330
6BD4
100
AcDbEntity
  8
LW 5015-19-01
  0
POLYLINE
  5
6BEF
330
6A45
100
AcDbEntity
  8
LW 5015-19-01
100
AcDb2dPolyline
 66
     1
 10
0.0
 20
0.0
 30
0.0
 70
   128
  0
VERTEX
  5
6BF0
330
6BEF
100
AcDbEntity
  8
LW 5015-19-01
100
AcDbVertex
100
AcDb2dVertex
 10
82.00714421272312
 20
10.10000228881887
 30
0.0
  0
VERTEX
  5
6BF1
330
6BEF
100
AcDbEntity
  8
LW 5015-19-01
100
AcDbVertex
100
AcDb2dVertex
 10
82.03873229026829
 20
10.07782459259084
 30
0.0
  0
VERTEX
  5
6BF2
330
6BEF
100
AcDbEntity
  8
LW 5015-19-01
100
AcDbVertex
100
AcDb2dVertex
 10
82.09575486183201
 20
10.01159191131643
 30
0.0
  0
VERTEX
  5
6BF3
330
6BEF
100
AcDbEntity
  8
LW 5015-19-01
100
AcDbVertex
100
AcDb2dVertex
 10
82.17720580101048
 20
9.901742935181175
 30
0.0
  0
VERTEX
  5
6BF4
330
6BEF
100
AcDbEntity
  8
LW 5015-19-01
100
AcDbVertex
100
AcDb2dVertex
 10
82.28207540512107
 20
9.748716354370628
 30
0.0
  0
VERTEX
  5
6BF5
330
6BEF
100
AcDbEntity
  8
LW 5015-19-01
100
AcDbVertex
100
AcDb2dVertex
 10
82.40935873985312
 20
9.552946090698753
 30
0.0
  0
VERTEX
  5
6BF6
330
6BEF
100
AcDbEntity
  8
LW 5015-19-01
100
AcDbVertex
100
AcDb2dVertex
 10
82.55804610252402
 20
9.314870834351097
 30
0.0
  0
VERTEX
  5
6BF7
330
6BEF
100
AcDbEntity
  8
LW 5015-19-01
100
AcDbVertex
100
AcDb2dVertex
 10
82.72623848915122
 20
9.035677909851585
 30
0.0
  0
VERTEX
  5
6BF8
330
6BEF
100
AcDbEntity
  8
LW 5015-19-01
100
AcDbVertex
100
AcDb2dVertex
 10
82.91019630432151
 20
8.718976974487816
 30
0.0
  0
VERTEX
  5
6BF9
330
6BEF
100
AcDbEntity
  8
LW 5015-19-01
100
AcDbVertex
100
AcDb2dVertex
 10
83.10615491867087
 20
8.368849754334064
 30
0.0
  0
VERTEX
  5
6BFA
330
6BEF
100
AcDbEntity
  8
LW 5015-19-01
100
AcDbVertex
100
AcDb2dVertex
 10
83.31035447120688
 20
7.989382743836017
 30
0.0
  0
VERTEX
  5
6BFB
330
6BEF
100
AcDbEntity
  8
LW 5015-19-01
100
AcDbVertex
100
AcDb2dVertex
 10
83.51902914047263
 20
7.584662437439533
 30
0.0
  0
VERTEX
  5
6BFC
330
6BEF
100
AcDbEntity
  8
LW 5015-19-01
100
AcDbVertex
100
AcDb2dVertex
 10
83.72841668128989
 20
7.158765792847248
 30
0.0
  0
VERTEX
  5
6BFD
330
6BEF
100
AcDbEntity
  8
LW 5015-19-01
100
AcDbVertex
100
AcDb2dVertex
 10
83.93980336189292
 20
6.705121994019123
 30
0.0
  0
VERTEX
  5
6BFE
330
6BEF
100
AcDbEntity
  8
LW 5015-19-01
100
AcDbVertex
100
AcDb2dVertex
 10
84.15400457382224
 20
6.216325759888263
 30
0.0
  0
VERTEX
  5
6BFF
330
6BEF
100
AcDbEntity
  8
LW 5015-19-01
100
AcDbVertex
100
AcDb2dVertex
 10
84.36650586128257
 20
5.695304870606037
 30
0.0
  0
VERTEX
  5
6C00
330
6BEF
100
AcDbEntity
  8
LW 5015-19-01
100
AcDbVertex
100
AcDb2dVertex
 10
84.57279276847861
 20
5.14498710632381
 30
0.0
  0
VERTEX
  5
6C01
330
6BEF
100
AcDbEntity
  8
LW 5015-19-01
100
AcDbVertex
100
AcDb2dVertex
 10
84.76835083961509
 20
4.56830501556459
 30
0.0
  0
VERTEX
  5
6C02
330
6BEF
100
AcDbEntity
  8
LW 5015-19-01
100
AcDbVertex
100
AcDb2dVertex
 10
84.9486668109896
 20
3.968186378479629
 30
0.0
  0
VERTEX
  5
6C03
330
6BEF
100
AcDbEntity
  8
LW 5015-19-01
100
AcDbVertex
100
AcDb2dVertex
 10
85.10924053192161
 20
3.347783088684707
 30
0.0
  0
VERTEX
  5
6C04
330
6BEF
100
AcDbEntity
  8
LW 5015-19-01
100
AcDbVertex
100
AcDb2dVertex
 10
85.24622988700889
 20
2.711348533630996
 30
0.0
  0
VERTEX
  5
6C05
330
6BEF
100
AcDbEntity
  8
LW 5015-19-01
100
AcDbVertex
100
AcDb2dVertex
 10
85.35610747337363
 20
2.063431739807754
 30
0.0
  0
VERTEX
  5
6C06
330
6BEF
100
AcDbEntity
  8
LW 5015-19-01
100
AcDbVertex
100
AcDb2dVertex
 10
85.435699939728
 20
1.408705711365371
 30
0.0
  0
VERTEX
  5
6C07
330
6BEF
100
AcDbEntity
  8
LW 5015-19-01
100
AcDbVertex
100
AcDb2dVertex
 10
85.4838378429415
 20
0.7524204254156644
 30
0.0
  0
VERTEX
  5
6C08
330
6BEF
100
AcDbEntity
  8
LW 5015-19-01
100
AcDbVertex
100
AcDb2dVertex
 10
85.5000002384188
 20
0.1000022888189846
 30
0.0
  0
SEQEND
  5
6C09
330
6BEF
100
AcDbEntity
  8
LW 5015-19-01
  0
POLYLINE
  5
6C0A
330
6A45
100
AcDbEntity
  8
LW 5015-19-01
100
AcDb2dPolyline
 66
     1
 10
0.0
 20
0.0
 30
0.0
 70
   128
  0
VERTEX
  5
6C0B
330
6C0A
100
AcDbEntity
  8
LW 5015-19-01
100
AcDbVertex
100
AcDb2dVertex
 10
116.9928557872774
 20
-10.10000228881756
 30
0.0
  0
VERTEX
  5
6C0C
330
6C0A
100
AcDbEntity
  8
LW 5015-19-01
100
AcDbVertex
100
AcDb2dVertex
 10
116.9612677097322
 20
-10.07782459258953
 30
0.0
  0
VERTEX
  5
6C0D
330
6C0A
100
AcDbEntity
  8
LW 5015-19-01
100
AcDbVertex
100
AcDb2dVertex
 10
116.9042451381685
 20
-10.01159191131512
 30
0.0
  0
VERTEX
  5
6C0E
330
6C0A
100
AcDbEntity
  8
LW 5015-19-01
100
AcDbVertex
100
AcDb2dVertex
 10
116.8227941989901
 20
-9.901742935179868
 30
0.0
  0
VERTEX
  5
6C0F
330
6C0A
100
AcDbEntity
  8
LW 5015-19-01
100
AcDbVertex
100
AcDb2dVertex
 10
116.7179245948793
 20
-9.748716354369321
 30
0.0
  0
VERTEX
  5
6C10
330
6C0A
100
AcDbEntity
  8
LW 5015-19-01
100
AcDbVertex
100
AcDb2dVertex
 10
116.5906412601473
 20
-9.552946090697446
 30
0.0
  0
VERTEX
  5
6C11
330
6C0A
100
AcDbEntity
  8
LW 5015-19-01
100
AcDbVertex
100
AcDb2dVertex
 10
116.4419538974764
 20
-9.31487083434979
 30
0.0
  0
VERTEX
  5
6C12
330
6C0A
100
AcDbEntity
  8
LW 5015-19-01
100
AcDbVertex
100
AcDb2dVertex
 10
116.2737615108492
 20
-9.035677909850335
 30
0.0
  0
VERTEX
  5
6C13
330
6C0A
100
AcDbEntity
  8
LW 5015-19-01
100
AcDbVertex
100
AcDb2dVertex
 10
116.0898036956789
 20
-8.718976974486565
 30
0.0
  0
VERTEX
  5
6C14
330
6C0A
100
AcDbEntity
  8
LW 5015-19-01
100
AcDbVertex
100
AcDb2dVertex
 10
115.8938450813296
 20
-8.368849754332757
 30
0.0
  0
VERTEX
  5
6C15
330
6C0A
100
AcDbEntity
  8
LW 5015-19-01
100
AcDbVertex
100
AcDb2dVertex
 10
115.6896455287935
 20
-7.98938274383471
 30
0.0
  0
VERTEX
  5
6C16
330
6C0A
100
AcDbEntity
  8
LW 5015-19-01
100
AcDbVertex
100
AcDb2dVertex
 10
115.4809708595278
 20
-7.584662437438225
 30
0.0
  0
VERTEX
  5
6C17
330
6C0A
100
AcDbEntity
  8
LW 5015-19-01
100
AcDbVertex
100
AcDb2dVertex
 10
115.2715833187105
 20
-7.15876579284594
 30
0.0
  0
VERTEX
  5
6C18
330
6C0A
100
AcDbEntity
  8
LW 5015-19-01
100
AcDbVertex
100
AcDb2dVertex
 10
115.0601966381075
 20
-6.705121994017815
 30
0.0
  0
VERTEX
  5
6C19
330
6C0A
100
AcDbEntity
  8
LW 5015-19-01
100
AcDbVertex
100
AcDb2dVertex
 10
114.8459954261782
 20
-6.216325759886956
 30
0.0
  0
VERTEX
  5
6C1A
330
6C0A
100
AcDbEntity
  8
LW 5015-19-01
100
AcDbVertex
100
AcDb2dVertex
 10
114.6334941387179
 20
-5.695304870604729
 30
0.0
  0
VERTEX
  5
6C1B
330
6C0A
100
AcDbEntity
  8
LW 5015-19-01
100
AcDbVertex
100
AcDb2dVertex
 10
114.4272072315218
 20
-5.144987106322503
 30
0.0
  0
VERTEX
  5
6C1C
330
6C0A
100
AcDbEntity
  8
LW 5015-19-01
100
AcDbVertex
100
AcDb2dVertex
 10
114.2316491603853
 20
-4.568305015563225
 30
0.0
  0
VERTEX
  5
6C1D
330
6C0A
100
AcDbEntity
  8
LW 5015-19-01
100
AcDbVertex
100
AcDb2dVertex
 10
114.0513331890108
 20
-3.968186378478264
 30
0.0
  0
VERTEX
  5
6C1E
330
6C0A
100
AcDbEntity
  8
LW 5015-19-01
100
AcDbVertex
100
AcDb2dVertex
 10
113.8907594680788
 20
-3.347783088683343
 30
0.0
  0
VERTEX
  5
6C1F
330
6C0A
100
AcDbEntity
  8
LW 5015-19-01
100
AcDbVertex
100
AcDb2dVertex
 10
113.7537701129915
 20
-2.711348533629688
 30
0.0
  0
VERTEX
  5
6C20
330
6C0A
100
AcDbEntity
  8
LW 5015-19-01
100
AcDbVertex
100
AcDb2dVertex
 10
113.6438925266268
 20
-2.063431739806446
 30
0.0
  0
VERTEX
  5
6C21
330
6C0A
100
AcDbEntity
  8
LW 5015-19-01
100
AcDbVertex
100
AcDb2dVertex
 10
113.5643000602724
 20
-1.408705711364063
 30
0.0
  0
VERTEX
  5
6C22
330
6C0A
100
AcDbEntity
  8
LW 5015-19-01
100
AcDbVertex
100
AcDb2dVertex
 10
113.5161621570589
 20
-0.7524204254144138
 30
0.0
  0
VERTEX
  5
6C23
330
6C0A
100
AcDbEntity
  8
LW 5015-19-01
100
AcDbVertex
100
AcDb2dVertex
 10
113.4999997615816
 20
-0.1000022888177341
 30
0.0
  0
SEQEND
  5
6C24
330
6C0A
100
AcDbEntity
  8
LW 5015-19-01
  0
POLYLINE
  5
6C25
330
6A45
100
AcDbEntity
  8
LW 5015-19-01
100
AcDb2dPolyline
 66
     1
 10
0.0
 20
0.0
 30
0.0
 70
   128
  0
VERTEX
  5
6C26
330
6C25
100
AcDbEntity
  8
LW 5015-19-01
100
AcDbVertex
100
AcDb2dVertex
 10
85.5000002384188
 20
-0.1000022888177341
 30
0.0
  0
VERTEX
  5
6C27
330
6C25
100
AcDbEntity
  8
LW 5015-19-01
100
AcDbVertex
100
AcDb2dVertex
 10
85.4838378429415
 20
-0.7524204254144138
 30
0.0
  0
VERTEX
  5
6C28
330
6C25
100
AcDbEntity
  8
LW 5015-19-01
100
AcDbVertex
100
AcDb2dVertex
 10
85.435699939728
 20
-1.408705711364063
 30
0.0
  0
VERTEX
  5
6C29
330
6C25
100
AcDbEntity
  8
LW 5015-19-01
100
AcDbVertex
100
AcDb2dVertex
 10
85.35610747337363
 20
-2.063431739806446
 30
0.0
  0
VERTEX
  5
6C2A
330
6C25
100
AcDbEntity
  8
LW 5015-19-01
100
AcDbVertex
100
AcDb2dVertex
 10
85.24622988700889
 20
-2.711348533629688
 30
0.0
  0
VERTEX
  5
6C2B
330
6C25
100
AcDbEntity
  8
LW 5015-19-01
100
AcDbVertex
100
AcDb2dVertex
 10
85.10924053192161
 20
-3.347783088683343
 30
0.0
  0
VERTEX
  5
6C2C
330
6C25
100
AcDbEntity
  8
LW 5015-19-01
100
AcDbVertex
100
AcDb2dVertex
 10
84.9486668109896
 20
-3.968186378478264
 30
0.0
  0
VERTEX
  5
6C2D
330
6C25
100
AcDbEntity
  8
LW 5015-19-01
100
AcDbVertex
100
AcDb2dVertex
 10
84.76835083961509
 20
-4.568305015563225
 30
0.0
  0
VERTEX
  5
6C2E
330
6C25
100
AcDbEntity
  8
LW 5015-19-01
100
AcDbVertex
100
AcDb2dVertex
 10
84.57279276847861
 20
-5.144987106322503
 30
0.0
  0
VERTEX
  5
6C2F
330
6C25
100
AcDbEntity
  8
LW 5015-19-01
100
AcDbVertex
100
AcDb2dVertex
 10
84.36650586128257
 20
-5.695304870604729
 30
0.0
  0
VERTEX
  5
6C30
330
6C25
100
AcDbEntity
  8
LW 5015-19-01
100
AcDbVertex
100
AcDb2dVertex
 10
84.15400457382224
 20
-6.216325759886956
 30
0.0
  0
VERTEX
  5
6C31
330
6C25
100
AcDbEntity
  8
LW 5015-19-01
100
AcDbVertex
100
AcDb2dVertex
 10
83.93980336189292
 20
-6.705121994017815
 30
0.0
  0
VERTEX
  5
6C32
330
6C25
100
AcDbEntity
  8
LW 5015-19-01
100
AcDbVertex
100
AcDb2dVertex
 10
83.72841668128989
 20
-7.15876579284594
 30
0.0
  0
VERTEX
  5
6C33
330
6C25
100
AcDbEntity
  8
LW 5015-19-01
100
AcDbVertex
100
AcDb2dVertex
 10
83.51902914047263
 20
-7.584662437438225
 30
0.0
  0
VERTEX
  5
6C34
330
6C25
100
AcDbEntity
  8
LW 5015-19-01
100
AcDbVertex
100
AcDb2dVertex
 10
83.31035447120688
 20
-7.98938274383471
 30
0.0
  0
VERTEX
  5
6C35
330
6C25
100
AcDbEntity
  8
LW 5015-19-01
100
AcDbVertex
100
AcDb2dVertex
 10
83.10615491867087
 20
-8.368849754332757
 30
0.0
  0
VERTEX
  5
6C36
330
6C25
100
AcDbEntity
  8
LW 5015-19-01
100
AcDbVertex
100
AcDb2dVertex
 10
82.91019630432151
 20
-8.718976974486565
 30
0.0
  0
VERTEX
  5
6C37
330
6C25
100
AcDbEntity
  8
LW 5015-19-01
100
AcDbVertex
100
AcDb2dVertex
 10
82.72623848915122
 20
-9.035677909850335
 30
0.0
  0
VERTEX
  5
6C38
330
6C25
100
AcDbEntity
  8
LW 5015-19-01
100
AcDbVertex
100
AcDb2dVertex
 10
82.55804610252402
 20
-9.31487083434979
 30
0.0
  0
VERTEX
  5
6C39
330
6C25
100
AcDbEntity
  8
LW 5015-19-01
100
AcDbVertex
100
AcDb2dVertex
 10
82.40935873985312
 20
-9.552946090697446
 30
0.0
  0
VERTEX
  5
6C3A
330
6C25
100
AcDbEntity
  8
LW 5015-19-01
100
AcDbVertex
100
AcDb2dVertex
 10
82.28207540512107
 20
-9.748716354369321
 30
0.0
  0
VERTEX
  5
6C3B
330
6C25
100
AcDbEntity
  8
LW 5015-19-01
100
AcDbVertex
100
AcDb2dVertex
 10
82.17720580101048
 20
-9.901742935179868
 30
0.0
  0
VERTEX
  5
6C3C
330
6C25
100
AcDbEntity
  8
LW 5015-19-01
100
AcDbVertex
100
AcDb2dVertex
 10
82.09575486183201
 20
-10.01159191131512
 30
0.0
  0
VERTEX
  5
6C3D
330
6C25
100
AcDbEntity
  8
LW 5015-19-01
100
AcDbVertex
100
AcDb2dVertex
 10
82.03873229026829
 20
-10.07782459258953
 30
0.0
  0
VERTEX
  5
6C3E
330
6C25
100
AcDbEntity
  8
LW 5015-19-01
100
AcDbVertex
100
AcDb2dVertex
 10
82.00714421272312
 20
-10.10000228881756
 30
0.0
  0
SEQEND
  5
6C3F
330
6C25
100
AcDbEntity
  8
LW 5015-19-01
  0
LINE
  5
6C40
330
6A45
100
AcDbEntity
  8
LW 5015-19-01
100
AcDbLine
 10
85.5000002384188
 20
-0.1000022888177341
 30
0.0
 11
85.5000002384188
 21
0.1000022888189846
 31
0.0
  0
LINE
  5
6C41
330
6A45
100
AcDbEntity
  8
LW 5015-19-01
100
AcDbLine
 10
113.4999997615816
 20
-0.1000022888177341
 30
0.0
 11
113.4999997615816
 21
0.1000022888189846
 31
0.0
  0
LINE
  5
6C42
330
6A45
100
AcDbEntity
  8
LW 5015-19-01
100
AcDbLine
 10
82.00714421272312
 20
-10.10000228881756
 30
0.0
 11
82.00000000000022
 21
-10.10000228881756
 31
0.0
  0
LINE
  5
6C43
330
6A45
100
AcDbEntity
  8
LW 5015-19-01
100
AcDbLine
 10
82.00714421272312
 20
10.10000228881887
 30
0.0
 11
82.00000000000022
 21
10.10000000000008
 31
0.0
  0
LINE
  5
6C44
330
6A45
100
AcDbEntity
  8
LW 5015-19-01
100
AcDbLine
 10
116.9928557872774
 20
10.10000228881887
 30
0.0
 11
117.0000000000002
 21
10.10000000000008
 31
0.0
  0
LINE
  5
6C45
330
6A45
100
AcDbEntity
  8
LW 5015-19-01
100
AcDbLine
 10
116.9928557872774
 20
-10.10000228881756
 30
0.0
 11
117.0000000000002
 21
-10.09999999999996
 31
0.0
  0
ENDBLK
  5
6A47
330
6A45
100
AcDbEntity
  8
0
100
AcDbBlockEnd
  0
BLOCK
  5
6C48
330
6C47
100
AcDbEntity
  8
0
100
AcDbBlockBegin
  2
LW 5015-19-01_b
 70
     0
 10
0.0
 20
0.0
 30
0.0
  3
LW 5015-19-01_b
  1

  0
POLYLINE
  5
6C4A
330
6C47
100
AcDbEntity
  8
LW 5015-19-01
100
AcDb2dPolyline
 66
     1
 10
0.0
 20
0.0
 30
0.0
 70
   128
  0
VERTEX
  5
6C4B
330
6C4A
100
AcDbEntity
  8
LW 5015-19-01
100
AcDbVertex
100
AcDb2dVertex
 10
32.0
 20
-21.65063619614023
 30
0.0
  0
VERTEX
  5
6C4C
330
6C4A
100
AcDbEntity
  8
LW 5015-19-01
100
AcDbVertex
100
AcDb2dVertex
 10
31.97898697853089
 20
-21.80843830109006
 30
0.0
  0
VERTEX
  5
6C4D
330
6C4A
100
AcDbEntity
  8
LW 5015-19-01
100
AcDbVertex
100
AcDb2dVertex
 10
31.91565704345703
 20
-21.96433782577878
 30
0.0
  0
VERTEX
  5
6C4E
330
6C4A
100
AcDbEntity
  8
LW 5015-19-01
100
AcDbVertex
100
AcDb2dVertex
 10
31.80957746505737
 20
-22.11326599121457
 30
0.0
  0
VERTEX
  5
6C4F
330
6C4A
100
AcDbEntity
  8
LW 5015-19-01
100
AcDbVertex
100
AcDb2dVertex
 10
31.66169476509094
 20
-22.25069761276586
 30
0.0
  0
VERTEX
  5
6C50
330
6C4A
100
AcDbEntity
  8
LW 5015-19-01
100
AcDbVertex
100
AcDb2dVertex
 10
31.47847723960877
 20
-22.37386226654394
 30
0.0
  0
VERTEX
  5
6C51
330
6C4A
100
AcDbEntity
  8
LW 5015-19-01
100
AcDbVertex
100
AcDb2dVertex
 10
31.2677652835846
 20
-22.48032569885595
 30
0.0
  0
VERTEX
  5
6C52
330
6C4A
100
AcDbEntity
  8
LW 5015-19-01
100
AcDbVertex
100
AcDb2dVertex
 10
31.02740001678467
 20
-22.57195234299024
 30
0.0
  0
VERTEX
  5
6C53
330
6C4A
100
AcDbEntity
  8
LW 5015-19-01
100
AcDbVertex
100
AcDb2dVertex
 10
30.75476121902466
 20
-22.6503801345857
 30
0.0
  0
VERTEX
  5
6C54
330
6C4A
100
AcDbEntity
  8
LW 5015-19-01
100
AcDbVertex
100
AcDb2dVertex
 10
30.45699787139893
 20
-22.71283626556715
 30
0.0
  0
VERTEX
  5
6C55
330
6C4A
100
AcDbEntity
  8
LW 5015-19-01
100
AcDbVertex
100
AcDb2dVertex
 10
30.14183115959168
 20
-22.75718688965162
 30
0.0
  0
VERTEX
  5
6C56
330
6C4A
100
AcDbEntity
  8
LW 5015-19-01
100
AcDbVertex
100
AcDb2dVertex
 10
29.8192925453186
 20
-22.78345584869703
 30
0.0
  0
VERTEX
  5
6C57
330
6C4A
100
AcDbEntity
  8
LW 5015-19-01
100
AcDbVertex
100
AcDb2dVertex
 10
29.5
 20
-22.79211044311842
 30
0.0
  0
VERTEX
  5
6C58
330
6C4A
100
AcDbEntity
  8
LW 5015-19-01
100
AcDbVertex
100
AcDb2dVertex
 10
29.1807074546814
 20
-22.78345584869703
 30
0.0
  0
VERTEX
  5
6C59
330
6C4A
100
AcDbEntity
  8
LW 5015-19-01
100
AcDbVertex
100
AcDb2dVertex
 10
28.85816884040833
 20
-22.75718688965162
 30
0.0
  0
VERTEX
  5
6C5A
330
6C4A
100
AcDbEntity
  8
LW 5015-19-01
100
AcDbVertex
100
AcDb2dVertex
 10
28.54300212860108
 20
-22.71283626556715
 30
0.0
  0
VERTEX
  5
6C5B
330
6C4A
100
AcDbEntity
  8
LW 5015-19-01
100
AcDbVertex
100
AcDb2dVertex
 10
28.24523878097534
 20
-22.6503801345857
 30
0.0
  0
VERTEX
  5
6C5C
330
6C4A
100
AcDbEntity
  8
LW 5015-19-01
100
AcDbVertex
100
AcDb2dVertex
 10
27.97259998321533
 20
-22.57195234299024
 30
0.0
  0
VERTEX
  5
6C5D
330
6C4A
100
AcDbEntity
  8
LW 5015-19-01
100
AcDbVertex
100
AcDb2dVertex
 10
27.73223471641541
 20
-22.48032569885595
 30
0.0
  0
VERTEX
  5
6C5E
330
6C4A
100
AcDbEntity
  8
LW 5015-19-01
100
AcDbVertex
100
AcDb2dVertex
 10
27.52152276039124
 20
-22.37386226654394
 30
0.0
  0
VERTEX
  5
6C5F
330
6C4A
100
AcDbEntity
  8
LW 5015-19-01
100
AcDbVertex
100
AcDb2dVertex
 10
27.33830523490906
 20
-22.25069761276586
 30
0.0
  0
VERTEX
  5
6C60
330
6C4A
100
AcDbEntity
  8
LW 5015-19-01
100
AcDbVertex
100
AcDb2dVertex
 10
27.19042253494263
 20
-22.11326599121457
 30
0.0
  0
VERTEX
  5
6C61
330
6C4A
100
AcDbEntity
  8
LW 5015-19-01
100
AcDbVertex
100
AcDb2dVertex
 10
27.08434295654297
 20
-21.96433782577878
 30
0.0
  0
VERTEX
  5
6C62
330
6C4A
100
AcDbEntity
  8
LW 5015-19-01
100
AcDbVertex
100
AcDb2dVertex
 10
27.02101302146912
 20
-21.80843830109006
 30
0.0
  0
VERTEX
  5
6C63
330
6C4A
100
AcDbEntity
  8
LW 5015-19-01
100
AcDbVertex
100
AcDb2dVertex
 10
27.0
 20
-21.65063619614023
 30
0.0
  0
SEQEND
  5
6C64
330
6C4A
100
AcDbEntity
  8
LW 5015-19-01
  0
POLYLINE
  5
6C65
330
6C47
100
AcDbEntity
  8
LW 5015-19-01
100
AcDb2dPolyline
 66
     1
 10
0.0
 20
0.0
 30
0.0
 70
   128
  0
VERTEX
  5
6C66
330
6C65
100
AcDbEntity
  8
LW 5015-19-01
100
AcDbVertex
100
AcDb2dVertex
 10
27.0
 20
-21.65063619614023
 30
0.0
  0
VERTEX
  5
6C67
330
6C65
100
AcDbEntity
  8
LW 5015-19-01
100
AcDbVertex
100
AcDb2dVertex
 10
27.02101302146912
 20
-21.48914575577169
 30
0.0
  0
VERTEX
  5
6C68
330
6C65
100
AcDbEntity
  8
LW 5015-19-01
100
AcDbVertex
100
AcDb2dVertex
 10
27.08434295654297
 20
-21.32250547409455
 30
0.0
  0
VERTEX
  5
6C69
330
6C65
100
AcDbEntity
  8
LW 5015-19-01
100
AcDbVertex
100
AcDb2dVertex
 10
27.19042253494263
 20
-21.15626573563031
 30
0.0
  0
VERTEX
  5
6C6A
330
6C65
100
AcDbEntity
  8
LW 5015-19-01
100
AcDbVertex
100
AcDb2dVertex
 10
27.33830523490906
 20
-20.9959340095561
 30
0.0
  0
VERTEX
  5
6C6B
330
6C65
100
AcDbEntity
  8
LW 5015-19-01
100
AcDbVertex
100
AcDb2dVertex
 10
27.52152276039124
 20
-20.84645748138848
 30
0.0
  0
VERTEX
  5
6C6C
330
6C65
100
AcDbEntity
  8
LW 5015-19-01
100
AcDbVertex
100
AcDb2dVertex
 10
27.73223471641541
 20
-20.71255683899346
 30
0.0
  0
VERTEX
  5
6C6D
330
6C65
100
AcDbEntity
  8
LW 5015-19-01
100
AcDbVertex
100
AcDb2dVertex
 10
27.97259998321533
 20
-20.59347152710393
 30
0.0
  0
VERTEX
  5
6C6E
330
6C65
100
AcDbEntity
  8
LW 5015-19-01
100
AcDbVertex
100
AcDb2dVertex
 10
28.24523878097534
 20
-20.48868179321721
 30
0.0
  0
VERTEX
  5
6C6F
330
6C65
100
AcDbEntity
  8
LW 5015-19-01
100
AcDbVertex
100
AcDb2dVertex
 10
28.54300212860108
 20
-20.40325641632512
 30
0.0
  0
VERTEX
  5
6C70
330
6C65
100
AcDbEntity
  8
LW 5015-19-01
100
AcDbVertex
100
AcDb2dVertex
 10
28.85816884040833
 20
-20.34152984619573
 30
0.0
  0
VERTEX
  5
6C71
330
6C65
100
AcDbEntity
  8
LW 5015-19-01
100
AcDbVertex
100
AcDb2dVertex
 10
29.1807074546814
 20
-20.30447006226018
 30
0.0
  0
VERTEX
  5
6C72
330
6C65
100
AcDbEntity
  8
LW 5015-19-01
100
AcDbVertex
100
AcDb2dVertex
 10
29.5
 20
-20.29211044311955
 30
0.0
  0
VERTEX
  5
6C73
330
6C65
100
AcDbEntity
  8
LW 5015-19-01
100
AcDbVertex
100
AcDb2dVertex
 10
29.8192925453186
 20
-20.30447006226018
 30
0.0
  0
VERTEX
  5
6C74
330
6C65
100
AcDbEntity
  8
LW 5015-19-01
100
AcDbVertex
100
AcDb2dVertex
 10
30.14183115959168
 20
-20.34152984619573
 30
0.0
  0
VERTEX
  5
6C75
330
6C65
100
AcDbEntity
  8
LW 5015-19-01
100
AcDbVertex
100
AcDb2dVertex
 10
30.45699787139893
 20
-20.40325641632512
 30
0.0
  0
VERTEX
  5
6C76
330
6C65
100
AcDbEntity
  8
LW 5015-19-01
100
AcDbVertex
100
AcDb2dVertex
 10
30.75476121902466
 20
-20.48868179321721
 30
0.0
  0
VERTEX
  5
6C77
330
6C65
100
AcDbEntity
  8
LW 5015-19-01
100
AcDbVertex
100
AcDb2dVertex
 10
31.02740001678467
 20
-20.59347152710393
 30
0.0
  0
VERTEX
  5
6C78
330
6C65
100
AcDbEntity
  8
LW 5015-19-01
100
AcDbVertex
100
AcDb2dVertex
 10
31.2677652835846
 20
-20.71255683899346
 30
0.0
  0
VERTEX
  5
6C79
330
6C65
100
AcDbEntity
  8
LW 5015-19-01
100
AcDbVertex
100
AcDb2dVertex
 10
31.47847723960877
 20
-20.84645748138848
 30
0.0
  0
VERTEX
  5
6C7A
330
6C65
100
AcDbEntity
  8
LW 5015-19-01
100
AcDbVertex
100
AcDb2dVertex
 10
31.66169476509094
 20
-20.9959340095561
 30
0.0
  0
VERTEX
  5
6C7B
330
6C65
100
AcDbEntity
  8
LW 5015-19-01
100
AcDbVertex
100
AcDb2dVertex
 10
31.80957746505737
 20
-21.15626573563031
 30
0.0
  0
VERTEX
  5
6C7C
330
6C65
100
AcDbEntity
  8
LW 5015-19-01
100
AcDbVertex
100
AcDb2dVertex
 10
31.91565704345703
 20
-21.32250547409455
 30
0.0
  0
VERTEX
  5
6C7D
330
6C65
100
AcDbEntity
  8
LW 5015-19-01
100
AcDbVertex
100
AcDb2dVertex
 10
31.97898697853089
 20
-21.48914575577169
 30
0.0
  0
VERTEX
  5
6C7E
330
6C65
100
AcDbEntity
  8
LW 5015-19-01
100
AcDbVertex
100
AcDb2dVertex
 10
32.0
 20
-21.65063619614023
 30
0.0
  0
SEQEND
  5
6C7F
330
6C65
100
AcDbEntity
  8
LW 5015-19-01
  0
POLYLINE
  5
6C80
330
6C47
100
AcDbEntity
  8
LW 5015-19-01
100
AcDb2dPolyline
 66
     1
 10
0.0
 20
0.0
 30
0.0
 70
   128
  0
VERTEX
  5
6C81
330
6C80
100
AcDbEntity
  8
LW 5015-19-01
100
AcDbVertex
100
AcDb2dVertex
 10
32.0
 20
21.65063619613272
 30
0.0
  0
VERTEX
  5
6C82
330
6C80
100
AcDbEntity
  8
LW 5015-19-01
100
AcDbVertex
100
AcDb2dVertex
 10
31.97898697853089
 20
21.48914575576396
 30
0.0
  0
VERTEX
  5
6C83
330
6C80
100
AcDbEntity
  8
LW 5015-19-01
100
AcDbVertex
100
AcDb2dVertex
 10
31.91565704345703
 20
21.3225054740866
 30
0.0
  0
VERTEX
  5
6C84
330
6C80
100
AcDbEntity
  8
LW 5015-19-01
100
AcDbVertex
100
AcDb2dVertex
 10
31.80957746505737
 20
21.15626573562213
 30
0.0
  0
VERTEX
  5
6C85
330
6C80
100
AcDbEntity
  8
LW 5015-19-01
100
AcDbVertex
100
AcDb2dVertex
 10
31.66169476509094
 20
20.99593400954791
 30
0.0
  0
VERTEX
  5
6C86
330
6C80
100
AcDbEntity
  8
LW 5015-19-01
100
AcDbVertex
100
AcDb2dVertex
 10
31.47847723960877
 20
20.84645748138007
 30
0.0
  0
VERTEX
  5
6C87
330
6C80
100
AcDbEntity
  8
LW 5015-19-01
100
AcDbVertex
100
AcDb2dVertex
 10
31.2677652835846
 20
20.71255683898505
 30
0.0
  0
VERTEX
  5
6C88
330
6C80
100
AcDbEntity
  8
LW 5015-19-01
100
AcDbVertex
100
AcDb2dVertex
 10
31.02740001678467
 20
20.59347152709529
 30
0.0
  0
VERTEX
  5
6C89
330
6C80
100
AcDbEntity
  8
LW 5015-19-01
100
AcDbVertex
100
AcDb2dVertex
 10
30.75476121902466
 20
20.48868179320857
 30
0.0
  0
VERTEX
  5
6C8A
330
6C80
100
AcDbEntity
  8
LW 5015-19-01
100
AcDbVertex
100
AcDb2dVertex
 10
30.45699787139893
 20
20.40325641631648
 30
0.0
  0
VERTEX
  5
6C8B
330
6C80
100
AcDbEntity
  8
LW 5015-19-01
100
AcDbVertex
100
AcDb2dVertex
 10
30.14183115959168
 20
20.34152984618708
 30
0.0
  0
VERTEX
  5
6C8C
330
6C80
100
AcDbEntity
  8
LW 5015-19-01
100
AcDbVertex
100
AcDb2dVertex
 10
29.8192925453186
 20
20.30447006225154
 30
0.0
  0
VERTEX
  5
6C8D
330
6C80
100
AcDbEntity
  8
LW 5015-19-01
100
AcDbVertex
100
AcDb2dVertex
 10
29.5
 20
20.29211044311091
 30
0.0
  0
VERTEX
  5
6C8E
330
6C80
100
AcDbEntity
  8
LW 5015-19-01
100
AcDbVertex
100
AcDb2dVertex
 10
29.1807074546814
 20
20.30447006225154
 30
0.0
  0
VERTEX
  5
6C8F
330
6C80
100
AcDbEntity
  8
LW 5015-19-01
100
AcDbVertex
100
AcDb2dVertex
 10
28.85816884040833
 20
20.34152984618708
 30
0.0
  0
VERTEX
  5
6C90
330
6C80
100
AcDbEntity
  8
LW 5015-19-01
100
AcDbVertex
100
AcDb2dVertex
 10
28.54300212860108
 20
20.40325641631648
 30
0.0
  0
VERTEX
  5
6C91
330
6C80
100
AcDbEntity
  8
LW 5015-19-01
100
AcDbVertex
100
AcDb2dVertex
 10
28.24523878097534
 20
20.48868179320857
 30
0.0
  0
VERTEX
  5
6C92
330
6C80
100
AcDbEntity
  8
LW 5015-19-01
100
AcDbVertex
100
AcDb2dVertex
 10
27.97259998321533
 20
20.59347152709529
 30
0.0
  0
VERTEX
  5
6C93
330
6C80
100
AcDbEntity
  8
LW 5015-19-01
100
AcDbVertex
100
AcDb2dVertex
 10
27.73223471641541
 20
20.71255683898505
 30
0.0
  0
VERTEX
  5
6C94
330
6C80
100
AcDbEntity
  8
LW 5015-19-01
100
AcDbVertex
100
AcDb2dVertex
 10
27.52152276039124
 20
20.84645748138007
 30
0.0
  0
VERTEX
  5
6C95
330
6C80
100
AcDbEntity
  8
LW 5015-19-01
100
AcDbVertex
100
AcDb2dVertex
 10
27.33830523490906
 20
20.99593400954791
 30
0.0
  0
VERTEX
  5
6C96
330
6C80
100
AcDbEntity
  8
LW 5015-19-01
100
AcDbVertex
100
AcDb2dVertex
 10
27.19042253494263
 20
21.15626573562213
 30
0.0
  0
VERTEX
  5
6C97
330
6C80
100
AcDbEntity
  8
LW 5015-19-01
100
AcDbVertex
100
AcDb2dVertex
 10
27.08434295654297
 20
21.3225054740866
 30
0.0
  0
VERTEX
  5
6C98
330
6C80
100
AcDbEntity
  8
LW 5015-19-01
100
AcDbVertex
100
AcDb2dVertex
 10
27.02101302146912
 20
21.48914575576396
 30
0.0
  0
VERTEX
  5
6C99
330
6C80
100
AcDbEntity
  8
LW 5015-19-01
100
AcDbVertex
100
AcDb2dVertex
 10
27.0
 20
21.65063619613272
 30
0.0
  0
SEQEND
  5
6C9A
330
6C80
100
AcDbEntity
  8
LW 5015-19-01
  0
POLYLINE
  5
6C9B
330
6C47
100
AcDbEntity
  8
LW 5015-19-01
100
AcDb2dPolyline
 66
     1
 10
0.0
 20
0.0
 30
0.0
 70
   128
  0
VERTEX
  5
6C9C
330
6C9B
100
AcDbEntity
  8
LW 5015-19-01
100
AcDbVertex
100
AcDb2dVertex
 10
27.0
 20
21.65063619613272
 30
0.0
  0
VERTEX
  5
6C9D
330
6C9B
100
AcDbEntity
  8
LW 5015-19-01
100
AcDbVertex
100
AcDb2dVertex
 10
27.02101302146912
 20
21.80843830108279
 30
0.0
  0
VERTEX
  5
6C9E
330
6C9B
100
AcDbEntity
  8
LW 5015-19-01
100
AcDbVertex
100
AcDb2dVertex
 10
27.08434295654297
 20
21.96433782577151
 30
0.0
  0
VERTEX
  5
6C9F
330
6C9B
100
AcDbEntity
  8
LW 5015-19-01
100
AcDbVertex
100
AcDb2dVertex
 10
27.19042253494263
 20
22.1132659912073
 30
0.0
  0
VERTEX
  5
6CA0
330
6C9B
100
AcDbEntity
  8
LW 5015-19-01
100
AcDbVertex
100
AcDb2dVertex
 10
27.33830523490906
 20
22.25069761275904
 30
0.0
  0
VERTEX
  5
6CA1
330
6C9B
100
AcDbEntity
  8
LW 5015-19-01
100
AcDbVertex
100
AcDb2dVertex
 10
27.52152276039124
 20
22.37386226653712
 30
0.0
  0
VERTEX
  5
6CA2
330
6C9B
100
AcDbEntity
  8
LW 5015-19-01
100
AcDbVertex
100
AcDb2dVertex
 10
27.73223471641541
 20
22.48032569884913
 30
0.0
  0
VERTEX
  5
6CA3
330
6C9B
100
AcDbEntity
  8
LW 5015-19-01
100
AcDbVertex
100
AcDb2dVertex
 10
27.97259998321533
 20
22.57195234298388
 30
0.0
  0
VERTEX
  5
6CA4
330
6C9B
100
AcDbEntity
  8
LW 5015-19-01
100
AcDbVertex
100
AcDb2dVertex
 10
28.24523878097534
 20
22.65038013457933
 30
0.0
  0
VERTEX
  5
6CA5
330
6C9B
100
AcDbEntity
  8
LW 5015-19-01
100
AcDbVertex
100
AcDb2dVertex
 10
28.54300212860108
 20
22.71283626556078
 30
0.0
  0
VERTEX
  5
6CA6
330
6C9B
100
AcDbEntity
  8
LW 5015-19-01
100
AcDbVertex
100
AcDb2dVertex
 10
28.85816884040833
 20
22.75718688964525
 30
0.0
  0
VERTEX
  5
6CA7
330
6C9B
100
AcDbEntity
  8
LW 5015-19-01
100
AcDbVertex
100
AcDb2dVertex
 10
29.1807074546814
 20
22.78345584869066
 30
0.0
  0
VERTEX
  5
6CA8
330
6C9B
100
AcDbEntity
  8
LW 5015-19-01
100
AcDbVertex
100
AcDb2dVertex
 10
29.5
 20
22.79211044311205
 30
0.0
  0
VERTEX
  5
6CA9
330
6C9B
100
AcDbEntity
  8
LW 5015-19-01
100
AcDbVertex
100
AcDb2dVertex
 10
29.8192925453186
 20
22.78345584869066
 30
0.0
  0
VERTEX
  5
6CAA
330
6C9B
100
AcDbEntity
  8
LW 5015-19-01
100
AcDbVertex
100
AcDb2dVertex
 10
30.14183115959168
 20
22.75718688964525
 30
0.0
  0
VERTEX
  5
6CAB
330
6C9B
100
AcDbEntity
  8
LW 5015-19-01
100
AcDbVertex
100
AcDb2dVertex
 10
30.45699787139893
 20
22.71283626556078
 30
0.0
  0
VERTEX
  5
6CAC
330
6C9B
100
AcDbEntity
  8
LW 5015-19-01
100
AcDbVertex
100
AcDb2dVertex
 10
30.75476121902466
 20
22.65038013457933
 30
0.0
  0
VERTEX
  5
6CAD
330
6C9B
100
AcDbEntity
  8
LW 5015-19-01
100
AcDbVertex
100
AcDb2dVertex
 10
31.02740001678467
 20
22.57195234298388
 30
0.0
  0
VERTEX
  5
6CAE
330
6C9B
100
AcDbEntity
  8
LW 5015-19-01
100
AcDbVertex
100
AcDb2dVertex
 10
31.2677652835846
 20
22.48032569884913
 30
0.0
  0
VERTEX
  5
6CAF
330
6C9B
100
AcDbEntity
  8
LW 5015-19-01
100
AcDbVertex
100
AcDb2dVertex
 10
31.47847723960877
 20
22.37386226653712
 30
0.0
  0
VERTEX
  5
6CB0
330
6C9B
100
AcDbEntity
  8
LW 5015-19-01
100
AcDbVertex
100
AcDb2dVertex
 10
31.66169476509094
 20
22.25069761275904
 30
0.0
  0
VERTEX
  5
6CB1
330
6C9B
100
AcDbEntity
  8
LW 5015-19-01
100
AcDbVertex
100
AcDb2dVertex
 10
31.80957746505737
 20
22.1132659912073
 30
0.0
  0
VERTEX
  5
6CB2
330
6C9B
100
AcDbEntity
  8
LW 5015-19-01
100
AcDbVertex
100
AcDb2dVertex
 10
31.91565704345703
 20
21.96433782577151
 30
0.0
  0
VERTEX
  5
6CB3
330
6C9B
100
AcDbEntity
  8
LW 5015-19-01
100
AcDbVertex
100
AcDb2dVertex
 10
31.97898697853089
 20
21.80843830108279
 30
0.0
  0
VERTEX
  5
6CB4
330
6C9B
100
AcDbEntity
  8
LW 5015-19-01
100
AcDbVertex
100
AcDb2dVertex
 10
32.0
 20
21.65063619613272
 30
0.0
  0
SEQEND
  5
6CB5
330
6C9B
100
AcDbEntity
  8
LW 5015-19-01
  0
LINE
  5
6CB6
330
6C47
100
AcDbEntity
  8
LW 5015-19-01
100
AcDbLine
 10
33.5
 20
-25.0
 30
0.0
 11
33.5
 21
25.0
 31
0.0
  0
LINE
  5
6CB7
330
6C47
100
AcDbEntity
  8
LW 5015-19-01
100
AcDbLine
 10
39.5
 20
-19.0
 30
0.0
 11
39.5
 21
19.0
 31
0.0
  0
LINE
  5
6CB8
330
6C47
100
AcDbEntity
  8
LW 5015-19-01
100
AcDbLine
 10
133.5
 20
-10.0
 30
0.0
 11
133.5
 21
10.0
 31
0.0
  0
LINE
  5
6CB9
330
6C47
100
AcDbEntity
  8
LW 5015-19-01
100
AcDbLine
 10
134.5
 20
-9.0
 30
0.0
 11
134.5
 21
9.0
 31
0.0
  0
LINE
  5
6CBA
330
6C47
100
AcDbEntity
  8
LW 5015-19-01
100
AcDbLine
 10
14.5
 20
25.0
 30
0.0
 11
33.5
 21
25.0
 31
0.0
  0
LINE
  5
6CBB
330
6C47
100
AcDbEntity
  8
LW 5015-19-01
100
AcDbLine
 10
14.5
 20
-25.0
 30
0.0
 11
33.5
 21
-25.0
 31
0.0
  0
LINE
  5
6CBC
330
6C47
100
AcDbEntity
  8
LW 5015-19-01
100
AcDbLine
 10
39.5
 20
-19.0
 30
0.0
 11
33.5
 21
-25.0
 31
0.0
  0
LINE
  5
6CBD
330
6C47
100
AcDbEntity
  8
LW 5015-19-01
100
AcDbLine
 10
39.5
 20
19.0
 30
0.0
 11
33.5
 21
25.0
 31
0.0
  0
ARC
  5
6CBE
330
6C47
100
AcDbEntity
  8
LW 5015-19-01
100
AcDbCircle
 10
40.49999999999999
 20
-11.0
 30
0.0
 40
1.000000000000001
100
AcDbArc
 50
90.0
 51
180.0
  0
ARC
  5
6CBF
330
6C47
100
AcDbEntity
  8
LW 5015-19-01
100
AcDbCircle
 10
40.49999999999999
 20
11.0
 30
0.0
 40
1.000000000000001
100
AcDbArc
 50
180.0
 51
270.0
  0
LINE
  5
6CC0
330
6C47
100
AcDbEntity
  8
LW 5015-19-01
100
AcDbLine
 10
40.49999999999999
 20
10.0
 30
0.0
 11
82.72949016875319
 21
9.999999999999971
 31
0.0
  0
LINE
  5
6CC1
330
6C47
100
AcDbEntity
  8
LW 5015-19-01
100
AcDbLine
 10
116.2705098312468
 20
9.999999999999971
 30
0.0
 11
133.5
 21
10.0
 31
0.0
  0
LINE
  5
6CC2
330
6C47
100
AcDbEntity
  8
LW 5015-19-01
100
AcDbLine
 10
40.49999999999999
 20
-10.0
 30
0.0
 11
90.48612181133099
 21
-10.00000000000003
 31
0.0
  0
LINE
  5
6CC3
330
6C47
100
AcDbEntity
  8
LW 5015-19-01
100
AcDbLine
 10
108.513878188669
 20
-10.0
 30
0.0
 11
133.5
 21
-10.0
 31
0.0
  0
LINE
  5
6CC4
330
6C47
100
AcDbEntity
  8
LW 5015-19-01
100
AcDbLine
 10
134.5
 20
-9.0
 30
0.0
 11
133.5
 21
-10.0
 31
0.0
  0
LINE
  5
6CC5
330
6C47
100
AcDbEntity
  8
LW 5015-19-01
100
AcDbLine
 10
134.5
 20
9.0
 30
0.0
 11
133.5
 21
10.0
 31
0.0
  0
POLYLINE
  5
6CC6
330
6C47
100
AcDbEntity
  8
LW 5015-19-01
100
AcDb2dPolyline
 66
     1
 10
0.0
 20
0.0
 30
0.0
 70
   128
  0
VERTEX
  5
6CC7
330
6CC6
100
AcDbEntity
  8
LW 5015-19-01
100
AcDbVertex
100
AcDb2dVertex
 10
-32.0
 20
21.65063619613272
 30
0.0
  0
VERTEX
  5
6CC8
330
6CC6
100
AcDbEntity
  8
LW 5015-19-01
100
AcDbVertex
100
AcDb2dVertex
 10
-31.97898697853089
 20
21.80843830108279
 30
0.0
  0
VERTEX
  5
6CC9
330
6CC6
100
AcDbEntity
  8
LW 5015-19-01
100
AcDbVertex
100
AcDb2dVertex
 10
-31.91565704345703
 20
21.96433782577151
 30
0.0
  0
VERTEX
  5
6CCA
330
6CC6
100
AcDbEntity
  8
LW 5015-19-01
100
AcDbVertex
100
AcDb2dVertex
 10
-31.80957746505737
 20
22.1132659912073
 30
0.0
  0
VERTEX
  5
6CCB
330
6CC6
100
AcDbEntity
  8
LW 5015-19-01
100
AcDbVertex
100
AcDb2dVertex
 10
-31.66169476509094
 20
22.25069761275904
 30
0.0
  0
VERTEX
  5
6CCC
330
6CC6
100
AcDbEntity
  8
LW 5015-19-01
100
AcDbVertex
100
AcDb2dVertex
 10
-31.47847723960877
 20
22.37386226653712
 30
0.0
  0
VERTEX
  5
6CCD
330
6CC6
100
AcDbEntity
  8
LW 5015-19-01
100
AcDbVertex
100
AcDb2dVertex
 10
-31.2677652835846
 20
22.48032569884913
 30
0.0
  0
VERTEX
  5
6CCE
330
6CC6
100
AcDbEntity
  8
LW 5015-19-01
100
AcDbVertex
100
AcDb2dVertex
 10
-31.02740001678467
 20
22.57195234298388
 30
0.0
  0
VERTEX
  5
6CCF
330
6CC6
100
AcDbEntity
  8
LW 5015-19-01
100
AcDbVertex
100
AcDb2dVertex
 10
-30.75476121902466
 20
22.65038013457933
 30
0.0
  0
VERTEX
  5
6CD0
330
6CC6
100
AcDbEntity
  8
LW 5015-19-01
100
AcDbVertex
100
AcDb2dVertex
 10
-30.45699787139893
 20
22.71283626556078
 30
0.0
  0
VERTEX
  5
6CD1
330
6CC6
100
AcDbEntity
  8
LW 5015-19-01
100
AcDbVertex
100
AcDb2dVertex
 10
-30.14183115959168
 20
22.75718688964525
 30
0.0
  0
VERTEX
  5
6CD2
330
6CC6
100
AcDbEntity
  8
LW 5015-19-01
100
AcDbVertex
100
AcDb2dVertex
 10
-29.8192925453186
 20
22.78345584869066
 30
0.0
  0
VERTEX
  5
6CD3
330
6CC6
100
AcDbEntity
  8
LW 5015-19-01
100
AcDbVertex
100
AcDb2dVertex
 10
-29.5
 20
22.79211044311205
 30
0.0
  0
VERTEX
  5
6CD4
330
6CC6
100
AcDbEntity
  8
LW 5015-19-01
100
AcDbVertex
100
AcDb2dVertex
 10
-29.1807074546814
 20
22.78345584869066
 30
0.0
  0
VERTEX
  5
6CD5
330
6CC6
100
AcDbEntity
  8
LW 5015-19-01
100
AcDbVertex
100
AcDb2dVertex
 10
-28.85816884040833
 20
22.75718688964525
 30
0.0
  0
VERTEX
  5
6CD6
330
6CC6
100
AcDbEntity
  8
LW 5015-19-01
100
AcDbVertex
100
AcDb2dVertex
 10
-28.54300212860108
 20
22.71283626556078
 30
0.0
  0
VERTEX
  5
6CD7
330
6CC6
100
AcDbEntity
  8
LW 5015-19-01
100
AcDbVertex
100
AcDb2dVertex
 10
-28.24523878097534
 20
22.65038013457933
 30
0.0
  0
VERTEX
  5
6CD8
330
6CC6
100
AcDbEntity
  8
LW 5015-19-01
100
AcDbVertex
100
AcDb2dVertex
 10
-27.97259998321533
 20
22.57195234298388
 30
0.0
  0
VERTEX
  5
6CD9
330
6CC6
100
AcDbEntity
  8
LW 5015-19-01
100
AcDbVertex
100
AcDb2dVertex
 10
-27.73223471641541
 20
22.48032569884913
 30
0.0
  0
VERTEX
  5
6CDA
330
6CC6
100
AcDbEntity
  8
LW 5015-19-01
100
AcDbVertex
100
AcDb2dVertex
 10
-27.52152276039124
 20
22.37386226653712
 30
0.0
  0
VERTEX
  5
6CDB
330
6CC6
100
AcDbEntity
  8
LW 5015-19-01
100
AcDbVertex
100
AcDb2dVertex
 10
-27.33830523490906
 20
22.25069761275904
 30
0.0
  0
VERTEX
  5
6CDC
330
6CC6
100
AcDbEntity
  8
LW 5015-19-01
100
AcDbVertex
100
AcDb2dVertex
 10
-27.19042253494263
 20
22.1132659912073
 30
0.0
  0
VERTEX
  5
6CDD
330
6CC6
100
AcDbEntity
  8
LW 5015-19-01
100
AcDbVertex
100
AcDb2dVertex
 10
-27.08434295654297
 20
21.96433782577151
 30
0.0
  0
VERTEX
  5
6CDE
330
6CC6
100
AcDbEntity
  8
LW 5015-19-01
100
AcDbVertex
100
AcDb2dVertex
 10
-27.02101302146912
 20
21.80843830108279
 30
0.0
  0
VERTEX
  5
6CDF
330
6CC6
100
AcDbEntity
  8
LW 5015-19-01
100
AcDbVertex
100
AcDb2dVertex
 10
-27.0
 20
21.65063619613272
 30
0.0
  0
SEQEND
  5
6CE0
330
6CC6
100
AcDbEntity
  8
LW 5015-19-01
  0
POLYLINE
  5
6CE1
330
6C47
100
AcDbEntity
  8
LW 5015-19-01
100
AcDb2dPolyline
 66
     1
 10
0.0
 20
0.0
 30
0.0
 70
   128
  0
VERTEX
  5
6CE2
330
6CE1
100
AcDbEntity
  8
LW 5015-19-01
100
AcDbVertex
100
AcDb2dVertex
 10
-27.0
 20
21.65063619613272
 30
0.0
  0
VERTEX
  5
6CE3
330
6CE1
100
AcDbEntity
  8
LW 5015-19-01
100
AcDbVertex
100
AcDb2dVertex
 10
-27.02101302146912
 20
21.48914575576396
 30
0.0
  0
VERTEX
  5
6CE4
330
6CE1
100
AcDbEntity
  8
LW 5015-19-01
100
AcDbVertex
100
AcDb2dVertex
 10
-27.08434295654297
 20
21.3225054740866
 30
0.0
  0
VERTEX
  5
6CE5
330
6CE1
100
AcDbEntity
  8
LW 5015-19-01
100
AcDbVertex
100
AcDb2dVertex
 10
-27.19042253494263
 20
21.15626573562213
 30
0.0
  0
VERTEX
  5
6CE6
330
6CE1
100
AcDbEntity
  8
LW 5015-19-01
100
AcDbVertex
100
AcDb2dVertex
 10
-27.33830523490906
 20
20.99593400954791
 30
0.0
  0
VERTEX
  5
6CE7
330
6CE1
100
AcDbEntity
  8
LW 5015-19-01
100
AcDbVertex
100
AcDb2dVertex
 10
-27.52152276039124
 20
20.84645748138007
 30
0.0
  0
VERTEX
  5
6CE8
330
6CE1
100
AcDbEntity
  8
LW 5015-19-01
100
AcDbVertex
100
AcDb2dVertex
 10
-27.73223471641541
 20
20.71255683898494
 30
0.0
  0
VERTEX
  5
6CE9
330
6CE1
100
AcDbEntity
  8
LW 5015-19-01
100
AcDbVertex
100
AcDb2dVertex
 10
-27.97259998321533
 20
20.59347152709529
 30
0.0
  0
VERTEX
  5
6CEA
330
6CE1
100
AcDbEntity
  8
LW 5015-19-01
100
AcDbVertex
100
AcDb2dVertex
 10
-28.24523878097534
 20
20.48868179320857
 30
0.0
  0
VERTEX
  5
6CEB
330
6CE1
100
AcDbEntity
  8
LW 5015-19-01
100
AcDbVertex
100
AcDb2dVertex
 10
-28.54300212860108
 20
20.40325641631648
 30
0.0
  0
VERTEX
  5
6CEC
330
6CE1
100
AcDbEntity
  8
LW 5015-19-01
100
AcDbVertex
100
AcDb2dVertex
 10
-28.85816884040833
 20
20.34152984618708
 30
0.0
  0
VERTEX
  5
6CED
330
6CE1
100
AcDbEntity
  8
LW 5015-19-01
100
AcDbVertex
100
AcDb2dVertex
 10
-29.1807074546814
 20
20.30447006225154
 30
0.0
  0
VERTEX
  5
6CEE
330
6CE1
100
AcDbEntity
  8
LW 5015-19-01
100
AcDbVertex
100
AcDb2dVertex
 10
-29.5
 20
20.29211044311091
 30
0.0
  0
VERTEX
  5
6CEF
330
6CE1
100
AcDbEntity
  8
LW 5015-19-01
100
AcDbVertex
100
AcDb2dVertex
 10
-29.8192925453186
 20
20.30447006225154
 30
0.0
  0
VERTEX
  5
6CF0
330
6CE1
100
AcDbEntity
  8
LW 5015-19-01
100
AcDbVertex
100
AcDb2dVertex
 10
-30.14183115959168
 20
20.34152984618708
 30
0.0
  0
VERTEX
  5
6CF1
330
6CE1
100
AcDbEntity
  8
LW 5015-19-01
100
AcDbVertex
100
AcDb2dVertex
 10
-30.45699787139893
 20
20.40325641631648
 30
0.0
  0
VERTEX
  5
6CF2
330
6CE1
100
AcDbEntity
  8
LW 5015-19-01
100
AcDbVertex
100
AcDb2dVertex
 10
-30.75476121902466
 20
20.48868179320857
 30
0.0
  0
VERTEX
  5
6CF3
330
6CE1
100
AcDbEntity
  8
LW 5015-19-01
100
AcDbVertex
100
AcDb2dVertex
 10
-31.02740001678467
 20
20.59347152709529
 30
0.0
  0
VERTEX
  5
6CF4
330
6CE1
100
AcDbEntity
  8
LW 5015-19-01
100
AcDbVertex
100
AcDb2dVertex
 10
-31.2677652835846
 20
20.71255683898494
 30
0.0
  0
VERTEX
  5
6CF5
330
6CE1
100
AcDbEntity
  8
LW 5015-19-01
100
AcDbVertex
100
AcDb2dVertex
 10
-31.47847723960877
 20
20.84645748138007
 30
0.0
  0
VERTEX
  5
6CF6
330
6CE1
100
AcDbEntity
  8
LW 5015-19-01
100
AcDbVertex
100
AcDb2dVertex
 10
-31.66169476509094
 20
20.99593400954791
 30
0.0
  0
VERTEX
  5
6CF7
330
6CE1
100
AcDbEntity
  8
LW 5015-19-01
100
AcDbVertex
100
AcDb2dVertex
 10
-31.80957746505737
 20
21.15626573562213
 30
0.0
  0
VERTEX
  5
6CF8
330
6CE1
100
AcDbEntity
  8
LW 5015-19-01
100
AcDbVertex
100
AcDb2dVertex
 10
-31.91565704345703
 20
21.3225054740866
 30
0.0
  0
VERTEX
  5
6CF9
330
6CE1
100
AcDbEntity
  8
LW 5015-19-01
100
AcDbVertex
100
AcDb2dVertex
 10
-31.97898697853089
 20
21.48914575576396
 30
0.0
  0
VERTEX
  5
6CFA
330
6CE1
100
AcDbEntity
  8
LW 5015-19-01
100
AcDbVertex
100
AcDb2dVertex
 10
-32.0
 20
21.65063619613272
 30
0.0
  0
SEQEND
  5
6CFB
330
6CE1
100
AcDbEntity
  8
LW 5015-19-01
  0
POLYLINE
  5
6CFC
330
6C47
100
AcDbEntity
  8
LW 5015-19-01
100
AcDb2dPolyline
 66
     1
 10
0.0
 20
0.0
 30
0.0
 70
   128
  0
VERTEX
  5
6CFD
330
6CFC
100
AcDbEntity
  8
LW 5015-19-01
100
AcDbVertex
100
AcDb2dVertex
 10
-32.0
 20
-21.65063619614023
 30
0.0
  0
VERTEX
  5
6CFE
330
6CFC
100
AcDbEntity
  8
LW 5015-19-01
100
AcDbVertex
100
AcDb2dVertex
 10
-31.97898697853089
 20
-21.48914575577169
 30
0.0
  0
VERTEX
  5
6CFF
330
6CFC
100
AcDbEntity
  8
LW 5015-19-01
100
AcDbVertex
100
AcDb2dVertex
 10
-31.91565704345703
 20
-21.32250547409455
 30
0.0
  0
VERTEX
  5
6D00
330
6CFC
100
AcDbEntity
  8
LW 5015-19-01
100
AcDbVertex
100
AcDb2dVertex
 10
-31.80957746505737
 20
-21.15626573563031
 30
0.0
  0
VERTEX
  5
6D01
330
6CFC
100
AcDbEntity
  8
LW 5015-19-01
100
AcDbVertex
100
AcDb2dVertex
 10
-31.66169476509094
 20
-20.9959340095561
 30
0.0
  0
VERTEX
  5
6D02
330
6CFC
100
AcDbEntity
  8
LW 5015-19-01
100
AcDbVertex
100
AcDb2dVertex
 10
-31.47847723960877
 20
-20.84645748138848
 30
0.0
  0
VERTEX
  5
6D03
330
6CFC
100
AcDbEntity
  8
LW 5015-19-01
100
AcDbVertex
100
AcDb2dVertex
 10
-31.2677652835846
 20
-20.71255683899358
 30
0.0
  0
VERTEX
  5
6D04
330
6CFC
100
AcDbEntity
  8
LW 5015-19-01
100
AcDbVertex
100
AcDb2dVertex
 10
-31.02740001678467
 20
-20.59347152710393
 30
0.0
  0
VERTEX
  5
6D05
330
6CFC
100
AcDbEntity
  8
LW 5015-19-01
100
AcDbVertex
100
AcDb2dVertex
 10
-30.75476121902466
 20
-20.48868179321721
 30
0.0
  0
VERTEX
  5
6D06
330
6CFC
100
AcDbEntity
  8
LW 5015-19-01
100
AcDbVertex
100
AcDb2dVertex
 10
-30.45699787139893
 20
-20.40325641632512
 30
0.0
  0
VERTEX
  5
6D07
330
6CFC
100
AcDbEntity
  8
LW 5015-19-01
100
AcDbVertex
100
AcDb2dVertex
 10
-30.14183115959168
 20
-20.34152984619573
 30
0.0
  0
VERTEX
  5
6D08
330
6CFC
100
AcDbEntity
  8
LW 5015-19-01
100
AcDbVertex
100
AcDb2dVertex
 10
-29.8192925453186
 20
-20.30447006226018
 30
0.0
  0
VERTEX
  5
6D09
330
6CFC
100
AcDbEntity
  8
LW 5015-19-01
100
AcDbVertex
100
AcDb2dVertex
 10
-29.5
 20
-20.29211044311955
 30
0.0
  0
VERTEX
  5
6D0A
330
6CFC
100
AcDbEntity
  8
LW 5015-19-01
100
AcDbVertex
100
AcDb2dVertex
 10
-29.1807074546814
 20
-20.30447006226018
 30
0.0
  0
VERTEX
  5
6D0B
330
6CFC
100
AcDbEntity
  8
LW 5015-19-01
100
AcDbVertex
100
AcDb2dVertex
 10
-28.85816884040833
 20
-20.34152984619573
 30
0.0
  0
VERTEX
  5
6D0C
330
6CFC
100
AcDbEntity
  8
LW 5015-19-01
100
AcDbVertex
100
AcDb2dVertex
 10
-28.54300212860108
 20
-20.40325641632512
 30
0.0
  0
VERTEX
  5
6D0D
330
6CFC
100
AcDbEntity
  8
LW 5015-19-01
100
AcDbVertex
100
AcDb2dVertex
 10
-28.24523878097534
 20
-20.48868179321721
 30
0.0
  0
VERTEX
  5
6D0E
330
6CFC
100
AcDbEntity
  8
LW 5015-19-01
100
AcDbVertex
100
AcDb2dVertex
 10
-27.97259998321533
 20
-20.59347152710393
 30
0.0
  0
VERTEX
  5
6D0F
330
6CFC
100
AcDbEntity
  8
LW 5015-19-01
100
AcDbVertex
100
AcDb2dVertex
 10
-27.73223471641541
 20
-20.71255683899358
 30
0.0
  0
VERTEX
  5
6D10
330
6CFC
100
AcDbEntity
  8
LW 5015-19-01
100
AcDbVertex
100
AcDb2dVertex
 10
-27.52152276039124
 20
-20.84645748138848
 30
0.0
  0
VERTEX
  5
6D11
330
6CFC
100
AcDbEntity
  8
LW 5015-19-01
100
AcDbVertex
100
AcDb2dVertex
 10
-27.33830523490906
 20
-20.9959340095561
 30
0.0
  0
VERTEX
  5
6D12
330
6CFC
100
AcDbEntity
  8
LW 5015-19-01
100
AcDbVertex
100
AcDb2dVertex
 10
-27.19042253494263
 20
-21.15626573563031
 30
0.0
  0
VERTEX
  5
6D13
330
6CFC
100
AcDbEntity
  8
LW 5015-19-01
100
AcDbVertex
100
AcDb2dVertex
 10
-27.08434295654297
 20
-21.32250547409455
 30
0.0
  0
VERTEX
  5
6D14
330
6CFC
100
AcDbEntity
  8
LW 5015-19-01
100
AcDbVertex
100
AcDb2dVertex
 10
-27.02101302146912
 20
-21.48914575577169
 30
0.0
  0
VERTEX
  5
6D15
330
6CFC
100
AcDbEntity
  8
LW 5015-19-01
100
AcDbVertex
100
AcDb2dVertex
 10
-27.0
 20
-21.65063619614023
 30
0.0
  0
SEQEND
  5
6D16
330
6CFC
100
AcDbEntity
  8
LW 5015-19-01
  0
POLYLINE
  5
6D17
330
6C47
100
AcDbEntity
  8
LW 5015-19-01
100
AcDb2dPolyline
 66
     1
 10
0.0
 20
0.0
 30
0.0
 70
   128
  0
VERTEX
  5
6D18
330
6D17
100
AcDbEntity
  8
LW 5015-19-01
100
AcDbVertex
100
AcDb2dVertex
 10
-27.0
 20
-21.65063619614023
 30
0.0
  0
VERTEX
  5
6D19
330
6D17
100
AcDbEntity
  8
LW 5015-19-01
100
AcDbVertex
100
AcDb2dVertex
 10
-27.02101302146912
 20
-21.80843830109006
 30
0.0
  0
VERTEX
  5
6D1A
330
6D17
100
AcDbEntity
  8
LW 5015-19-01
100
AcDbVertex
100
AcDb2dVertex
 10
-27.08434295654297
 20
-21.96433782577878
 30
0.0
  0
VERTEX
  5
6D1B
330
6D17
100
AcDbEntity
  8
LW 5015-19-01
100
AcDbVertex
100
AcDb2dVertex
 10
-27.19042253494263
 20
-22.11326599121457
 30
0.0
  0
VERTEX
  5
6D1C
330
6D17
100
AcDbEntity
  8
LW 5015-19-01
100
AcDbVertex
100
AcDb2dVertex
 10
-27.33830523490906
 20
-22.25069761276586
 30
0.0
  0
VERTEX
  5
6D1D
330
6D17
100
AcDbEntity
  8
LW 5015-19-01
100
AcDbVertex
100
AcDb2dVertex
 10
-27.52152276039124
 20
-22.37386226654394
 30
0.0
  0
VERTEX
  5
6D1E
330
6D17
100
AcDbEntity
  8
LW 5015-19-01
100
AcDbVertex
100
AcDb2dVertex
 10
-27.73223471641541
 20
-22.48032569885595
 30
0.0
  0
VERTEX
  5
6D1F
330
6D17
100
AcDbEntity
  8
LW 5015-19-01
100
AcDbVertex
100
AcDb2dVertex
 10
-27.97259998321533
 20
-22.57195234299024
 30
0.0
  0
VERTEX
  5
6D20
330
6D17
100
AcDbEntity
  8
LW 5015-19-01
100
AcDbVertex
100
AcDb2dVertex
 10
-28.24523878097534
 20
-22.6503801345857
 30
0.0
  0
VERTEX
  5
6D21
330
6D17
100
AcDbEntity
  8
LW 5015-19-01
100
AcDbVertex
100
AcDb2dVertex
 10
-28.54300212860108
 20
-22.71283626556715
 30
0.0
  0
VERTEX
  5
6D22
330
6D17
100
AcDbEntity
  8
LW 5015-19-01
100
AcDbVertex
100
AcDb2dVertex
 10
-28.85816884040833
 20
-22.75718688965162
 30
0.0
  0
VERTEX
  5
6D23
330
6D17
100
AcDbEntity
  8
LW 5015-19-01
100
AcDbVertex
100
AcDb2dVertex
 10
-29.1807074546814
 20
-22.78345584869703
 30
0.0
  0
VERTEX
  5
6D24
330
6D17
100
AcDbEntity
  8
LW 5015-19-01
100
AcDbVertex
100
AcDb2dVertex
 10
-29.5
 20
-22.79211044311842
 30
0.0
  0
VERTEX
  5
6D25
330
6D17
100
AcDbEntity
  8
LW 5015-19-01
100
AcDbVertex
100
AcDb2dVertex
 10
-29.8192925453186
 20
-22.78345584869703
 30
0.0
  0
VERTEX
  5
6D26
330
6D17
100
AcDbEntity
  8
LW 5015-19-01
100
AcDbVertex
100
AcDb2dVertex
 10
-30.14183115959168
 20
-22.75718688965162
 30
0.0
  0
VERTEX
  5
6D27
330
6D17
100
AcDbEntity
  8
LW 5015-19-01
100
AcDbVertex
100
AcDb2dVertex
 10
-30.45699787139893
 20
-22.71283626556715
 30
0.0
  0
VERTEX
  5
6D28
330
6D17
100
AcDbEntity
  8
LW 5015-19-01
100
AcDbVertex
100
AcDb2dVertex
 10
-30.75476121902466
 20
-22.6503801345857
 30
0.0
  0
VERTEX
  5
6D29
330
6D17
100
AcDbEntity
  8
LW 5015-19-01
100
AcDbVertex
100
AcDb2dVertex
 10
-31.02740001678467
 20
-22.57195234299024
 30
0.0
  0
VERTEX
  5
6D2A
330
6D17
100
AcDbEntity
  8
LW 5015-19-01
100
AcDbVertex
100
AcDb2dVertex
 10
-31.2677652835846
 20
-22.48032569885595
 30
0.0
  0
VERTEX
  5
6D2B
330
6D17
100
AcDbEntity
  8
LW 5015-19-01
100
AcDbVertex
100
AcDb2dVertex
 10
-31.47847723960877
 20
-22.37386226654394
 30
0.0
  0
VERTEX
  5
6D2C
330
6D17
100
AcDbEntity
  8
LW 5015-19-01
100
AcDbVertex
100
AcDb2dVertex
 10
-31.66169476509094
 20
-22.25069761276586
 30
0.0
  0
VERTEX
  5
6D2D
330
6D17
100
AcDbEntity
  8
LW 5015-19-01
100
AcDbVertex
100
AcDb2dVertex
 10
-31.80957746505737
 20
-22.11326599121457
 30
0.0
  0
VERTEX
  5
6D2E
330
6D17
100
AcDbEntity
  8
LW 5015-19-01
100
AcDbVertex
100
AcDb2dVertex
 10
-31.91565704345703
 20
-21.96433782577878
 30
0.0
  0
VERTEX
  5
6D2F
330
6D17
100
AcDbEntity
  8
LW 5015-19-01
100
AcDbVertex
100
AcDb2dVertex
 10
-31.97898697853089
 20
-21.80843830109006
 30
0.0
  0
VERTEX
  5
6D30
330
6D17
100
AcDbEntity
  8
LW 5015-19-01
100
AcDbVertex
100
AcDb2dVertex
 10
-32.0
 20
-21.65063619614023
 30
0.0
  0
SEQEND
  5
6D31
330
6D17
100
AcDbEntity
  8
LW 5015-19-01
  0
LINE
  5
6D32
330
6C47
100
AcDbEntity
  8
LW 5015-19-01
100
AcDbLine
 10
-33.5
 20
25.0
 30
0.0
 11
-33.5
 21
-25.0
 31
0.0
  0
LINE
  5
6D33
330
6C47
100
AcDbEntity
  8
LW 5015-19-01
100
AcDbLine
 10
-39.5
 20
19.0
 30
0.0
 11
-39.5
 21
-19.0
 31
0.0
  0
LINE
  5
6D34
330
6C47
100
AcDbEntity
  8
LW 5015-19-01
100
AcDbLine
 10
-133.5
 20
10.0
 30
0.0
 11
-133.5
 21
-10.0
 31
0.0
  0
LINE
  5
6D35
330
6C47
100
AcDbEntity
  8
LW 5015-19-01
100
AcDbLine
 10
-134.5
 20
9.0
 30
0.0
 11
-134.5
 21
-9.0
 31
0.0
  0
LINE
  5
6D36
330
6C47
100
AcDbEntity
  8
LW 5015-19-01
100
AcDbLine
 10
-14.5
 20
-25.0
 30
0.0
 11
-33.5
 21
-25.0
 31
0.0
  0
LINE
  5
6D37
330
6C47
100
AcDbEntity
  8
LW 5015-19-01
100
AcDbLine
 10
-14.5
 20
25.0
 30
0.0
 11
-33.5
 21
25.0
 31
0.0
  0
LINE
  5
6D38
330
6C47
100
AcDbEntity
  8
LW 5015-19-01
100
AcDbLine
 10
-39.5
 20
19.0
 30
0.0
 11
-33.5
 21
25.0
 31
0.0
  0
LINE
  5
6D39
330
6C47
100
AcDbEntity
  8
LW 5015-19-01
100
AcDbLine
 10
-39.5
 20
-19.0
 30
0.0
 11
-33.5
 21
-25.0
 31
0.0
  0
ARC
  5
6D3A
330
6C47
100
AcDbEntity
  8
LW 5015-19-01
100
AcDbCircle
 10
-40.49999999999999
 20
11.0
 30
0.0
 40
1.000000000000002
100
AcDbArc
 50
270.0
 51
0.0
  0
ARC
  5
6D3B
330
6C47
100
AcDbEntity
  8
LW 5015-19-01
100
AcDbCircle
 10
-40.49999999999999
 20
-11.0
 30
0.0
 40
1.000000000000002
100
AcDbArc
 50
0.0
 51
90.0
  0
LINE
  5
6D3C
330
6C47
100
AcDbEntity
  8
LW 5015-19-01
100
AcDbLine
 10
-40.49999999999999
 20
-10.0
 30
0.0
 11
-90.48612181133098
 21
-10.00000000000003
 31
0.0
  0
LINE
  5
6D3D
330
6C47
100
AcDbEntity
  8
LW 5015-19-01
100
AcDbLine
 10
-108.5138781886691
 20
-10.0
 30
0.0
 11
-133.5
 21
-10.0
 31
0.0
  0
LINE
  5
6D3E
330
6C47
100
AcDbEntity
  8
LW 5015-19-01
100
AcDbLine
 10
-40.49999999999999
 20
10.0
 30
0.0
 11
-82.72949016875319
 21
9.999999999999971
 31
0.0
  0
LINE
  5
6D3F
330
6C47
100
AcDbEntity
  8
LW 5015-19-01
100
AcDbLine
 10
-116.2705098312468
 20
10.0
 30
0.0
 11
-133.5
 21
10.0
 31
0.0
  0
LINE
  5
6D40
330
6C47
100
AcDbEntity
  8
LW 5015-19-01
100
AcDbLine
 10
-134.5
 20
9.0
 30
0.0
 11
-133.5
 21
10.0
 31
0.0
  0
LINE
  5
6D41
330
6C47
100
AcDbEntity
  8
LW 5015-19-01
100
AcDbLine
 10
-134.5
 20
-9.0
 30
0.0
 11
-133.5
 21
-10.0
 31
0.0
  0
CIRCLE
  5
6D42
330
6C47
100
AcDbEntity
  8
LW 5015-19-01
100
AcDbCircle
 10
-99.50000000000001
 20
4.999999999994543
 30
0.0
 40
17.50000000000001
  0
CIRCLE
  5
6D43
330
6C47
100
AcDbEntity
  8
LW 5015-19-01
100
AcDbCircle
 10
99.50000000000001
 20
4.999999999994543
 30
0.0
 40
17.5
  0
LINE
  5
6D44
330
6C47
100
AcDbEntity
  8
LW 5015-19-01
100
AcDbLine
 10
6.5
 20
12.0
 30
0.0
 11
6.5
 21
-12.00000000000011
 31
0.0
  0
LINE
  5
6D45
330
6C47
100
AcDbEntity
  8
LW 5015-19-01
100
AcDbLine
 10
-6.5
 20
12.0
 30
0.0
 11
-6.5
 21
-12.00000000000011
 31
0.0
  0
LINE
  5
6D46
330
6C47
100
AcDbEntity
  8
LW 5015-19-01
100
AcDbLine
 10
-6.5
 20
12.0
 30
0.0
 11
6.5
 21
12.0
 31
0.0
  0
LINE
  5
6D47
330
6C47
100
AcDbEntity
  8
LW 5015-19-01
100
AcDbLine
 10
-6.5
 20
-12.00000000000011
 30
0.0
 11
6.5
 21
-12.00000000000011
 31
0.0
  0
LINE
  5
6D48
330
6C47
100
AcDbEntity
  8
LW 5015-19-01
100
AcDbLine
 10
-11.5
 20
32.5
 30
0.0
 11
-11.5
 21
-32.5
 31
0.0
  0
LINE
  5
6D49
330
6C47
100
AcDbEntity
  8
LW 5015-19-01
100
AcDbLine
 10
-14.5
 20
32.5
 30
0.0
 11
-14.5
 21
-32.5
 31
0.0
  0
LINE
  5
6D4A
330
6C47
100
AcDbEntity
  8
LW 5015-19-01
100
AcDbLine
 10
-14.5
 20
32.5
 30
0.0
 11
-11.5
 21
32.5
 31
0.0
  0
LINE
  5
6D4B
330
6C47
100
AcDbEntity
  8
LW 5015-19-01
100
AcDbLine
 10
-14.5
 20
-32.5
 30
0.0
 11
-11.5
 21
-32.5
 31
0.0
  0
LINE
  5
6D4C
330
6C47
100
AcDbEntity
  8
LW 5015-19-01
100
AcDbLine
 10
11.5
 20
-32.5
 30
0.0
 11
11.5
 21
32.5
 31
0.0
  0
LINE
  5
6D4D
330
6C47
100
AcDbEntity
  8
LW 5015-19-01
100
AcDbLine
 10
14.5
 20
-32.5
 30
0.0
 11
14.5
 21
32.5
 31
0.0
  0
LINE
  5
6D4E
330
6C47
100
AcDbEntity
  8
LW 5015-19-01
100
AcDbLine
 10
14.5
 20
-32.5
 30
0.0
 11
11.5
 21
-32.5
 31
0.0
  0
LINE
  5
6D4F
330
6C47
100
AcDbEntity
  8
LW 5015-19-01
100
AcDbLine
 10
14.5
 20
32.5
 30
0.0
 11
11.5
 21
32.5
 31
0.0
  0
LINE
  5
6D50
330
6C47
100
AcDbEntity
  8
LW 5015-19-01
100
AcDbLine
 10
-9.5
 20
32.0
 30
0.0
 11
-9.5
 21
-32.00000000000012
 31
0.0
  0
LINE
  5
6D51
330
6C47
100
AcDbEntity
  8
LW 5015-19-01
100
AcDbLine
 10
-11.5
 20
32.0
 30
0.0
 11
-9.5
 21
32.0
 31
0.0
  0
LINE
  5
6D52
330
6C47
100
AcDbEntity
  8
LW 5015-19-01
100
AcDbLine
 10
-11.5
 20
-32.0
 30
0.0
 11
-9.5
 21
-32.0
 31
0.0
  0
LINE
  5
6D53
330
6C47
100
AcDbEntity
  8
LW 5015-19-01
100
AcDbLine
 10
9.5
 20
-32.00000000000012
 30
0.0
 11
9.5
 21
32.0
 31
0.0
  0
LINE
  5
6D54
330
6C47
100
AcDbEntity
  8
LW 5015-19-01
100
AcDbLine
 10
11.5
 20
-32.0
 30
0.0
 11
9.5
 21
-32.0
 31
0.0
  0
LINE
  5
6D55
330
6C47
100
AcDbEntity
  8
LW 5015-19-01
100
AcDbLine
 10
11.5
 20
32.0
 30
0.0
 11
9.5
 21
32.0
 31
0.0
  0
LINE
  5
6D56
330
6C47
100
AcDbEntity
  8
LW 5015-19-01
100
AcDbLine
 10
9.5
 20
-7.000000000000113
 30
0.0
 11
6.5
 21
-7.000000000000113
 31
0.0
  0
LINE
  5
6D57
330
6C47
100
AcDbEntity
  8
LW 5015-19-01
100
AcDbLine
 10
-6.5
 20
-7.000000000000113
 30
0.0
 11
-9.5
 21
-7.000000000000113
 31
0.0
  0
LINE
  5
6D58
330
6C47
100
AcDbEntity
  8
LW 5015-19-01
100
AcDbLine
 10
9.5
 20
7.0
 30
0.0
 11
6.5
 21
7.0
 31
0.0
  0
LINE
  5
6D59
330
6C47
100
AcDbEntity
  8
LW 5015-19-01
100
AcDbLine
 10
-6.5
 20
7.0
 30
0.0
 11
-9.5
 21
7.0
 31
0.0
  0
LINE
  5
6D5A
330
6C47
100
AcDbEntity
  8
LW 5015-19-01
 62
     3
100
AcDbLine
 10
-9.5
 20
-5.794500000000084
 30
0.0
 11
-6.5
 21
-5.794500000000084
 31
0.0
  0
LINE
  5
6D5B
330
6C47
100
AcDbEntity
  8
LW 5015-19-01
 62
     3
100
AcDbLine
 10
6.5
 20
-5.794500000000084
 30
0.0
 11
9.5
 21
-5.794500000000084
 31
0.0
  0
LINE
  5
6D5C
330
6C47
100
AcDbEntity
  8
LW 5015-19-01
 62
     3
100
AcDbLine
 10
9.5
 20
5.79449999999997
 30
0.0
 11
6.5
 21
5.79449999999997
 31
0.0
  0
LINE
  5
6D5D
330
6C47
100
AcDbEntity
  8
LW 5015-19-01
 62
     3
100
AcDbLine
 10
-6.500000000000227
 20
5.79449999999997
 30
0.0
 11
-9.5
 21
5.79449999999997
 31
0.0
  0
LINE
  5
6D5E
330
6C47
100
AcDbEntity
  8
LW 5015-19-01
  6
MITTE2
 62
     3
100
AcDbLine
 10
-99.50000000000001
 20
27.49999999999455
 30
0.0
 11
-99.50000000000001
 21
-17.50000000000546
 31
0.0
  0
LINE
  5
6D5F
330
6C47
100
AcDbEntity
  8
LW 5015-19-01
  6
MITTE2
 62
     3
100
AcDbLine
 10
99.50000000000001
 20
27.49999999999432
 30
0.0
 11
99.50000000000001
 21
-17.50000000000568
 31
0.0
  0
LINE
  5
6D60
330
6C47
100
AcDbEntity
  8
LW 5015-19-01
  6
MITTE2
 62
     3
100
AcDbLine
 10
137.8443034851964
 20
0.0
 30
0.0
 11
-137.8443034851966
 21
0.0
 31
0.0
  0
HATCH
  5
6D61
330
6C47
100
AcDbEntity
  8
LW 5015-19-01
 62
     1
100
AcDbHatch
 10
0.0
 20
0.0
 30
0.0
210
0.0
220
0.0
230
1.0
  2
SOLID
 70
     1
 71
     0
 91
        5
 92
        7
 72
     0
 73
     1
 93
       76
 10
52.17907163391032
 20
5.869698514444621
 10
52.21093046328315
 20
5.921279476286372
 10
52.32908858751443
 20
6.0725218753023
 10
52.46356666272709
 20
6.212946005564845
 10
52.60958656918865
 20
6.341330567278191
 10
52.77325536527064
 20
6.458236850193998
 10
52.94864231863539
 20
6.560414732015601
 10
53.13039525123577
 20
6.651766411598487
 10
53.31156418670139
 20
6.721284724044608
 10
51.05442624850138
 20
6.721284724044608
 10
50.84152969610136
 20
6.71259506884462
 10
50.63949521270138
 20
6.686526103244659
 10
50.44397797070132
 20
6.64525024104455
 10
50.25932279770154
 20
6.590939896044574
 10
50.08335727990129
 20
6.521422654444563
 10
49.91608141730148
 20
6.438870930044458
 10
49.76551315475444
 20
6.343545412500589
 10
49.62280555430152
 20
6.236836446644474
 10
49.49736429873087
 20
6.117788170404423
 10
49.3860993466535
 20
5.989528859652523
 10
49.2860814153014
 20
5.852319204044533
 10
49.2035296909014
 20
5.706767479444465
 10
49.14052969070144
 20
5.55252609964441
 10
49.09056417330157
 20
5.391767478444535
 10
49.06232279390156
 20
5.226664029644553
 10
49.05363313870157
 20
5.052870925644583
 10
49.06449520770161
 20
4.879077821644386
 10
49.09490900090145
 20
4.711801959044464
 10
49.14921934590165
 20
4.551043337844475
 10
49.21873658750155
 20
4.39462954424448
 10
49.3078055533017
 20
4.246905405844472
 10
49.41425382950161
 20
4.105698508844625
 10
49.5369517609256
 20
3.974484715324479
 10
49.67315080963385
 20
3.853350921836636
 10
49.82049521010162
 20
3.742905404244538
 10
49.98125383130172
 20
3.645146783244626
 10
50.15688045254887
 20
3.560248851940514
 10
50.33752969450143
 20
3.486560575844578
 10
50.52870210890159
 20
3.430077817044548
 10
50.72856417850153
 20
3.386629541044612
 10
50.93711590330144
 20
3.360560575444537
 10
51.14784004190141
 20
3.35187092024455
 10
53.26701112765409
 20
3.351870920244664
 10
53.10646726360165
 20
3.414941723979609
 10
52.92290311979923
 20
3.505561997502354
 10
52.75443671362904
 20
3.610091690433819
 10
52.5916038188684
 20
3.725709928859259
 10
52.44769145049827
 20
3.855499525399181
 10
52.32025555701397
 20
3.994853208627773
 10
52.20655020227059
 20
4.145341453340279
 10
52.15457897082183
 20
4.229526095444612
 10
51.12611590390156
 20
4.229526095444498
 10
50.99400707589598
 20
4.237086095468612
 10
50.86325383410144
 20
4.257419888636604
 10
50.73508141990169
 20
4.290353681844521
 10
50.61994348850157
 20
4.335974371644624
 10
50.51499852265123
 20
4.39245713044454
 10
50.41684886716712
 20
4.460062647900485
 10
50.32666762550161
 20
4.538008855044495
 10
50.25497797010166
 20
4.62273299324454
 10
51.9824992843603
 20
4.622732993244653
 10
51.97191481708728
 20
4.655368434002866
 10
51.93580300912299
 20
4.840742381554036
 10
51.92375935634117
 20
5.03103209550477
 10
51.93578102877063
 20
5.22578318885985
 10
51.97208675044589
 20
5.412152560126287
 10
51.98868545312075
 20
5.461284720044545
 10
50.21804693550143
 20
5.461284720044545
 10
50.28756417710155
 20
5.556870927244517
 10
50.37011590150155
 20
5.639422651644508
 10
50.46520679835499
 20
5.709287479452541
 10
50.56780555730142
 20
5.767595065844602
 10
50.68649755767819
 20
5.811564721156514
 10
50.80894348910146
 20
5.843629548844546
 10
50.94580555850143
 20
5.863181273044574
 10
51.08918486930156
 20
5.869698514444507
 97
        0
 92
        7
 72
     0
 73
     1
 93
       72
 10
53.90753549893815
 20
5.855099893708597
 10
54.03039853381097
 20
5.873174376524616
 10
54.1544607411015
 20
5.878388169644722
 10
55.42315040030143
 20
5.878388169644722
 10
54.57590901830144
 20
5.063732994644851
 10
56.34208143770161
 20
3.34535367884473
 10
57.66073661430141
 20
3.34535367884473
 10
55.94670212610163
 20
5.087629546444759
 10
57.62815040730152
 20
6.721284724044835
 10
54.18921936190145
 20
6.721284724044608
 10
53.98123246468935
 20
6.710509551596715
 10
53.77451425713662
 20
6.68504886186065
 10
53.57008142890141
 20
6.645250241044664
 10
53.37673660070141
 20
6.588767482244634
 10
53.18990901390134
 20
6.51707782684457
 10
53.01874887542703
 20
6.431050240364584
 10
52.85318487490144
 20
6.334595067644613
 10
52.70111590890156
 20
6.225974377644661
 10
52.56541825329827
 20
6.106665411748622
 10
52.44042625290148
 20
5.976146790644634
 10
52.33180556290131
 20
5.837112307444613
 10
52.24056418330156
 20
5.689388169044718
 10
52.16887452790138
 20
5.535146789244663
 10
52.1145641829014
 20
5.374388168044561
 10
52.08197797590151
 20
5.207112305444525
 10
52.07111590690146
 20
5.031146787644502
 10
52.08197797590151
 20
4.859526097444586
 10
52.11456418290163
 20
4.692250234844664
 10
52.16670211410155
 20
4.531491613644675
 10
52.23621935570145
 20
4.37725023384462
 10
52.32806032151029
 20
4.228483336820772
 10
52.43343977012068
 20
4.089014370860581
 10
52.5514452877369
 20
3.959972991140716
 10
52.68373659850158
 20
3.840664025244677
 10
52.83585770243281
 20
3.732651611108622
 10
52.99439177190151
 20
3.634284714244586
 10
53.16601246210166
 20
3.549560576044655
 10
53.34849522130162
 20
3.477870920644591
 10
53.54272639433202
 20
3.423821265300603
 10
53.73952970530149
 20
3.380112299644679
 10
53.94808143010163
 20
3.354043334044717
 10
54.15880556870161
 20
3.34535367884473
 10
56.06184005750151
 20
3.34535367884473
 10
55.17549522710146
 20
4.218664026444685
 10
54.15880556870161
 20
4.218664026444685
 10
54.09213853400706
 20
4.222411319384036
 10
53.9911908095487
 20
4.232393681660596
 10
53.87105632640873
 20
4.253857130004689
 10
53.75393715362315
 20
4.288181268044581
 10
53.65244198088726
 20
4.329109544036668
 10
53.59630680829514
 20
4.357264026884649
 10
53.54262211846958
 20
4.389850233884772
 10
53.41006142839342
 20
4.489172992820613
 10
53.33646004884963
 20
4.559211613732713
 10
53.28139370384724
 20
4.627077820844533
 10
53.23268818645101
 20
4.699636441764596
 10
53.19332404839497
 20
4.776800579940527
 10
53.16390087588797
 20
4.858222649164645
 10
53.14320211720155
 20
4.945379890820731
 10
53.13568556545352
 20
5.034709546276531
 10
53.13704115166479
 20
5.097014374060563
 10
53.14304570340801
 20
5.159145408740528
 10
53.15520253103272
 20
5.222319202044673
 10
53.173416048332
 20
5.284015753964695
 10
53.21706418640133
 20
5.382730237036525
 10
53.2585920486024
 20
5.450596444148573
 10
53.32167025569901
 20
5.528629547844616
 10
53.45107219606394
 20
5.655152284898349
 10
53.51034004940152
 20
5.695210238028721
 10
53.58663522205756
 20
5.739527479548542
 10
53.6706554981863
 20
5.78167230726865
 10
53.78719246407354
 20
5.824512307404688
 97
        0
 92
        7
 72
     0
 73
     1
 93
       57
 10
58.46557247892565
 20
5.833028169500948
 10
58.59704696210155
 20
5.873000583420889
 10
58.73173661770147
 20
5.900112307644917
 10
58.87511592850137
 20
5.90880196284479
 10
60.11556420830152
 20
5.908801962844904
 10
60.11556420830152
 20
6.734319206844929
 10
58.88163316990153
 20
6.734319206844816
 10
58.67090903130156
 20
6.725629551644829
 10
58.46452972030147
 20
6.697388172244814
 10
58.26684006450159
 20
6.656112310044818
 10
58.07784006390147
 20
6.601801965044842
 10
57.89318489090146
 20
6.530112309644891
 10
57.72677799382131
 20
6.447473688692753
 10
57.56795716573106
 20
6.351018515972782
 10
57.41787813077189
 20
6.241528860452717
 10
57.28331881999998
 20
6.122306791108826
 10
57.16325385410141
 20
5.993526101044835
 10
57.05897799170156
 20
5.854491617844814
 10
56.97425385350152
 20
5.708939893244746
 10
56.90256419810134
 20
5.554698513444691
 10
56.85259868070147
 20
5.393939892244816
 10
56.82001247370158
 20
5.226664029644894
 10
56.80915040470154
 20
5.05287092564481
 10
56.82001247370158
 20
4.879077821644841
 10
56.85259868070147
 20
4.711801959044805
 10
56.90473661190139
 20
4.551043337844703
 10
56.97642626730157
 20
4.394629544244821
 10
57.06332281930167
 20
4.246905405844813
 10
57.1721694403368
 20
4.107349543332816
 10
57.29202585451026
 20
3.977004715332896
 10
57.42845344115039
 20
3.855697128740757
 10
57.5760124761016
 20
3.745077818044819
 10
57.73677109730147
 20
3.64731919704468
 10
57.91056420130144
 20
3.562595058844863
 10
58.09521937430168
 20
3.488732989644859
 10
58.28639178870162
 20
3.432250230844829
 10
58.48625385830155
 20
3.388801954844893
 10
58.69263316930164
 20
3.364905403044758
 10
58.90552972170167
 20
3.356215747844771
 10
60.11556420830152
 20
3.356215747844885
 10
60.11556420830152
 20
4.214319198844805
 10
58.88163316990153
 20
4.214319198844805
 10
58.74798627292557
 20
4.224659888532755
 10
58.6157297207817
 20
4.246644716188939
 10
58.49511730660561
 20
4.280968854228831
 10
58.37911040968561
 20
4.328935750932942
 10
58.26944696106147
 20
4.389850233884885
 10
58.17238351247761
 20
4.45745575134083
 10
58.08496558116553
 20
4.537226786076871
 10
58.01049523610164
 20
4.622732993244881
 10
60.11556420830152
 20
4.622732993244881
 10
60.11556420830152
 20
5.450422651044846
 10
57.97356420150141
 20
5.450422651044846
 10
58.04308144310152
 20
5.548181272044757
 10
58.1299779951014
 20
5.637250237844682
 10
58.23112558162961
 20
5.713545410500842
 10
58.33852971990154
 20
5.78062954864481
 97
        0
 92
        7
 72
     0
 73
     1
 93
        6
 10
60.34584007110152
 20
6.721284724044949
 10
60.34584007110152
 20
3.351870920244891
 10
62.58342628510172
 20
3.351870920245005
 10
62.58342628510149
 20
4.218664026445026
 10
61.36904697090153
 20
4.218664026445026
 10
61.36904697090153
 20
6.721284724044949
 97
        0
 92
        7
 72
     0
 73
     1
 93
        8
 10
61.60149524750136
 20
6.721284724044949
 10
61.60149524750136
 20
5.895767480044924
 10
62.83542628590158
 20
5.895767480045037
 10
62.83542628590158
 20
3.345353678844958
 10
63.86080559950165
 20
3.345353678844958
 10
63.86080559950142
 20
5.895767480044924
 10
65.10342629310139
 20
5.895767480045037
 10
65.10342629310139
 20
6.721284724045062
 97
        0
 75
     0
 76
     1
 47
0.0142553043587597
 98
        5
 10
51.48873175997664
 20
6.278835054455498
 10
53.75622897331936
 20
6.136282069449862
 10
58.24844070552081
 20
6.193303241997682
 10
60.97228978935254
 20
6.435643466690066
 10
62.38412777157918
 20
6.335856334276741
450
        0
451
        0
460
0.0
461
0.0
452
        0
462
0.0
453
        0
470

  0
LWPOLYLINE
  5
6D62
330
6C47
100
AcDbEntity
  8
LW 5015-19-01
 62
     1
100
AcDbPolyline
 90
        8
 70
     1
 43
0.0
 10
63.86080559950142
 20
5.895767480044924
 10
63.86080559950165
 20
3.345353678844958
 10
62.83542628590158
 20
3.345353678844958
 10
62.83542628590158
 20
5.895767480045037
 10
61.60149524750136
 20
5.895767480044924
 10
61.60149524750136
 20
6.721284724044949
 10
65.10342629310139
 20
6.721284724045062
 10
65.10342629310139
 20
5.895767480045037
  0
LWPOLYLINE
  5
6D63
330
6C47
100
AcDbEntity
  8
LW 5015-19-01
 62
     1
100
AcDbPolyline
 90
       73
 70
     1
 43
0.0
 10
54.15880556870161
 20
4.218664026444685
 10
55.17549522710146
 20
4.218664026444685
 10
56.06184005750151
 20
3.34535367884473
 10
54.15880556870161
 20
3.345353678844617
 10
53.94808143010163
 20
3.354043334044717
 10
53.73952970530149
 20
3.380112299644679
 10
53.54272639433202
 20
3.423821265300603
 10
53.34849522130162
 20
3.477870920644591
 10
53.16601246210166
 20
3.549560576044655
 10
52.99439177190151
 20
3.634284714244586
 10
52.83585770243281
 20
3.732651611108622
 10
52.68373659850158
 20
3.840664025244677
 10
52.55144528773667
 20
3.959972991140602
 10
52.43343977012068
 20
4.089014370860581
 10
52.32806032151029
 20
4.228483336820659
 10
52.23621935570145
 20
4.37725023384462
 10
52.16670211410155
 20
4.531491613644675
 10
52.11456418290163
 20
4.692250234844664
 10
52.08197797590151
 20
4.859526097444586
 10
52.07111590690146
 20
5.031146787644615
 10
52.08197797590151
 20
5.207112305444525
 10
52.1145641829014
 20
5.374388168044561
 10
52.1688745279016
 20
5.535146789244663
 10
52.24056418330156
 20
5.689388169044605
 10
52.33180556290154
 20
5.837112307444613
 10
52.44042625290148
 20
5.976146790644634
 10
52.56541825329827
 20
6.106665411748736
 10
52.70111590890133
 20
6.225974377644661
 10
52.85318487490144
 20
6.334595067644613
 10
53.01874887542703
 20
6.431050240364584
 10
53.18990901390134
 20
6.51707782684457
 10
53.37673660070141
 20
6.588767482244634
 10
53.57008142890141
 20
6.645250241044777
 10
53.77451425713662
 20
6.68504886186065
 10
53.98123246468935
 20
6.710509551596715
 10
54.18921936190145
 20
6.721284724044608
 10
57.62815040730152
 20
6.721284724044835
 10
55.94670212610163
 20
5.087629546444759
 10
57.66073661430141
 20
3.34535367884473
 10
56.34208143770161
 20
3.34535367884473
 10
54.57590901830144
 20
5.063732994644851
 10
55.42315040030143
 20
5.878388169644722
 10
54.1544607411015
 20
5.878388169644722
 10
54.03039853381097
 20
5.873174376524616
 10
53.90753549893815
 20
5.855099893708597
 10
53.78719246407354
 20
5.824512307404688
 10
53.6706554981863
 20
5.781672307268536
 10
53.58663522205734
 20
5.739527479548655
 10
53.51034004940152
 20
5.695210238028721
 10
53.47009825617033
 20
5.668011617252659
 10
53.43258501467198
 20
5.637076444740614
 10
53.32167025569901
 20
5.528629547844616
 10
53.2585920486024
 20
5.450596444148573
 10
53.21706418640156
 20
5.382730237036639
 10
53.173416048332
 20
5.284015753964695
 10
53.15520253103272
 20
5.222319202044673
 10
53.14304570340801
 20
5.159145408740641
 10
53.13704115166479
 20
5.097014374060677
 10
53.13568556545352
 20
5.034709546276644
 10
53.14320211720155
 20
4.945379890820731
 10
53.16390087588797
 20
4.858222649164645
 10
53.1933240483952
 20
4.776800579940641
 10
53.23268818645101
 20
4.699636441764596
 10
53.28139370384701
 20
4.627077820844647
 10
53.33646004884963
 20
4.559211613732713
 10
53.41006142839342
 20
4.489172992820613
 10
53.54262211846958
 20
4.389850233884772
 10
53.59630680829514
 20
4.357264026884649
 10
53.65244198088726
 20
4.329109544036668
 10
53.75393715362315
 20
4.288181268044581
 10
53.87105632640873
 20
4.253857130004689
 10
53.9911908095487
 20
4.232393681660596
 10
54.09213853400706
 20
4.222411319384036
  0
LWPOLYLINE
  5
6D64
330
6C47
100
AcDbEntity
  8
LW 5015-19-01
 62
     1
100
AcDbPolyline
 90
       76
 70
     1
 43
0.0
 10
52.94864231863539
 20
6.560414732015601
 10
52.77325536527064
 20
6.458236850193884
 10
52.60958656918865
 20
6.341330567278191
 10
52.46356666272709
 20
6.212946005564845
 10
52.32908858751443
 20
6.0725218753023
 10
52.21093046328315
 20
5.921279476286372
 10
52.17907163391032
 20
5.869698514444621
 10
51.08918486930156
 20
5.869698514444621
 10
50.94580555850143
 20
5.863181273044574
 10
50.80894348910146
 20
5.843629548844546
 10
50.68649755767819
 20
5.811564721156514
 10
50.56780555730142
 20
5.767595065844602
 10
50.46520679835521
 20
5.709287479452541
 10
50.37011590150155
 20
5.639422651644508
 10
50.28756417710133
 20
5.556870927244517
 10
50.21804693550143
 20
5.461284720044545
 10
51.98868545312075
 20
5.461284720044545
 10
51.97208675044589
 20
5.412152560126287
 10
51.9357810287704
 20
5.225783188859622
 10
51.92375935634117
 20
5.03103209550477
 10
51.93580300912299
 20
4.840742381554036
 10
51.97191481708751
 20
4.65536843400298
 10
51.9824992843603
 20
4.622732993244653
 10
50.25497797010166
 20
4.62273299324454
 10
50.32666762550161
 20
4.538008855044495
 10
50.41684886716712
 20
4.460062647900485
 10
50.51499852265123
 20
4.39245713044454
 10
50.61994348850157
 20
4.335974371644624
 10
50.73508141990169
 20
4.290353681844635
 10
50.86325383410144
 20
4.257419888636604
 10
50.99400707589598
 20
4.237086095468612
 10
51.12611590390156
 20
4.229526095444498
 10
52.15457897082183
 20
4.229526095444612
 10
52.20655020227059
 20
4.145341453340279
 10
52.32025555701397
 20
3.994853208627773
 10
52.44769145049827
 20
3.855499525399181
 10
52.5916038188684
 20
3.725709928859487
 10
52.75443671362904
 20
3.610091690433819
 10
52.92290311979923
 20
3.505561997502354
 10
53.10646726360165
 20
3.414941723979609
 10
53.26701112765409
 20
3.351870920244664
 10
51.14784004190164
 20
3.351870920244437
 10
50.93711590330144
 20
3.360560575444537
 10
50.72856417850153
 20
3.386629541044612
 10
50.52870210890159
 20
3.430077817044548
 10
50.33752969450166
 20
3.486560575844464
 10
50.15688045254865
 20
3.560248851940514
 10
49.98125383130172
 20
3.645146783244626
 10
49.82049521010162
 20
3.742905404244538
 10
49.67315080963385
 20
3.853350921836522
 10
49.5369517609256
 20
3.974484715324479
 10
49.41425382950161
 20
4.105698508844511
 10
49.30780555330148
 20
4.246905405844472
 10
49.21873658750155
 20
4.39462954424448
 10
49.14921934590165
 20
4.551043337844475
 10
49.09490900090145
 20
4.711801959044464
 10
49.06449520770161
 20
4.879077821644614
 10
49.05363313870157
 20
5.052870925644469
 10
49.06232279390133
 20
5.226664029644439
 10
49.09056417330157
 20
5.391767478444535
 10
49.14052969070144
 20
5.55252609964441
 10
49.2035296909014
 20
5.706767479444465
 10
49.2860814153014
 20
5.852319204044533
 10
49.3860993466535
 20
5.989528859652523
 10
49.49736429873087
 20
6.117788170404537
 10
49.62280555430152
 20
6.236836446644474
 10
49.76551315475444
 20
6.343545412500589
 10
49.91608141730148
 20
6.438870930044572
 10
50.08335727990152
 20
6.52142265444445
 10
50.25932279770154
 20
6.590939896044574
 10
50.44397797070155
 20
6.64525024104455
 10
50.63949521270138
 20
6.686526103244659
 10
50.84152969610136
 20
6.71259506884462
 10
51.05442624850138
 20
6.721284724044608
 10
53.31156418670161
 20
6.721284724044721
 10
53.13039525123577
 20
6.651766411598487
  0
LWPOLYLINE
  5
6D65
330
6C47
100
AcDbEntity
  8
LW 5015-19-01
 62
     1
100
AcDbPolyline
 90
        6
 70
     1
 43
0.0
 10
62.58342628510172
 20
3.351870920245005
 10
60.34584007110152
 20
3.351870920244891
 10
60.34584007110152
 20
6.721284724044949
 10
61.36904697090153
 20
6.721284724044949
 10
61.36904697090153
 20
4.218664026445026
 10
62.58342628510149
 20
4.218664026445026
  0
LWPOLYLINE
  5
6D66
330
6C47
100
AcDbEntity
  8
LW 5015-19-01
 62
     1
100
AcDbPolyline
 90
       57
 70
     1
 43
0.0
 10
57.29202585451026
 20
3.977004715332896
 10
57.1721694403368
 20
4.107349543332702
 10
57.06332281930144
 20
4.246905405844699
 10
56.97642626730157
 20
4.394629544244821
 10
56.90473661190139
 20
4.551043337844703
 10
56.85259868070147
 20
4.711801959044805
 10
56.82001247370158
 20
4.879077821644841
 10
56.80915040470154
 20
5.05287092564481
 10
56.82001247370158
 20
5.22666402964478
 10
56.85259868070147
 20
5.393939892244816
 10
56.90256419810134
 20
5.554698513444691
 10
56.97425385350152
 20
5.70893989324486
 10
57.05897799170134
 20
5.854491617844701
 10
57.16325385410141
 20
5.993526101044835
 10
57.28331881999975
 20
6.122306791108712
 10
57.41787813077189
 20
6.241528860452717
 10
57.56795716573106
 20
6.351018515972782
 10
57.72677799382154
 20
6.447473688692866
 10
57.89318489090146
 20
6.530112309644891
 10
58.07784006390147
 20
6.601801965044842
 10
58.26684006450159
 20
6.656112310044818
 10
58.46452972030147
 20
6.697388172244814
 10
58.67090903130156
 20
6.725629551644829
 10
58.88163316990153
 20
6.734319206844816
 10
60.11556420830152
 20
6.734319206844929
 10
60.11556420830152
 20
5.908801962844904
 10
58.8751159285016
 20
5.90880196284479
 10
58.73173661770147
 20
5.900112307644803
 10
58.59704696210155
 20
5.873000583420889
 10
58.46557247892542
 20
5.833028169500835
 10
58.33852971990154
 20
5.78062954864481
 10
58.23112558162961
 20
5.713545410500842
 10
58.1299779951014
 20
5.637250237844909
 10
58.04308144310152
 20
5.548181272044757
 10
57.97356420150141
 20
5.450422651044846
 10
60.11556420830152
 20
5.450422651044846
 10
60.11556420830152
 20
4.622732993244881
 10
58.01049523610164
 20
4.622732993244881
 10
58.08496558116553
 20
4.537226786076871
 10
58.17238351247761
 20
4.45745575134083
 10
58.26944696106147
 20
4.389850233884885
 10
58.37911040968561
 20
4.328935750932942
 10
58.49511730660561
 20
4.280968854228831
 10
58.6157297207817
 20
4.246644716188939
 10
58.74798627292557
 20
4.224659888532755
 10
58.88163316990153
 20
4.214319198844805
 10
60.11556420830152
 20
4.214319198844805
 10
60.11556420830152
 20
3.356215747844885
 10
58.90552972170167
 20
3.356215747844771
 10
58.69263316930164
 20
3.364905403044758
 10
58.48625385830155
 20
3.388801954844893
 10
58.28639178870162
 20
3.432250230844829
 10
58.09521937430168
 20
3.488732989644859
 10
57.91056420130144
 20
3.562595058844863
 10
57.73677109730147
 20
3.647319197044907
 10
57.5760124761016
 20
3.745077818044819
 10
57.42845344115039
 20
3.855697128740757
  0
LINE
  5
6D67
330
6C47
100
AcDbEntity
  8
LW 5015-19-01
  6
MITTE2
 62
     3
100
AcDbLine
 10
0.0
 20
37.0
 30
0.0
 11
0.0
 21
-37.00000000000012
 31
0.0
  0
INSERT
  5
6D68
330
6C47
100
AcDbEntity
  8
LW 5015-19-01
100
AcDbBlockReference
 66
     1
  2
insertpoint-ECKELT
 10
0.0
 20
0.0
 30
0.0
  0
ATTRIB
  5
6D69
330
6D68
100
AcDbEntity
  8
insertpoint_ECKELT
100
AcDbText
 10
-6.93151432469286
 20
0.0
 30
0.0
 40
0.6
  1
LW 5015/19-01
 72
     2
 11
-1.199999999999818
 21
0.0
 31
0.0
100
AcDbAttribute
  2
LINKS
 70
     0
  0
ATTRIB
  5
6D6A
330
6D68
100
AcDbEntity
  8
insertpoint_ECKELT
100
AcDbText
 10
1.199999999999818
 20
0.0
 30
0.0
 40
0.6
  1

100
AcDbAttribute
  2
RECHTS
 70
     0
  0
SEQEND
  5
6D6B
330
6D68
100
AcDbEntity
  8
LW 5015-19-01
  0
LINE
  5
6D6C
330
6C47
100
AcDbEntity
  8
LW 5015-19-01
  6
MITTE2
 62
     3
100
AcDbLine
 10
-77.0
 20
4.999999999994543
 30
0.0
 11
-122.0
 21
4.999999999994543
 31
0.0
  0
LINE
  5
6D6D
330
6C47
100
AcDbEntity
  8
LW 5015-19-01
  6
MITTE2
 62
     3
100
AcDbLine
 10
122.0
 20
4.999999999994543
 30
0.0
 11
77.0
 21
4.999999999994543
 31
0.0
  0
ENDBLK
  5
6C49
330
6C47
100
AcDbEntity
  8
0
100
AcDbBlockEnd
  0
BLOCK
  5
6D70
330
6D6F
100
AcDbEntity
  8
0
100
AcDbBlockBegin
  2
LW 5015-19-01_c
 70
     0
 10
0.0
 20
0.0
 30
0.0
  3
LW 5015-19-01_c
  1

  0
LINE
  5
6D72
330
6D6F
100
AcDbEntity
  8
LW 5015-19-01
  6
VERDECKT
 62
     6
100
AcDbLine
 10
7.334936490575273
 20
17.70448267190204
 30
0.0
 11
11.66506350949703
 21
15.2044826719009
 31
0.0
  0
LINE
  5
6D73
330
6D6F
100
AcDbEntity
  8
LW 5015-19-01
  6
VERDECKT
 62
     6
100
AcDbLine
 10
11.66506350948793
 20
-15.20448267190795
 30
0.0
 11
7.334936490564814
 21
-17.70448267190659
 31
0.0
  0
LINE
  5
6D74
330
6D6F
100
AcDbEntity
  8
LW 5015-19-01
  6
VERDECKT
 62
     6
100
AcDbLine
 10
8.748924226251347
 20
15.1535812713729
 30
0.0
 11
7.334936490575273
 21
17.70448267190204
 31
0.0
  0
LINE
  5
6D75
330
6D6F
100
AcDbEntity
  8
LW 5015-19-01
  6
VERDECKT
 62
     6
100
AcDbLine
 10
8.748924226251347
 20
15.1535812713729
 30
0.0
 11
11.66506350949703
 21
15.2044826719009
 31
0.0
  0
LINE
  5
6D76
330
6D6F
100
AcDbEntity
  8
LW 5015-19-01
  6
VERDECKT
 62
     6
100
AcDbLine
 10
14.60240647333103
 20
20.29210992451317
 30
0.0
 11
11.66506350949703
 21
15.20448267190068
 31
0.0
  0
LINE
  5
6D77
330
6D6F
100
AcDbEntity
  8
LW 5015-19-01
  6
VERDECKT
 62
     6
100
AcDbLine
 10
10.27227945440972
 20
22.79210992451453
 30
0.0
 11
7.334936490575273
 21
17.70448267190204
 31
0.0
  0
LINE
  5
6D78
330
6D6F
100
AcDbEntity
  8
LW 5015-19-01
  6
VERDECKT
 62
     6
100
AcDbLine
 10
8.748924226242252
 20
-15.15358127137824
 30
0.0
 11
11.66506350948793
 21
-15.20448267190795
 31
0.0
  0
LINE
  5
6D79
330
6D6F
100
AcDbEntity
  8
LW 5015-19-01
  6
VERDECKT
 62
     6
100
AcDbLine
 10
8.748924226242252
 20
-15.15358127137824
 30
0.0
 11
7.334936490564814
 21
-17.70448267190659
 31
0.0
  0
LINE
  5
6D7A
330
6D6F
100
AcDbEntity
  8
LW 5015-19-01
  6
VERDECKT
 62
     6
100
AcDbLine
 10
10.27227945439608
 20
-22.79210992452068
 30
0.0
 11
7.334936490564814
 21
-17.70448267190659
 31
0.0
  0
LINE
  5
6D7B
330
6D6F
100
AcDbEntity
  8
LW 5015-19-01
  6
VERDECKT
 62
     6
100
AcDbLine
 10
14.6024064733192
 20
-20.29210992452204
 30
0.0
 11
11.66506350948793
 21
-15.20448267190795
 31
0.0
  0
LINE
  5
6D7C
330
6D6F
100
AcDbEntity
  8
LW 5015-19-01
  6
VERDECKT
 62
     6
100
AcDbLine
 10
-18.99999999996953
 20
-2.499999999994543
 30
0.0
 11
-18.99999999996817
 21
2.500000000005456
 31
0.0
  0
LINE
  5
6D7D
330
6D6F
100
AcDbEntity
  8
LW 5015-19-01
  6
VERDECKT
 62
     6
100
AcDbLine
 10
-17.49784845239992
 20
0.0000000000051159
 30
0.0
 11
-18.99999999996953
 21
-2.499999999994543
 31
0.0
  0
LINE
  5
6D7E
330
6D6F
100
AcDbEntity
  8
LW 5015-19-01
  6
VERDECKT
 62
     6
100
AcDbLine
 10
-17.49784845239992
 20
0.0000000000051159
 30
0.0
 11
-18.99999999996817
 21
2.500000000005456
 31
0.0
  0
LINE
  5
6D7F
330
6D6F
100
AcDbEntity
  8
LW 5015-19-01
  6
VERDECKT
 62
     6
100
AcDbLine
 10
-24.87468592763344
 20
2.500000000007275
 30
0.0
 11
-18.99999999996817
 21
2.500000000005456
 31
0.0
  0
LINE
  5
6D80
330
6D6F
100
AcDbEntity
  8
LW 5015-19-01
  6
VERDECKT
 62
     6
100
AcDbLine
 10
-24.8746859276348
 20
-2.499999999992724
 30
0.0
 11
-18.99999999996953
 21
-2.499999999994543
 31
0.0
  0
ARC
  5
6D81
330
6D6F
100
AcDbEntity
  8
LW 5015-19-01
100
AcDbCircle
 10
0.0000000000300133
 20
0.0
 30
0.0
 40
25.0
100
AcDbArc
 50
209.999999999983
 51
36.86989764582579
  0
ARC
  5
6D82
330
6D6F
100
AcDbEntity
  8
LW 5015-19-01
100
AcDbCircle
 10
0.0000000000300133
 20
0.0
 30
0.0
 40
25.0
100
AcDbArc
 50
64.15806723681654
 51
115.8419327631507
  0
ARC
  5
6D83
330
6D6F
100
AcDbEntity
  8
LW 5015-19-01
100
AcDbCircle
 10
0.0000000000281375
 20
-0.0000000000000568
 30
0.0
 40
18.99999999999993
100
AcDbArc
 50
221.1395104148819
 51
318.8604895850835
  0
CIRCLE
  5
6D84
330
6D6F
100
AcDbEntity
  8
LW 5015-19-01
100
AcDbCircle
 10
0.0000000000004547
 20
0.0
 30
0.0
 40
10.00000000000001
  0
CIRCLE
  5
6D85
330
6D6F
100
AcDbEntity
  8
LW 5015-19-01
100
AcDbCircle
 10
0.0
 20
0.0
 30
0.0
 40
9.000000000000008
  0
ARC
  5
6D86
330
6D6F
100
AcDbEntity
  8
LW 5015-19-01
  6
VERDECKT
 62
     6
100
AcDbCircle
 10
0.0000000000304681
 20
0.0000000000002274
 30
0.0
 40
24.99999999999958
100
AcDbArc
 50
36.86989764582579
 51
64.15806723681723
  0
ARC
  5
6D87
330
6D6F
100
AcDbEntity
  8
LW 5015-19-01
  6
VERDECKT
 62
     6
100
AcDbCircle
 10
0.0000000000300133
 20
0.0
 30
0.0
 40
25.00000000000001
100
AcDbArc
 50
115.8419327631507
 51
209.999999999983
  0
ARC
  5
6D88
330
6D6F
100
AcDbEntity
  8
LW 5015-19-01
  6
VERDECKT
 62
     6
100
AcDbCircle
 10
0.0000000000281943
 20
-0.0000000000000284
 30
0.0
 40
19.00000000000004
100
AcDbArc
 50
318.8604895850835
 51
221.1395104148819
  0
LINE
  5
6D89
330
6D6F
100
AcDbEntity
  8
LW 5015-19-01
100
AcDbLine
 10
10.10000000000718
 20
-2.000000000003069
 30
0.0
 11
10.10000000000855
 21
1.999999999996816
 31
0.0
  0
LINE
  5
6D8A
330
6D6F
100
AcDbEntity
  8
LW 5015-19-01
100
AcDbLine
 10
-10.09999999999127
 20
2.000000000002955
 30
0.0
 11
-10.09999999999263
 21
-1.999999999997044
 31
0.0
  0
LINE
  5
6D8B
330
6D6F
100
AcDbEntity
  8
LW 5015-19-01
  6
VERDECKT
 62
     6
100
AcDbLine
 10
-59.99999999999136
 20
-9.660108542720195
 30
0.0
 11
-59.99999999998272
 21
19.66010854275578
 31
0.0
  0
ARC
  5
6D8C
330
6D6F
100
AcDbEntity
  8
LW 5015-19-01
  6
VERDECKT
 62
     6
100
AcDbCircle
 10
-61.99999999999135
 20
-9.660108542719626
 30
0.0
 40
2.0
100
AcDbArc
 50
340.7099537807874
 51
0.0
  0
ARC
  5
6D8D
330
6D6F
100
AcDbEntity
  8
LW 5015-19-01
  6
VERDECKT
 62
     6
100
AcDbCircle
 10
-61.99999999998272
 20
19.66010854275623
 30
0.0
 40
2.0
100
AcDbArc
 50
0.0
 51
19.29004621917444
  0
LINE
  5
6D8E
330
6D6F
100
AcDbEntity
  8
LW 5015-19-01
  6
VERDECKT
 62
     6
100
AcDbLine
 10
-60.11228328725974
 20
-10.32080939217644
 30
0.0
 11
-60.87499999999227
 21
-12.49999999998204
 31
0.0
  0
LINE
  5
6D8F
330
6D6F
100
AcDbEntity
  8
LW 5015-19-01
  6
VERDECKT
 62
     6
100
AcDbLine
 10
-60.11228328725064
 20
20.32080939221192
 30
0.0
 11
-60.87499999998181
 21
22.50000000001796
 31
0.0
  0
LINE
  5
6D90
330
6D6F
100
AcDbEntity
  8
LW 5015-19-01
100
AcDbLine
 10
-60.87499999999227
 20
-12.49999999998204
 30
0.0
 11
-60.87499999998181
 21
22.50000000001796
 31
0.0
  0
LINE
  5
6D91
330
6D6F
100
AcDbEntity
  8
LW 5015-19-01
100
AcDbLine
 10
20.00000000000818
 20
-11.00000000000591
 30
0.0
 11
20.00000000001774
 21
20.99999999999409
 31
0.0
  0
LINE
  5
6D92
330
6D6F
100
AcDbEntity
  8
LW 5015-19-01
100
AcDbLine
 10
-60.87499999998181
 20
22.50000000001796
 30
0.0
 11
18.50000000001807
 21
22.49999999999454
 31
0.0
  0
LINE
  5
6D93
330
6D6F
100
AcDbEntity
  8
LW 5015-19-01
100
AcDbLine
 10
-60.87499999999227
 20
-12.49999999998204
 30
0.0
 11
-10.09999999999201
 21
-12.49999999999701
 31
0.0
  0
LINE
  5
6D94
330
6D6F
100
AcDbEntity
  8
LW 5015-19-01
100
AcDbLine
 10
10.10000000000752
 20
-12.50000000000298
 30
0.0
 11
18.50000000000773
 21
-12.50000000000546
 31
0.0
  0
ARC
  5
6D95
330
6D6F
100
AcDbEntity
  8
LW 5015-19-01
100
AcDbCircle
 10
18.50000000000818
 20
-11.00000000000545
 30
0.0
 40
1.500000000000012
100
AcDbArc
 50
269.999999999987
 51
0.0
  0
ARC
  5
6D96
330
6D6F
100
AcDbEntity
  8
LW 5015-19-01
100
AcDbCircle
 10
18.50000000001773
 20
20.99999999999454
 30
0.0
 40
1.500000000000012
100
AcDbArc
 50
0.0
 51
89.99999999998697
  0
LINE
  5
6D97
330
6D6F
100
AcDbEntity
  8
LW 5015-19-01
100
AcDbLine
 10
-76.99999999998863
 20
-0.7730999999771484
 30
0.0
 11
-76.99999999998545
 21
10.77310000002285
 31
0.0
  0
LINE
  5
6D98
330
6D6F
100
AcDbEntity
  8
LW 5015-19-01
100
AcDbLine
 10
-75.77309999998488
 20
12.00000000002251
 30
0.0
 11
-75.77309999998897
 21
-1.99999999997749
 31
0.0
  0
LINE
  5
6D99
330
6D6F
100
AcDbEntity
  8
LW 5015-19-01
100
AcDbLine
 10
-76.99999999998545
 20
10.77310000002285
 30
0.0
 11
-75.77309999998488
 21
12.00000000002251
 31
0.0
  0
LINE
  5
6D9A
330
6D6F
100
AcDbEntity
  8
LW 5015-19-01
100
AcDbLine
 10
-76.99999999998863
 20
-0.7730999999771484
 30
0.0
 11
-75.77309999998897
 21
-1.99999999997749
 31
0.0
  0
LINE
  5
6D9B
330
6D6F
100
AcDbEntity
  8
LW 5015-19-01
100
AcDbLine
 10
-75.77309999998488
 20
12.00000000002251
 30
0.0
 11
-60.87499999998499
 21
12.00000000001796
 31
0.0
  0
LINE
  5
6D9C
330
6D6F
100
AcDbEntity
  8
LW 5015-19-01
100
AcDbLine
 10
-75.77309999998897
 20
-1.99999999997749
 30
0.0
 11
-60.87499999998908
 21
-1.999999999982037
 31
0.0
  0
LINE
  5
6D9D
330
6D6F
100
AcDbEntity
  8
LW 5015-19-01
 62
     3
100
AcDbLine
 10
-60.87499999998545
 20
10.79450000001805
 30
0.0
 11
-76.97859999998536
 21
10.79450000002282
 31
0.0
  0
LINE
  5
6D9E
330
6D6F
100
AcDbEntity
  8
LW 5015-19-01
 62
     3
100
AcDbLine
 10
-76.97859999998854
 20
-0.7944999999772336
 30
0.0
 11
-60.87499999998863
 21
-0.7944999999820084
 31
0.0
  0
ARC
  5
6D9F
330
6D6F
100
AcDbEntity
  8
LW 5015-19-01
  6
VERDECKT
 62
     6
100
AcDbCircle
 10
0.000000000035925
 20
0.0
 30
0.0
 40
32.50000000000001
100
AcDbArc
 50
136.1869385395798
 51
202.6198649480234
  0
ARC
  5
6DA0
330
6D6F
100
AcDbEntity
  8
LW 5015-19-01
100
AcDbCircle
 10
0.000000000035925
 20
0.0
 30
0.0
 40
32.5
100
AcDbArc
 50
202.6198649480234
 51
136.1869385395798
  0
LINE
  5
6DA1
330
6D6F
100
AcDbEntity
  8
LW 5015-19-01
100
AcDbLine
 10
-60.87499999998181
 20
22.50000000001796
 30
0.0
 11
-60.87499999999227
 21
-12.49999999998204
 31
0.0
  0
LINE
  5
6DA2
330
6D6F
100
AcDbEntity
  8
LW 5015-19-01
  6
MITTE2
 62
     3
100
AcDbLine
 10
14.93734296387174
 20
25.87223694343527
 30
0.0
 11
7.000000000035015
 21
12.12435565298006
 31
0.0
  0
LINE
  5
6DA3
330
6D6F
100
AcDbEntity
  8
LW 5015-19-01
  6
MITTE2
 62
     3
100
AcDbLine
 10
14.93734296385628
 20
-25.87223694344425
 30
0.0
 11
7.000000000027739
 21
-12.12435565298426
 31
0.0
  0
LINE
  5
6DA4
330
6D6F
100
AcDbEntity
  8
LW 5015-19-01
  6
MITTE2
 62
     3
100
AcDbLine
 10
-38.9697068954581
 20
0.0000000000173941
 30
0.0
 11
38.9697068954581
 21
-0.0000000000173941
 31
0.0
  0
LINE
  5
6DA5
330
6D6F
100
AcDbEntity
  8
LW 5015-19-01
  6
MITTE2
 62
     3
100
AcDbLine
 10
0.0000000000063665
 20
22.6209724824912
 30
0.0
 11
-0.0000000000068212
 21
-22.6209724824912
 31
0.0
  0
HATCH
  5
6DA6
330
6D6F
100
AcDbEntity
  8
LW 5015-19-01
 62
     1
100
AcDbHatch
 10
0.0
 20
0.0
 30
0.0
210
0.0
220
0.0
230
1.0
  2
SOLID
 70
     1
 71
     0
 91
        5
 92
        7
 72
     0
 73
     1
 93
       76
 10
-47.24928876594231
 20
18.15603796707853
 10
-47.21742993656971
 20
18.20761892892028
 10
-47.09927181233797
 20
18.35886132793621
 10
-46.96479373712555
 20
18.49928545819875
 10
-46.81877383066421
 20
18.6276700199121
 10
-46.65510503458199
 20
18.74457630282791
 10
-46.47971808121747
 20
18.84675418464951
 10
-46.29796514861664
 20
18.9381058642324
 10
-46.11679621315125
 20
19.00762417667852
 10
-48.37393415135102
 20
19.00762417667852
 10
-48.58683070375128
 20
18.99893452147853
 10
-48.78886518715126
 20
18.97286555587857
 10
-48.98438242915108
 20
18.93158969367846
 10
-49.16903760215109
 20
18.87727934867848
 10
-49.34500311995134
 20
18.80776210707847
 10
-49.51227898255092
 20
18.72521038267837
 10
-49.66284724509842
 20
18.6298848651345
 10
-49.80555484555134
 20
18.52317589927838
 10
-49.93099610112176
 20
18.40412762303833
 10
-50.04226105319912
 20
18.27586831228643
 10
-50.14227898455101
 20
18.13865865667844
 10
-50.22483070895123
 20
17.99310693207837
 10
-50.28783070915142
 20
17.83886555227832
 10
-50.33779622655129
 20
17.67810693107844
 10
-50.36603760595108
 20
17.51300348227846
 10
-50.37472726115083
 20
17.33921037827849
 10
-50.36386519215103
 20
17.1654172742783
 10
-50.33345139895118
 20
16.99814141167837
 10
-50.27914105395121
 20
16.83738279047839
 10
-50.20962381235131
 20
16.68096899687839
 10
-50.12055484655093
 20
16.53324485847838
 10
-50.01410657035103
 20
16.39203796147853
 10
-49.8914086389268
 20
16.26082416795839
 10
-49.75520959021878
 20
16.13969037447054
 10
-49.60786518975101
 20
16.02924485687845
 10
-49.44710656855114
 20
15.93148623587854
 10
-49.27147994730376
 20
15.84658830457442
 10
-49.09083070535143
 20
15.77290002847849
 10
-48.89965829095126
 20
15.71641726967846
 10
-48.69979622135088
 20
15.67296899367852
 10
-48.49124449655119
 20
15.64690002807845
 10
-48.28052035795099
 20
15.63821037287846
 10
-46.16134927219855
 20
15.63821037287857
 10
-46.32189313625076
 20
15.70128117661352
 10
-46.50545728005363
 20
15.79190145013626
 10
-46.67392368622358
 20
15.89643114306773
 10
-46.836756580984
 20
16.01204938149317
 10
-46.98066894935436
 20
16.14183897803309
 10
-47.10810484283865
 20
16.28119266126168
 10
-47.22181019758227
 20
16.43168090597419
 10
-47.2737814290308
 20
16.51586554807852
 10
-48.30224449595107
 20
16.51586554807841
 10
-48.43435332395666
 20
16.52342554810252
 10
-48.56510656575119
 20
16.54375934127051
 10
-48.69327897995117
 20
16.57669313447843
 10
-48.80841691135083
 20
16.62231382427853
 10
-48.91336187720117
 20
16.67879658307845
 10
-49.01151153268529
 20
16.74640210053439
 10
-49.10169277435125
 20
16.8243483076784
 10
-49.17338242975074
 20
16.90907244587845
 10
-47.44586111549233
 20
16.90907244587856
 10
-47.45644558276535
 20
16.94170788663678
 10
-47.49255739072942
 20
17.12708183418795
 10
-47.50460104351168
 20
17.31737154813868
 10
-47.49257937108177
 20
17.51212264149376
 10
-47.45627364940673
 20
17.6984920127602
 10
-47.43967494673188
 20
17.74762417267846
 10
-49.2103134643512
 20
17.74762417267846
 10
-49.14079622275131
 20
17.84321037987843
 10
-49.05824449835108
 20
17.92576210427842
 10
-48.96315360149765
 20
17.99562693208645
 10
-48.86055484255121
 20
18.05393451847851
 10
-48.74186284217467
 20
18.09790417379042
 10
-48.61941691075116
 20
18.12996900147846
 10
-48.48255484135098
 20
18.14952072567848
 10
-48.33917553055107
 20
18.15603796707842
 97
        0
 92
        7
 72
     0
 73
     1
 93
       72
 10
-45.5208249009147
 20
18.14143934634251
 10
-45.39796186604144
 20
18.15951382915853
 10
-45.27389965875136
 20
18.16472762227863
 10
-44.00520999955097
 20
18.16472762227863
 10
-44.85245138155096
 20
17.35007244727876
 10
-43.08627896215102
 20
15.63169313147864
 10
-41.76762378555122
 20
15.63169313147864
 10
-43.48165827375123
 20
17.37396899907867
 10
-41.80020999255112
 20
19.00762417667875
 10
-45.23914103795141
 20
19.00762417667852
 10
-45.44712793516327
 20
18.99684900423062
 10
-45.65384614271624
 20
18.97138831449456
 10
-45.85827897095123
 20
18.93158969367857
 10
-46.05162379915145
 20
18.87510693487854
 10
-46.23845138595152
 20
18.80341727947848
 10
-46.40961152442559
 20
18.71738969299849
 10
-46.57517552495119
 20
18.62093452027852
 10
-46.7272444909513
 20
18.51231383027857
 10
-46.86294214655435
 20
18.39300486438253
 10
-46.98793414695138
 20
18.26248624327854
 10
-47.09655483695132
 20
18.12345176007852
 10
-47.18779621655085
 20
17.97572762167863
 10
-47.25948587195126
 20
17.82148624187857
 10
-47.31379621695123
 20
17.66072762067847
 10
-47.34638242395113
 20
17.49345175807843
 10
-47.3572444929514
 20
17.31748624027841
 10
-47.34638242395113
 20
17.1458655500785
 10
-47.31379621695123
 20
16.97858968747857
 10
-47.26165828575085
 20
16.81783106627859
 10
-47.19214104415096
 20
16.66358968647853
 10
-47.10030007834212
 20
16.51482278945468
 10
-46.99492062973194
 20
16.37535382349449
 10
-46.87691511211596
 20
16.24631244377463
 10
-46.74462380135082
 20
16.12700347787859
 10
-46.59250269742005
 20
16.01899106374253
 10
-46.43396862795088
 20
15.9206241668785
 10
-46.26234793775075
 20
15.83590002867856
 10
-46.07986517855079
 20
15.7642103732785
 10
-45.88563400552084
 20
15.71016071793451
 10
-45.68883069455114
 20
15.66645175227859
 10
-45.48027896975099
 20
15.64038278667863
 10
-45.26955483115125
 20
15.63169313147864
 10
-43.36652034235112
 20
15.63169313147864
 10
-44.25286517275117
 20
16.50500347907859
 10
-45.26955483115125
 20
16.50500347907859
 10
-45.3362218658458
 20
16.50875077201795
 10
-45.43716959030371
 20
16.5187331342945
 10
-45.5573040734439
 20
16.5401965826386
 10
-45.6744232462297
 20
16.57452072067849
 10
-45.77591841896537
 20
16.61544899667058
 10
-45.83205359155726
 20
16.64360347951856
 10
-45.88573828138305
 20
16.67618968651868
 10
-46.01829897145944
 20
16.77551244545452
 10
-46.091900351003
 20
16.84555106636662
 10
-46.14696669600562
 20
16.91341727347844
 10
-46.19567221340185
 20
16.98597589439851
 10
-46.23503635145789
 20
17.06314003257444
 10
-46.26445952396443
 20
17.14456210179855
 10
-46.28515828265108
 20
17.23171934345464
 10
-46.29267483439889
 20
17.32104899891044
 10
-46.29131924818785
 20
17.38335382669447
 10
-46.2853146964444
 20
17.44548486137444
 10
-46.2731578688199
 20
17.50865865467858
 10
-46.25494435152086
 20
17.5703552065986
 10
-46.21129621345153
 20
17.66906968967044
 10
-46.16976835125024
 20
17.73693589678248
 10
-46.10669014415361
 20
17.81496900047853
 10
-45.9772882037887
 20
17.94149173753226
 10
-45.91802035045112
 20
17.98154969066263
 10
-45.84172517779506
 20
18.02586693218245
 10
-45.75770490166632
 20
18.06801175990256
 10
-45.64116793577887
 20
18.1108517600386
 97
        0
 92
        7
 72
     0
 73
     1
 93
       57
 10
-40.96278792092698
 20
18.11936762213486
 10
-40.8313134377513
 20
18.1593400360548
 10
-40.69662378215116
 20
18.18645176027883
 10
-40.55324447135126
 20
18.1951414154787
 10
-39.31279619155112
 20
18.19514141547881
 10
-39.31279619155112
 20
19.02065865947884
 10
-40.5467272299511
 20
19.02065865947873
 10
-40.7574513685513
 20
19.01196900427874
 10
-40.96383067955139
 20
18.98372762487872
 10
-41.16152033535127
 20
18.94245176267873
 10
-41.35052033595093
 20
18.88814141767875
 10
-41.5351755089514
 20
18.8164517622788
 10
-41.70158240603131
 20
18.73381314132666
 10
-41.8604032341218
 20
18.63735796860669
 10
-42.01048226908096
 20
18.52786831308663
 10
-42.14504157985266
 20
18.40864624374274
 10
-42.26510654575122
 20
18.27986555367874
 10
-42.36938240815106
 20
18.14083107047872
 10
-42.45410654635088
 20
17.99527934587866
 10
-42.52579620175128
 20
17.8410379660786
 10
-42.57576171915116
 20
17.68027934487873
 10
-42.60834792615106
 20
17.5130034822788
 10
-42.61920999515132
 20
17.33921037827872
 10
-42.60834792615106
 20
17.16541727427875
 10
-42.57576171915116
 20
16.99814141167871
 10
-42.52362378795123
 20
16.83738279047861
 10
-42.45193413255129
 20
16.68096899687873
 10
-42.36503758055095
 20
16.53324485847872
 10
-42.25619095951606
 20
16.39368899596673
 10
-42.13633454534238
 20
16.2633441679668
 10
-41.99990695870201
 20
16.14203658137467
 10
-41.85234792375104
 20
16.03141727067873
 10
-41.69158930255116
 20
15.93365864967859
 10
-41.51779619855097
 20
15.84893451147877
 10
-41.33314102555096
 20
15.77507244227877
 10
-41.14196861115124
 20
15.71858968347874
 10
-40.94210654155086
 20
15.6751414074788
 10
-40.73572723055076
 20
15.65124485567867
 10
-40.52283067815096
 20
15.64255520047868
 10
-39.31279619155112
 20
15.64255520047879
 10
-39.31279619155112
 20
16.50065865147871
 10
-40.5467272299511
 20
16.50065865147871
 10
-40.68037412692683
 20
16.51099934116667
 10
-40.81263067907094
 20
16.53298416882285
 10
-40.93324309324725
 20
16.56730830686274
 10
-41.04924999016702
 20
16.61527520356685
 10
-41.15891343879138
 20
16.67618968651879
 10
-41.25597688737525
 20
16.74379520397474
 10
-41.3433948186871
 20
16.82356623871078
 10
-41.41786516375122
 20
16.90907244587879
 10
-39.31279619155112
 20
16.90907244587879
 10
-39.31279619155112
 20
17.73676210367876
 10
-41.45479619835123
 20
17.73676210367876
 10
-41.38527895675088
 20
17.83452072467867
 10
-41.29838240475146
 20
17.92358969047859
 10
-41.19723481822302
 20
17.99988486313475
 10
-41.08983067995086
 20
18.06696900127872
 97
        0
 92
        7
 72
     0
 73
     1
 93
        6
 10
-39.08252032875135
 20
19.00762417667886
 10
-39.08252032875135
 20
15.6382103728788
 10
-36.84493411475069
 20
15.63821037287892
 10
-36.84493411475114
 20
16.50500347907893
 10
-38.0593134289511
 20
16.50500347907893
 10
-38.0593134289511
 20
19.00762417667886
 97
        0
 92
        7
 72
     0
 73
     1
 93
        8
 10
-37.82686515235127
 20
19.00762417667886
 10
-37.82686515235127
 20
18.18210693267883
 10
-36.59293411395083
 20
18.18210693267895
 10
-36.59293411395083
 20
15.63169313147887
 10
-35.56755480035099
 20
15.63169313147887
 10
-35.56755480035099
 20
18.18210693267883
 10
-34.32493410675125
 20
18.18210693267895
 10
-34.32493410675125
 20
19.00762417667897
 97
        0
 75
     0
 76
     1
 47
0.0142553043587597
 98
        5
 10
-47.93962863987599
 20
18.56517450708941
 10
-45.67213142653327
 20
18.42262152208377
 10
-41.17991969433205
 20
18.47964269463159
 10
-38.45607061050032
 20
18.72198291932398
 10
-37.04423262827368
 20
18.62219578691065
450
        0
451
        0
460
0.0
461
0.0
452
        0
462
0.0
453
        0
470

  0
LWPOLYLINE
  5
6DA7
330
6D6F
100
AcDbEntity
  8
LW 5015-19-01
 62
     1
100
AcDbPolyline
 90
        8
 70
     1
 43
0.0
 10
-35.56755480035099
 20
18.18210693267883
 10
-35.56755480035099
 20
15.63169313147887
 10
-36.59293411395083
 20
15.63169313147887
 10
-36.59293411395083
 20
18.18210693267895
 10
-37.82686515235127
 20
18.18210693267883
 10
-37.82686515235127
 20
19.00762417667886
 10
-34.32493410675125
 20
19.00762417667897
 10
-34.32493410675125
 20
18.18210693267895
  0
LWPOLYLINE
  5
6DA8
330
6D6F
100
AcDbEntity
  8
LW 5015-19-01
 62
     1
100
AcDbPolyline
 90
       73
 70
     1
 43
0.0
 10
-45.26955483115125
 20
16.50500347907859
 10
-44.25286517275117
 20
16.50500347907859
 10
-43.36652034235112
 20
15.63169313147864
 10
-45.26955483115125
 20
15.63169313147853
 10
-45.48027896975099
 20
15.64038278667863
 10
-45.68883069455114
 20
15.66645175227859
 10
-45.88563400552084
 20
15.71016071793451
 10
-46.07986517855079
 20
15.7642103732785
 10
-46.26234793775075
 20
15.83590002867856
 10
-46.43396862795088
 20
15.9206241668785
 10
-46.59250269742005
 20
16.01899106374253
 10
-46.74462380135082
 20
16.12700347787859
 10
-46.87691511211596
 20
16.24631244377451
 10
-46.99492062973194
 20
16.37535382349449
 10
-47.10030007834212
 20
16.51482278945457
 10
-47.19214104415096
 20
16.66358968647853
 10
-47.26165828575085
 20
16.81783106627859
 10
-47.31379621695123
 20
16.97858968747857
 10
-47.34638242395113
 20
17.1458655500785
 10
-47.3572444929514
 20
17.31748624027853
 10
-47.34638242395113
 20
17.49345175807843
 10
-47.31379621695123
 20
17.66072762067847
 10
-47.25948587195126
 20
17.82148624187857
 10
-47.18779621655085
 20
17.97572762167851
 10
-47.09655483695132
 20
18.12345176007852
 10
-46.98793414695138
 20
18.26248624327854
 10
-46.86294214655435
 20
18.39300486438264
 10
-46.7272444909513
 20
18.51231383027857
 10
-46.57517552495119
 20
18.62093452027852
 10
-46.40961152442559
 20
18.71738969299849
 10
-46.23845138595152
 20
18.80341727947848
 10
-46.05162379915145
 20
18.87510693487854
 10
-45.85827897095123
 20
18.93158969367869
 10
-45.65384614271624
 20
18.97138831449456
 10
-45.44712793516327
 20
18.99684900423062
 10
-45.23914103795141
 20
19.00762417667852
 10
-41.80020999255112
 20
19.00762417667875
 10
-43.48165827375123
 20
17.37396899907867
 10
-41.76762378555122
 20
15.63169313147864
 10
-43.08627896215102
 20
15.63169313147864
 10
-44.85245138155096
 20
17.35007244727876
 10
-44.00520999955097
 20
18.16472762227863
 10
-45.27389965875136
 20
18.16472762227863
 10
-45.39796186604144
 20
18.15951382915853
 10
-45.5208249009147
 20
18.14143934634251
 10
-45.64116793577887
 20
18.1108517600386
 10
-45.75770490166632
 20
18.06801175990244
 10
-45.84172517779552
 20
18.02586693218257
 10
-45.91802035045112
 20
17.98154969066263
 10
-45.95826214368208
 20
17.95435106988657
 10
-45.99577538518042
 20
17.92341589737452
 10
-46.10669014415361
 20
17.81496900047853
 10
-46.16976835125024
 20
17.73693589678248
 10
-46.21129621345107
 20
17.66906968967055
 10
-46.25494435152086
 20
17.5703552065986
 10
-46.2731578688199
 20
17.50865865467858
 10
-46.2853146964444
 20
17.44548486137455
 10
-46.29131924818785
 20
17.38335382669459
 10
-46.29267483439889
 20
17.32104899891055
 10
-46.28515828265108
 20
17.23171934345464
 10
-46.26445952396443
 20
17.14456210179855
 10
-46.23503635145744
 20
17.06314003257455
 10
-46.19567221340185
 20
16.98597589439851
 10
-46.14696669600562
 20
16.91341727347856
 10
-46.091900351003
 20
16.84555106636662
 10
-46.01829897145944
 20
16.77551244545452
 10
-45.88573828138305
 20
16.67618968651868
 10
-45.83205359155726
 20
16.64360347951856
 10
-45.77591841896537
 20
16.61544899667058
 10
-45.6744232462297
 20
16.57452072067849
 10
-45.5573040734439
 20
16.5401965826386
 10
-45.43716959030371
 20
16.5187331342945
 10
-45.3362218658458
 20
16.50875077201795
  0
LWPOLYLINE
  5
6DA9
330
6D6F
100
AcDbEntity
  8
LW 5015-19-01
 62
     1
100
AcDbPolyline
 90
       76
 70
     1
 43
0.0
 10
-46.47971808121747
 20
18.84675418464951
 10
-46.65510503458199
 20
18.74457630282779
 10
-46.81877383066421
 20
18.6276700199121
 10
-46.96479373712555
 20
18.49928545819875
 10
-47.09927181233797
 20
18.35886132793621
 10
-47.21742993656971
 20
18.20761892892028
 10
-47.24928876594231
 20
18.15603796707853
 10
-48.33917553055107
 20
18.15603796707853
 10
-48.48255484135098
 20
18.14952072567848
 10
-48.61941691075116
 20
18.12996900147846
 10
-48.74186284217467
 20
18.09790417379042
 10
-48.86055484255121
 20
18.05393451847851
 10
-48.96315360149765
 20
17.99562693208645
 10
-49.05824449835108
 20
17.92576210427842
 10
-49.14079622275131
 20
17.84321037987843
 10
-49.2103134643512
 20
17.74762417267846
 10
-47.43967494673188
 20
17.74762417267846
 10
-47.45627364940673
 20
17.6984920127602
 10
-47.49257937108223
 20
17.51212264149353
 10
-47.50460104351168
 20
17.31737154813868
 10
-47.49255739072942
 20
17.12708183418795
 10
-47.4564455827649
 20
16.94170788663689
 10
-47.44586111549233
 20
16.90907244587856
 10
-49.17338242975074
 20
16.90907244587845
 10
-49.10169277435125
 20
16.8243483076784
 10
-49.01151153268529
 20
16.74640210053439
 10
-48.91336187720117
 20
16.67879658307845
 10
-48.80841691135083
 20
16.62231382427853
 10
-48.69327897995117
 20
16.57669313447854
 10
-48.56510656575119
 20
16.54375934127051
 10
-48.43435332395666
 20
16.52342554810252
 10
-48.30224449595107
 20
16.51586554807841
 10
-47.2737814290308
 20
16.51586554807852
 10
-47.22181019758227
 20
16.43168090597419
 10
-47.10810484283865
 20
16.28119266126168
 10
-46.98066894935436
 20
16.14183897803309
 10
-46.836756580984
 20
16.0120493814934
 10
-46.67392368622358
 20
15.89643114306773
 10
-46.50545728005363
 20
15.79190145013626
 10
-46.32189313625076
 20
15.70128117661352
 10
-46.16134927219855
 20
15.63821037287857
 10
-48.28052035795099
 20
15.63821037287835
 10
-48.49124449655119
 20
15.64690002807845
 10
-48.69979622135088
 20
15.67296899367852
 10
-48.89965829095126
 20
15.71641726967846
 10
-49.09083070535098
 20
15.77290002847837
 10
-49.27147994730422
 20
15.84658830457442
 10
-49.44710656855114
 20
15.93148623587854
 10
-49.60786518975101
 20
16.02924485687845
 10
-49.75520959021878
 20
16.13969037447043
 10
-49.8914086389268
 20
16.26082416795839
 10
-50.01410657035103
 20
16.39203796147842
 10
-50.12055484655139
 20
16.53324485847838
 10
-50.20962381235131
 20
16.68096899687839
 10
-50.27914105395121
 20
16.83738279047839
 10
-50.33345139895118
 20
16.99814141167837
 10
-50.36386519215103
 20
17.16541727427852
 10
-50.37472726115083
 20
17.33921037827838
 10
-50.36603760595153
 20
17.51300348227835
 10
-50.33779622655129
 20
17.67810693107844
 10
-50.28783070915142
 20
17.83886555227832
 10
-50.22483070895123
 20
17.99310693207837
 10
-50.14227898455101
 20
18.13865865667844
 10
-50.04226105319912
 20
18.27586831228643
 10
-49.93099610112176
 20
18.40412762303845
 10
-49.80555484555134
 20
18.52317589927838
 10
-49.66284724509842
 20
18.6298848651345
 10
-49.51227898255092
 20
18.72521038267848
 10
-49.34500311995089
 20
18.80776210707836
 10
-49.16903760215109
 20
18.87727934867848
 10
-48.98438242915108
 20
18.93158969367846
 10
-48.78886518715126
 20
18.97286555587857
 10
-48.58683070375128
 20
18.99893452147853
 10
-48.37393415135102
 20
19.00762417667852
 10
-46.11679621315125
 20
19.00762417667863
 10
-46.29796514861664
 20
18.9381058642324
  0
LWPOLYLINE
  5
6DAA
330
6D6F
100
AcDbEntity
  8
LW 5015-19-01
 62
     1
100
AcDbPolyline
 90
        6
 70
     1
 43
0.0
 10
-36.84493411475069
 20
15.63821037287892
 10
-39.08252032875135
 20
15.6382103728788
 10
-39.08252032875135
 20
19.00762417667886
 10
-38.0593134289511
 20
19.00762417667886
 10
-38.0593134289511
 20
16.50500347907893
 10
-36.84493411475114
 20
16.50500347907893
  0
LWPOLYLINE
  5
6DAB
330
6D6F
100
AcDbEntity
  8
LW 5015-19-01
 62
     1
100
AcDbPolyline
 90
       57
 70
     1
 43
0.0
 10
-42.13633454534238
 20
16.2633441679668
 10
-42.25619095951606
 20
16.39368899596661
 10
-42.36503758055095
 20
16.53324485847861
 10
-42.45193413255129
 20
16.68096899687873
 10
-42.52362378795123
 20
16.83738279047861
 10
-42.57576171915116
 20
16.99814141167871
 10
-42.60834792615106
 20
17.16541727427875
 10
-42.61920999515132
 20
17.33921037827872
 10
-42.60834792615106
 20
17.51300348227869
 10
-42.57576171915116
 20
17.68027934487873
 10
-42.52579620175128
 20
17.8410379660786
 10
-42.45410654635088
 20
17.99527934587877
 10
-42.36938240815106
 20
18.14083107047861
 10
-42.26510654575122
 20
18.27986555367874
 10
-42.14504157985266
 20
18.40864624374262
 10
-42.01048226908096
 20
18.52786831308663
 10
-41.8604032341218
 20
18.63735796860669
 10
-41.70158240603086
 20
18.73381314132678
 10
-41.5351755089514
 20
18.8164517622788
 10
-41.35052033595093
 20
18.88814141767875
 10
-41.16152033535127
 20
18.94245176267873
 10
-40.96383067955139
 20
18.98372762487872
 10
-40.7574513685513
 20
19.01196900427874
 10
-40.5467272299511
 20
19.02065865947873
 10
-39.31279619155112
 20
19.02065865947884
 10
-39.31279619155112
 20
18.19514141547881
 10
-40.5532444713508
 20
18.1951414154787
 10
-40.69662378215116
 20
18.18645176027871
 10
-40.8313134377513
 20
18.1593400360548
 10
-40.96278792092744
 20
18.11936762213474
 10
-41.08983067995086
 20
18.06696900127872
 10
-41.19723481822302
 20
17.99988486313475
 10
-41.29838240475146
 20
17.92358969047882
 10
-41.38527895675088
 20
17.83452072467867
 10
-41.45479619835123
 20
17.73676210367876
 10
-39.31279619155112
 20
17.73676210367876
 10
-39.31279619155112
 20
16.90907244587879
 10
-41.41786516375122
 20
16.90907244587879
 10
-41.3433948186871
 20
16.82356623871078
 10
-41.25597688737525
 20
16.74379520397474
 10
-41.15891343879138
 20
16.67618968651879
 10
-41.04924999016702
 20
16.61527520356685
 10
-40.93324309324725
 20
16.56730830686274
 10
-40.81263067907094
 20
16.53298416882285
 10
-40.68037412692683
 20
16.51099934116667
 10
-40.5467272299511
 20
16.50065865147871
 10
-39.31279619155112
 20
16.50065865147871
 10
-39.31279619155112
 20
15.64255520047879
 10
-40.52283067815096
 20
15.64255520047868
 10
-40.73572723055076
 20
15.65124485567867
 10
-40.94210654155086
 20
15.6751414074788
 10
-41.14196861115124
 20
15.71858968347874
 10
-41.33314102555096
 20
15.77507244227877
 10
-41.51779619855097
 20
15.84893451147877
 10
-41.69158930255116
 20
15.93365864967882
 10
-41.85234792375104
 20
16.03141727067873
 10
-41.99990695870201
 20
16.14203658137467
  0
INSERT
  5
6DAC
330
6D6F
100
AcDbEntity
  8
LW 5015-19-01
100
AcDbBlockReference
 66
     1
  2
insertpoint-ECKELT
 10
0.0
 20
0.0
 30
0.0
  0
ATTRIB
  5
6DAD
330
6DAC
100
AcDbEntity
  8
insertpoint_ECKELT
100
AcDbText
 10
-6.93151432469286
 20
0.0
 30
0.0
 40
0.6
  1
LW 5015/19-01
 72
     2
 11
-1.199999999999818
 21
0.0
 31
0.0
100
AcDbAttribute
  2
LINKS
 70
     0
  0
ATTRIB
  5
6DAE
330
6DAC
100
AcDbEntity
  8
insertpoint_ECKELT
100
AcDbText
 10
1.199999999999818
 20
0.0
 30
0.0
 40
0.6
  1

100
AcDbAttribute
  2
RECHTS
 70
     0
  0
SEQEND
  5
6DAF
330
6DAC
100
AcDbEntity
  8
LW 5015-19-01
  0
LINE
  5
6DB0
330
6D6F
100
AcDbEntity
  8
LW 5015-19-01
100
AcDbLine
 10
-10.09999999999172
 20
5.500000000003012
 30
0.0
 11
-10.09999999999195
 21
-12.49999999999701
 31
0.0
  0
POLYLINE
  5
6DB1
330
6D6F
100
AcDbEntity
  8
LW 5015-19-01
100
AcDb2dPolyline
 66
     1
 10
0.0
 20
0.0
 30
0.0
 70
   128
  0
VERTEX
  5
6DB2
330
6DB1
100
AcDbEntity
  8
LW 5015-19-01
100
AcDbVertex
100
AcDb2dVertex
 10
-10.10000228881017
 20
5.500000007453593
 30
0.0
  0
VERTEX
  5
6DB3
330
6DB1
100
AcDbEntity
  8
LW 5015-19-01
100
AcDbVertex
100
AcDb2dVertex
 10
-10.07782459258169
 20
6.152630448344325
 30
0.0
  0
VERTEX
  5
6DB4
330
6DB1
100
AcDbEntity
  8
LW 5015-19-01
100
AcDbVertex
100
AcDb2dVertex
 10
-10.01159191130728
 20
6.810174882414912
 30
0.0
  0
VERTEX
  5
6DB5
330
6DB1
100
AcDbEntity
  8
LW 5015-19-01
100
AcDbVertex
100
AcDb2dVertex
 10
-9.901742935171569
 20
7.467362880709742
 30
0.0
  0
VERTEX
  5
6DB6
330
6DB1
100
AcDbEntity
  8
LW 5015-19-01
100
AcDbVertex
100
AcDb2dVertex
 10
-9.748716354361022
 20
8.118924200537719
 30
0.0
  0
VERTEX
  5
6DB7
330
6DB1
100
AcDbEntity
  8
LW 5015-19-01
100
AcDbVertex
100
AcDb2dVertex
 10
-9.552946090688692
 20
8.759588897231083
 30
0.0
  0
VERTEX
  5
6DB8
330
6DB1
100
AcDbEntity
  8
LW 5015-19-01
100
AcDbVertex
100
AcDb2dVertex
 10
-9.314870834340808
 20
9.384086430075569
 30
0.0
  0
VERTEX
  5
6DB9
330
6DB1
100
AcDbEntity
  8
LW 5015-19-01
100
AcDbVertex
100
AcDb2dVertex
 10
-9.035677909841069
 20
9.987690150740434
 30
0.0
  0
VERTEX
  5
6DBA
330
6DB1
100
AcDbEntity
  8
LW 5015-19-01
100
AcDbVertex
100
AcDb2dVertex
 10
-8.7189769744773
 20
10.56716978550213
 30
0.0
  0
VERTEX
  5
6DBB
330
6DB1
100
AcDbEntity
  8
LW 5015-19-01
100
AcDbVertex
100
AcDb2dVertex
 10
-8.368849754323264
 20
11.11950039863831
 30
0.0
  0
VERTEX
  5
6DBC
330
6DB1
100
AcDbEntity
  8
LW 5015-19-01
100
AcDbVertex
100
AcDb2dVertex
 10
-7.98938274382499
 20
11.64165675640339
 30
0.0
  0
VERTEX
  5
6DBD
330
6DB1
100
AcDbEntity
  8
LW 5015-19-01
100
AcDbVertex
100
AcDb2dVertex
 10
-7.584662437428278
 20
12.13061451912148
 30
0.0
  0
VERTEX
  5
6DBE
330
6DB1
100
AcDbEntity
  8
LW 5015-19-01
100
AcDbVertex
100
AcDb2dVertex
 10
-7.158765792835765
 20
12.58334755897732
 30
0.0
  0
VERTEX
  5
6DBF
330
6DB1
100
AcDbEntity
  8
LW 5015-19-01
100
AcDbVertex
100
AcDb2dVertex
 10
-6.705121994007413
 20
13.00724446773728
 30
0.0
  0
VERTEX
  5
6DC0
330
6DB1
100
AcDbEntity
  8
LW 5015-19-01
100
AcDbVertex
100
AcDb2dVertex
 10
-6.216325759876326
 20
13.40922176838103
 30
0.0
  0
VERTEX
  5
6DC1
330
6DB1
100
AcDbEntity
  8
LW 5015-19-01
100
AcDbVertex
100
AcDb2dVertex
 10
-5.6953048705941
 20
13.78546059131787
 30
0.0
  0
VERTEX
  5
6DC2
330
6DB1
100
AcDbEntity
  8
LW 5015-19-01
100
AcDbVertex
100
AcDb2dVertex
 10
-5.144987106311646
 20
14.13214206695704
 30
0.0
  0
VERTEX
  5
6DC3
330
6DB1
100
AcDbEntity
  8
LW 5015-19-01
100
AcDbVertex
100
AcDb2dVertex
 10
-4.568305015552141
 20
14.44544792175423
 30
0.0
  0
VERTEX
  5
6DC4
330
6DB1
100
AcDbEntity
  8
LW 5015-19-01
100
AcDbVertex
100
AcDb2dVertex
 10
-3.96818637846718
 20
14.72155869007224
 30
0.0
  0
VERTEX
  5
6DC5
330
6DB1
100
AcDbEntity
  8
LW 5015-19-01
100
AcDbVertex
100
AcDb2dVertex
 10
-3.347783088672031
 20
14.95777785778136
 30
0.0
  0
VERTEX
  5
6DC6
330
6DB1
100
AcDbEntity
  8
LW 5015-19-01
100
AcDbVertex
100
AcDb2dVertex
 10
-2.711348533618092
 20
15.15290260315015
 30
0.0
  0
VERTEX
  5
6DC7
330
6DB1
100
AcDbEntity
  8
LW 5015-19-01
100
AcDbVertex
100
AcDb2dVertex
 10
-2.06343173979485
 20
15.3053522109991
 30
0.0
  0
VERTEX
  5
6DC8
330
6DB1
100
AcDbEntity
  8
LW 5015-19-01
100
AcDbVertex
100
AcDb2dVertex
 10
-1.408705711352467
 20
15.4138541221622
 30
0.0
  0
VERTEX
  5
6DC9
330
6DB1
100
AcDbEntity
  8
LW 5015-19-01
100
AcDbVertex
100
AcDb2dVertex
 10
-0.7524204254027609
 20
15.47855496406572
 30
0.0
  0
VERTEX
  5
6DCA
330
6DB1
100
AcDbEntity
  8
LW 5015-19-01
100
AcDbVertex
100
AcDb2dVertex
 10
-0.1000022888060812
 20
15.49999952316284
 30
0.0
  0
SEQEND
  5
6DCB
330
6DB1
100
AcDbEntity
  8
LW 5015-19-01
  0
POLYLINE
  5
6DCC
330
6D6F
100
AcDbEntity
  8
LW 5015-19-01
100
AcDb2dPolyline
 66
     1
 10
0.0
 20
0.0
 30
0.0
 70
   128
  0
VERTEX
  5
6DCD
330
6DCC
100
AcDbEntity
  8
LW 5015-19-01
100
AcDbVertex
100
AcDb2dVertex
 10
0.1000022888306375
 20
15.49999952316278
 30
0.0
  0
VERTEX
  5
6DCE
330
6DCC
100
AcDbEntity
  8
LW 5015-19-01
100
AcDbVertex
100
AcDb2dVertex
 10
0.7524204254273173
 20
15.47855496406526
 30
0.0
  0
VERTEX
  5
6DCF
330
6DCC
100
AcDbEntity
  8
LW 5015-19-01
100
AcDbVertex
100
AcDb2dVertex
 10
1.408705711377024
 20
15.41385412216141
 30
0.0
  0
VERTEX
  5
6DD0
330
6DCC
100
AcDbEntity
  8
LW 5015-19-01
100
AcDbVertex
100
AcDb2dVertex
 10
2.063431739819407
 20
15.30535221099791
 30
0.0
  0
VERTEX
  5
6DD1
330
6DCC
100
AcDbEntity
  8
LW 5015-19-01
100
AcDbVertex
100
AcDb2dVertex
 10
2.711348533642421
 20
15.15290260314856
 30
0.0
  0
VERTEX
  5
6DD2
330
6DCC
100
AcDbEntity
  8
LW 5015-19-01
100
AcDbVertex
100
AcDb2dVertex
 10
3.347783088695905
 20
14.95777785777943
 30
0.0
  0
VERTEX
  5
6DD3
330
6DCC
100
AcDbEntity
  8
LW 5015-19-01
100
AcDbVertex
100
AcDb2dVertex
 10
3.968186378490827
 20
14.72155869006991
 30
0.0
  0
VERTEX
  5
6DD4
330
6DCC
100
AcDbEntity
  8
LW 5015-19-01
100
AcDbVertex
100
AcDb2dVertex
 10
4.568305015575788
 20
14.44544792175151
 30
0.0
  0
VERTEX
  5
6DD5
330
6DCC
100
AcDbEntity
  8
LW 5015-19-01
100
AcDbVertex
100
AcDb2dVertex
 10
5.14498710633461
 20
14.13214206695397
 30
0.0
  0
VERTEX
  5
6DD6
330
6DCC
100
AcDbEntity
  8
LW 5015-19-01
100
AcDbVertex
100
AcDb2dVertex
 10
5.695304870616837
 20
13.78546059131452
 30
0.0
  0
VERTEX
  5
6DD7
330
6DCC
100
AcDbEntity
  8
LW 5015-19-01
100
AcDbVertex
100
AcDb2dVertex
 10
6.216325759898836
 20
13.40922176837733
 30
0.0
  0
VERTEX
  5
6DD8
330
6DCC
100
AcDbEntity
  8
LW 5015-19-01
100
AcDbVertex
100
AcDb2dVertex
 10
6.705121994029468
 20
13.0072444677333
 30
0.0
  0
VERTEX
  5
6DD9
330
6DCC
100
AcDbEntity
  8
LW 5015-19-01
100
AcDbVertex
100
AcDb2dVertex
 10
7.158765792857366
 20
12.58334755897306
 30
0.0
  0
VERTEX
  5
6DDA
330
6DCC
100
AcDbEntity
  8
LW 5015-19-01
100
AcDbVertex
100
AcDb2dVertex
 10
7.584662437449424
 20
12.13061451911699
 30
0.0
  0
VERTEX
  5
6DDB
330
6DCC
100
AcDbEntity
  8
LW 5015-19-01
100
AcDbVertex
100
AcDb2dVertex
 10
7.989382743845681
 20
11.64165675639861
 30
0.0
  0
VERTEX
  5
6DDC
330
6DCC
100
AcDbEntity
  8
LW 5015-19-01
100
AcDbVertex
100
AcDb2dVertex
 10
8.3688497543435
 20
11.11950039863336
 30
0.0
  0
VERTEX
  5
6DDD
330
6DCC
100
AcDbEntity
  8
LW 5015-19-01
100
AcDbVertex
100
AcDb2dVertex
 10
8.718976974497309
 20
10.5671697854969
 30
0.0
  0
VERTEX
  5
6DDE
330
6DCC
100
AcDbEntity
  8
LW 5015-19-01
100
AcDbVertex
100
AcDb2dVertex
 10
9.035677909860851
 20
9.987690150735033
 30
0.0
  0
VERTEX
  5
6DDF
330
6DCC
100
AcDbEntity
  8
LW 5015-19-01
100
AcDbVertex
100
AcDb2dVertex
 10
9.314870834360135
 20
9.384086430069999
 30
0.0
  0
VERTEX
  5
6DE0
330
6DCC
100
AcDbEntity
  8
LW 5015-19-01
100
AcDbVertex
100
AcDb2dVertex
 10
9.552946090707337
 20
8.759588897225398
 30
0.0
  0
VERTEX
  5
6DE1
330
6DCC
100
AcDbEntity
  8
LW 5015-19-01
100
AcDbVertex
100
AcDb2dVertex
 10
9.748716354379212
 20
8.118924200531921
 30
0.0
  0
VERTEX
  5
6DE2
330
6DCC
100
AcDbEntity
  8
LW 5015-19-01
100
AcDbVertex
100
AcDb2dVertex
 10
9.901742935189304
 20
7.467362880703888
 30
0.0
  0
VERTEX
  5
6DE3
330
6DCC
100
AcDbEntity
  8
LW 5015-19-01
100
AcDbVertex
100
AcDb2dVertex
 10
10.01159191132455
 20
6.810174882408944
 30
0.0
  0
VERTEX
  5
6DE4
330
6DCC
100
AcDbEntity
  8
LW 5015-19-01
100
AcDbVertex
100
AcDb2dVertex
 10
10.07782459259852
 20
6.152630448338356
 30
0.0
  0
VERTEX
  5
6DE5
330
6DCC
100
AcDbEntity
  8
LW 5015-19-01
100
AcDbVertex
100
AcDb2dVertex
 10
10.10000228882654
 20
5.500000007447567
 30
0.0
  0
SEQEND
  5
6DE6
330
6DCC
100
AcDbEntity
  8
LW 5015-19-01
  0
LINE
  5
6DE7
330
6D6F
100
AcDbEntity
  8
LW 5015-19-01
100
AcDbLine
 10
10.10000000000752
 20
-12.50000000000298
 30
0.0
 11
10.10000000000809
 21
5.499999999997044
 31
0.0
  0
LINE
  5
6DE8
330
6D6F
100
AcDbEntity
  8
LW 5015-19-01
  6
MITTE2
 62
     3
100
AcDbLine
 10
-80.54152403631816
 20
5.000000000023874
 30
0.0
 11
37.06495985656011
 21
4.999999999989086
 31
0.0
  0
ENDBLK
  5
6D71
330
6D6F
100
AcDbEntity
  8
0
100
AcDbBlockEnd
  0
BLOCK
  5
6DEB
330
6DEA
100
AcDbEntity
  8
0
100
AcDbBlockBegin
  2
LW 5015-19-01_d
 70
     0
 10
0.0
 20
0.0
 30
0.0
  3
LW 5015-19-01_d
  1

  0
LINE
  5
6DED
330
6DEA
100
AcDbEntity
  8
LW 5015-19-01
  6
VERDECKT
 62
     6
100
AcDbLine
 10
-7.334936490575273
 20
17.70448267190204
 30
0.0
 11
-11.66506350949703
 21
15.2044826719009
 31
0.0
  0
LINE
  5
6DEE
330
6DEA
100
AcDbEntity
  8
LW 5015-19-01
  6
VERDECKT
 62
     6
100
AcDbLine
 10
-11.66506350948793
 20
-15.20448267190795
 30
0.0
 11
-7.334936490564814
 21
-17.70448267190659
 31
0.0
  0
LINE
  5
6DEF
330
6DEA
100
AcDbEntity
  8
LW 5015-19-01
  6
VERDECKT
 62
     6
100
AcDbLine
 10
-8.748924226251347
 20
15.1535812713729
 30
0.0
 11
-7.334936490575273
 21
17.70448267190204
 31
0.0
  0
LINE
  5
6DF0
330
6DEA
100
AcDbEntity
  8
LW 5015-19-01
  6
VERDECKT
 62
     6
100
AcDbLine
 10
-8.748924226251347
 20
15.1535812713729
 30
0.0
 11
-11.66506350949703
 21
15.2044826719009
 31
0.0
  0
LINE
  5
6DF1
330
6DEA
100
AcDbEntity
  8
LW 5015-19-01
  6
VERDECKT
 62
     6
100
AcDbLine
 10
-14.60240647333103
 20
20.29210992451317
 30
0.0
 11
-11.66506350949703
 21
15.20448267190068
 31
0.0
  0
LINE
  5
6DF2
330
6DEA
100
AcDbEntity
  8
LW 5015-19-01
  6
VERDECKT
 62
     6
100
AcDbLine
 10
-10.27227945440972
 20
22.79210992451453
 30
0.0
 11
-7.334936490575273
 21
17.70448267190204
 31
0.0
  0
LINE
  5
6DF3
330
6DEA
100
AcDbEntity
  8
LW 5015-19-01
  6
VERDECKT
 62
     6
100
AcDbLine
 10
-8.748924226242252
 20
-15.15358127137824
 30
0.0
 11
-11.66506350948793
 21
-15.20448267190795
 31
0.0
  0
LINE
  5
6DF4
330
6DEA
100
AcDbEntity
  8
LW 5015-19-01
  6
VERDECKT
 62
     6
100
AcDbLine
 10
-8.748924226242252
 20
-15.15358127137824
 30
0.0
 11
-7.334936490564814
 21
-17.70448267190659
 31
0.0
  0
LINE
  5
6DF5
330
6DEA
100
AcDbEntity
  8
LW 5015-19-01
  6
VERDECKT
 62
     6
100
AcDbLine
 10
-10.27227945439608
 20
-22.79210992452068
 30
0.0
 11
-7.334936490564814
 21
-17.70448267190659
 31
0.0
  0
LINE
  5
6DF6
330
6DEA
100
AcDbEntity
  8
LW 5015-19-01
  6
VERDECKT
 62
     6
100
AcDbLine
 10
-14.6024064733192
 20
-20.29210992452204
 30
0.0
 11
-11.66506350948793
 21
-15.20448267190795
 31
0.0
  0
LINE
  5
6DF7
330
6DEA
100
AcDbEntity
  8
LW 5015-19-01
  6
VERDECKT
 62
     6
100
AcDbLine
 10
18.99999999996953
 20
-2.499999999994543
 30
0.0
 11
18.99999999996817
 21
2.500000000005456
 31
0.0
  0
LINE
  5
6DF8
330
6DEA
100
AcDbEntity
  8
LW 5015-19-01
  6
VERDECKT
 62
     6
100
AcDbLine
 10
17.49784845239992
 20
0.0000000000051159
 30
0.0
 11
18.99999999996953
 21
-2.499999999994543
 31
0.0
  0
LINE
  5
6DF9
330
6DEA
100
AcDbEntity
  8
LW 5015-19-01
  6
VERDECKT
 62
     6
100
AcDbLine
 10
17.49784845239992
 20
0.0000000000051159
 30
0.0
 11
18.99999999996817
 21
2.500000000005456
 31
0.0
  0
LINE
  5
6DFA
330
6DEA
100
AcDbEntity
  8
LW 5015-19-01
  6
VERDECKT
 62
     6
100
AcDbLine
 10
24.87468592763344
 20
2.500000000007275
 30
0.0
 11
18.99999999996817
 21
2.500000000005456
 31
0.0
  0
LINE
  5
6DFB
330
6DEA
100
AcDbEntity
  8
LW 5015-19-01
  6
VERDECKT
 62
     6
100
AcDbLine
 10
24.8746859276348
 20
-2.499999999992724
 30
0.0
 11
18.99999999996953
 21
-2.499999999994543
 31
0.0
  0
ARC
  5
6DFC
330
6DEA
100
AcDbEntity
  8
LW 5015-19-01
100
AcDbCircle
 10
-0.0000000000300133
 20
0.0
 30
0.0
 40
25.0
100
AcDbArc
 50
143.1301023541742
 51
330.0000000000171
  0
ARC
  5
6DFD
330
6DEA
100
AcDbEntity
  8
LW 5015-19-01
100
AcDbCircle
 10
-0.0000000000300133
 20
0.0
 30
0.0
 40
25.0
100
AcDbArc
 50
64.1580672368493
 51
115.8419327631834
  0
ARC
  5
6DFE
330
6DEA
100
AcDbEntity
  8
LW 5015-19-01
100
AcDbCircle
 10
-0.0000000000281375
 20
-0.0000000000000568
 30
0.0
 40
18.99999999999993
100
AcDbArc
 50
221.1395104149165
 51
318.8604895851181
  0
CIRCLE
  5
6DFF
330
6DEA
100
AcDbEntity
  8
LW 5015-19-01
100
AcDbCircle
 10
-0.0000000000004547
 20
0.0
 30
0.0
 40
10.00000000000001
  0
CIRCLE
  5
6E00
330
6DEA
100
AcDbEntity
  8
LW 5015-19-01
100
AcDbCircle
 10
0.0
 20
0.0
 30
0.0
 40
9.000000000000008
  0
ARC
  5
6E01
330
6DEA
100
AcDbEntity
  8
LW 5015-19-01
  6
VERDECKT
 62
     6
100
AcDbCircle
 10
-0.0000000000304681
 20
0.0000000000002274
 30
0.0
 40
24.99999999999958
100
AcDbArc
 50
115.8419327631827
 51
143.1301023541742
  0
ARC
  5
6E02
330
6DEA
100
AcDbEntity
  8
LW 5015-19-01
  6
VERDECKT
 62
     6
100
AcDbCircle
 10
-0.0000000000300133
 20
0.0
 30
0.0
 40
25.00000000000001
100
AcDbArc
 50
330.0000000000171
 51
64.1580672368493
  0
ARC
  5
6E03
330
6DEA
100
AcDbEntity
  8
LW 5015-19-01
  6
VERDECKT
 62
     6
100
AcDbCircle
 10
-0.0000000000281943
 20
-0.0000000000000284
 30
0.0
 40
19.00000000000004
100
AcDbArc
 50
318.8604895851181
 51
221.1395104149165
  0
LINE
  5
6E04
330
6DEA
100
AcDbEntity
  8
LW 5015-19-01
100
AcDbLine
 10
-10.10000000000718
 20
-2.000000000003069
 30
0.0
 11
-10.10000000000855
 21
1.999999999996816
 31
0.0
  0
LINE
  5
6E05
330
6DEA
100
AcDbEntity
  8
LW 5015-19-01
100
AcDbLine
 10
10.09999999999127
 20
2.000000000002955
 30
0.0
 11
10.09999999999263
 21
-1.999999999997044
 31
0.0
  0
LINE
  5
6E06
330
6DEA
100
AcDbEntity
  8
LW 5015-19-01
  6
VERDECKT
 62
     6
100
AcDbLine
 10
59.99999999999139
 20
-9.660108542720223
 30
0.0
 11
59.99999999998275
 21
19.66010854275575
 31
0.0
  0
ARC
  5
6E07
330
6DEA
100
AcDbEntity
  8
LW 5015-19-01
  6
VERDECKT
 62
     6
100
AcDbCircle
 10
61.99999999999139
 20
-9.660108542719655
 30
0.0
 40
2.0
100
AcDbArc
 50
180.0
 51
199.2900462192125
  0
ARC
  5
6E08
330
6DEA
100
AcDbEntity
  8
LW 5015-19-01
  6
VERDECKT
 62
     6
100
AcDbCircle
 10
61.99999999998275
 20
19.6601085427562
 30
0.0
 40
2.0
100
AcDbArc
 50
160.7099537808255
 51
180.0
  0
LINE
  5
6E09
330
6DEA
100
AcDbEntity
  8
LW 5015-19-01
  6
VERDECKT
 62
     6
100
AcDbLine
 10
60.11228328725977
 20
-10.32080939217647
 30
0.0
 11
60.8749999999923
 21
-12.49999999998206
 31
0.0
  0
LINE
  5
6E0A
330
6DEA
100
AcDbEntity
  8
LW 5015-19-01
  6
VERDECKT
 62
     6
100
AcDbLine
 10
60.11228328725067
 20
20.32080939221188
 30
0.0
 11
60.87499999998184
 21
22.50000000001794
 31
0.0
  0
LINE
  5
6E0B
330
6DEA
100
AcDbEntity
  8
LW 5015-19-01
100
AcDbLine
 10
60.8749999999923
 20
-12.49999999998206
 30
0.0
 11
60.87499999998184
 21
22.50000000001794
 31
0.0
  0
LINE
  5
6E0C
330
6DEA
100
AcDbEntity
  8
LW 5015-19-01
100
AcDbLine
 10
-20.00000000000818
 20
-11.00000000000591
 30
0.0
 11
-20.00000000001774
 21
20.99999999999409
 31
0.0
  0
LINE
  5
6E0D
330
6DEA
100
AcDbEntity
  8
LW 5015-19-01
100
AcDbLine
 10
60.87499999998184
 20
22.50000000001794
 30
0.0
 11
-18.50000000001807
 21
22.49999999999454
 31
0.0
  0
LINE
  5
6E0E
330
6DEA
100
AcDbEntity
  8
LW 5015-19-01
100
AcDbLine
 10
60.8749999999923
 20
-12.49999999998206
 30
0.0
 11
10.09999999999201
 21
-12.49999999999701
 31
0.0
  0
LINE
  5
6E0F
330
6DEA
100
AcDbEntity
  8
LW 5015-19-01
100
AcDbLine
 10
-10.10000000000752
 20
-12.50000000000298
 30
0.0
 11
-18.50000000000773
 21
-12.50000000000546
 31
0.0
  0
ARC
  5
6E10
330
6DEA
100
AcDbEntity
  8
LW 5015-19-01
100
AcDbCircle
 10
-18.50000000000818
 20
-11.00000000000545
 30
0.0
 40
1.500000000000012
100
AcDbArc
 50
180.0
 51
270.000000000013
  0
ARC
  5
6E11
330
6DEA
100
AcDbEntity
  8
LW 5015-19-01
100
AcDbCircle
 10
-18.50000000001773
 20
20.99999999999454
 30
0.0
 40
1.500000000000012
100
AcDbArc
 50
90.00000000001303
 51
180.0
  0
LINE
  5
6E12
330
6DEA
100
AcDbEntity
  8
LW 5015-19-01
100
AcDbLine
 10
76.99999999998865
 20
-0.7730999999771769
 30
0.0
 11
76.99999999998548
 21
10.77310000002282
 31
0.0
  0
LINE
  5
6E13
330
6DEA
100
AcDbEntity
  8
LW 5015-19-01
100
AcDbLine
 10
75.7730999999849
 20
12.00000000002248
 30
0.0
 11
75.773099999989
 21
-1.999999999977518
 31
0.0
  0
LINE
  5
6E14
330
6DEA
100
AcDbEntity
  8
LW 5015-19-01
100
AcDbLine
 10
76.99999999998548
 20
10.77310000002282
 30
0.0
 11
75.7730999999849
 21
12.00000000002248
 31
0.0
  0
LINE
  5
6E15
330
6DEA
100
AcDbEntity
  8
LW 5015-19-01
100
AcDbLine
 10
76.99999999998865
 20
-0.7730999999771769
 30
0.0
 11
75.773099999989
 21
-1.999999999977518
 31
0.0
  0
LINE
  5
6E16
330
6DEA
100
AcDbEntity
  8
LW 5015-19-01
100
AcDbLine
 10
75.7730999999849
 20
12.00000000002248
 30
0.0
 11
60.87499999998502
 21
12.00000000001793
 31
0.0
  0
LINE
  5
6E17
330
6DEA
100
AcDbEntity
  8
LW 5015-19-01
100
AcDbLine
 10
75.773099999989
 20
-1.999999999977518
 30
0.0
 11
60.87499999998911
 21
-1.999999999982065
 31
0.0
  0
LINE
  5
6E18
330
6DEA
100
AcDbEntity
  8
LW 5015-19-01
 62
     3
100
AcDbLine
 10
60.87499999998548
 20
10.79450000001802
 30
0.0
 11
76.97859999998539
 21
10.79450000002279
 31
0.0
  0
LINE
  5
6E19
330
6DEA
100
AcDbEntity
  8
LW 5015-19-01
 62
     3
100
AcDbLine
 10
76.97859999998858
 20
-0.794499999977262
 30
0.0
 11
60.87499999998866
 21
-0.7944999999820368
 31
0.0
  0
ARC
  5
6E1A
330
6DEA
100
AcDbEntity
  8
LW 5015-19-01
  6
VERDECKT
 62
     6
100
AcDbCircle
 10
-0.000000000035925
 20
0.0
 30
0.0
 40
32.50000000000001
100
AcDbArc
 50
337.3801350519766
 51
43.81306146042019
  0
ARC
  5
6E1B
330
6DEA
100
AcDbEntity
  8
LW 5015-19-01
100
AcDbCircle
 10
-0.000000000035925
 20
0.0
 30
0.0
 40
32.5
100
AcDbArc
 50
43.81306146042019
 51
337.3801350519766
  0
LINE
  5
6E1C
330
6DEA
100
AcDbEntity
  8
LW 5015-19-01
100
AcDbLine
 10
60.87499999998184
 20
22.50000000001794
 30
0.0
 11
60.8749999999923
 21
-12.49999999998206
 31
0.0
  0
LINE
  5
6E1D
330
6DEA
100
AcDbEntity
  8
LW 5015-19-01
  6
MITTE2
 62
     3
100
AcDbLine
 10
-14.93734296387168
 20
25.87223694343527
 30
0.0
 11
-7.000000000035015
 21
12.12435565298006
 31
0.0
  0
LINE
  5
6E1E
330
6DEA
100
AcDbEntity
  8
LW 5015-19-01
  6
MITTE2
 62
     3
100
AcDbLine
 10
-14.93734296385628
 20
-25.87223694344425
 30
0.0
 11
-7.000000000027739
 21
-12.12435565298426
 31
0.0
  0
LINE
  5
6E1F
330
6DEA
100
AcDbEntity
  8
LW 5015-19-01
  6
MITTE2
 62
     3
100
AcDbLine
 10
38.9697068954581
 20
0.0000000000173657
 30
0.0
 11
-38.9697068954581
 21
-0.0000000000173941
 31
0.0
  0
LINE
  5
6E20
330
6DEA
100
AcDbEntity
  8
LW 5015-19-01
  6
MITTE2
 62
     3
100
AcDbLine
 10
-0.0000000000063665
 20
22.6209724824912
 30
0.0
 11
0.0000000000068212
 21
-22.6209724824912
 31
0.0
  0
INSERT
  5
6E21
330
6DEA
100
AcDbEntity
  8
LW 5015-19-01
100
AcDbBlockReference
 66
     1
  2
insertpoint-ECKELT
 10
0.0
 20
0.0
 30
0.0
 41
-1.0
  0
ATTRIB
  5
6E22
330
6E21
100
AcDbEntity
  8
insertpoint_ECKELT
100
AcDbText
 10
1.199999999999799
 20
0.0
 30
0.0
 40
0.6
  1
LW 5015/19-01
 72
     2
 11
6.931514324692841
 21
0.0
 31
0.0
100
AcDbAttribute
  2
LINKS
 70
     0
  0
ATTRIB
  5
6E23
330
6E21
100
AcDbEntity
  8
insertpoint_ECKELT
100
AcDbText
 10
-1.199999999999818
 20
0.0
 30
0.0
 40
0.6
  1

100
AcDbAttribute
  2
RECHTS
 70
     0
  0
SEQEND
  5
6E24
330
6E21
100
AcDbEntity
  8
LW 5015-19-01
  0
LINE
  5
6E25
330
6DEA
100
AcDbEntity
  8
LW 5015-19-01
100
AcDbLine
 10
10.09999999999172
 20
5.500000000003012
 30
0.0
 11
10.09999999999195
 21
-12.49999999999701
 31
0.0
  0
POLYLINE
  5
6E26
330
6DEA
100
AcDbEntity
  8
LW 5015-19-01
100
AcDb2dPolyline
 66
     1
 10
0.0
 20
0.0
 30
0.0
 70
   128
  0
VERTEX
  5
6E27
330
6E26
100
AcDbEntity
  8
LW 5015-19-01
100
AcDbVertex
100
AcDb2dVertex
 10
10.10000228881017
 20
5.500000007453593
 30
0.0
  0
VERTEX
  5
6E28
330
6E26
100
AcDbEntity
  8
LW 5015-19-01
100
AcDbVertex
100
AcDb2dVertex
 10
10.07782459258169
 20
6.152630448344325
 30
0.0
  0
VERTEX
  5
6E29
330
6E26
100
AcDbEntity
  8
LW 5015-19-01
100
AcDbVertex
100
AcDb2dVertex
 10
10.01159191130728
 20
6.810174882414912
 30
0.0
  0
VERTEX
  5
6E2A
330
6E26
100
AcDbEntity
  8
LW 5015-19-01
100
AcDbVertex
100
AcDb2dVertex
 10
9.901742935171569
 20
7.467362880709742
 30
0.0
  0
VERTEX
  5
6E2B
330
6E26
100
AcDbEntity
  8
LW 5015-19-01
100
AcDbVertex
100
AcDb2dVertex
 10
9.748716354361022
 20
8.118924200537719
 30
0.0
  0
VERTEX
  5
6E2C
330
6E26
100
AcDbEntity
  8
LW 5015-19-01
100
AcDbVertex
100
AcDb2dVertex
 10
9.552946090688692
 20
8.759588897231083
 30
0.0
  0
VERTEX
  5
6E2D
330
6E26
100
AcDbEntity
  8
LW 5015-19-01
100
AcDbVertex
100
AcDb2dVertex
 10
9.314870834340808
 20
9.384086430075569
 30
0.0
  0
VERTEX
  5
6E2E
330
6E26
100
AcDbEntity
  8
LW 5015-19-01
100
AcDbVertex
100
AcDb2dVertex
 10
9.035677909841069
 20
9.987690150740434
 30
0.0
  0
VERTEX
  5
6E2F
330
6E26
100
AcDbEntity
  8
LW 5015-19-01
100
AcDbVertex
100
AcDb2dVertex
 10
8.7189769744773
 20
10.56716978550213
 30
0.0
  0
VERTEX
  5
6E30
330
6E26
100
AcDbEntity
  8
LW 5015-19-01
100
AcDbVertex
100
AcDb2dVertex
 10
8.368849754323264
 20
11.11950039863831
 30
0.0
  0
VERTEX
  5
6E31
330
6E26
100
AcDbEntity
  8
LW 5015-19-01
100
AcDbVertex
100
AcDb2dVertex
 10
7.98938274382499
 20
11.64165675640339
 30
0.0
  0
VERTEX
  5
6E32
330
6E26
100
AcDbEntity
  8
LW 5015-19-01
100
AcDbVertex
100
AcDb2dVertex
 10
7.584662437428278
 20
12.13061451912148
 30
0.0
  0
VERTEX
  5
6E33
330
6E26
100
AcDbEntity
  8
LW 5015-19-01
100
AcDbVertex
100
AcDb2dVertex
 10
7.158765792835765
 20
12.58334755897732
 30
0.0
  0
VERTEX
  5
6E34
330
6E26
100
AcDbEntity
  8
LW 5015-19-01
100
AcDbVertex
100
AcDb2dVertex
 10
6.705121994007413
 20
13.00724446773728
 30
0.0
  0
VERTEX
  5
6E35
330
6E26
100
AcDbEntity
  8
LW 5015-19-01
100
AcDbVertex
100
AcDb2dVertex
 10
6.216325759876326
 20
13.40922176838103
 30
0.0
  0
VERTEX
  5
6E36
330
6E26
100
AcDbEntity
  8
LW 5015-19-01
100
AcDbVertex
100
AcDb2dVertex
 10
5.6953048705941
 20
13.78546059131787
 30
0.0
  0
VERTEX
  5
6E37
330
6E26
100
AcDbEntity
  8
LW 5015-19-01
100
AcDbVertex
100
AcDb2dVertex
 10
5.144987106311646
 20
14.13214206695704
 30
0.0
  0
VERTEX
  5
6E38
330
6E26
100
AcDbEntity
  8
LW 5015-19-01
100
AcDbVertex
100
AcDb2dVertex
 10
4.568305015552141
 20
14.44544792175423
 30
0.0
  0
VERTEX
  5
6E39
330
6E26
100
AcDbEntity
  8
LW 5015-19-01
100
AcDbVertex
100
AcDb2dVertex
 10
3.96818637846718
 20
14.72155869007224
 30
0.0
  0
VERTEX
  5
6E3A
330
6E26
100
AcDbEntity
  8
LW 5015-19-01
100
AcDbVertex
100
AcDb2dVertex
 10
3.347783088672031
 20
14.95777785778136
 30
0.0
  0
VERTEX
  5
6E3B
330
6E26
100
AcDbEntity
  8
LW 5015-19-01
100
AcDbVertex
100
AcDb2dVertex
 10
2.711348533618092
 20
15.15290260315015
 30
0.0
  0
VERTEX
  5
6E3C
330
6E26
100
AcDbEntity
  8
LW 5015-19-01
100
AcDbVertex
100
AcDb2dVertex
 10
2.06343173979485
 20
15.3053522109991
 30
0.0
  0
VERTEX
  5
6E3D
330
6E26
100
AcDbEntity
  8
LW 5015-19-01
100
AcDbVertex
100
AcDb2dVertex
 10
1.408705711352467
 20
15.4138541221622
 30
0.0
  0
VERTEX
  5
6E3E
330
6E26
100
AcDbEntity
  8
LW 5015-19-01
100
AcDbVertex
100
AcDb2dVertex
 10
0.7524204254027609
 20
15.47855496406572
 30
0.0
  0
VERTEX
  5
6E3F
330
6E26
100
AcDbEntity
  8
LW 5015-19-01
100
AcDbVertex
100
AcDb2dVertex
 10
0.1000022888060812
 20
15.49999952316284
 30
0.0
  0
SEQEND
  5
6E40
330
6E26
100
AcDbEntity
  8
LW 5015-19-01
  0
POLYLINE
  5
6E41
330
6DEA
100
AcDbEntity
  8
LW 5015-19-01
100
AcDb2dPolyline
 66
     1
 10
0.0
 20
0.0
 30
0.0
 70
   128
  0
VERTEX
  5
6E42
330
6E41
100
AcDbEntity
  8
LW 5015-19-01
100
AcDbVertex
100
AcDb2dVertex
 10
-0.1000022888306375
 20
15.49999952316278
 30
0.0
  0
VERTEX
  5
6E43
330
6E41
100
AcDbEntity
  8
LW 5015-19-01
100
AcDbVertex
100
AcDb2dVertex
 10
-0.7524204254273173
 20
15.47855496406526
 30
0.0
  0
VERTEX
  5
6E44
330
6E41
100
AcDbEntity
  8
LW 5015-19-01
100
AcDbVertex
100
AcDb2dVertex
 10
-1.408705711377024
 20
15.41385412216141
 30
0.0
  0
VERTEX
  5
6E45
330
6E41
100
AcDbEntity
  8
LW 5015-19-01
100
AcDbVertex
100
AcDb2dVertex
 10
-2.063431739819407
 20
15.30535221099791
 30
0.0
  0
VERTEX
  5
6E46
330
6E41
100
AcDbEntity
  8
LW 5015-19-01
100
AcDbVertex
100
AcDb2dVertex
 10
-2.711348533642421
 20
15.15290260314856
 30
0.0
  0
VERTEX
  5
6E47
330
6E41
100
AcDbEntity
  8
LW 5015-19-01
100
AcDbVertex
100
AcDb2dVertex
 10
-3.347783088695905
 20
14.95777785777943
 30
0.0
  0
VERTEX
  5
6E48
330
6E41
100
AcDbEntity
  8
LW 5015-19-01
100
AcDbVertex
100
AcDb2dVertex
 10
-3.968186378490827
 20
14.72155869006991
 30
0.0
  0
VERTEX
  5
6E49
330
6E41
100
AcDbEntity
  8
LW 5015-19-01
100
AcDbVertex
100
AcDb2dVertex
 10
-4.568305015575788
 20
14.44544792175151
 30
0.0
  0
VERTEX
  5
6E4A
330
6E41
100
AcDbEntity
  8
LW 5015-19-01
100
AcDbVertex
100
AcDb2dVertex
 10
-5.14498710633461
 20
14.13214206695397
 30
0.0
  0
VERTEX
  5
6E4B
330
6E41
100
AcDbEntity
  8
LW 5015-19-01
100
AcDbVertex
100
AcDb2dVertex
 10
-5.695304870616837
 20
13.78546059131452
 30
0.0
  0
VERTEX
  5
6E4C
330
6E41
100
AcDbEntity
  8
LW 5015-19-01
100
AcDbVertex
100
AcDb2dVertex
 10
-6.216325759898836
 20
13.40922176837733
 30
0.0
  0
VERTEX
  5
6E4D
330
6E41
100
AcDbEntity
  8
LW 5015-19-01
100
AcDbVertex
100
AcDb2dVertex
 10
-6.705121994029468
 20
13.0072444677333
 30
0.0
  0
VERTEX
  5
6E4E
330
6E41
100
AcDbEntity
  8
LW 5015-19-01
100
AcDbVertex
100
AcDb2dVertex
 10
-7.158765792857366
 20
12.58334755897306
 30
0.0
  0
VERTEX
  5
6E4F
330
6E41
100
AcDbEntity
  8
LW 5015-19-01
100
AcDbVertex
100
AcDb2dVertex
 10
-7.584662437449424
 20
12.13061451911699
 30
0.0
  0
VERTEX
  5
6E50
330
6E41
100
AcDbEntity
  8
LW 5015-19-01
100
AcDbVertex
100
AcDb2dVertex
 10
-7.989382743845681
 20
11.64165675639861
 30
0.0
  0
VERTEX
  5
6E51
330
6E41
100
AcDbEntity
  8
LW 5015-19-01
100
AcDbVertex
100
AcDb2dVertex
 10
-8.3688497543435
 20
11.11950039863336
 30
0.0
  0
VERTEX
  5
6E52
330
6E41
100
AcDbEntity
  8
LW 5015-19-01
100
AcDbVertex
100
AcDb2dVertex
 10
-8.718976974497309
 20
10.5671697854969
 30
0.0
  0
VERTEX
  5
6E53
330
6E41
100
AcDbEntity
  8
LW 5015-19-01
100
AcDbVertex
100
AcDb2dVertex
 10
-9.035677909860851
 20
9.987690150735033
 30
0.0
  0
VERTEX
  5
6E54
330
6E41
100
AcDbEntity
  8
LW 5015-19-01
100
AcDbVertex
100
AcDb2dVertex
 10
-9.314870834360135
 20
9.384086430069999
 30
0.0
  0
VERTEX
  5
6E55
330
6E41
100
AcDbEntity
  8
LW 5015-19-01
100
AcDbVertex
100
AcDb2dVertex
 10
-9.552946090707337
 20
8.759588897225398
 30
0.0
  0
VERTEX
  5
6E56
330
6E41
100
AcDbEntity
  8
LW 5015-19-01
100
AcDbVertex
100
AcDb2dVertex
 10
-9.748716354379212
 20
8.118924200531921
 30
0.0
  0
VERTEX
  5
6E57
330
6E41
100
AcDbEntity
  8
LW 5015-19-01
100
AcDbVertex
100
AcDb2dVertex
 10
-9.901742935189304
 20
7.467362880703888
 30
0.0
  0
VERTEX
  5
6E58
330
6E41
100
AcDbEntity
  8
LW 5015-19-01
100
AcDbVertex
100
AcDb2dVertex
 10
-10.01159191132455
 20
6.810174882408944
 30
0.0
  0
VERTEX
  5
6E59
330
6E41
100
AcDbEntity
  8
LW 5015-19-01
100
AcDbVertex
100
AcDb2dVertex
 10
-10.07782459259852
 20
6.152630448338356
 30
0.0
  0
VERTEX
  5
6E5A
330
6E41
100
AcDbEntity
  8
LW 5015-19-01
100
AcDbVertex
100
AcDb2dVertex
 10
-10.10000228882654
 20
5.500000007447567
 30
0.0
  0
SEQEND
  5
6E5B
330
6E41
100
AcDbEntity
  8
LW 5015-19-01
  0
LINE
  5
6E5C
330
6DEA
100
AcDbEntity
  8
LW 5015-19-01
100
AcDbLine
 10
-10.10000000000752
 20
-12.50000000000298
 30
0.0
 11
-10.10000000000809
 21
5.499999999997044
 31
0.0
  0
LINE
  5
6E5D
330
6DEA
100
AcDbEntity
  8
LW 5015-19-01
  6
MITTE2
 62
     3
100
AcDbLine
 10
80.54152403631817
 20
5.000000000023845
 30
0.0
 11
-37.06495985656011
 21
4.999999999989086
 31
0.0
  0
HATCH
  5
6E5E
330
6DEA
100
AcDbEntity
  8
LW 5015-19-01
 62
     1
100
AcDbHatch
 10
0.0
 20
0.0
 30
0.0
210
0.0
220
0.0
230
1.0
  2
SOLID
 70
     1
 71
     0
 91
        5
 92
        7
 72
     0
 73
     1
 93
       76
 10
40.23351265046358
 20
18.15603796707847
 10
40.26537147983617
 20
18.20761892892022
 10
40.38352960406792
 20
18.35886132793615
 10
40.51800767928035
 20
18.4992854581987
 10
40.66402758574167
 20
18.62767001991204
 10
40.8276963818239
 20
18.74457630282785
 10
41.00308333518841
 20
18.84675418464945
 10
41.18483626778925
 20
18.93810586423234
 10
41.36600520325464
 20
19.00762417667846
 10
39.10886726505487
 20
19.00762417667846
 10
38.89597071265462
 20
18.99893452147847
 10
38.69393622925463
 20
18.97286555587851
 10
38.49841898725481
 20
18.9315896936784
 10
38.3137638142548
 20
18.87727934867843
 10
38.13779829645455
 20
18.80776210707842
 10
37.97052243385497
 20
18.72521038267831
 10
37.81995417130747
 20
18.62988486513444
 10
37.67724657085455
 20
18.52317589927833
 10
37.55180531528413
 20
18.40412762303827
 10
37.44054036320676
 20
18.27586831228638
 10
37.34052243185488
 20
18.13865865667839
 10
37.25797070745466
 20
17.99310693207832
 10
37.19497070725447
 20
17.83886555227826
 10
37.1450051898546
 20
17.67810693107839
 10
37.11676381045482
 20
17.51300348227841
 10
37.10807415525505
 20
17.33921037827844
 10
37.11893622425487
 20
17.16541727427824
 10
37.14935001745471
 20
16.99814141167832
 10
37.20366036245469
 20
16.83738279047833
 10
37.27317760405458
 20
16.68096899687833
 10
37.36224656985496
 20
16.53324485847832
 10
37.46869484605486
 20
16.39203796147848
 10
37.59139277747909
 20
16.26082416795833
 10
37.72759182618711
 20
16.13969037447049
 10
37.87493622665488
 20
16.02924485687839
 10
38.03569484785476
 20
15.93148623587848
 10
38.21132146910213
 20
15.84658830457437
 10
38.39197071105445
 20
15.77290002847843
 10
38.58314312545463
 20
15.7164172696784
 10
38.78300519505501
 20
15.67296899367846
 10
38.9915569198547
 20
15.64690002807839
 10
39.2022810584549
 20
15.6382103728784
 10
41.32145214420734
 20
15.63821037287852
 10
41.16090828015512
 20
15.70128117661346
 10
40.97734413635225
 20
15.79190145013621
 10
40.8088777301823
 20
15.89643114306767
 10
40.64604483542189
 20
16.01204938149311
 10
40.50213246705152
 20
16.14183897803303
 10
40.37469657356723
 20
16.28119266126162
 10
40.26099121882362
 20
16.43168090597413
 10
40.20901998737508
 20
16.51586554807846
 10
39.18055692045482
 20
16.51586554807835
 10
39.04844809244924
 20
16.52342554810246
 10
38.9176948506547
 20
16.54375934127046
 10
38.78952243645472
 20
16.57669313447837
 10
38.67438450505506
 20
16.62231382427848
 10
38.56943953920473
 20
16.67879658307839
 10
38.4712898837206
 20
16.74640210053434
 10
38.38110864205464
 20
16.82434830767835
 10
38.30941898665515
 20
16.90907244587839
 10
40.03694030091355
 20
16.90907244587851
 10
40.02635583364053
 20
16.94170788663672
 10
39.99024402567648
 20
17.12708183418789
 10
39.97820037289421
 20
17.31737154813862
 10
39.99022204532412
 20
17.5121226414937
 10
40.02652776699915
 20
17.69849201276014
 10
40.04312646967401
 20
17.7476241726784
 10
38.27248795205469
 20
17.7476241726784
 10
38.34200519365459
 20
17.84321037987837
 10
38.42455691805481
 20
17.92576210427836
 10
38.51964781490824
 20
17.99562693208639
 10
38.62224657385468
 20
18.05393451847846
 10
38.74093857423122
 20
18.09790417379037
 10
38.86338450565472
 20
18.1299690014784
 10
39.00024657505492
 20
18.14952072567843
 10
39.14362588585482
 20
18.15603796707836
 97
        0
 92
        7
 72
     0
 73
     1
 93
       72
 10
41.96197651549119
 20
18.14143934634245
 10
42.08483955036444
 20
18.15951382915847
 10
42.20890175765453
 20
18.16472762227858
 10
43.47759141685492
 20
18.16472762227858
 10
42.63035003485493
 20
17.3500724472787
 10
44.39652245425486
 20
15.63169313147858
 10
45.71517763085466
 20
15.63169313147858
 10
44.00114314265465
 20
17.37396899907861
 10
45.68259142385477
 20
19.00762417667869
 10
42.24366037845448
 20
19.00762417667846
 10
42.03567348124261
 20
18.99684900423057
 10
41.82895527368964
 20
18.9713883144945
 10
41.62452244545465
 20
18.93158969367852
 10
41.43117761725443
 20
18.87510693487849
 10
41.24435003045436
 20
18.80341727947842
 10
41.07318989198029
 20
18.71738969299844
 10
40.90762589145469
 20
18.62093452027847
 10
40.75555692545458
 20
18.51231383027851
 10
40.61985926985153
 20
18.39300486438247
 10
40.49486726945452
 20
18.26248624327849
 10
40.38624657945456
 20
18.12345176007847
 10
40.29500519985504
 20
17.97572762167857
 10
40.22331554445464
 20
17.82148624187852
 10
40.16900519945465
 20
17.66072762067841
 10
40.13641899245476
 20
17.49345175807838
 10
40.1255569234545
 20
17.31748624027835
 10
40.13641899245476
 20
17.14586555007844
 10
40.16900519945465
 20
16.97858968747852
 10
40.22114313065503
 20
16.81783106627853
 10
40.29066037225493
 20
16.66358968647847
 10
40.38250133806378
 20
16.51482278945463
 10
40.48788078667394
 20
16.37535382349443
 10
40.60588630428992
 20
16.24631244377457
 10
40.73817761505506
 20
16.12700347787853
 10
40.89029871898583
 20
16.01899106374247
 10
41.048832788455
 20
15.92062416687844
 10
41.22045347865515
 20
15.83590002867851
 10
41.4029362378551
 20
15.76421037327844
 10
41.59716741088504
 20
15.71016071793446
 10
41.79397072185475
 20
15.66645175227853
 10
42.00252244665489
 20
15.64038278667857
 10
42.21324658525463
 20
15.63169313147858
 10
44.11628107405476
 20
15.63169313147858
 10
43.22993624365472
 20
16.50500347907854
 10
42.21324658525463
 20
16.50500347907854
 10
42.14657955056009
 20
16.50875077201789
 10
42.04563182610217
 20
16.51873313429445
 10
41.92549734296199
 20
16.54019658263854
 10
41.80837817017618
 20
16.57452072067843
 10
41.70688299744051
 20
16.61544899667052
 10
41.65074782484862
 20
16.6436034795185
 10
41.59706313502283
 20
16.67618968651862
 10
41.46450244494644
 20
16.77551244545447
 10
41.39090106540288
 20
16.84555106636657
 10
41.33583472040027
 20
16.91341727347839
 10
41.28712920300404
 20
16.98597589439845
 10
41.24776506494799
 20
17.06314003257438
 10
41.21834189244146
 20
17.1445621017985
 10
41.19764313375481
 20
17.23171934345458
 10
41.19012658200699
 20
17.32104899891038
 10
41.19148216821804
 20
17.38335382669442
 10
41.19748671996148
 20
17.44548486137438
 10
41.20964354758598
 20
17.50865865467853
 10
41.22785706488502
 20
17.57035520659855
 10
41.27150520295436
 20
17.66906968967038
 10
41.31303306515564
 20
17.73693589678243
 10
41.37611127225227
 20
17.81496900047847
 10
41.50551321261718
 20
17.9414917375322
 10
41.56478106595478
 20
17.98154969066257
 10
41.64107623861082
 20
18.02586693218239
 10
41.72509651473956
 20
18.0680117599025
 10
41.84163348062702
 20
18.11085176003854
 97
        0
 92
        7
 72
     0
 73
     1
 93
       57
 10
46.5200134954789
 20
18.1193676221348
 10
46.65148797865458
 20
18.15934003605474
 10
46.78617763425473
 20
18.18645176027877
 10
46.92955694505463
 20
18.19514141547864
 10
48.17000522485478
 20
18.19514141547876
 10
48.17000522485478
 20
19.02065865947878
 10
46.93607418645479
 20
19.02065865947867
 10
46.72535004785459
 20
19.01196900427868
 10
46.51897073685449
 20
18.98372762487867
 10
46.32128108105462
 20
18.94245176267867
 10
46.13228108045496
 20
18.88814141767869
 10
45.94762590745449
 20
18.81645176227874
 10
45.78121901037457
 20
18.7338131413266
 10
45.62239818228408
 20
18.63735796860664
 10
45.47231914732492
 20
18.52786831308657
 10
45.33775983655323
 20
18.40864624374268
 10
45.21769487065466
 20
18.27986555367869
 10
45.11341900825482
 20
18.14083107047867
 10
45.028694870055
 20
17.9952793458786
 10
44.9570052146546
 20
17.84103796607854
 10
44.90703969725473
 20
17.68027934487867
 10
44.87445349025484
 20
17.51300348227875
 10
44.86359142125457
 20
17.33921037827866
 10
44.87445349025484
 20
17.16541727427869
 10
44.90703969725473
 20
16.99814141167866
 10
44.95917762845465
 20
16.83738279047856
 10
45.0308672838546
 20
16.68096899687867
 10
45.11776383585493
 20
16.53324485847867
 10
45.22661045688983
 20
16.39368899596667
 10
45.34646687106351
 20
16.26334416796675
 10
45.48289445770388
 20
16.14203658137461
 10
45.63045349265485
 20
16.03141727067867
 10
45.79121211385472
 20
15.93365864967853
 10
45.96500521785492
 20
15.84893451147872
 10
46.14966039085493
 20
15.77507244227871
 10
46.34083280525465
 20
15.71858968347868
 10
46.54069487485503
 20
15.67514140747874
 10
46.74707418585512
 20
15.65124485567861
 10
46.95997073825492
 20
15.64255520047862
 10
48.17000522485478
 20
15.64255520047874
 10
48.17000522485478
 20
16.50065865147866
 10
46.93607418645479
 20
16.50065865147866
 10
46.80242728947905
 20
16.51099934116661
 10
46.67017073733496
 20
16.53298416882279
 10
46.54955832315863
 20
16.56730830686268
 10
46.43355142623886
 20
16.61527520356679
 10
46.3238879776145
 20
16.67618968651874
 10
46.22682452903063
 20
16.74379520397468
 10
46.13940659771879
 20
16.82356623871072
 10
46.06493625265466
 20
16.90907244587873
 10
48.17000522485478
 20
16.90907244587873
 10
48.17000522485478
 20
17.7367621036787
 10
46.02800521805465
 20
17.7367621036787
 10
46.09752245965501
 20
17.83452072467861
 10
46.18441901165442
 20
17.92358969047853
 10
46.28556659818286
 20
17.99988486313469
 10
46.39297073645503
 20
18.06696900127866
 97
        0
 92
        7
 72
     0
 73
     1
 93
        6
 10
48.40028108765455
 20
19.0076241766788
 10
48.40028108765455
 20
15.63821037287874
 10
50.63786730165521
 20
15.63821037287886
 10
50.63786730165475
 20
16.50500347907888
 10
49.42348798745479
 20
16.50500347907888
 10
49.42348798745479
 20
19.0076241766788
 97
        0
 92
        7
 72
     0
 73
     1
 93
        8
 10
49.65593626405461
 20
19.0076241766788
 10
49.65593626405461
 20
18.18210693267878
 10
50.88986730245506
 20
18.18210693267889
 10
50.88986730245506
 20
15.63169313147881
 10
51.9152466160549
 20
15.63169313147881
 10
51.9152466160549
 20
18.18210693267878
 10
53.15786730965465
 20
18.18210693267889
 10
53.15786730965465
 20
19.00762417667891
 97
        0
 75
     0
 76
     1
 47
0.0142553043587597
 98
        5
 10
39.5431727765299
 20
18.56517450708935
 10
41.81066998987262
 20
18.42262152208371
 10
46.30288172207383
 20
18.47964269463153
 10
49.02673080590557
 20
18.72198291932392
 10
50.43856878813222
 20
18.62219578691059
450
        0
451
        0
460
0.0
461
0.0
452
        0
462
0.0
453
        0
470

  0
LWPOLYLINE
  5
6E5F
330
6DEA
100
AcDbEntity
  8
LW 5015-19-01
 62
     1
100
AcDbPolyline
 90
        8
 70
     1
 43
0.0
 10
51.9152466160549
 20
18.18210693267878
 10
51.9152466160549
 20
15.63169313147881
 10
50.88986730245506
 20
15.63169313147881
 10
50.88986730245506
 20
18.18210693267889
 10
49.65593626405461
 20
18.18210693267878
 10
49.65593626405461
 20
19.0076241766788
 10
53.15786730965465
 20
19.00762417667891
 10
53.15786730965465
 20
18.18210693267889
  0
LWPOLYLINE
  5
6E60
330
6DEA
100
AcDbEntity
  8
LW 5015-19-01
 62
     1
100
AcDbPolyline
 90
       73
 70
     1
 43
0.0
 10
42.21324658525463
 20
16.50500347907854
 10
43.22993624365472
 20
16.50500347907854
 10
44.11628107405476
 20
15.63169313147858
 10
42.21324658525463
 20
15.63169313147847
 10
42.00252244665489
 20
15.64038278667857
 10
41.79397072185475
 20
15.66645175227853
 10
41.59716741088504
 20
15.71016071793446
 10
41.4029362378551
 20
15.76421037327844
 10
41.22045347865515
 20
15.83590002867851
 10
41.048832788455
 20
15.92062416687844
 10
40.89029871898583
 20
16.01899106374247
 10
40.73817761505506
 20
16.12700347787853
 10
40.60588630428992
 20
16.24631244377445
 10
40.48788078667394
 20
16.37535382349443
 10
40.38250133806378
 20
16.51482278945451
 10
40.29066037225493
 20
16.66358968647847
 10
40.22114313065503
 20
16.81783106627853
 10
40.16900519945465
 20
16.97858968747852
 10
40.13641899245476
 20
17.14586555007844
 10
40.1255569234545
 20
17.31748624027847
 10
40.13641899245476
 20
17.49345175807838
 10
40.16900519945465
 20
17.66072762067841
 10
40.22331554445464
 20
17.82148624187852
 10
40.29500519985504
 20
17.97572762167846
 10
40.38624657945456
 20
18.12345176007847
 10
40.49486726945452
 20
18.26248624327849
 10
40.61985926985153
 20
18.39300486438259
 10
40.75555692545458
 20
18.51231383027851
 10
40.90762589145469
 20
18.62093452027847
 10
41.07318989198029
 20
18.71738969299844
 10
41.24435003045436
 20
18.80341727947842
 10
41.43117761725443
 20
18.87510693487849
 10
41.62452244545465
 20
18.93158969367863
 10
41.82895527368964
 20
18.9713883144945
 10
42.03567348124261
 20
18.99684900423057
 10
42.24366037845448
 20
19.00762417667846
 10
45.68259142385477
 20
19.00762417667869
 10
44.00114314265465
 20
17.37396899907861
 10
45.71517763085466
 20
15.63169313147858
 10
44.39652245425486
 20
15.63169313147858
 10
42.63035003485493
 20
17.3500724472787
 10
43.47759141685492
 20
18.16472762227858
 10
42.20890175765453
 20
18.16472762227858
 10
42.08483955036444
 20
18.15951382915847
 10
41.96197651549119
 20
18.14143934634245
 10
41.84163348062702
 20
18.11085176003854
 10
41.72509651473956
 20
18.06801175990239
 10
41.64107623861037
 20
18.02586693218251
 10
41.56478106595478
 20
17.98154969066257
 10
41.52453927272381
 20
17.95435106988651
 10
41.48702603122546
 20
17.92341589737447
 10
41.37611127225227
 20
17.81496900047847
 10
41.31303306515564
 20
17.73693589678243
 10
41.27150520295481
 20
17.66906968967049
 10
41.22785706488502
 20
17.57035520659855
 10
41.20964354758598
 20
17.50865865467853
 10
41.19748671996148
 20
17.44548486137449
 10
41.19148216821804
 20
17.38335382669453
 10
41.19012658200699
 20
17.3210489989105
 10
41.19764313375481
 20
17.23171934345458
 10
41.21834189244146
 20
17.1445621017985
 10
41.24776506494845
 20
17.06314003257449
 10
41.28712920300404
 20
16.98597589439845
 10
41.33583472040027
 20
16.9134172734785
 10
41.39090106540288
 20
16.84555106636657
 10
41.46450244494644
 20
16.77551244545447
 10
41.59706313502283
 20
16.67618968651862
 10
41.65074782484862
 20
16.6436034795185
 10
41.70688299744051
 20
16.61544899667052
 10
41.80837817017618
 20
16.57452072067843
 10
41.92549734296199
 20
16.54019658263854
 10
42.04563182610217
 20
16.51873313429445
 10
42.14657955056009
 20
16.50875077201789
  0
LWPOLYLINE
  5
6E61
330
6DEA
100
AcDbEntity
  8
LW 5015-19-01
 62
     1
100
AcDbPolyline
 90
       76
 70
     1
 43
0.0
 10
41.00308333518841
 20
18.84675418464945
 10
40.8276963818239
 20
18.74457630282774
 10
40.66402758574167
 20
18.62767001991204
 10
40.51800767928035
 20
18.4992854581987
 10
40.38352960406792
 20
18.35886132793615
 10
40.26537147983617
 20
18.20761892892022
 10
40.23351265046358
 20
18.15603796707847
 10
39.14362588585482
 20
18.15603796707847
 10
39.00024657505492
 20
18.14952072567843
 10
38.86338450565472
 20
18.1299690014784
 10
38.74093857423122
 20
18.09790417379037
 10
38.62224657385468
 20
18.05393451847846
 10
38.51964781490824
 20
17.99562693208639
 10
38.42455691805481
 20
17.92576210427836
 10
38.34200519365459
 20
17.84321037987837
 10
38.27248795205469
 20
17.7476241726784
 10
40.04312646967401
 20
17.7476241726784
 10
40.02652776699915
 20
17.69849201276014
 10
39.99022204532366
 20
17.51212264149347
 10
39.97820037289421
 20
17.31737154813862
 10
39.99024402567648
 20
17.12708183418789
 10
40.02635583364098
 20
16.94170788663683
 10
40.03694030091355
 20
16.90907244587851
 10
38.30941898665515
 20
16.90907244587839
 10
38.38110864205464
 20
16.82434830767835
 10
38.4712898837206
 20
16.74640210053434
 10
38.56943953920473
 20
16.67879658307839
 10
38.67438450505506
 20
16.62231382427848
 10
38.78952243645472
 20
16.57669313447849
 10
38.9176948506547
 20
16.54375934127046
 10
39.04844809244924
 20
16.52342554810246
 10
39.18055692045482
 20
16.51586554807835
 10
40.20901998737508
 20
16.51586554807846
 10
40.26099121882362
 20
16.43168090597413
 10
40.37469657356723
 20
16.28119266126162
 10
40.50213246705152
 20
16.14183897803303
 10
40.64604483542189
 20
16.01204938149334
 10
40.8088777301823
 20
15.89643114306767
 10
40.97734413635225
 20
15.79190145013621
 10
41.16090828015512
 20
15.70128117661346
 10
41.32145214420734
 20
15.63821037287852
 10
39.2022810584549
 20
15.63821037287829
 10
38.9915569198547
 20
15.64690002807839
 10
38.78300519505501
 20
15.67296899367846
 10
38.58314312545463
 20
15.7164172696784
 10
38.39197071105491
 20
15.77290002847832
 10
38.21132146910168
 20
15.84658830457437
 10
38.03569484785476
 20
15.93148623587848
 10
37.87493622665488
 20
16.02924485687839
 10
37.72759182618711
 20
16.13969037447037
 10
37.59139277747909
 20
16.26082416795833
 10
37.46869484605486
 20
16.39203796147836
 10
37.36224656985451
 20
16.53324485847832
 10
37.27317760405458
 20
16.68096899687833
 10
37.20366036245469
 20
16.83738279047833
 10
37.14935001745471
 20
16.99814141167832
 10
37.11893622425487
 20
17.16541727427847
 10
37.10807415525505
 20
17.33921037827832
 10
37.11676381045436
 20
17.51300348227829
 10
37.1450051898546
 20
17.67810693107839
 10
37.19497070725447
 20
17.83886555227826
 10
37.25797070745466
 20
17.99310693207832
 10
37.34052243185488
 20
18.13865865667839
 10
37.44054036320676
 20
18.27586831228638
 10
37.55180531528413
 20
18.40412762303839
 10
37.67724657085455
 20
18.52317589927833
 10
37.81995417130747
 20
18.62988486513444
 10
37.97052243385497
 20
18.72521038267842
 10
38.137798296455
 20
18.8077621070783
 10
38.3137638142548
 20
18.87727934867843
 10
38.49841898725481
 20
18.9315896936784
 10
38.69393622925463
 20
18.97286555587851
 10
38.89597071265462
 20
18.99893452147847
 10
39.10886726505487
 20
19.00762417667846
 10
41.36600520325464
 20
19.00762417667857
 10
41.18483626778925
 20
18.93810586423234
  0
LWPOLYLINE
  5
6E62
330
6DEA
100
AcDbEntity
  8
LW 5015-19-01
 62
     1
100
AcDbPolyline
 90
        6
 70
     1
 43
0.0
 10
50.63786730165521
 20
15.63821037287886
 10
48.40028108765455
 20
15.63821037287874
 10
48.40028108765455
 20
19.0076241766788
 10
49.42348798745479
 20
19.0076241766788
 10
49.42348798745479
 20
16.50500347907888
 10
50.63786730165475
 20
16.50500347907888
  0
LWPOLYLINE
  5
6E63
330
6DEA
100
AcDbEntity
  8
LW 5015-19-01
 62
     1
100
AcDbPolyline
 90
       57
 70
     1
 43
0.0
 10
45.34646687106351
 20
16.26334416796675
 10
45.22661045688983
 20
16.39368899596655
 10
45.11776383585493
 20
16.53324485847855
 10
45.0308672838546
 20
16.68096899687867
 10
44.95917762845465
 20
16.83738279047856
 10
44.90703969725473
 20
16.99814141167866
 10
44.87445349025484
 20
17.16541727427869
 10
44.86359142125457
 20
17.33921037827866
 10
44.87445349025484
 20
17.51300348227863
 10
44.90703969725473
 20
17.68027934487867
 10
44.9570052146546
 20
17.84103796607854
 10
45.028694870055
 20
17.99527934587871
 10
45.11341900825482
 20
18.14083107047855
 10
45.21769487065466
 20
18.27986555367869
 10
45.33775983655323
 20
18.40864624374257
 10
45.47231914732492
 20
18.52786831308657
 10
45.62239818228408
 20
18.63735796860664
 10
45.78121901037502
 20
18.73381314132672
 10
45.94762590745449
 20
18.81645176227874
 10
46.13228108045496
 20
18.88814141767869
 10
46.32128108105462
 20
18.94245176267867
 10
46.51897073685449
 20
18.98372762487867
 10
46.72535004785459
 20
19.01196900427868
 10
46.93607418645479
 20
19.02065865947867
 10
48.17000522485478
 20
19.02065865947878
 10
48.17000522485478
 20
18.19514141547876
 10
46.92955694505508
 20
18.19514141547864
 10
46.78617763425473
 20
18.18645176027866
 10
46.65148797865458
 20
18.15934003605474
 10
46.52001349547845
 20
18.11936762213469
 10
46.39297073645503
 20
18.06696900127866
 10
46.28556659818286
 20
17.99988486313469
 10
46.18441901165442
 20
17.92358969047876
 10
46.09752245965501
 20
17.83452072467861
 10
46.02800521805465
 20
17.7367621036787
 10
48.17000522485478
 20
17.7367621036787
 10
48.17000522485478
 20
16.90907244587873
 10
46.06493625265466
 20
16.90907244587873
 10
46.13940659771879
 20
16.82356623871072
 10
46.22682452903063
 20
16.74379520397468
 10
46.3238879776145
 20
16.67618968651874
 10
46.43355142623886
 20
16.61527520356679
 10
46.54955832315863
 20
16.56730830686268
 10
46.67017073733496
 20
16.53298416882279
 10
46.80242728947905
 20
16.51099934116661
 10
46.93607418645479
 20
16.50065865147866
 10
48.17000522485478
 20
16.50065865147866
 10
48.17000522485478
 20
15.64255520047874
 10
46.95997073825492
 20
15.64255520047862
 10
46.74707418585512
 20
15.65124485567861
 10
46.54069487485503
 20
15.67514140747874
 10
46.34083280525465
 20
15.71858968347868
 10
46.14966039085493
 20
15.77507244227871
 10
45.96500521785492
 20
15.84893451147872
 10
45.79121211385472
 20
15.93365864967876
 10
45.63045349265485
 20
16.03141727067867
 10
45.48289445770388
 20
16.14203658137461
  0
LINE
  5
6E64
330
6DEA
100
AcDbEntity
  8
LW 5015-19-01
  6
VERDECKT
 62
     6
100
AcDbLine
 10
-7.334936490575728
 20
17.70448267190204
 30
0.0
 11
-11.66506350949748
 21
15.2044826719009
 31
0.0
  0
LINE
  5
6E65
330
6DEA
100
AcDbEntity
  8
LW 5015-19-01
  6
VERDECKT
 62
     6
100
AcDbLine
 10
-11.66506350948839
 20
-15.20448267190795
 30
0.0
 11
-7.334936490565269
 21
-17.70448267190659
 31
0.0
  0
LINE
  5
6E66
330
6DEA
100
AcDbEntity
  8
LW 5015-19-01
  6
VERDECKT
 62
     6
100
AcDbLine
 10
-8.748924226251801
 20
15.1535812713729
 30
0.0
 11
-7.334936490575728
 21
17.70448267190204
 31
0.0
  0
LINE
  5
6E67
330
6DEA
100
AcDbEntity
  8
LW 5015-19-01
  6
VERDECKT
 62
     6
100
AcDbLine
 10
-8.748924226251801
 20
15.1535812713729
 30
0.0
 11
-11.66506350949748
 21
15.2044826719009
 31
0.0
  0
LINE
  5
6E68
330
6DEA
100
AcDbEntity
  8
LW 5015-19-01
  6
VERDECKT
 62
     6
100
AcDbLine
 10
-14.60240647333148
 20
20.29210992451317
 30
0.0
 11
-11.66506350949748
 21
15.20448267190068
 31
0.0
  0
LINE
  5
6E69
330
6DEA
100
AcDbEntity
  8
LW 5015-19-01
  6
VERDECKT
 62
     6
100
AcDbLine
 10
-10.27227945441018
 20
22.79210992451453
 30
0.0
 11
-7.334936490575728
 21
17.70448267190204
 31
0.0
  0
LINE
  5
6E6A
330
6DEA
100
AcDbEntity
  8
LW 5015-19-01
  6
VERDECKT
 62
     6
100
AcDbLine
 10
-8.748924226242706
 20
-15.15358127137824
 30
0.0
 11
-11.66506350948839
 21
-15.20448267190795
 31
0.0
  0
LINE
  5
6E6B
330
6DEA
100
AcDbEntity
  8
LW 5015-19-01
  6
VERDECKT
 62
     6
100
AcDbLine
 10
-8.748924226242706
 20
-15.15358127137824
 30
0.0
 11
-7.334936490565269
 21
-17.70448267190659
 31
0.0
  0
LINE
  5
6E6C
330
6DEA
100
AcDbEntity
  8
LW 5015-19-01
  6
VERDECKT
 62
     6
100
AcDbLine
 10
-10.27227945439654
 20
-22.79210992452068
 30
0.0
 11
-7.334936490565269
 21
-17.70448267190659
 31
0.0
  0
LINE
  5
6E6D
330
6DEA
100
AcDbEntity
  8
LW 5015-19-01
  6
VERDECKT
 62
     6
100
AcDbLine
 10
-14.60240647331966
 20
-20.29210992452204
 30
0.0
 11
-11.66506350948839
 21
-15.20448267190795
 31
0.0
  0
LINE
  5
6E6E
330
6DEA
100
AcDbEntity
  8
LW 5015-19-01
  6
VERDECKT
 62
     6
100
AcDbLine
 10
18.99999999996907
 20
-2.499999999994543
 30
0.0
 11
18.99999999996771
 21
2.500000000005456
 31
0.0
  0
LINE
  5
6E6F
330
6DEA
100
AcDbEntity
  8
LW 5015-19-01
  6
VERDECKT
 62
     6
100
AcDbLine
 10
17.49784845239946
 20
0.0000000000051159
 30
0.0
 11
18.99999999996907
 21
-2.499999999994543
 31
0.0
  0
LINE
  5
6E70
330
6DEA
100
AcDbEntity
  8
LW 5015-19-01
  6
VERDECKT
 62
     6
100
AcDbLine
 10
17.49784845239946
 20
0.0000000000051159
 30
0.0
 11
18.99999999996771
 21
2.500000000005456
 31
0.0
  0
LINE
  5
6E71
330
6DEA
100
AcDbEntity
  8
LW 5015-19-01
  6
VERDECKT
 62
     6
100
AcDbLine
 10
24.87468592763298
 20
2.500000000007275
 30
0.0
 11
18.99999999996771
 21
2.500000000005456
 31
0.0
  0
LINE
  5
6E72
330
6DEA
100
AcDbEntity
  8
LW 5015-19-01
  6
VERDECKT
 62
     6
100
AcDbLine
 10
24.87468592763435
 20
-2.499999999992724
 30
0.0
 11
18.99999999996907
 21
-2.499999999994543
 31
0.0
  0
ARC
  5
6E73
330
6DEA
100
AcDbEntity
  8
LW 5015-19-01
100
AcDbCircle
 10
-0.0000000000304681
 20
0.0
 30
0.0
 40
25.0
100
AcDbArc
 50
143.1301023541742
 51
330.0000000000171
  0
ARC
  5
6E74
330
6DEA
100
AcDbEntity
  8
LW 5015-19-01
100
AcDbCircle
 10
-0.0000000000304681
 20
0.0
 30
0.0
 40
25.0
100
AcDbArc
 50
64.1580672368493
 51
115.8419327631834
  0
ARC
  5
6E75
330
6DEA
100
AcDbEntity
  8
LW 5015-19-01
100
AcDbCircle
 10
-0.0000000000285922
 20
-0.0000000000000568
 30
0.0
 40
18.99999999999993
100
AcDbArc
 50
221.1395104149165
 51
318.8604895851181
  0
CIRCLE
  5
6E76
330
6DEA
100
AcDbEntity
  8
LW 5015-19-01
100
AcDbCircle
 10
-0.0000000000009095
 20
0.0
 30
0.0
 40
10.00000000000001
  0
CIRCLE
  5
6E77
330
6DEA
100
AcDbEntity
  8
LW 5015-19-01
100
AcDbCircle
 10
-0.0000000000004547
 20
0.0
 30
0.0
 40
9.000000000000008
  0
ARC
  5
6E78
330
6DEA
100
AcDbEntity
  8
LW 5015-19-01
  6
VERDECKT
 62
     6
100
AcDbCircle
 10
-0.0000000000309228
 20
0.0000000000002274
 30
0.0
 40
24.99999999999958
100
AcDbArc
 50
115.8419327631827
 51
143.1301023541742
  0
ARC
  5
6E79
330
6DEA
100
AcDbEntity
  8
LW 5015-19-01
  6
VERDECKT
 62
     6
100
AcDbCircle
 10
-0.0000000000304681
 20
0.0
 30
0.0
 40
25.00000000000001
100
AcDbArc
 50
330.0000000000171
 51
64.1580672368493
  0
ARC
  5
6E7A
330
6DEA
100
AcDbEntity
  8
LW 5015-19-01
  6
VERDECKT
 62
     6
100
AcDbCircle
 10
-0.0000000000286491
 20
-0.0000000000000284
 30
0.0
 40
19.00000000000004
100
AcDbArc
 50
318.8604895851181
 51
221.1395104149165
  0
LINE
  5
6E7B
330
6DEA
100
AcDbEntity
  8
LW 5015-19-01
100
AcDbLine
 10
-10.10000000000764
 20
-2.000000000003069
 30
0.0
 11
-10.100000000009
 21
1.999999999996816
 31
0.0
  0
LINE
  5
6E7C
330
6DEA
100
AcDbEntity
  8
LW 5015-19-01
100
AcDbLine
 10
10.09999999999081
 20
2.000000000002955
 30
0.0
 11
10.09999999999218
 21
-1.999999999997044
 31
0.0
  0
LINE
  5
6E7D
330
6DEA
100
AcDbEntity
  8
LW 5015-19-01
  6
VERDECKT
 62
     6
100
AcDbLine
 10
59.99999999999094
 20
-9.660108542720223
 30
0.0
 11
59.99999999998229
 21
19.66010854275575
 31
0.0
  0
ARC
  5
6E7E
330
6DEA
100
AcDbEntity
  8
LW 5015-19-01
  6
VERDECKT
 62
     6
100
AcDbCircle
 10
61.99999999999093
 20
-9.660108542719655
 30
0.0
 40
2.0
100
AcDbArc
 50
180.0
 51
199.2900462192125
  0
ARC
  5
6E7F
330
6DEA
100
AcDbEntity
  8
LW 5015-19-01
  6
VERDECKT
 62
     6
100
AcDbCircle
 10
61.9999999999823
 20
19.6601085427562
 30
0.0
 40
2.0
100
AcDbArc
 50
160.7099537808255
 51
180.0
  0
LINE
  5
6E80
330
6DEA
100
AcDbEntity
  8
LW 5015-19-01
  6
VERDECKT
 62
     6
100
AcDbLine
 10
60.11228328725931
 20
-10.32080939217647
 30
0.0
 11
60.87499999999185
 21
-12.49999999998206
 31
0.0
  0
LINE
  5
6E81
330
6DEA
100
AcDbEntity
  8
LW 5015-19-01
  6
VERDECKT
 62
     6
100
AcDbLine
 10
60.11228328725022
 20
20.32080939221188
 30
0.0
 11
60.87499999998138
 21
22.50000000001794
 31
0.0
  0
LINE
  5
6E82
330
6DEA
100
AcDbEntity
  8
LW 5015-19-01
100
AcDbLine
 10
60.87499999999185
 20
-12.49999999998206
 30
0.0
 11
60.87499999998138
 21
22.50000000001794
 31
0.0
  0
LINE
  5
6E83
330
6DEA
100
AcDbEntity
  8
LW 5015-19-01
100
AcDbLine
 10
-20.00000000000864
 20
-11.00000000000591
 30
0.0
 11
-20.00000000001819
 21
20.99999999999409
 31
0.0
  0
LINE
  5
6E84
330
6DEA
100
AcDbEntity
  8
LW 5015-19-01
100
AcDbLine
 10
60.87499999998138
 20
22.50000000001794
 30
0.0
 11
-18.50000000001853
 21
22.49999999999454
 31
0.0
  0
LINE
  5
6E85
330
6DEA
100
AcDbEntity
  8
LW 5015-19-01
100
AcDbLine
 10
60.87499999999185
 20
-12.49999999998206
 30
0.0
 11
10.09999999999155
 21
-12.49999999999701
 31
0.0
  0
LINE
  5
6E86
330
6DEA
100
AcDbEntity
  8
LW 5015-19-01
100
AcDbLine
 10
-10.10000000000798
 20
-12.50000000000298
 30
0.0
 11
-18.50000000000818
 21
-12.50000000000546
 31
0.0
  0
ARC
  5
6E87
330
6DEA
100
AcDbEntity
  8
LW 5015-19-01
100
AcDbCircle
 10
-18.50000000000864
 20
-11.00000000000545
 30
0.0
 40
1.500000000000012
100
AcDbArc
 50
180.0
 51
270.000000000013
  0
ARC
  5
6E88
330
6DEA
100
AcDbEntity
  8
LW 5015-19-01
100
AcDbCircle
 10
-18.50000000001819
 20
20.99999999999454
 30
0.0
 40
1.500000000000012
100
AcDbArc
 50
90.00000000001303
 51
180.0
  0
LINE
  5
6E89
330
6DEA
100
AcDbEntity
  8
LW 5015-19-01
100
AcDbLine
 10
76.9999999999882
 20
-0.7730999999771769
 30
0.0
 11
76.99999999998502
 21
10.77310000002282
 31
0.0
  0
LINE
  5
6E8A
330
6DEA
100
AcDbEntity
  8
LW 5015-19-01
100
AcDbLine
 10
75.77309999998445
 20
12.00000000002248
 30
0.0
 11
75.77309999998854
 21
-1.999999999977518
 31
0.0
  0
LINE
  5
6E8B
330
6DEA
100
AcDbEntity
  8
LW 5015-19-01
100
AcDbLine
 10
76.99999999998502
 20
10.77310000002282
 30
0.0
 11
75.77309999998445
 21
12.00000000002248
 31
0.0
  0
LINE
  5
6E8C
330
6DEA
100
AcDbEntity
  8
LW 5015-19-01
100
AcDbLine
 10
76.9999999999882
 20
-0.7730999999771769
 30
0.0
 11
75.77309999998854
 21
-1.999999999977518
 31
0.0
  0
LINE
  5
6E8D
330
6DEA
100
AcDbEntity
  8
LW 5015-19-01
100
AcDbLine
 10
75.77309999998445
 20
12.00000000002248
 30
0.0
 11
60.87499999998456
 21
12.00000000001793
 31
0.0
  0
LINE
  5
6E8E
330
6DEA
100
AcDbEntity
  8
LW 5015-19-01
100
AcDbLine
 10
75.77309999998854
 20
-1.999999999977518
 30
0.0
 11
60.87499999998866
 21
-1.999999999982065
 31
0.0
  0
LINE
  5
6E8F
330
6DEA
100
AcDbEntity
  8
LW 5015-19-01
 62
     3
100
AcDbLine
 10
60.87499999998502
 20
10.79450000001802
 30
0.0
 11
76.97859999998494
 21
10.79450000002279
 31
0.0
  0
LINE
  5
6E90
330
6DEA
100
AcDbEntity
  8
LW 5015-19-01
 62
     3
100
AcDbLine
 10
76.97859999998811
 20
-0.794499999977262
 30
0.0
 11
60.8749999999882
 21
-0.7944999999820368
 31
0.0
  0
ARC
  5
6E91
330
6DEA
100
AcDbEntity
  8
LW 5015-19-01
  6
VERDECKT
 62
     6
100
AcDbCircle
 10
-0.0000000000363798
 20
0.0
 30
0.0
 40
32.50000000000001
100
AcDbArc
 50
337.3801350519766
 51
43.81306146042019
  0
ARC
  5
6E92
330
6DEA
100
AcDbEntity
  8
LW 5015-19-01
100
AcDbCircle
 10
-0.0000000000363798
 20
0.0
 30
0.0
 40
32.5
100
AcDbArc
 50
43.81306146042019
 51
337.3801350519766
  0
LINE
  5
6E93
330
6DEA
100
AcDbEntity
  8
LW 5015-19-01
100
AcDbLine
 10
60.87499999998138
 20
22.50000000001794
 30
0.0
 11
60.87499999999185
 21
-12.49999999998206
 31
0.0
  0
LINE
  5
6E94
330
6DEA
100
AcDbEntity
  8
LW 5015-19-01
  6
MITTE2
 62
     3
100
AcDbLine
 10
-14.93734296387214
 20
25.87223694343527
 30
0.0
 11
-7.00000000003547
 21
12.12435565298006
 31
0.0
  0
LINE
  5
6E95
330
6DEA
100
AcDbEntity
  8
LW 5015-19-01
  6
MITTE2
 62
     3
100
AcDbLine
 10
-14.93734296385673
 20
-25.87223694344425
 30
0.0
 11
-7.000000000028194
 21
-12.12435565298426
 31
0.0
  0
LINE
  5
6E96
330
6DEA
100
AcDbEntity
  8
LW 5015-19-01
  6
MITTE2
 62
     3
100
AcDbLine
 10
38.96970689545765
 20
0.0000000000173657
 30
0.0
 11
-38.96970689545856
 21
-0.0000000000173941
 31
0.0
  0
LINE
  5
6E97
330
6DEA
100
AcDbEntity
  8
LW 5015-19-01
  6
MITTE2
 62
     3
100
AcDbLine
 10
-0.0000000000068212
 20
22.6209724824912
 30
0.0
 11
0.0000000000063665
 21
-22.6209724824912
 31
0.0
  0
LINE
  5
6E98
330
6DEA
100
AcDbEntity
  8
LW 5015-19-01
100
AcDbLine
 10
10.09999999999127
 20
5.500000000003012
 30
0.0
 11
10.09999999999149
 21
-12.49999999999701
 31
0.0
  0
POLYLINE
  5
6E99
330
6DEA
100
AcDbEntity
  8
LW 5015-19-01
100
AcDb2dPolyline
 66
     1
 10
0.0
 20
0.0
 30
0.0
 70
   128
  0
VERTEX
  5
6E9A
330
6E99
100
AcDbEntity
  8
LW 5015-19-01
100
AcDbVertex
100
AcDb2dVertex
 10
10.10000228880972
 20
5.500000007453593
 30
0.0
  0
VERTEX
  5
6E9B
330
6E99
100
AcDbEntity
  8
LW 5015-19-01
100
AcDbVertex
100
AcDb2dVertex
 10
10.07782459258123
 20
6.152630448344325
 30
0.0
  0
VERTEX
  5
6E9C
330
6E99
100
AcDbEntity
  8
LW 5015-19-01
100
AcDbVertex
100
AcDb2dVertex
 10
10.01159191130682
 20
6.810174882414912
 30
0.0
  0
VERTEX
  5
6E9D
330
6E99
100
AcDbEntity
  8
LW 5015-19-01
100
AcDbVertex
100
AcDb2dVertex
 10
9.901742935171114
 20
7.467362880709742
 30
0.0
  0
VERTEX
  5
6E9E
330
6E99
100
AcDbEntity
  8
LW 5015-19-01
100
AcDbVertex
100
AcDb2dVertex
 10
9.748716354360567
 20
8.118924200537719
 30
0.0
  0
VERTEX
  5
6E9F
330
6E99
100
AcDbEntity
  8
LW 5015-19-01
100
AcDbVertex
100
AcDb2dVertex
 10
9.552946090688237
 20
8.759588897231083
 30
0.0
  0
VERTEX
  5
6EA0
330
6E99
100
AcDbEntity
  8
LW 5015-19-01
100
AcDbVertex
100
AcDb2dVertex
 10
9.314870834340354
 20
9.384086430075569
 30
0.0
  0
VERTEX
  5
6EA1
330
6E99
100
AcDbEntity
  8
LW 5015-19-01
100
AcDbVertex
100
AcDb2dVertex
 10
9.035677909840615
 20
9.987690150740434
 30
0.0
  0
VERTEX
  5
6EA2
330
6E99
100
AcDbEntity
  8
LW 5015-19-01
100
AcDbVertex
100
AcDb2dVertex
 10
8.718976974476845
 20
10.56716978550213
 30
0.0
  0
VERTEX
  5
6EA3
330
6E99
100
AcDbEntity
  8
LW 5015-19-01
100
AcDbVertex
100
AcDb2dVertex
 10
8.368849754322809
 20
11.11950039863831
 30
0.0
  0
VERTEX
  5
6EA4
330
6E99
100
AcDbEntity
  8
LW 5015-19-01
100
AcDbVertex
100
AcDb2dVertex
 10
7.989382743824535
 20
11.64165675640339
 30
0.0
  0
VERTEX
  5
6EA5
330
6E99
100
AcDbEntity
  8
LW 5015-19-01
100
AcDbVertex
100
AcDb2dVertex
 10
7.584662437427823
 20
12.13061451912148
 30
0.0
  0
VERTEX
  5
6EA6
330
6E99
100
AcDbEntity
  8
LW 5015-19-01
100
AcDbVertex
100
AcDb2dVertex
 10
7.158765792835311
 20
12.58334755897732
 30
0.0
  0
VERTEX
  5
6EA7
330
6E99
100
AcDbEntity
  8
LW 5015-19-01
100
AcDbVertex
100
AcDb2dVertex
 10
6.705121994006958
 20
13.00724446773728
 30
0.0
  0
VERTEX
  5
6EA8
330
6E99
100
AcDbEntity
  8
LW 5015-19-01
100
AcDbVertex
100
AcDb2dVertex
 10
6.216325759875871
 20
13.40922176838103
 30
0.0
  0
VERTEX
  5
6EA9
330
6E99
100
AcDbEntity
  8
LW 5015-19-01
100
AcDbVertex
100
AcDb2dVertex
 10
5.695304870593645
 20
13.78546059131787
 30
0.0
  0
VERTEX
  5
6EAA
330
6E99
100
AcDbEntity
  8
LW 5015-19-01
100
AcDbVertex
100
AcDb2dVertex
 10
5.144987106311191
 20
14.13214206695704
 30
0.0
  0
VERTEX
  5
6EAB
330
6E99
100
AcDbEntity
  8
LW 5015-19-01
100
AcDbVertex
100
AcDb2dVertex
 10
4.568305015551686
 20
14.44544792175423
 30
0.0
  0
VERTEX
  5
6EAC
330
6E99
100
AcDbEntity
  8
LW 5015-19-01
100
AcDbVertex
100
AcDb2dVertex
 10
3.968186378466725
 20
14.72155869007224
 30
0.0
  0
VERTEX
  5
6EAD
330
6E99
100
AcDbEntity
  8
LW 5015-19-01
100
AcDbVertex
100
AcDb2dVertex
 10
3.347783088671576
 20
14.95777785778136
 30
0.0
  0
VERTEX
  5
6EAE
330
6E99
100
AcDbEntity
  8
LW 5015-19-01
100
AcDbVertex
100
AcDb2dVertex
 10
2.711348533617638
 20
15.15290260315015
 30
0.0
  0
VERTEX
  5
6EAF
330
6E99
100
AcDbEntity
  8
LW 5015-19-01
100
AcDbVertex
100
AcDb2dVertex
 10
2.063431739794395
 20
15.3053522109991
 30
0.0
  0
VERTEX
  5
6EB0
330
6E99
100
AcDbEntity
  8
LW 5015-19-01
100
AcDbVertex
100
AcDb2dVertex
 10
1.408705711352013
 20
15.4138541221622
 30
0.0
  0
VERTEX
  5
6EB1
330
6E99
100
AcDbEntity
  8
LW 5015-19-01
100
AcDbVertex
100
AcDb2dVertex
 10
0.7524204254023062
 20
15.47855496406572
 30
0.0
  0
VERTEX
  5
6EB2
330
6E99
100
AcDbEntity
  8
LW 5015-19-01
100
AcDbVertex
100
AcDb2dVertex
 10
0.1000022888056264
 20
15.49999952316284
 30
0.0
  0
SEQEND
  5
6EB3
330
6E99
100
AcDbEntity
  8
LW 5015-19-01
  0
POLYLINE
  5
6EB4
330
6DEA
100
AcDbEntity
  8
LW 5015-19-01
100
AcDb2dPolyline
 66
     1
 10
0.0
 20
0.0
 30
0.0
 70
   128
  0
VERTEX
  5
6EB5
330
6EB4
100
AcDbEntity
  8
LW 5015-19-01
100
AcDbVertex
100
AcDb2dVertex
 10
-0.1000022888310923
 20
15.49999952316278
 30
0.0
  0
VERTEX
  5
6EB6
330
6EB4
100
AcDbEntity
  8
LW 5015-19-01
100
AcDbVertex
100
AcDb2dVertex
 10
-0.752420425427772
 20
15.47855496406526
 30
0.0
  0
VERTEX
  5
6EB7
330
6EB4
100
AcDbEntity
  8
LW 5015-19-01
100
AcDbVertex
100
AcDb2dVertex
 10
-1.408705711377479
 20
15.41385412216141
 30
0.0
  0
VERTEX
  5
6EB8
330
6EB4
100
AcDbEntity
  8
LW 5015-19-01
100
AcDbVertex
100
AcDb2dVertex
 10
-2.063431739819861
 20
15.30535221099791
 30
0.0
  0
VERTEX
  5
6EB9
330
6EB4
100
AcDbEntity
  8
LW 5015-19-01
100
AcDbVertex
100
AcDb2dVertex
 10
-2.711348533642876
 20
15.15290260314856
 30
0.0
  0
VERTEX
  5
6EBA
330
6EB4
100
AcDbEntity
  8
LW 5015-19-01
100
AcDbVertex
100
AcDb2dVertex
 10
-3.34778308869636
 20
14.95777785777943
 30
0.0
  0
VERTEX
  5
6EBB
330
6EB4
100
AcDbEntity
  8
LW 5015-19-01
100
AcDbVertex
100
AcDb2dVertex
 10
-3.968186378491282
 20
14.72155869006991
 30
0.0
  0
VERTEX
  5
6EBC
330
6EB4
100
AcDbEntity
  8
LW 5015-19-01
100
AcDbVertex
100
AcDb2dVertex
 10
-4.568305015576243
 20
14.44544792175151
 30
0.0
  0
VERTEX
  5
6EBD
330
6EB4
100
AcDbEntity
  8
LW 5015-19-01
100
AcDbVertex
100
AcDb2dVertex
 10
-5.144987106335065
 20
14.13214206695397
 30
0.0
  0
VERTEX
  5
6EBE
330
6EB4
100
AcDbEntity
  8
LW 5015-19-01
100
AcDbVertex
100
AcDb2dVertex
 10
-5.695304870617292
 20
13.78546059131452
 30
0.0
  0
VERTEX
  5
6EBF
330
6EB4
100
AcDbEntity
  8
LW 5015-19-01
100
AcDbVertex
100
AcDb2dVertex
 10
-6.216325759899291
 20
13.40922176837733
 30
0.0
  0
VERTEX
  5
6EC0
330
6EB4
100
AcDbEntity
  8
LW 5015-19-01
100
AcDbVertex
100
AcDb2dVertex
 10
-6.705121994029923
 20
13.0072444677333
 30
0.0
  0
VERTEX
  5
6EC1
330
6EB4
100
AcDbEntity
  8
LW 5015-19-01
100
AcDbVertex
100
AcDb2dVertex
 10
-7.15876579285782
 20
12.58334755897306
 30
0.0
  0
VERTEX
  5
6EC2
330
6EB4
100
AcDbEntity
  8
LW 5015-19-01
100
AcDbVertex
100
AcDb2dVertex
 10
-7.584662437449878
 20
12.13061451911699
 30
0.0
  0
VERTEX
  5
6EC3
330
6EB4
100
AcDbEntity
  8
LW 5015-19-01
100
AcDbVertex
100
AcDb2dVertex
 10
-7.989382743846135
 20
11.64165675639861
 30
0.0
  0
VERTEX
  5
6EC4
330
6EB4
100
AcDbEntity
  8
LW 5015-19-01
100
AcDbVertex
100
AcDb2dVertex
 10
-8.368849754343955
 20
11.11950039863336
 30
0.0
  0
VERTEX
  5
6EC5
330
6EB4
100
AcDbEntity
  8
LW 5015-19-01
100
AcDbVertex
100
AcDb2dVertex
 10
-8.718976974497763
 20
10.5671697854969
 30
0.0
  0
VERTEX
  5
6EC6
330
6EB4
100
AcDbEntity
  8
LW 5015-19-01
100
AcDbVertex
100
AcDb2dVertex
 10
-9.035677909861306
 20
9.987690150735033
 30
0.0
  0
VERTEX
  5
6EC7
330
6EB4
100
AcDbEntity
  8
LW 5015-19-01
100
AcDbVertex
100
AcDb2dVertex
 10
-9.31487083436059
 20
9.384086430069999
 30
0.0
  0
VERTEX
  5
6EC8
330
6EB4
100
AcDbEntity
  8
LW 5015-19-01
100
AcDbVertex
100
AcDb2dVertex
 10
-9.552946090707791
 20
8.759588897225398
 30
0.0
  0
VERTEX
  5
6EC9
330
6EB4
100
AcDbEntity
  8
LW 5015-19-01
100
AcDbVertex
100
AcDb2dVertex
 10
-9.748716354379666
 20
8.118924200531921
 30
0.0
  0
VERTEX
  5
6ECA
330
6EB4
100
AcDbEntity
  8
LW 5015-19-01
100
AcDbVertex
100
AcDb2dVertex
 10
-9.901742935189759
 20
7.467362880703888
 30
0.0
  0
VERTEX
  5
6ECB
330
6EB4
100
AcDbEntity
  8
LW 5015-19-01
100
AcDbVertex
100
AcDb2dVertex
 10
-10.01159191132501
 20
6.810174882408944
 30
0.0
  0
VERTEX
  5
6ECC
330
6EB4
100
AcDbEntity
  8
LW 5015-19-01
100
AcDbVertex
100
AcDb2dVertex
 10
-10.07782459259897
 20
6.152630448338356
 30
0.0
  0
VERTEX
  5
6ECD
330
6EB4
100
AcDbEntity
  8
LW 5015-19-01
100
AcDbVertex
100
AcDb2dVertex
 10
-10.100002288827
 20
5.500000007447567
 30
0.0
  0
SEQEND
  5
6ECE
330
6EB4
100
AcDbEntity
  8
LW 5015-19-01
  0
LINE
  5
6ECF
330
6DEA
100
AcDbEntity
  8
LW 5015-19-01
100
AcDbLine
 10
-10.10000000000798
 20
-12.50000000000298
 30
0.0
 11
-10.10000000000855
 21
5.499999999997044
 31
0.0
  0
LINE
  5
6ED0
330
6DEA
100
AcDbEntity
  8
LW 5015-19-01
  6
MITTE2
 62
     3
100
AcDbLine
 10
80.54152403631773
 20
5.000000000023845
 30
0.0
 11
-37.06495985656057
 21
4.999999999989086
 31
0.0
  0
HATCH
  5
6ED1
330
6DEA
100
AcDbEntity
  8
LW 5015-19-01
 62
     1
100
AcDbHatch
 10
0.0
 20
0.0
 30
0.0
210
0.0
220
0.0
230
1.0
  2
SOLID
 70
     1
 71
     0
 91
        5
 92
        7
 72
     0
 73
     1
 93
       76
 10
40.23351265046312
 20
18.15603796707847
 10
40.26537147983572
 20
18.20761892892022
 10
40.38352960406746
 20
18.35886132793615
 10
40.51800767927988
 20
18.4992854581987
 10
40.66402758574122
 20
18.62767001991204
 10
40.82769638182344
 20
18.74457630282785
 10
41.00308333518796
 20
18.84675418464945
 10
41.18483626778879
 20
18.93810586423234
 10
41.36600520325418
 20
19.00762417667846
 10
39.10886726505442
 20
19.00762417667846
 10
38.89597071265416
 20
18.99893452147847
 10
38.69393622925418
 20
18.97286555587851
 10
38.49841898725435
 20
18.9315896936784
 10
38.31376381425434
 20
18.87727934867843
 10
38.13779829645409
 20
18.80776210707842
 10
37.97052243385451
 20
18.72521038267831
 10
37.81995417130702
 20
18.62988486513444
 10
37.67724657085409
 20
18.52317589927833
 10
37.55180531528367
 20
18.40412762303827
 10
37.44054036320631
 20
18.27586831228638
 10
37.34052243185443
 20
18.13865865667839
 10
37.25797070745421
 20
17.99310693207832
 10
37.19497070725402
 20
17.83886555227826
 10
37.14500518985415
 20
17.67810693107839
 10
37.11676381045436
 20
17.51300348227841
 10
37.1080741552546
 20
17.33921037827844
 10
37.11893622425441
 20
17.16541727427824
 10
37.14935001745426
 20
16.99814141167832
 10
37.20366036245423
 20
16.83738279047833
 10
37.27317760405413
 20
16.68096899687833
 10
37.36224656985451
 20
16.53324485847832
 10
37.4686948460544
 20
16.39203796147848
 10
37.59139277747863
 20
16.26082416795833
 10
37.72759182618666
 20
16.13969037447049
 10
37.87493622665443
 20
16.02924485687839
 10
38.0356948478543
 20
15.93148623587848
 10
38.21132146910168
 20
15.84658830457437
 10
38.391970711054
 20
15.77290002847843
 10
38.58314312545417
 20
15.7164172696784
 10
38.78300519505456
 20
15.67296899367846
 10
38.99155691985425
 20
15.64690002807839
 10
39.20228105845445
 20
15.6382103728784
 10
41.32145214420688
 20
15.63821037287852
 10
41.16090828015467
 20
15.70128117661346
 10
40.9773441363518
 20
15.79190145013621
 10
40.80887773018185
 20
15.89643114306767
 10
40.64604483542143
 20
16.01204938149311
 10
40.50213246705107
 20
16.14183897803303
 10
40.37469657356678
 20
16.28119266126162
 10
40.26099121882317
 20
16.43168090597413
 10
40.20901998737463
 20
16.51586554807846
 10
39.18055692045437
 20
16.51586554807835
 10
39.04844809244878
 20
16.52342554810246
 10
38.91769485065424
 20
16.54375934127046
 10
38.78952243645426
 20
16.57669313447837
 10
38.6743845050546
 20
16.62231382427848
 10
38.56943953920427
 20
16.67879658307839
 10
38.47128988372015
 20
16.74640210053434
 10
38.38110864205419
 20
16.82434830767835
 10
38.30941898665469
 20
16.90907244587839
 10
40.0369403009131
 20
16.90907244587851
 10
40.02635583364008
 20
16.94170788663672
 10
39.99024402567602
 20
17.12708183418789
 10
39.97820037289375
 20
17.31737154813862
 10
39.99022204532366
 20
17.5121226414937
 10
40.0265277669987
 20
17.69849201276014
 10
40.04312646967355
 20
17.7476241726784
 10
38.27248795205424
 20
17.7476241726784
 10
38.34200519365413
 20
17.84321037987837
 10
38.42455691805435
 20
17.92576210427836
 10
38.51964781490778
 20
17.99562693208639
 10
38.62224657385423
 20
18.05393451847846
 10
38.74093857423077
 20
18.09790417379037
 10
38.86338450565427
 20
18.1299690014784
 10
39.00024657505446
 20
18.14952072567843
 10
39.14362588585436
 20
18.15603796707836
 97
        0
 92
        7
 72
     0
 73
     1
 93
       72
 10
41.96197651549073
 20
18.14143934634245
 10
42.08483955036399
 20
18.15951382915847
 10
42.20890175765407
 20
18.16472762227858
 10
43.47759141685446
 20
18.16472762227858
 10
42.63035003485447
 20
17.3500724472787
 10
44.39652245425441
 20
15.63169313147858
 10
45.71517763085421
 20
15.63169313147858
 10
44.0011431426542
 20
17.37396899907861
 10
45.68259142385431
 20
19.00762417667869
 10
42.24366037845402
 20
19.00762417667846
 10
42.03567348124216
 20
18.99684900423057
 10
41.82895527368919
 20
18.9713883144945
 10
41.6245224454542
 20
18.93158969367852
 10
41.43117761725398
 20
18.87510693487849
 10
41.24435003045391
 20
18.80341727947842
 10
41.07318989197984
 20
18.71738969299844
 10
40.90762589145424
 20
18.62093452027847
 10
40.75555692545413
 20
18.51231383027851
 10
40.61985926985108
 20
18.39300486438247
 10
40.49486726945406
 20
18.26248624327849
 10
40.38624657945411
 20
18.12345176007847
 10
40.29500519985458
 20
17.97572762167857
 10
40.22331554445417
 20
17.82148624187852
 10
40.1690051994542
 20
17.66072762067841
 10
40.1364189924543
 20
17.49345175807838
 10
40.12555692345403
 20
17.31748624027835
 10
40.1364189924543
 20
17.14586555007844
 10
40.1690051994542
 20
16.97858968747852
 10
40.22114313065458
 20
16.81783106627853
 10
40.29066037225447
 20
16.66358968647847
 10
40.38250133806331
 20
16.51482278945463
 10
40.48788078667349
 20
16.37535382349443
 10
40.60588630428947
 20
16.24631244377457
 10
40.73817761505461
 20
16.12700347787853
 10
40.89029871898538
 20
16.01899106374247
 10
41.04883278845455
 20
15.92062416687844
 10
41.22045347865468
 20
15.83590002867851
 10
41.40293623785464
 20
15.76421037327844
 10
41.59716741088459
 20
15.71016071793446
 10
41.79397072185429
 20
15.66645175227853
 10
42.00252244665444
 20
15.64038278667857
 10
42.21324658525418
 20
15.63169313147858
 10
44.11628107405431
 20
15.63169313147858
 10
43.22993624365426
 20
16.50500347907854
 10
42.21324658525418
 20
16.50500347907854
 10
42.14657955055963
 20
16.50875077201789
 10
42.04563182610172
 20
16.51873313429445
 10
41.92549734296153
 20
16.54019658263854
 10
41.80837817017573
 20
16.57452072067843
 10
41.70688299744006
 20
16.61544899667052
 10
41.65074782484817
 20
16.6436034795185
 10
41.59706313502238
 20
16.67618968651862
 10
41.46450244494599
 20
16.77551244545447
 10
41.39090106540243
 20
16.84555106636657
 10
41.33583472039981
 20
16.91341727347839
 10
41.28712920300358
 20
16.98597589439845
 10
41.24776506494754
 20
17.06314003257438
 10
41.218341892441
 20
17.1445621017985
 10
41.19764313375435
 20
17.23171934345458
 10
41.19012658200654
 20
17.32104899891038
 10
41.19148216821758
 20
17.38335382669442
 10
41.19748671996103
 20
17.44548486137438
 10
41.20964354758553
 20
17.50865865467853
 10
41.22785706488457
 20
17.57035520659855
 10
41.2715052029539
 20
17.66906968967038
 10
41.31303306515519
 20
17.73693589678243
 10
41.37611127225182
 20
17.81496900047847
 10
41.50551321261673
 20
17.9414917375322
 10
41.56478106595431
 20
17.98154969066257
 10
41.64107623861037
 20
18.02586693218239
 10
41.72509651473911
 20
18.0680117599025
 10
41.84163348062656
 20
18.11085176003854
 97
        0
 92
        7
 72
     0
 73
     1
 93
       57
 10
46.52001349547845
 20
18.1193676221348
 10
46.65148797865413
 20
18.15934003605474
 10
46.78617763425427
 20
18.18645176027877
 10
46.92955694505417
 20
18.19514141547864
 10
48.17000522485432
 20
18.19514141547876
 10
48.17000522485432
 20
19.02065865947878
 10
46.93607418645433
 20
19.02065865947867
 10
46.72535004785413
 20
19.01196900427868
 10
46.51897073685404
 20
18.98372762487867
 10
46.32128108105416
 20
18.94245176267867
 10
46.1322810804545
 20
18.88814141767869
 10
45.94762590745403
 20
18.81645176227874
 10
45.78121901037412
 20
18.7338131413266
 10
45.62239818228363
 20
18.63735796860664
 10
45.47231914732447
 20
18.52786831308657
 10
45.33775983655277
 20
18.40864624374268
 10
45.21769487065421
 20
18.27986555367869
 10
45.11341900825437
 20
18.14083107047867
 10
45.02869487005455
 20
17.9952793458786
 10
44.95700521465415
 20
17.84103796607854
 10
44.90703969725427
 20
17.68027934487867
 10
44.87445349025438
 20
17.51300348227875
 10
44.86359142125411
 20
17.33921037827866
 10
44.87445349025438
 20
17.16541727427869
 10
44.90703969725427
 20
16.99814141167866
 10
44.9591776284542
 20
16.83738279047856
 10
45.03086728385414
 20
16.68096899687867
 10
45.11776383585448
 20
16.53324485847867
 10
45.22661045688937
 20
16.39368899596667
 10
45.34646687106305
 20
16.26334416796675
 10
45.48289445770342
 20
16.14203658137461
 10
45.63045349265439
 20
16.03141727067867
 10
45.79121211385427
 20
15.93365864967853
 10
45.96500521785446
 20
15.84893451147872
 10
46.14966039085447
 20
15.77507244227871
 10
46.34083280525419
 20
15.71858968347868
 10
46.54069487485458
 20
15.67514140747874
 10
46.74707418585467
 20
15.65124485567861
 10
46.95997073825447
 20
15.64255520047862
 10
48.17000522485432
 20
15.64255520047874
 10
48.17000522485432
 20
16.50065865147866
 10
46.93607418645433
 20
16.50065865147866
 10
46.8024272894786
 20
16.51099934116661
 10
46.67017073733449
 20
16.53298416882279
 10
46.54955832315818
 20
16.56730830686268
 10
46.43355142623841
 20
16.61527520356679
 10
46.32388797761405
 20
16.67618968651874
 10
46.22682452903018
 20
16.74379520397468
 10
46.13940659771833
 20
16.82356623871072
 10
46.06493625265421
 20
16.90907244587873
 10
48.17000522485432
 20
16.90907244587873
 10
48.17000522485432
 20
17.7367621036787
 10
46.0280052180542
 20
17.7367621036787
 10
46.09752245965455
 20
17.83452072467861
 10
46.18441901165397
 20
17.92358969047853
 10
46.28556659818241
 20
17.99988486313469
 10
46.39297073645457
 20
18.06696900127866
 97
        0
 92
        7
 72
     0
 73
     1
 93
        6
 10
48.40028108765409
 20
19.0076241766788
 10
48.40028108765409
 20
15.63821037287874
 10
50.63786730165475
 20
15.63821037287886
 10
50.63786730165429
 20
16.50500347907888
 10
49.42348798745434
 20
16.50500347907888
 10
49.42348798745434
 20
19.0076241766788
 97
        0
 92
        7
 72
     0
 73
     1
 93
        8
 10
49.65593626405416
 20
19.0076241766788
 10
49.65593626405416
 20
18.18210693267878
 10
50.8898673024546
 20
18.18210693267889
 10
50.8898673024546
 20
15.63169313147881
 10
51.91524661605445
 20
15.63169313147881
 10
51.91524661605445
 20
18.18210693267878
 10
53.15786730965419
 20
18.18210693267889
 10
53.15786730965419
 20
19.00762417667891
 97
        0
 75
     0
 76
     1
 47
0.0142553043587597
 98
        5
 10
39.54317277652945
 20
18.56517450708935
 10
41.81066998987216
 20
18.42262152208371
 10
46.30288172207338
 20
18.47964269463153
 10
49.02673080590512
 20
18.72198291932392
 10
50.43856878813176
 20
18.62219578691059
450
        0
451
        0
460
0.0
461
0.0
452
        0
462
0.0
453
        0
470

  0
LWPOLYLINE
  5
6ED2
330
6DEA
100
AcDbEntity
  8
LW 5015-19-01
 62
     1
100
AcDbPolyline
 90
        8
 70
     1
 43
0.0
 10
51.91524661605445
 20
18.18210693267878
 10
51.91524661605445
 20
15.63169313147881
 10
50.8898673024546
 20
15.63169313147881
 10
50.8898673024546
 20
18.18210693267889
 10
49.65593626405416
 20
18.18210693267878
 10
49.65593626405416
 20
19.0076241766788
 10
53.15786730965419
 20
19.00762417667891
 10
53.15786730965419
 20
18.18210693267889
  0
LWPOLYLINE
  5
6ED3
330
6DEA
100
AcDbEntity
  8
LW 5015-19-01
 62
     1
100
AcDbPolyline
 90
       73
 70
     1
 43
0.0
 10
42.21324658525418
 20
16.50500347907854
 10
43.22993624365426
 20
16.50500347907854
 10
44.11628107405431
 20
15.63169313147858
 10
42.21324658525418
 20
15.63169313147847
 10
42.00252244665444
 20
15.64038278667857
 10
41.79397072185429
 20
15.66645175227853
 10
41.59716741088459
 20
15.71016071793446
 10
41.40293623785464
 20
15.76421037327844
 10
41.22045347865468
 20
15.83590002867851
 10
41.04883278845455
 20
15.92062416687844
 10
40.89029871898538
 20
16.01899106374247
 10
40.73817761505461
 20
16.12700347787853
 10
40.60588630428947
 20
16.24631244377445
 10
40.48788078667349
 20
16.37535382349443
 10
40.38250133806331
 20
16.51482278945451
 10
40.29066037225447
 20
16.66358968647847
 10
40.22114313065458
 20
16.81783106627853
 10
40.1690051994542
 20
16.97858968747852
 10
40.1364189924543
 20
17.14586555007844
 10
40.12555692345403
 20
17.31748624027847
 10
40.1364189924543
 20
17.49345175807838
 10
40.1690051994542
 20
17.66072762067841
 10
40.22331554445417
 20
17.82148624187852
 10
40.29500519985458
 20
17.97572762167846
 10
40.38624657945411
 20
18.12345176007847
 10
40.49486726945406
 20
18.26248624327849
 10
40.61985926985108
 20
18.39300486438259
 10
40.75555692545413
 20
18.51231383027851
 10
40.90762589145424
 20
18.62093452027847
 10
41.07318989197984
 20
18.71738969299844
 10
41.24435003045391
 20
18.80341727947842
 10
41.43117761725398
 20
18.87510693487849
 10
41.6245224454542
 20
18.93158969367863
 10
41.82895527368919
 20
18.9713883144945
 10
42.03567348124216
 20
18.99684900423057
 10
42.24366037845402
 20
19.00762417667846
 10
45.68259142385431
 20
19.00762417667869
 10
44.0011431426542
 20
17.37396899907861
 10
45.71517763085421
 20
15.63169313147858
 10
44.39652245425441
 20
15.63169313147858
 10
42.63035003485447
 20
17.3500724472787
 10
43.47759141685446
 20
18.16472762227858
 10
42.20890175765407
 20
18.16472762227858
 10
42.08483955036399
 20
18.15951382915847
 10
41.96197651549073
 20
18.14143934634245
 10
41.84163348062656
 20
18.11085176003854
 10
41.72509651473911
 20
18.06801175990239
 10
41.64107623860991
 20
18.02586693218251
 10
41.56478106595431
 20
17.98154969066257
 10
41.52453927272335
 20
17.95435106988651
 10
41.48702603122501
 20
17.92341589737447
 10
41.37611127225182
 20
17.81496900047847
 10
41.31303306515519
 20
17.73693589678243
 10
41.27150520295436
 20
17.66906968967049
 10
41.22785706488457
 20
17.57035520659855
 10
41.20964354758553
 20
17.50865865467853
 10
41.19748671996103
 20
17.44548486137449
 10
41.19148216821758
 20
17.38335382669453
 10
41.19012658200654
 20
17.3210489989105
 10
41.19764313375435
 20
17.23171934345458
 10
41.218341892441
 20
17.1445621017985
 10
41.24776506494799
 20
17.06314003257449
 10
41.28712920300358
 20
16.98597589439845
 10
41.33583472039981
 20
16.9134172734785
 10
41.39090106540243
 20
16.84555106636657
 10
41.46450244494599
 20
16.77551244545447
 10
41.59706313502238
 20
16.67618968651862
 10
41.65074782484817
 20
16.6436034795185
 10
41.70688299744006
 20
16.61544899667052
 10
41.80837817017573
 20
16.57452072067843
 10
41.92549734296153
 20
16.54019658263854
 10
42.04563182610172
 20
16.51873313429445
 10
42.14657955055963
 20
16.50875077201789
  0
LWPOLYLINE
  5
6ED4
330
6DEA
100
AcDbEntity
  8
LW 5015-19-01
 62
     1
100
AcDbPolyline
 90
       76
 70
     1
 43
0.0
 10
41.00308333518796
 20
18.84675418464945
 10
40.82769638182344
 20
18.74457630282774
 10
40.66402758574122
 20
18.62767001991204
 10
40.51800767927988
 20
18.4992854581987
 10
40.38352960406746
 20
18.35886132793615
 10
40.26537147983572
 20
18.20761892892022
 10
40.23351265046312
 20
18.15603796707847
 10
39.14362588585436
 20
18.15603796707847
 10
39.00024657505446
 20
18.14952072567843
 10
38.86338450565427
 20
18.1299690014784
 10
38.74093857423077
 20
18.09790417379037
 10
38.62224657385423
 20
18.05393451847846
 10
38.51964781490778
 20
17.99562693208639
 10
38.42455691805435
 20
17.92576210427836
 10
38.34200519365413
 20
17.84321037987837
 10
38.27248795205424
 20
17.7476241726784
 10
40.04312646967355
 20
17.7476241726784
 10
40.0265277669987
 20
17.69849201276014
 10
39.99022204532321
 20
17.51212264149347
 10
39.97820037289375
 20
17.31737154813862
 10
39.99024402567602
 20
17.12708183418789
 10
40.02635583364053
 20
16.94170788663683
 10
40.0369403009131
 20
16.90907244587851
 10
38.30941898665469
 20
16.90907244587839
 10
38.38110864205419
 20
16.82434830767835
 10
38.47128988372015
 20
16.74640210053434
 10
38.56943953920427
 20
16.67879658307839
 10
38.6743845050546
 20
16.62231382427848
 10
38.78952243645426
 20
16.57669313447849
 10
38.91769485065424
 20
16.54375934127046
 10
39.04844809244878
 20
16.52342554810246
 10
39.18055692045437
 20
16.51586554807835
 10
40.20901998737463
 20
16.51586554807846
 10
40.26099121882317
 20
16.43168090597413
 10
40.37469657356678
 20
16.28119266126162
 10
40.50213246705107
 20
16.14183897803303
 10
40.64604483542143
 20
16.01204938149334
 10
40.80887773018185
 20
15.89643114306767
 10
40.9773441363518
 20
15.79190145013621
 10
41.16090828015467
 20
15.70128117661346
 10
41.32145214420688
 20
15.63821037287852
 10
39.20228105845445
 20
15.63821037287829
 10
38.99155691985425
 20
15.64690002807839
 10
38.78300519505456
 20
15.67296899367846
 10
38.58314312545417
 20
15.7164172696784
 10
38.39197071105445
 20
15.77290002847832
 10
38.21132146910122
 20
15.84658830457437
 10
38.0356948478543
 20
15.93148623587848
 10
37.87493622665443
 20
16.02924485687839
 10
37.72759182618666
 20
16.13969037447037
 10
37.59139277747863
 20
16.26082416795833
 10
37.4686948460544
 20
16.39203796147836
 10
37.36224656985405
 20
16.53324485847832
 10
37.27317760405413
 20
16.68096899687833
 10
37.20366036245423
 20
16.83738279047833
 10
37.14935001745426
 20
16.99814141167832
 10
37.11893622425441
 20
17.16541727427847
 10
37.1080741552546
 20
17.33921037827832
 10
37.1167638104539
 20
17.51300348227829
 10
37.14500518985415
 20
17.67810693107839
 10
37.19497070725402
 20
17.83886555227826
 10
37.25797070745421
 20
17.99310693207832
 10
37.34052243185443
 20
18.13865865667839
 10
37.44054036320631
 20
18.27586831228638
 10
37.55180531528367
 20
18.40412762303839
 10
37.67724657085409
 20
18.52317589927833
 10
37.81995417130702
 20
18.62988486513444
 10
37.97052243385451
 20
18.72521038267842
 10
38.13779829645455
 20
18.8077621070783
 10
38.31376381425434
 20
18.87727934867843
 10
38.49841898725435
 20
18.9315896936784
 10
38.69393622925418
 20
18.97286555587851
 10
38.89597071265416
 20
18.99893452147847
 10
39.10886726505442
 20
19.00762417667846
 10
41.36600520325418
 20
19.00762417667857
 10
41.18483626778879
 20
18.93810586423234
  0
LWPOLYLINE
  5
6ED5
330
6DEA
100
AcDbEntity
  8
LW 5015-19-01
 62
     1
100
AcDbPolyline
 90
        6
 70
     1
 43
0.0
 10
50.63786730165475
 20
15.63821037287886
 10
48.40028108765409
 20
15.63821037287874
 10
48.40028108765409
 20
19.0076241766788
 10
49.42348798745434
 20
19.0076241766788
 10
49.42348798745434
 20
16.50500347907888
 10
50.63786730165429
 20
16.50500347907888
  0
LWPOLYLINE
  5
6ED6
330
6DEA
100
AcDbEntity
  8
LW 5015-19-01
 62
     1
100
AcDbPolyline
 90
       57
 70
     1
 43
0.0
 10
45.34646687106305
 20
16.26334416796675
 10
45.22661045688937
 20
16.39368899596655
 10
45.11776383585448
 20
16.53324485847855
 10
45.03086728385414
 20
16.68096899687867
 10
44.9591776284542
 20
16.83738279047856
 10
44.90703969725427
 20
16.99814141167866
 10
44.87445349025438
 20
17.16541727427869
 10
44.86359142125411
 20
17.33921037827866
 10
44.87445349025438
 20
17.51300348227863
 10
44.90703969725427
 20
17.68027934487867
 10
44.95700521465415
 20
17.84103796607854
 10
45.02869487005455
 20
17.99527934587871
 10
45.11341900825437
 20
18.14083107047855
 10
45.21769487065421
 20
18.27986555367869
 10
45.33775983655277
 20
18.40864624374257
 10
45.47231914732447
 20
18.52786831308657
 10
45.62239818228363
 20
18.63735796860664
 10
45.78121901037457
 20
18.73381314132672
 10
45.94762590745403
 20
18.81645176227874
 10
46.1322810804545
 20
18.88814141767869
 10
46.32128108105416
 20
18.94245176267867
 10
46.51897073685404
 20
18.98372762487867
 10
46.72535004785413
 20
19.01196900427868
 10
46.93607418645433
 20
19.02065865947867
 10
48.17000522485432
 20
19.02065865947878
 10
48.17000522485432
 20
18.19514141547876
 10
46.92955694505463
 20
18.19514141547864
 10
46.78617763425427
 20
18.18645176027866
 10
46.65148797865413
 20
18.15934003605474
 10
46.52001349547799
 20
18.11936762213469
 10
46.39297073645457
 20
18.06696900127866
 10
46.28556659818241
 20
17.99988486313469
 10
46.18441901165397
 20
17.92358969047876
 10
46.09752245965455
 20
17.83452072467861
 10
46.0280052180542
 20
17.7367621036787
 10
48.17000522485432
 20
17.7367621036787
 10
48.17000522485432
 20
16.90907244587873
 10
46.06493625265421
 20
16.90907244587873
 10
46.13940659771833
 20
16.82356623871072
 10
46.22682452903018
 20
16.74379520397468
 10
46.32388797761405
 20
16.67618968651874
 10
46.43355142623841
 20
16.61527520356679
 10
46.54955832315818
 20
16.56730830686268
 10
46.67017073733449
 20
16.53298416882279
 10
46.8024272894786
 20
16.51099934116661
 10
46.93607418645433
 20
16.50065865147866
 10
48.17000522485432
 20
16.50065865147866
 10
48.17000522485432
 20
15.64255520047874
 10
46.95997073825447
 20
15.64255520047862
 10
46.74707418585467
 20
15.65124485567861
 10
46.54069487485458
 20
15.67514140747874
 10
46.34083280525419
 20
15.71858968347868
 10
46.14966039085447
 20
15.77507244227871
 10
45.96500521785446
 20
15.84893451147872
 10
45.79121211385427
 20
15.93365864967876
 10
45.63045349265439
 20
16.03141727067867
 10
45.48289445770342
 20
16.14203658137461
  0
ENDBLK
  5
6DEC
330
6DEA
100
AcDbEntity
  8
0
100
AcDbBlockEnd
  0
ENDSEC
  0
SECTION
  2
ENTITIES
  0
INSERT
  5
6C46
330
23
100
AcDbEntity
  8
0
100
AcDbBlockReference
  2
LW 5015-19-01_a
 10
0.0
 20
0.0
 30
0.0
  0
INSERT
  5
6D6E
330
23
100
AcDbEntity
  8
0
100
AcDbBlockReference
  2
LW 5015-19-01_b
 10
0.000000000165528
 20
207.0345158723449
 30
0.0
  0
INSERT
  5
6DE9
330
23
100
AcDbEntity
  8
0
100
AcDbBlockReference
  2
LW 5015-19-01_c
 10
303.6796665410889
 20
207.0345158723449
 30
0.0
  0
INSERT
  5
6ED7
330
23
100
AcDbEntity
  8
0
100
AcDbBlockReference
  2
LW 5015-19-01_d
 10
-303.6796665407574
 20
207.034515872345
 30
0.0
  0
ENDSEC
  0
SECTION
  2
OBJECTS
  0
DICTIONARY
  5
C
330
0
100
AcDbDictionary
281
     1
  3
ACAD_COLOR
350
1C
  3
ACAD_GROUP
350
D
  3
ACAD_LAYOUT
350
1A
  3
ACAD_MATERIAL
350
1B
  3
ACAD_MLINESTYLE
350
17
  3
ACAD_PLOTSETTINGS
350
19
  3
ACAD_PLOTSTYLENAME
350
E
  3
ACAD_TABLESTYLE
350
1D
  3
AcDbVariableDictionary
350
1064
  0
DICTIONARY
  5
16C1
330
2
100
AcDbDictionary
280
     1
281
     1
  3
ACAD_LAYERFILTERS
360
6A40
  3
ACLYDICTIONARY
360
6A3F
  0
DICTIONARY
  5
15A2
330
23
100
AcDbDictionary
280
     1
281
     1
  3
ACAD_SORTENTS
360
15A3
  0
DICTIONARY
  5
106F
330
106E
100
AcDbDictionary
280
     1
281
     1
  3
ACAD_SORTENTS
360
1070
  0
DICTIONARY
  5
1C
102
{ACAD_REACTORS
330
C
102
}
330
C
100
AcDbDictionary
281
     1
  0
DICTIONARY
  5
D
102
{ACAD_REACTORS
330
C
102
}
330
C
100
AcDbDictionary
281
     1
  0
DICTIONARY
  5
1A
102
{ACAD_REACTORS
330
C
102
}
330
C
100
AcDbDictionary
281
     1
  3
Layout1
350
22
  3
Layout2
350
2A
  3
Model
350
26
  0
DICTIONARY
  5
1B
102
{ACAD_REACTORS
330
C
102
}
330
C
100
AcDbDictionary
281
     1
  0
DICTIONARY
  5
17
102
{ACAD_REACTORS
330
C
102
}
330
C
100
AcDbDictionary
281
     1
  3
Standard
350
18
  0
DICTIONARY
  5
19
102
{ACAD_REACTORS
330
C
102
}
330
C
100
AcDbDictionary
281
     1
  0
ACDBDICTIONARYWDFLT
  5
E
102
{ACAD_REACTORS
330
C
102
}
330
C
100
AcDbDictionary
281
     1
  3
Normal
350
F
100
AcDbDictionaryWithDefault
340
F
  0
DICTIONARY
  5
1D
102
{ACAD_REACTORS
330
C
102
}
330
C
100
AcDbDictionary
281
     1
  3
Standard
350
1E
  0
DICTIONARY
  5
1064
102
{ACAD_REACTORS
330
C
102
}
330
C
100
AcDbDictionary
281
     1
  3
CTABLESTYLE
350
1065
  3
DIMASSOC
350
18F4
  3
HIDETEXT
350
18F3
  3
PROJECTNAME
350
18F5
  0
DICTIONARY
  5
6A40
102
{ACAD_REACTORS
330
16C1
102
}
330
16C1
100
AcDbDictionary
281
     1
  0
DICTIONARY
  5
6A3F
102
{ACAD_REACTORS
330
16C1
102
}
330
16C1
100
AcDbDictionary
281
     1
1001
ACAD
1000
<All
  0
SORTENTSTABLE
  5
15A3
102
{ACAD_REACTORS
330
15A2
102
}
330
15A2
100
AcDbSortentsTable
330
23
  0
SORTENTSTABLE
  5
1070
102
{ACAD_REACTORS
330
106F
102
}
330
106F
100
AcDbSortentsTable
330
106E
  0
LAYOUT
  5
22
102
{ACAD_REACTORS
330
1A
102
}
330
1A
100
AcDbPlotSettings
  1

  2

  4

  6

 40
0.0
 41
0.0
 42
0.0
 43
0.0
 44
0.0
 45
0.0
 46
0.0
 47
0.0
 48
0.0
 49
0.0
140
0.0
141
0.0
142
1.0
143
1.0
 70
   688
 72
     0
 73
     0
 74
     5
  7

 75
    16
147
1.0
 76
     0
 77
     2
 78
   300
148
0.0
149
0.0
100
AcDbLayout
  1
Layout1
 70
     1
 71
     1
 10
0.0
 20
0.0
 11
2100.0
 21
1485.0
 12
0.0
 22
0.0
 32
0.0
 14
0.0
 24
0.0
 34
0.0
 15
2100.0
 25
1485.0
 35
0.0
146
0.0
 13
0.0
 23
0.0
 33
0.0
 16
1.0
 26
0.0
 36
0.0
 17
0.0
 27
1.0
 37
0.0
 76
     0
330
1F
  0
LAYOUT
  5
2A
102
{ACAD_REACTORS
330
1A
102
}
330
1A
100
AcDbPlotSettings
  1

  2

  4

  6

 40
0.0
 41
0.0
 42
0.0
 43
0.0
 44
0.0
 45
0.0
 46
0.0
 47
0.0
 48
0.0
 49
0.0
140
0.0
141
0.0
142
1.0
143
1.0
 70
   688
 72
     0
 73
     0
 74
     5
  7

 75
    16
147
1.0
 76
     0
 77
     2
 78
   300
148
0.0
149
0.0
100
AcDbLayout
  1
Layout2
 70
     1
 71
     2
 10
0.0
 20
0.0
 11
12.0
 21
9.0
 12
0.0
 22
0.0
 32
0.0
 14
0.0
 24
0.0
 34
0.0
 15
0.0
 25
0.0
 35
0.0
146
0.0
 13
0.0
 23
0.0
 33
0.0
 16
1.0
 26
0.0
 36
0.0
 17
0.0
 27
1.0
 37
0.0
 76
     0
330
27
  0
LAYOUT
  5
26
102
{ACAD_REACTORS
330
1A
102
}
330
1A
100
AcDbPlotSettings
  1

  2

  4

  6

 40
0.0
 41
0.0
 42
0.0
 43
0.0
 44
0.0
 45
0.0
 46
0.0
 47
0.0
 48
0.0
 49
0.0
140
0.0
141
0.0
142
1.0
143
1.0
 70
  1712
 72
     0
 73
     0
 74
     0
  7

 75
     0
147
1.0
 76
     0
 77
     2
 78
   300
148
0.0
149
0.0
100
AcDbLayout
  1
Model
 70
     1
 71
     0
 10
0.0
 20
0.0
 11
12.0
 21
9.0
 12
0.0
 22
0.0
 32
0.0
 14
0.0
 24
0.0
 34
0.0
 15
0.0
 25
0.0
 35
0.0
146
0.0
 13
0.0
 23
0.0
 33
0.0
 16
1.0
 26
0.0
 36
0.0
 17
0.0
 27
1.0
 37
0.0
 76
     0
330
23
  0
MLINESTYLE
  5
18
102
{ACAD_REACTORS
330
17
102
}
330
17
100
AcDbMlineStyle
  2
STANDARD
 70
     0
  3

 62
   256
 51
90.0
 52
90.0
 71
     2
 49
0.5
 62
   256
  6
BYLAYER
 49
-0.5
 62
   256
  6
BYLAYER
  0
ACDBPLACEHOLDER
  5
F
102
{ACAD_REACTORS
330
E
102
}
330
E
  0
TABLESTYLE
  5
1E
102
{ACAD_REACTORS
330
1D
102
}
330
1D
100
AcDbTableStyle
  3
Standard
 70
     0
 71
     0
 40
0.06
 41
0.06
280
     0
281
     0
  7
Standard
140
0.18
170
     2
 62
     0
 63
     7
283
     0
274
    -2
284
     1
 64
     0
275
    -2
285
     1
 65
     0
276
    -2
286
     1
 66
     0
277
    -2
287
     1
 67
     0
278
    -2
288
     1
 68
     0
279
    -2
289
     1
 69
     0
  7
Standard
140
0.25
170
     5
 62
     0
 63
     7
283
     0
274
    -2
284
     1
 64
     0
275
    -2
285
     1
 65
     0
276
    -2
286
     1
 66
     0
277
    -2
287
     1
 67
     0
278
    -2
288
     1
 68
     0
279
    -2
289
     1
 69
     0
  7
Standard
140
0.18
170
     5
 62
     0
 63
     7
283
     0
274
    -2
284
     1
 64
     0
275
    -2
285
     1
 65
     0
276
    -2
286
     1
 66
     0
277
    -2
287
     1
 67
     0
278
    -2
288
     1
 68
     0
279
    -2
289
     1
 69
     0
  0
DICTIONARYVAR
  5
1065
102
{ACAD_REACTORS
330
1064
102
}
330
1064
100
DictionaryVariables
280
     0
  1
STANDARD
  0
DICTIONARYVAR
  5
18F4
102
{ACAD_REACTORS
330
1064
102
}
330
1064
100
DictionaryVariables
280
     0
  1
1
  0
DICTIONARYVAR
  5
18F3
102
{ACAD_REACTORS
330
1064
102
}
330
1064
100
DictionaryVariables
280
     0
  1
1
  0
DICTIONARYVAR
  5
18F5
102
{ACAD_REACTORS
330
1064
102
}
330
1064
100
DictionaryVariables
280
     0
  1

  0
ENDSEC
  0
EOF
