  0
SECTION
  2
HEADER
  9
$ACADVER
  1
AC1018
  9
$ACADMAINTVER
 70
    76
  9
$DWGCODEPAGE
  3
ANSI_1252
  9
$AUTHOR
  1
Grandl
  9
$CUSTOMPROPERTYTAG
  1
Manager
  9
$CUSTOMPROPERTY
  1

  9
$CUSTOMPROPERTYTAG
  1
Firma
  9
$CUSTOMPROPERTY
  1

  9
$CUSTOMPROPERTYTAG
  1
Kategorie
  9
$CUSTOMPROPERTY
  1

  9
$CUSTOMPROPERTYTAG
  1
Bauteilnummer
  9
$CUSTOMPROPERTY
  1
3250-40-00
  9
$CUSTOMPROPERTYTAG
  1
Bezeichnung
  9
$CUSTOMPROPERTY
  1

  9
$CUSTOMPROPERTYTAG
  1
Projekt
  9
$CUSTOMPROPERTY
  1

  9
$CUSTOMPROPERTYTAG
  1
Konstrukteur
  9
$CUSTOMPROPERTY
  1
Grandl
  9
$CUSTOMPROPERTYTAG
  1
Ingenieur
  9
$CUSTOMPROPERTY
  1

  9
$CUSTOMPROPERTYTAG
  1
Bevollmächtigter
  9
$CUSTOMPROPERTY
  1

  9
$CUSTOMPROPERTYTAG
  1
Kostenstelle
  9
$CUSTOMPROPERTY
  1

  9
$CUSTOMPROPERTYTAG
  1
Händler
  9
$CUSTOMPROPERTY
  1

  9
$CUSTOMPROPERTYTAG
  1
Benutzerstatus
  9
$CUSTOMPROPERTY
  1

  9
$CUSTOMPROPERTYTAG
  1
Konstruktionsstatus
  9
$CUSTOMPROPERTY
  1
InBearbeitung
  9
$CUSTOMPROPERTYTAG
  1
Überprüft von
  9
$CUSTOMPROPERTY
  1

  9
$CUSTOMPROPERTYTAG
  1
Konstruktion genehmigt von
  9
$CUSTOMPROPERTY
  1

  9
$CUSTOMPROPERTYTAG
  1
Fertigung genehmigt von
  9
$CUSTOMPROPERTY
  1

  9
$INSBASE
 10
0.0
 20
0.0
 30
0.0
  9
$EXTMIN
 10
-342.6493734362159
 20
-37.00000000000006
 30
0.0
  9
$EXTMAX
 10
342.649373436547
 20
244.0345158723449
 30
0.0
  9
$LIMMIN
 10
0.0
 20
0.0
  9
$LIMMAX
 10
2100.0
 20
1485.0
  9
$ORTHOMODE
 70
     1
  9
$REGENMODE
 70
     1
  9
$FILLMODE
 70
     1
  9
$QTEXTMODE
 70
     0
  9
$MIRRTEXT
 70
     0
  9
$LTSCALE
 40
0.5
  9
$ATTMODE
 70
     1
  9
$TEXTSIZE
 40
0.2
  9
$TRACEWID
 40
0.05
  9
$TEXTSTYLE
  7
Standard
  9
$CLAYER
  8
0
  9
$CELTYPE
  6
ByLayer
  9
$CECOLOR
 62
   256
  9
$CELTSCALE
 40
1.0
  9
$DISPSILH
 70
     0
  9
$DIMSCALE
 40
1.0
  9
$DIMASZ
 40
0.18
  9
$DIMEXO
 40
0.0625
  9
$DIMDLI
 40
0.38
  9
$DIMRND
 40
0.0
  9
$DIMDLE
 40
0.0
  9
$DIMEXE
 40
0.18
  9
$DIMTP
 40
0.0
  9
$DIMTM
 40
0.0
  9
$DIMTXT
 40
0.18
  9
$DIMCEN
 40
0.09
  9
$DIMTSZ
 40
0.0
  9
$DIMTOL
 70
     0
  9
$DIMLIM
 70
     0
  9
$DIMTIH
 70
     1
  9
$DIMTOH
 70
     1
  9
$DIMSE1
 70
     0
  9
$DIMSE2
 70
     0
  9
$DIMTAD
 70
     0
  9
$DIMZIN
 70
     0
  9
$DIMBLK
  1

  9
$DIMASO
 70
     1
  9
$DIMSHO
 70
     1
  9
$DIMPOST
  1

  9
$DIMAPOST
  1

  9
$DIMALT
 70
     0
  9
$DIMALTD
 70
     2
  9
$DIMALTF
 40
25.4
  9
$DIMLFAC
 40
1.0
  9
$DIMTOFL
 70
     0
  9
$DIMTVP
 40
0.0
  9
$DIMTIX
 70
     0
  9
$DIMSOXD
 70
     0
  9
$DIMSAH
 70
     0
  9
$DIMBLK1
  1

  9
$DIMBLK2
  1

  9
$DIMSTYLE
  2
Standard
  9
$DIMCLRD
 70
     0
  9
$DIMCLRE
 70
     0
  9
$DIMCLRT
 70
     0
  9
$DIMTFAC
 40
1.0
  9
$DIMGAP
 40
0.09
  9
$DIMJUST
 70
     0
  9
$DIMSD1
 70
     0
  9
$DIMSD2
 70
     0
  9
$DIMTOLJ
 70
     1
  9
$DIMTZIN
 70
     0
  9
$DIMALTZ
 70
     0
  9
$DIMALTTZ
 70
     0
  9
$DIMUPT
 70
     0
  9
$DIMDEC
 70
     4
  9
$DIMTDEC
 70
     4
  9
$DIMALTU
 70
     2
  9
$DIMALTTD
 70
     2
  9
$DIMTXSTY
  7
Standard
  9
$DIMAUNIT
 70
     0
  9
$DIMADEC
 70
     0
  9
$DIMALTRND
 40
0.0
  9
$DIMAZIN
 70
     0
  9
$DIMDSEP
 70
    46
  9
$DIMATFIT
 70
     3
  9
$DIMFRAC
 70
     0
  9
$DIMLDRBLK
  1

  9
$DIMLUNIT
 70
     2
  9
$DIMLWD
 70
    -2
  9
$DIMLWE
 70
    -2
  9
$DIMTMOVE
 70
     0
  9
$LUNITS
 70
     2
  9
$LUPREC
 70
     4
  9
$SKETCHINC
 40
0.1
  9
$FILLETRAD
 40
0.0
  9
$AUNITS
 70
     0
  9
$AUPREC
 70
     0
  9
$MENU
  1
.
  9
$ELEVATION
 40
0.0
  9
$PELEVATION
 40
0.0
  9
$THICKNESS
 40
0.0
  9
$LIMCHECK
 70
     0
  9
$CHAMFERA
 40
0.0
  9
$CHAMFERB
 40
0.0
  9
$CHAMFERC
 40
0.0
  9
$CHAMFERD
 40
0.0
  9
$SKPOLY
 70
     0
  9
$TDCREATE
 40
2453712.483610903
  9
$TDUCREATE
 40
2453712.441944236
  9
$TDUPDATE
 40
2453717.685221331
  9
$TDUUPDATE
 40
2453717.643554664
  9
$TDINDWG
 40
0.1390329745
  9
$TDUSRTIMER
 40
0.1390329745
  9
$USRTIMER
 70
     1
  9
$ANGBASE
 50
0.0
  9
$ANGDIR
 70
     0
  9
$PDMODE
 70
     0
  9
$PDSIZE
 40
0.0
  9
$PLINEWID
 40
0.0
  9
$SPLFRAME
 70
     0
  9
$SPLINETYPE
 70
     6
  9
$SPLINESEGS
 70
     8
  9
$HANDSEED
  5
780A
  9
$SURFTAB1
 70
     6
  9
$SURFTAB2
 70
     6
  9
$SURFTYPE
 70
     6
  9
$SURFU
 70
     6
  9
$SURFV
 70
     6
  9
$UCSBASE
  2

  9
$UCSNAME
  2

  9
$UCSORG
 10
0.0
 20
0.0
 30
0.0
  9
$UCSXDIR
 10
1.0
 20
0.0
 30
0.0
  9
$UCSYDIR
 10
0.0
 20
1.0
 30
0.0
  9
$UCSORTHOREF
  2

  9
$UCSORTHOVIEW
 70
     0
  9
$UCSORGTOP
 10
0.0
 20
0.0
 30
0.0
  9
$UCSORGBOTTOM
 10
0.0
 20
0.0
 30
0.0
  9
$UCSORGLEFT
 10
0.0
 20
0.0
 30
0.0
  9
$UCSORGRIGHT
 10
0.0
 20
0.0
 30
0.0
  9
$UCSORGFRONT
 10
0.0
 20
0.0
 30
0.0
  9
$UCSORGBACK
 10
0.0
 20
0.0
 30
0.0
  9
$PUCSBASE
  2

  9
$PUCSNAME
  2

  9
$PUCSORG
 10
0.0
 20
0.0
 30
0.0
  9
$PUCSXDIR
 10
1.0
 20
0.0
 30
0.0
  9
$PUCSYDIR
 10
0.0
 20
1.0
 30
0.0
  9
$PUCSORTHOREF
  2

  9
$PUCSORTHOVIEW
 70
     0
  9
$PUCSORGTOP
 10
0.0
 20
0.0
 30
0.0
  9
$PUCSORGBOTTOM
 10
0.0
 20
0.0
 30
0.0
  9
$PUCSORGLEFT
 10
0.0
 20
0.0
 30
0.0
  9
$PUCSORGRIGHT
 10
0.0
 20
0.0
 30
0.0
  9
$PUCSORGFRONT
 10
0.0
 20
0.0
 30
0.0
  9
$PUCSORGBACK
 10
0.0
 20
0.0
 30
0.0
  9
$USERI1
 70
     0
  9
$USERI2
 70
     0
  9
$USERI3
 70
     0
  9
$USERI4
 70
     0
  9
$USERI5
 70
     0
  9
$USERR1
 40
0.0
  9
$USERR2
 40
0.0
  9
$USERR3
 40
0.0
  9
$USERR4
 40
0.0
  9
$USERR5
 40
0.0
  9
$WORLDVIEW
 70
     1
  9
$SHADEDGE
 70
     3
  9
$SHADEDIF
 70
    70
  9
$TILEMODE
 70
     1
  9
$MAXACTVP
 70
    64
  9
$PINSBASE
 10
0.0
 20
0.0
 30
0.0
  9
$PLIMCHECK
 70
     0
  9
$PEXTMIN
 10
0.0
 20
0.0
 30
0.0
  9
$PEXTMAX
 10
2100.0
 20
1485.0
 30
0.0
  9
$PLIMMIN
 10
0.0
 20
0.0
  9
$PLIMMAX
 10
2100.0
 20
1485.0
  9
$UNITMODE
 70
     0
  9
$VISRETAIN
 70
     1
  9
$PLINEGEN
 70
     0
  9
$PSLTSCALE
 70
     1
  9
$TREEDEPTH
 70
  3020
  9
$CMLSTYLE
  2
Standard
  9
$CMLJUST
 70
     0
  9
$CMLSCALE
 40
1.0
  9
$PROXYGRAPHICS
 70
     1
  9
$MEASUREMENT
 70
     1
  9
$CELWEIGHT
370
    -1
  9
$ENDCAPS
280
     0
  9
$JOINSTYLE
280
     0
  9
$LWDISPLAY
290
     0
  9
$INSUNITS
 70
     0
  9
$HYPERLINKBASE
  1

  9
$STYLESHEET
  1

  9
$XEDIT
290
     1
  9
$CEPSNTYPE
380
     0
  9
$PSTYLEMODE
290
     1
  9
$FINGERPRINTGUID
  2
{C0D17482-A639-492A-87FF-6D529B9E67CF}
  9
$VERSIONGUID
  2
{391B87B3-2929-41FA-BF7A-FFF3F020F518}
  9
$EXTNAMES
290
     1
  9
$PSVPSCALE
 40
0.0
  9
$OLESTARTUP
290
     0
  9
$SORTENTS
280
   127
  9
$INDEXCTL
280
     0
  9
$HIDETEXT
280
     1
  9
$XCLIPFRAME
290
     0
  9
$HALOGAP
280
     0
  9
$OBSCOLOR
 70
   257
  9
$OBSLTYPE
280
     0
  9
$INTERSECTIONDISPLAY
280
     0
  9
$INTERSECTIONCOLOR
 70
   257
  9
$DIMASSOC
280
     1
  9
$PROJECTNAME
  1

  0
ENDSEC
  0
SECTION
  2
CLASSES
  0
CLASS
  1
ACDBDICTIONARYWDFLT
  2
AcDbDictionaryWithDefault
  3
ObjectDBX Classes
 90
        0
 91
        1
280
     0
281
     0
  0
CLASS
  1
TABLESTYLE
  2
AcDbTableStyle
  3
ObjectDBX Classes
 90
     2047
 91
        1
280
     0
281
     0
  0
CLASS
  1
DICTIONARYVAR
  2
AcDbDictionaryVar
  3
ObjectDBX Classes
 90
        0
 91
        4
280
     0
281
     0
  0
CLASS
  1
SORTENTSTABLE
  2
AcDbSortentsTable
  3
ObjectDBX Classes
 90
        0
 91
        2
280
     0
281
     0
  0
ENDSEC
  0
SECTION
  2
TABLES
  0
TABLE
  2
VPORT
  5
8
330
0
100
AcDbSymbolTable
 70
     3
  0
VPORT
  5
7809
330
8
100
AcDbSymbolTableRecord
100
AcDbViewportTableRecord
  2
*Active
 70
     0
 10
0.0
 20
0.0
 11
1.0
 21
1.0
 12
-0.0364559516956433
 22
103.4739139989433
 13
0.0
 23
0.0
 14
1.0
 24
1.0
 15
0.0
 25
0.0
 16
0.0
 26
0.0
 36
1.0
 17
0.0
 27
0.0
 37
0.0
 40
388.5155392768036
 41
1.773333333333333
 42
50.0
 43
0.0
 44
0.0
 50
0.0
 51
0.0
 71
     0
 72
   100
 73
     1
 74
     1
 75
     0
 76
     0
 77
     0
 78
     0
281
     0
 65
     1
110
0.0
120
0.0
130
0.0
111
1.0
121
0.0
131
0.0
112
0.0
122
1.0
132
0.0
 79
     0
146
0.0
  0
ENDTAB
  0
TABLE
  2
LTYPE
  5
5
330
0
100
AcDbSymbolTable
 70
     3
  0
LTYPE
  5
14
330
5
100
AcDbSymbolTableRecord
100
AcDbLinetypeTableRecord
  2
ByBlock
 70
     0
  3

 72
    65
 73
     0
 40
0.0
  0
LTYPE
  5
15
330
5
100
AcDbSymbolTableRecord
100
AcDbLinetypeTableRecord
  2
ByLayer
 70
     0
  3

 72
    65
 73
     0
 40
0.0
  0
LTYPE
  5
16
330
5
100
AcDbSymbolTableRecord
100
AcDbLinetypeTableRecord
  2
Continuous
 70
     0
  3
Solid line
 72
    65
 73
     0
 40
0.0
  0
LTYPE
  5
1309
330
5
100
AcDbSymbolTableRecord
100
AcDbLinetypeTableRecord
  2
MITTE2
 70
     0
  3
Mitte (.5x) ___ _ ___ _ ___ _ ___ _ ___ _ ___
 72
    65
 73
     4
 40
28.575
 49
19.05
 74
     0
 49
-3.174999999999999
 74
     0
 49
3.174999999999999
 74
     0
 49
-3.174999999999999
 74
     0
  0
LTYPE
  5
16DC
330
5
100
AcDbSymbolTableRecord
100
AcDbLinetypeTableRecord
  2
VERDECKT
 70
     0
  3
Verdeckt __ __ __ __ __ __ __ __ __ __ __ __ __
 72
    65
 73
     2
 40
9.524999999999998
 49
6.349999999999999
 74
     0
 49
-3.174999999999999
 74
     0
  0
ENDTAB
  0
TABLE
  2
LAYER
  5
2
102
{ACAD_XDICTIONARY
360
16C1
102
}
330
0
100
AcDbSymbolTable
 70
     4
  0
LAYER
  5
10
330
2
100
AcDbSymbolTableRecord
100
AcDbLayerTableRecord
  2
0
 70
     0
 62
     7
  6
Continuous
370
    -3
390
F
  0
LAYER
  5
646
330
2
100
AcDbSymbolTableRecord
100
AcDbLayerTableRecord
  2
Defpoints
 70
     0
 62
     7
  6
Continuous
290
     0
370
    -3
390
F
  0
LAYER
  5
130A
330
2
100
AcDbSymbolTableRecord
100
AcDbLayerTableRecord
  2
LW 5015-32-00
 70
     0
 62
     7
  6
Continuous
370
    -3
390
F
  0
LAYER
  5
130B
330
2
100
AcDbSymbolTableRecord
100
AcDbLayerTableRecord
  2
insertpoint_ECKELT
 70
     0
 62
   141
  6
Continuous
370
    -3
390
F
  0
ENDTAB
  0
TABLE
  2
STYLE
  5
3
330
0
100
AcDbSymbolTable
 70
     1
  0
STYLE
  5
11
330
3
100
AcDbSymbolTableRecord
100
AcDbTextStyleTableRecord
  2
Standard
 70
     0
 40
0.0
 41
1.0
 50
0.0
 71
     0
 42
0.2
  3
ARIAL.TTF
  4

1001
ACAD
1000
Arial
1071
      256
  0
ENDTAB
  0
TABLE
  2
VIEW
  5
6
330
0
100
AcDbSymbolTable
 70
     0
  0
ENDTAB
  0
TABLE
  2
UCS
  5
7
330
0
100
AcDbSymbolTable
 70
     0
  0
ENDTAB
  0
TABLE
  2
APPID
  5
9
330
0
100
AcDbSymbolTable
 70
     2
  0
APPID
  5
12
330
9
100
AcDbSymbolTableRecord
100
AcDbRegAppTableRecord
  2
ACAD
 70
     0
  0
APPID
  5
15AA
330
9
100
AcDbSymbolTableRecord
100
AcDbRegAppTableRecord
  2
ACAD_EXEMPT_FROM_CAD_STANDARDS
 70
     0
  0
ENDTAB
  0
TABLE
  2
DIMSTYLE
  5
A
330
0
100
AcDbSymbolTable
 70
     1
100
AcDbDimStyleTable
 71
     1
340
2B
  0
DIMSTYLE
105
2B
330
A
100
AcDbSymbolTableRecord
100
AcDbDimStyleTableRecord
  2
Standard
 70
     0
340
11
  0
ENDTAB
  0
TABLE
  2
BLOCK_RECORD
  5
1
330
0
100
AcDbSymbolTable
 70
     6
  0
BLOCK_RECORD
  5
23
102
{ACAD_XDICTIONARY
360
15A2
102
}
330
1
100
AcDbSymbolTableRecord
100
AcDbBlockTableRecord
  2
*Model_Space
340
26
  0
BLOCK_RECORD
  5
1F
330
1
100
AcDbSymbolTableRecord
100
AcDbBlockTableRecord
  2
*Paper_Space
340
22
  0
BLOCK_RECORD
  5
27
330
1
100
AcDbSymbolTableRecord
100
AcDbBlockTableRecord
  2
*Paper_Space0
340
2A
  0
BLOCK_RECORD
  5
106E
102
{ACAD_XDICTIONARY
360
106F
102
}
330
1
100
AcDbSymbolTableRecord
100
AcDbBlockTableRecord
  2
insertpoint-ECKELT
340
0
102
{BLKREFS
331
7480
331
768A
331
76CE
331
7743
102
}
  0
BLOCK_RECORD
  5
7367
330
1
100
AcDbSymbolTableRecord
100
AcDbBlockTableRecord
  2
LW 5015-32-00_a
340
0
310
2800000020000000200000000100080000000000000400000000000000000000000000000000000000000000000080000080000000808000800000008000800080800000C0C0C000C0DCC000F0CAA6000020400000206000002080000020A0000020C0000020E00000400000004020000040400000406000004080000040A0
310
000040C0000040E00000600000006020000060400000606000006080000060A0000060C0000060E00000800000008020000080400000806000008080000080A0000080C0000080E00000A0000000A0200000A0400000A0600000A0800000A0A00000A0C00000A0E00000C0000000C0200000C0400000C0600000C0800000C0
310
A00000C0C00000C0E00000E0000000E0200000E0400000E0600000E0800000E0A00000E0C00000E0E00040000000400020004000400040006000400080004000A0004000C0004000E00040200000402020004020400040206000402080004020A0004020C0004020E000404000004040200040404000404060004040800040
310
40A0004040C0004040E00040600000406020004060400040606000406080004060A0004060C0004060E00040800000408020004080400040806000408080004080A0004080C0004080E00040A0000040A0200040A0400040A0600040A0800040A0A00040A0C00040A0E00040C0000040C0200040C0400040C0600040C08000
310
40C0A00040C0C00040C0E00040E0000040E0200040E0400040E0600040E0800040E0A00040E0C00040E0E00080000000800020008000400080006000800080008000A0008000C0008000E00080200000802020008020400080206000802080008020A0008020C0008020E00080400000804020008040400080406000804080
310
008040A0008040C0008040E00080600000806020008060400080606000806080008060A0008060C0008060E00080800000808020008080400080806000808080008080A0008080C0008080E00080A0000080A0200080A0400080A0600080A0800080A0A00080A0C00080A0E00080C0000080C0200080C0400080C0600080C0
310
800080C0A00080C0C00080C0E00080E0000080E0200080E0400080E0600080E0800080E0A00080E0C00080E0E000C0000000C0002000C0004000C0006000C0008000C000A000C000C000C000E000C0200000C0202000C0204000C0206000C0208000C020A000C020C000C020E000C0400000C0402000C0404000C0406000C0
310
408000C040A000C040C000C040E000C0600000C0602000C0604000C0606000C0608000C060A000C060C000C060E000C0800000C0802000C0804000C0806000C0808000C080A000C080C000C080E000C0A00000C0A02000C0A04000C0A06000C0A08000C0A0A000C0A0C000C0A0E000C0C00000C0C02000C0C04000C0C06000
310
C0C08000C0C0A000F0FBFF00A4A0A000808080000000FF0000FF000000FFFF00FF000000FF00FF00FFFF0000FFFFFF0000000000000000000000000000000000000000000000000000000000000000000000000000000000000000000000000000000000000000000000000000000000000000000000000000000000000000
310
00000000000000000000000000000000000000000000000000000000000000000000000000000000000000000000000000000000000000000000000000000000000000000000000000000000000000000000000000000000000000000000000000000000000000000000000000000000000000000000000000000000000000
310
0000000000000000000000000000000000000000000000000000000000000000000000000000000000000000000000000000000000000000000000000000000000000000000000000000000000000000000000000000000000000000000000FFFF00FAFFFF000000000000000000000000000000000000FA000000000000FF
310
FFFF00FAFFFFFF000000000000FA0000000000000000FFFFFAFFFF000000FFFFFFFFFFFAFFFFFFFF000000FFFFFAFFFF0000000000FFFFFFFA00FFFFFFFFFFFFFFFA0009FAFFFFFFFFFFFFFF00FAFFFFFF000000FAFAFAFFFAFAFFFAFAFAFAFAFAFA0909FAFAFAFAFAFAFAFFFAFAFFFAFAFA000000FFFFFFFA00FFFFFFFFFF
310
FFFFFFFFFAFFFFFFFFFFFFFFFF00FAFFFFFF0000000000FFF9F900FF00000000FFFFFF00FAFFFFFF00000000FF00FA00FF000000000000FFF9F900FF0000000000FFFF00FAFFFF0000000000FF00FA00FF000000000000FF00FA00FF00000000000000000000000000000000FF00FA00FF000000000000FDFDFDFDFD000000
310
00000000000000000000000000FDFDFDFDFD00000000000000FFFAFA000000000000000000000000000000000000FAFAFF0000000000000000FFFAFA000000000000000000000000000000000000FAFAFF000000000000000000FA0000000000000000000000000000000000000000FA00000000000000000000FA00000000
310
00000000000000000000000000000000FA0000000000000000000000000000000000000000000000000000000000000000000000000000000000000000000000000000000000000000000000000000000000000000000000000000000000000000000000000000000000000000000000000000000000000000000000000000
310
00000000000000000000000000000000000000000000000000000000000000000000000000000000000000000000000000000000000000000000000000000000000000000000000000000000000000000000000000000000000000000000000000000000000000000000000000000000000000000000000000000000000000
310
0000000000000000000000000000000000000000000000000000000000000000000000000000000000000000000000000000000000000000
102
{BLKREFS
331
7568
102
}
  0
BLOCK_RECORD
  5
7569
330
1
100
AcDbSymbolTableRecord
100
AcDbBlockTableRecord
  2
LW 5015-32-00_b
340
0
310
2800000020000000200000000100080000000000000400000000000000000000000000000000000000000000000080000080000000808000800000008000800080800000C0C0C000C0DCC000F0CAA6000020400000206000002080000020A0000020C0000020E00000400000004020000040400000406000004080000040A0
310
000040C0000040E00000600000006020000060400000606000006080000060A0000060C0000060E00000800000008020000080400000806000008080000080A0000080C0000080E00000A0000000A0200000A0400000A0600000A0800000A0A00000A0C00000A0E00000C0000000C0200000C0400000C0600000C0800000C0
310
A00000C0C00000C0E00000E0000000E0200000E0400000E0600000E0800000E0A00000E0C00000E0E00040000000400020004000400040006000400080004000A0004000C0004000E00040200000402020004020400040206000402080004020A0004020C0004020E000404000004040200040404000404060004040800040
310
40A0004040C0004040E00040600000406020004060400040606000406080004060A0004060C0004060E00040800000408020004080400040806000408080004080A0004080C0004080E00040A0000040A0200040A0400040A0600040A0800040A0A00040A0C00040A0E00040C0000040C0200040C0400040C0600040C08000
310
40C0A00040C0C00040C0E00040E0000040E0200040E0400040E0600040E0800040E0A00040E0C00040E0E00080000000800020008000400080006000800080008000A0008000C0008000E00080200000802020008020400080206000802080008020A0008020C0008020E00080400000804020008040400080406000804080
310
008040A0008040C0008040E00080600000806020008060400080606000806080008060A0008060C0008060E00080800000808020008080400080806000808080008080A0008080C0008080E00080A0000080A0200080A0400080A0600080A0800080A0A00080A0C00080A0E00080C0000080C0200080C0400080C0600080C0
310
800080C0A00080C0C00080C0E00080E0000080E0200080E0400080E0600080E0800080E0A00080E0C00080E0E000C0000000C0002000C0004000C0006000C0008000C000A000C000C000C000E000C0200000C0202000C0204000C0206000C0208000C020A000C020C000C020E000C0400000C0402000C0404000C0406000C0
310
408000C040A000C040C000C040E000C0600000C0602000C0604000C0606000C0608000C060A000C060C000C060E000C0800000C0802000C0804000C0806000C0808000C080A000C080C000C080E000C0A00000C0A02000C0A04000C0A06000C0A08000C0A0A000C0A0C000C0A0E000C0C00000C0C02000C0C04000C0C06000
310
C0C08000C0C0A000F0FBFF00A4A0A000808080000000FF0000FF000000FFFF00FF000000FF00FF00FFFF0000FFFFFF0000000000000000000000000000000000000000000000000000000000000000000000000000000000000000000000000000000000000000000000000000000000000000000000000000000000000000
310
00000000000000000000000000000000000000000000000000000000000000000000000000000000000000000000000000000000000000000000000000000000000000000000000000000000000000000000000000000000000000000000000000000000000000000000000000000000000000000000000000000000000000
310
00000000000000000000000000000000000000000000000000000000000000000000000000000000000000000000000000000000000000000000000000000000000000000000000000000000000000000000000000000000000000000000000000000000000000000000000000000000000000000000000000000000000000
310
00000000000000000000000000000000000000000000000000000000000000000000000000000000000000000000000000000000000000000000000000000000FFFF00FAFFFF000000000000000000000000000000000000000000000000FFFFFFFF00FAFFFFFFFF00000000000000000000000000000000FA0000000000FF
310
FFFFFFFFFAFFFFFFFF0000000000FA00000000000000FFFFFFFAFFFFFFFFFFFF00FFFA0009FAFF00FFFFFFFFFFFFFAFFFFFF000000FAFAFAFAFAFAFAFAFAFAFAFAFAFA0909FAFAFAFAF9F9F9FAFAFAFAFAFAFA0000000000FFFAFF00000000FFFFFFFFFFFAFFFFFFFF00000000FFFAFF000000000000000000FA0000000000
310
FFFFFFFF00FAFFFFFFFF0000000000FA000000000000000000000000000000000000FFFF00FAFFFF000000000000000000000000000000000000000000000000000000000000000000000000000000000000000000000000000000000000000000000000000000000000000000000000000000000000000000000000000000
310
00000000000000000000000000000000000000000000000000000000000000000000000000000000000000000000000000000000000000000000000000000000000000000000000000000000000000000000000000000000000000000000000000000000000000000000000000000000000000000000000000000000000000
310
00000000000000000000000000000000000000000000000000000000000000000000000000000000000000000000000000000000000000000000000000000000000000000000000000000000000000000000000000000000000000000000000000000000000000000000000000000000000000000000000000000000000000
310
0000000000000000000000000000000000000000000000000000000000000000000000000000000000000000000000000000000000000000
102
{BLKREFS
331
7690
102
}
  0
BLOCK_RECORD
  5
7691
330
1
100
AcDbSymbolTableRecord
100
AcDbBlockTableRecord
  2
LW 5015-32-00_c
340
0
310
2800000020000000200000000100080000000000000400000000000000000000000000000000000000000000000080000080000000808000800000008000800080800000C0C0C000C0DCC000F0CAA6000020400000206000002080000020A0000020C0000020E00000400000004020000040400000406000004080000040A0
310
000040C0000040E00000600000006020000060400000606000006080000060A0000060C0000060E00000800000008020000080400000806000008080000080A0000080C0000080E00000A0000000A0200000A0400000A0600000A0800000A0A00000A0C00000A0E00000C0000000C0200000C0400000C0600000C0800000C0
310
A00000C0C00000C0E00000E0000000E0200000E0400000E0600000E0800000E0A00000E0C00000E0E00040000000400020004000400040006000400080004000A0004000C0004000E00040200000402020004020400040206000402080004020A0004020C0004020E000404000004040200040404000404060004040800040
310
40A0004040C0004040E00040600000406020004060400040606000406080004060A0004060C0004060E00040800000408020004080400040806000408080004080A0004080C0004080E00040A0000040A0200040A0400040A0600040A0800040A0A00040A0C00040A0E00040C0000040C0200040C0400040C0600040C08000
310
40C0A00040C0C00040C0E00040E0000040E0200040E0400040E0600040E0800040E0A00040E0C00040E0E00080000000800020008000400080006000800080008000A0008000C0008000E00080200000802020008020400080206000802080008020A0008020C0008020E00080400000804020008040400080406000804080
310
008040A0008040C0008040E00080600000806020008060400080606000806080008060A0008060C0008060E00080800000808020008080400080806000808080008080A0008080C0008080E00080A0000080A0200080A0400080A0600080A0800080A0A00080A0C00080A0E00080C0000080C0200080C0400080C0600080C0
310
800080C0A00080C0C00080C0E00080E0000080E0200080E0400080E0600080E0800080E0A00080E0C00080E0E000C0000000C0002000C0004000C0006000C0008000C000A000C000C000C000E000C0200000C0202000C0204000C0206000C0208000C020A000C020C000C020E000C0400000C0402000C0404000C0406000C0
310
408000C040A000C040C000C040E000C0600000C0602000C0604000C0606000C0608000C060A000C060C000C060E000C0800000C0802000C0804000C0806000C0808000C080A000C080C000C080E000C0A00000C0A02000C0A04000C0A06000C0A08000C0A0A000C0A0C000C0A0E000C0C00000C0C02000C0C04000C0C06000
310
C0C08000C0C0A000F0FBFF00A4A0A000808080000000FF0000FF000000FFFF00FF000000FF00FF00FFFF0000FFFFFF0000000000000000000000000000000000000000000000000000000000000000000000000000000000000000000000000000000000000000000000000000000000000000000000000000000000000000
310
00000000000000000000000000000000000000000000000000000000000000000000000000000000000000000000000000000000000000000000000000000000000000000000000000000000000000000000000000000000000000000000000000000000000000000000000000000000000000000000000000000000000000
310
000000000000000000000000000000000000000000000000000000000000000000000000000000000000000000000000000000000000000000000000000000000000000000FFFFFFFF0000000000000000000000000000000000000000000000000000FFFF00000000FFFA0000000000000000000000000000000000000000
310
0000FFFF00FFFFFAFFFFFDFAFF0000000000000000000000000000000000000000FF0000FF0000FA00FDFAFF00FF00000000000000000000000000000000000000FF00FF000000FA00FDFA00FF00FF00000000000000000000FFFFFFFFFFFFFFFFFFFFFFFFFFFFFAFFFAFFFFFFFFFF00000000000000000000FF0000000000
310
00FD00FD00FDFFFFFAFFFFFFFDFFFF00FF0000000000FAFAFAFAFF00000000000000FDFDFD00FF090909FAFFFAFAFAFAFAFAFA000000FFFF0000FF00000000FAFAFAFAFAFAFAFF090900FFFF00FFFF00FF00000000FAFAFAFAFAFAFAFAFAFAFAFAFAFAFAFAFAFAFAFAFAFAFAFAFAFAFAFAFA00000000FAFAFAFAFF00000000
310
000000FD00FDFDFFFFFAFFFFFFFDFF00FF00000000000000000000FF0000F9F9F9F90000FD00FDFDFFFFFFFFFA00FF00FF00000000000000000000FF0000F9F9F9F90000FD00FD00FDFAFDFDFAFDFFFF0000000000000000000000FFFFFFFFFFFFFFFFFFFFFFFFFFFFFAFFFFFFFAFFFF000000000000000000000000000000
310
000000000000FFFF000000000000FAFF000000000000000000000000000000000000000000000000FFFFFFFFFFFF000000000000000000000000000000000000000000000000000000000000000000000000000000000000000000000000000000000000000000000000000000000000000000000000000000000000000000
310
00000000000000000000000000000000000000000000000000000000000000000000000000000000000000000000000000000000000000000000000000000000000000000000000000000000000000000000000000000000000000000000000000000000000000000000000000000000000000000000000000000000000000
310
0000000000000000000000000000000000000000000000000000000000000000000000000000000000000000000000000000000000000000
102
{BLKREFS
331
770B
102
}
  0
BLOCK_RECORD
  5
770C
330
1
100
AcDbSymbolTableRecord
100
AcDbBlockTableRecord
  2
LW 5015-32-00_d
340
0
310
2800000020000000200000000100080000000000000400000000000000000000000000000000000000000000000080000080000000808000800000008000800080800000C0C0C000C0DCC000F0CAA6000020400000206000002080000020A0000020C0000020E00000400000004020000040400000406000004080000040A0
310
000040C0000040E00000600000006020000060400000606000006080000060A0000060C0000060E00000800000008020000080400000806000008080000080A0000080C0000080E00000A0000000A0200000A0400000A0600000A0800000A0A00000A0C00000A0E00000C0000000C0200000C0400000C0600000C0800000C0
310
A00000C0C00000C0E00000E0000000E0200000E0400000E0600000E0800000E0A00000E0C00000E0E00040000000400020004000400040006000400080004000A0004000C0004000E00040200000402020004020400040206000402080004020A0004020C0004020E000404000004040200040404000404060004040800040
310
40A0004040C0004040E00040600000406020004060400040606000406080004060A0004060C0004060E00040800000408020004080400040806000408080004080A0004080C0004080E00040A0000040A0200040A0400040A0600040A0800040A0A00040A0C00040A0E00040C0000040C0200040C0400040C0600040C08000
310
40C0A00040C0C00040C0E00040E0000040E0200040E0400040E0600040E0800040E0A00040E0C00040E0E00080000000800020008000400080006000800080008000A0008000C0008000E00080200000802020008020400080206000802080008020A0008020C0008020E00080400000804020008040400080406000804080
310
008040A0008040C0008040E00080600000806020008060400080606000806080008060A0008060C0008060E00080800000808020008080400080806000808080008080A0008080C0008080E00080A0000080A0200080A0400080A0600080A0800080A0A00080A0C00080A0E00080C0000080C0200080C0400080C0600080C0
310
800080C0A00080C0C00080C0E00080E0000080E0200080E0400080E0600080E0800080E0A00080E0C00080E0E000C0000000C0002000C0004000C0006000C0008000C000A000C000C000C000E000C0200000C0202000C0204000C0206000C0208000C020A000C020C000C020E000C0400000C0402000C0404000C0406000C0
310
408000C040A000C040C000C040E000C0600000C0602000C0604000C0606000C0608000C060A000C060C000C060E000C0800000C0802000C0804000C0806000C0808000C080A000C080C000C080E000C0A00000C0A02000C0A04000C0A06000C0A08000C0A0A000C0A0C000C0A0E000C0C00000C0C02000C0C04000C0C06000
310
C0C08000C0C0A000F0FBFF00A4A0A000808080000000FF0000FF000000FFFF00FF000000FF00FF00FFFF0000FFFFFF0000000000000000000000000000000000000000000000000000000000000000000000000000000000000000000000000000000000000000000000000000000000000000000000000000000000000000
310
00000000000000000000000000000000000000000000000000000000000000000000000000000000000000000000000000000000000000000000000000000000000000000000000000000000000000000000000000000000000000000000000000000000000000000000000000000000000000000000000000000000000000
310
0000000000000000000000000000000000000000000000000000000000000000000000000000000000000000000000000000000000000000000000FFFFFFFF0000000000000000000000000000000000000000000000000000FAFF00000000FFFF0000000000000000000000000000000000000000000000FF00FAFFFFFAFF
310
FF00FFFF0000000000000000000000000000000000000000FF00FFFAFD00FA0000FF0000FF000000000000000000000000000000000000FF00FF00FDFA00FA000000FF00FF000000000000000000000000000000000000FFFFFFFFFFFAFFFAFFFFFFFFFFFFFFFFFFFFFFFFFFFF00000000000000000000FFFFFFFDFFFFFFFA
310
FFFFFD00FD00FD000000000000FF00000000000000FAFAFAFAFAFAFAFFFAFAFA00FF00FDFD00FD000000000000FFFAFAFAFA0000000000FF00FFFF00FF0009FAFAFFFAFAFAFAFAFAFA00000000FF0000FFFF00000000FAFAFAFAFAFAFAFAFAFAFAFAFAFAFAFAFAFAFAFAFAFAFAFAFAFAFAFAFA0000000000FF00FFFDFFFFFF
310
FAFFFFFDFD00FD00000000000000FFFAFAFAFA000000000000FF00FF00FDFFFFFFFFFDFDFD00FD00F9F9F9F9F900FF0000000000000000000000FFFFFDFAFDFDFAFD00FD00FD0000F9F9F9F9F900FF0000000000000000000000FFFFFFFAFFFFFAFFFFFFFFFFFFFFFFFFFFFFFFFFFF000000000000000000000000FFFA0000
310
00000000FFFF000000000000000000000000000000000000000000000000FFFFFFFFFFFF00000000000000000000000000000000000000000000000000000000000000000000000000000000000000000000000000000000000000000000000000000000000000000000000000000000000000000000000000000000000000
310
00000000000000000000000000000000000000000000000000000000000000000000000000000000000000000000000000000000000000000000000000000000000000000000000000000000000000000000000000000000000000000000000000000000000000000000000000000000000000000000000000000000000000
310
0000000000000000000000000000000000000000000000000000000000000000000000000000000000000000000000000000000000000000
102
{BLKREFS
331
77F9
102
}
  0
ENDTAB
  0
ENDSEC
  0
SECTION
  2
BLOCKS
  0
BLOCK
  5
24
330
23
100
AcDbEntity
  8
0
100
AcDbBlockBegin
  2
*Model_Space
 70
     0
 10
0.0
 20
0.0
 30
0.0
  3
*Model_Space
  1

  0
ENDBLK
  5
25
330
23
100
AcDbEntity
  8
0
100
AcDbBlockEnd
  0
BLOCK
  5
20
330
1F
100
AcDbEntity
 67
     1
  8
0
100
AcDbBlockBegin
  2
*Paper_Space
 70
     0
 10
0.0
 20
0.0
 30
0.0
  3
*Paper_Space
  1

  0
ENDBLK
  5
21
330
1F
100
AcDbEntity
 67
     1
  8
0
100
AcDbBlockEnd
  0
BLOCK
  5
28
330
27
100
AcDbEntity
 67
     1
  8
0
100
AcDbBlockBegin
  2
*Paper_Space0
 70
     0
 10
0.0
 20
0.0
 30
0.0
  3
*Paper_Space0
  1

  0
ENDBLK
  5
29
330
27
100
AcDbEntity
 67
     1
  8
0
100
AcDbBlockEnd
  0
BLOCK
  5
1071
330
106E
100
AcDbEntity
  8
0
100
AcDbBlockBegin
  2
insertpoint-ECKELT
 70
     2
 10
0.0
 20
0.0
 30
0.0
  3
insertpoint-ECKELT
  1

  0
ATTDEF
  5
1072
330
106E
100
AcDbEntity
  8
insertpoint_ECKELT
100
AcDbText
 10
-2.457298772169167
 20
-0.0000000000000284
 30
0.0
 40
0.6
  1
LW
 72
     2
 11
-1.199999999999999
 21
-0.0000000000000284
 31
0.0
100
AcDbAttributeDefinition
  3
Nr. links
  2
LINKS
 70
     0
  0
ATTDEF
  5
1073
330
106E
100
AcDbEntity
  8
insertpoint_ECKELT
100
AcDbText
 10
1.199999999999999
 20
-0.0000000000000284
 30
0.0
 40
0.6
  1
LW
100
AcDbAttributeDefinition
  3
Nr. rechts
  2
RECHTS
 70
     0
  0
LINE
  5
1074
102
{ACAD_REACTORS
330
1077
102
}
330
106E
100
AcDbEntity
  8
insertpoint_ECKELT
100
AcDbLine
 10
0.0
 20
1.799999999999997
 30
0.0
 11
0.0
 21
-1.799999999999997
 31
0.0
  0
LINE
  5
1075
102
{ACAD_REACTORS
330
1077
102
}
330
106E
100
AcDbEntity
  8
insertpoint_ECKELT
100
AcDbLine
 10
-1.8
 20
-0.0000000000000284
 30
0.0
 11
1.8
 21
-0.0000000000000284
 31
0.0
  0
CIRCLE
  5
1076
102
{ACAD_REACTORS
330
1077
102
}
330
106E
100
AcDbEntity
  8
insertpoint_ECKELT
100
AcDbCircle
 10
0.0
 20
0.0
 30
0.0
 40
1.199999999999999
  0
HATCH
  5
1077
330
106E
100
AcDbEntity
  8
insertpoint_ECKELT
100
AcDbHatch
 10
0.0
 20
0.0
 30
0.0
210
0.0
220
0.0
230
1.0
  2
SOLID
 70
     1
 71
     1
 91
        2
 92
        7
 72
     1
 73
     1
 93
        3
 10
0.0
 20
-0.0000000000000284
 42
0.0
 10
0.0
 20
1.200000000000002
 42
0.4142135623731013
 10
-1.199999999999999
 20
-0.0000000000000284
 42
0.0
 97
        3
330
1076
330
1075
330
1074
 92
        7
 72
     1
 73
     1
 93
        3
 10
1.199999999999999
 20
-0.0000000000000284
 42
0.0
 10
0.0
 20
-0.0000000000000284
 42
0.0
 10
0.0
 20
-1.200000000000002
 42
0.4142135623730888
 97
        3
330
1075
330
1074
330
1076
 75
     0
 76
     1
 47
0.0223086566480813
 98
        2
 10
-0.3163651093721391
 20
0.271413292077348
 10
0.7415965996738798
 20
-0.4513871917946233
450
        0
451
        0
460
0.0
461
0.0
452
        0
462
0.0
453
        0
470

  0
ENDBLK
  5
1078
330
106E
100
AcDbEntity
  8
0
100
AcDbBlockEnd
  0
BLOCK
  5
7368
330
7367
100
AcDbEntity
  8
0
100
AcDbBlockBegin
  2
LW 5015-32-00_a
 70
     0
 10
0.0
 20
0.0
 30
0.0
  3
LW 5015-32-00_a
  1

  0
ELLIPSE
  5
736A
330
7367
100
AcDbEntity
  8
LW 5015-32-00
100
AcDbEllipse
 10
37.52000000000022
 20
-9.499999999999943
 30
0.0
 11
-2.499999999999997
 21
0.0000000000002078
 31
0.0
210
0.0
220
0.0
230
1.0
 40
0.866025403784439
 41
0.7560039322268049
 42
2.385588721363189
  0
POLYLINE
  5
736B
330
7367
100
AcDbEntity
  8
LW 5015-32-00
100
AcDb2dPolyline
 66
     1
 10
0.0
 20
0.0
 30
0.0
 70
   128
  0
VERTEX
  5
736C
330
736B
100
AcDbEntity
  8
LW 5015-32-00
100
AcDbVertex
100
AcDb2dVertex
 10
40.02000000000022
 20
-12.49999999999994
 30
0.0
  0
VERTEX
  5
736D
330
736B
100
AcDbEntity
  8
LW 5015-32-00
100
AcDbVertex
100
AcDb2dVertex
 10
39.99898697853111
 20
-12.77545213699335
 30
0.0
  0
VERTEX
  5
736E
330
736B
100
AcDbEntity
  8
LW 5015-32-00
100
AcDbVertex
100
AcDb2dVertex
 10
39.93565704345725
 20
-13.05167794227594
 30
0.0
  0
VERTEX
  5
736F
330
736B
100
AcDbEntity
  8
LW 5015-32-00
100
AcDbVertex
100
AcDb2dVertex
 10
39.8295774650576
 20
-13.31962585449213
 30
0.0
  0
VERTEX
  5
7370
330
736B
100
AcDbEntity
  8
LW 5015-32-00
100
AcDbVertex
100
AcDb2dVertex
 10
39.68169476509117
 20
-13.5708856582641
 30
0.0
  0
VERTEX
  5
7371
330
736B
100
AcDbEntity
  8
LW 5015-32-00
100
AcDbVertex
100
AcDb2dVertex
 10
39.49847723960899
 20
-13.79940271377558
 30
0.0
  0
VERTEX
  5
7372
330
736B
100
AcDbEntity
  8
LW 5015-32-00
100
AcDbVertex
100
AcDb2dVertex
 10
39.28776528358482
 20
-13.99964332580561
 30
0.0
  0
VERTEX
  5
7373
330
736B
100
AcDbEntity
  8
LW 5015-32-00
100
AcDbVertex
100
AcDb2dVertex
 10
39.04740001678489
 20
-14.17419910430902
 30
0.0
  0
VERTEX
  5
7374
330
736B
100
AcDbEntity
  8
LW 5015-32-00
100
AcDbVertex
100
AcDb2dVertex
 10
38.77476121902488
 20
-14.32525992393488
 30
0.0
  0
VERTEX
  5
7375
330
736B
100
AcDbEntity
  8
LW 5015-32-00
100
AcDbVertex
100
AcDb2dVertex
 10
38.47699787139915
 20
-14.44669842720026
 30
0.0
  0
VERTEX
  5
7376
330
736B
100
AcDbEntity
  8
LW 5015-32-00
100
AcDbVertex
100
AcDb2dVertex
 10
38.1618311595919
 20
-14.53354954719538
 30
0.0
  0
VERTEX
  5
7377
330
736B
100
AcDbEntity
  8
LW 5015-32-00
100
AcDbVertex
100
AcDb2dVertex
 10
37.83929254531883
 20
-14.58527922630304
 30
0.0
  0
VERTEX
  5
7378
330
736B
100
AcDbEntity
  8
LW 5015-32-00
100
AcDbVertex
100
AcDb2dVertex
 10
37.52000000000022
 20
-14.6024060249328
 30
0.0
  0
VERTEX
  5
7379
330
736B
100
AcDbEntity
  8
LW 5015-32-00
100
AcDbVertex
100
AcDb2dVertex
 10
37.20070745468162
 20
-14.58527922630304
 30
0.0
  0
VERTEX
  5
737A
330
736B
100
AcDbEntity
  8
LW 5015-32-00
100
AcDbVertex
100
AcDb2dVertex
 10
36.87816884040855
 20
-14.53354954719538
 30
0.0
  0
VERTEX
  5
737B
330
736B
100
AcDbEntity
  8
LW 5015-32-00
100
AcDbVertex
100
AcDb2dVertex
 10
36.5630021286013
 20
-14.44669842720026
 30
0.0
  0
VERTEX
  5
737C
330
736B
100
AcDbEntity
  8
LW 5015-32-00
100
AcDbVertex
100
AcDb2dVertex
 10
36.26523878097557
 20
-14.32525992393488
 30
0.0
  0
VERTEX
  5
737D
330
736B
100
AcDbEntity
  8
LW 5015-32-00
100
AcDbVertex
100
AcDb2dVertex
 10
35.99259998321556
 20
-14.17419910430902
 30
0.0
  0
VERTEX
  5
737E
330
736B
100
AcDbEntity
  8
LW 5015-32-00
100
AcDbVertex
100
AcDb2dVertex
 10
35.75223471641563
 20
-13.99964332580561
 30
0.0
  0
VERTEX
  5
737F
330
736B
100
AcDbEntity
  8
LW 5015-32-00
100
AcDbVertex
100
AcDb2dVertex
 10
35.54152276039146
 20
-13.79940271377558
 30
0.0
  0
VERTEX
  5
7380
330
736B
100
AcDbEntity
  8
LW 5015-32-00
100
AcDbVertex
100
AcDb2dVertex
 10
35.35830523490928
 20
-13.5708856582641
 30
0.0
  0
VERTEX
  5
7381
330
736B
100
AcDbEntity
  8
LW 5015-32-00
100
AcDbVertex
100
AcDb2dVertex
 10
35.21042253494285
 20
-13.31962585449213
 30
0.0
  0
VERTEX
  5
7382
330
736B
100
AcDbEntity
  8
LW 5015-32-00
100
AcDbVertex
100
AcDb2dVertex
 10
35.10434295654319
 20
-13.05167794227594
 30
0.0
  0
VERTEX
  5
7383
330
736B
100
AcDbEntity
  8
LW 5015-32-00
100
AcDbVertex
100
AcDb2dVertex
 10
35.04101302146934
 20
-12.77545213699335
 30
0.0
  0
VERTEX
  5
7384
330
736B
100
AcDbEntity
  8
LW 5015-32-00
100
AcDbVertex
100
AcDb2dVertex
 10
35.02000000000022
 20
-12.49999999999994
 30
0.0
  0
SEQEND
  5
7385
330
736B
100
AcDbEntity
  8
LW 5015-32-00
  0
POLYLINE
  5
7386
330
7367
100
AcDbEntity
  8
LW 5015-32-00
100
AcDb2dPolyline
 66
     1
 10
0.0
 20
0.0
 30
0.0
 70
   128
  0
VERTEX
  5
7387
330
7386
100
AcDbEntity
  8
LW 5015-32-00
100
AcDbVertex
100
AcDb2dVertex
 10
35.02000000000022
 20
-12.49999999999994
 30
0.0
  0
VERTEX
  5
7388
330
7386
100
AcDbEntity
  8
LW 5015-32-00
100
AcDbVertex
100
AcDb2dVertex
 10
35.04101302146934
 20
-12.22241878509516
 30
0.0
  0
VERTEX
  5
7389
330
7386
100
AcDbEntity
  8
LW 5015-32-00
100
AcDbVertex
100
AcDb2dVertex
 10
35.10434295654319
 20
-11.93999171257013
 30
0.0
  0
VERTEX
  5
738A
330
7386
100
AcDbEntity
  8
LW 5015-32-00
100
AcDbVertex
100
AcDb2dVertex
 10
35.21042253494285
 20
-11.6620504856109
 30
0.0
  0
VERTEX
  5
738B
330
7386
100
AcDbEntity
  8
LW 5015-32-00
100
AcDbVertex
100
AcDb2dVertex
 10
35.35830523490928
 20
-11.39756798744196
 30
0.0
  0
VERTEX
  5
738C
330
7386
100
AcDbEntity
  8
LW 5015-32-00
100
AcDbVertex
100
AcDb2dVertex
 10
35.54152276039146
 20
-11.15386009216303
 30
0.0
  0
VERTEX
  5
738D
330
7386
100
AcDbEntity
  8
LW 5015-32-00
100
AcDbVertex
100
AcDb2dVertex
 10
35.75223471641563
 20
-10.9377777576446
 30
0.0
  0
VERTEX
  5
738E
330
7386
100
AcDbEntity
  8
LW 5015-32-00
100
AcDbVertex
100
AcDb2dVertex
 10
35.99259998321556
 20
-10.74736952781671
 30
0.0
  0
VERTEX
  5
738F
330
7386
100
AcDbEntity
  8
LW 5015-32-00
100
AcDbVertex
100
AcDb2dVertex
 10
36.26523878097557
 20
-10.58108925819391
 30
0.0
  0
VERTEX
  5
7390
330
7386
100
AcDbEntity
  8
LW 5015-32-00
100
AcDbVertex
100
AcDb2dVertex
 10
36.5630021286013
 20
-10.4463899135589
 30
0.0
  0
VERTEX
  5
7391
330
7386
100
AcDbEntity
  8
LW 5015-32-00
100
AcDbVertex
100
AcDb2dVertex
 10
36.87816884040855
 20
-10.34950613975519
 30
0.0
  0
VERTEX
  5
7392
330
7386
100
AcDbEntity
  8
LW 5015-32-00
100
AcDbVertex
100
AcDb2dVertex
 10
37.20070745468162
 20
-10.2915477752685
 30
0.0
  0
VERTEX
  5
7393
330
7386
100
AcDbEntity
  8
LW 5015-32-00
100
AcDbVertex
100
AcDb2dVertex
 10
37.52000000000022
 20
-10.2722799777984
 30
0.0
  0
VERTEX
  5
7394
330
7386
100
AcDbEntity
  8
LW 5015-32-00
100
AcDbVertex
100
AcDb2dVertex
 10
37.83929254531883
 20
-10.2915477752685
 30
0.0
  0
VERTEX
  5
7395
330
7386
100
AcDbEntity
  8
LW 5015-32-00
100
AcDbVertex
100
AcDb2dVertex
 10
38.1618311595919
 20
-10.34950613975519
 30
0.0
  0
VERTEX
  5
7396
330
7386
100
AcDbEntity
  8
LW 5015-32-00
100
AcDbVertex
100
AcDb2dVertex
 10
38.47699787139915
 20
-10.4463899135589
 30
0.0
  0
VERTEX
  5
7397
330
7386
100
AcDbEntity
  8
LW 5015-32-00
100
AcDbVertex
100
AcDb2dVertex
 10
38.77476121902488
 20
-10.58108925819391
 30
0.0
  0
VERTEX
  5
7398
330
7386
100
AcDbEntity
  8
LW 5015-32-00
100
AcDbVertex
100
AcDb2dVertex
 10
39.04740001678489
 20
-10.74736952781671
 30
0.0
  0
VERTEX
  5
7399
330
7386
100
AcDbEntity
  8
LW 5015-32-00
100
AcDbVertex
100
AcDb2dVertex
 10
39.28776528358482
 20
-10.9377777576446
 30
0.0
  0
VERTEX
  5
739A
330
7386
100
AcDbEntity
  8
LW 5015-32-00
100
AcDbVertex
100
AcDb2dVertex
 10
39.49847723960899
 20
-11.15386009216303
 30
0.0
  0
VERTEX
  5
739B
330
7386
100
AcDbEntity
  8
LW 5015-32-00
100
AcDbVertex
100
AcDb2dVertex
 10
39.68169476509117
 20
-11.39756798744196
 30
0.0
  0
VERTEX
  5
739C
330
7386
100
AcDbEntity
  8
LW 5015-32-00
100
AcDbVertex
100
AcDb2dVertex
 10
39.8295774650576
 20
-11.6620504856109
 30
0.0
  0
VERTEX
  5
739D
330
7386
100
AcDbEntity
  8
LW 5015-32-00
100
AcDbVertex
100
AcDb2dVertex
 10
39.93565704345725
 20
-11.93999171257013
 30
0.0
  0
VERTEX
  5
739E
330
7386
100
AcDbEntity
  8
LW 5015-32-00
100
AcDbVertex
100
AcDb2dVertex
 10
39.99898697853111
 20
-12.22241878509516
 30
0.0
  0
VERTEX
  5
739F
330
7386
100
AcDbEntity
  8
LW 5015-32-00
100
AcDbVertex
100
AcDb2dVertex
 10
40.02000000000022
 20
-12.49999999999994
 30
0.0
  0
SEQEND
  5
73A0
330
7386
100
AcDbEntity
  8
LW 5015-32-00
  0
POLYLINE
  5
73A1
330
7367
100
AcDbEntity
  8
LW 5015-32-00
100
AcDb2dPolyline
 66
     1
 10
0.0
 20
0.0
 30
0.0
 70
   128
  0
VERTEX
  5
73A2
330
73A1
100
AcDbEntity
  8
LW 5015-32-00
100
AcDbVertex
100
AcDb2dVertex
 10
40.02000000000022
 20
25.00000000000011
 30
0.0
  0
VERTEX
  5
73A3
330
73A1
100
AcDbEntity
  8
LW 5015-32-00
100
AcDbVertex
100
AcDb2dVertex
 10
39.99898697853111
 20
24.99787092208874
 30
0.0
  0
VERTEX
  5
73A4
330
73A1
100
AcDbEntity
  8
LW 5015-32-00
100
AcDbVertex
100
AcDb2dVertex
 10
39.93565704345725
 20
24.99166965484631
 30
0.0
  0
VERTEX
  5
73A5
330
73A1
100
AcDbEntity
  8
LW 5015-32-00
100
AcDbVertex
100
AcDb2dVertex
 10
39.8295774650576
 20
24.98167514801037
 30
0.0
  0
VERTEX
  5
73A6
330
73A1
100
AcDbEntity
  8
LW 5015-32-00
100
AcDbVertex
100
AcDb2dVertex
 10
39.68169476509117
 20
24.96845483779919
 30
0.0
  0
VERTEX
  5
73A7
330
73A1
100
AcDbEntity
  8
LW 5015-32-00
100
AcDbVertex
100
AcDb2dVertex
 10
39.49847723960899
 20
24.95326280593884
 30
0.0
  0
VERTEX
  5
73A8
330
73A1
100
AcDbEntity
  8
LW 5015-32-00
100
AcDbVertex
100
AcDb2dVertex
 10
39.28776528358482
 20
24.93742227554333
 30
0.0
  0
VERTEX
  5
73A9
330
73A1
100
AcDbEntity
  8
LW 5015-32-00
100
AcDbVertex
100
AcDb2dVertex
 10
39.04740001678489
 20
24.92156982421886
 30
0.0
  0
VERTEX
  5
73AA
330
73A1
100
AcDbEntity
  8
LW 5015-32-00
100
AcDbVertex
100
AcDb2dVertex
 10
38.77476121902488
 20
24.90634918212902
 30
0.0
  0
VERTEX
  5
73AB
330
73A1
100
AcDbEntity
  8
LW 5015-32-00
100
AcDbVertex
100
AcDb2dVertex
 10
38.47699787139915
 20
24.89308834075939
 30
0.0
  0
VERTEX
  5
73AC
330
73A1
100
AcDbEntity
  8
LW 5015-32-00
100
AcDbVertex
100
AcDb2dVertex
 10
38.1618311595919
 20
24.8830556869508
 30
0.0
  0
VERTEX
  5
73AD
330
73A1
100
AcDbEntity
  8
LW 5015-32-00
100
AcDbVertex
100
AcDb2dVertex
 10
37.83929254531883
 20
24.87682580947887
 30
0.0
  0
VERTEX
  5
73AE
330
73A1
100
AcDbEntity
  8
LW 5015-32-00
100
AcDbVertex
100
AcDb2dVertex
 10
37.52000000000022
 20
24.87468481063854
 30
0.0
  0
VERTEX
  5
73AF
330
73A1
100
AcDbEntity
  8
LW 5015-32-00
100
AcDbVertex
100
AcDb2dVertex
 10
37.20070745468162
 20
24.87682580947887
 30
0.0
  0
VERTEX
  5
73B0
330
73A1
100
AcDbEntity
  8
LW 5015-32-00
100
AcDbVertex
100
AcDb2dVertex
 10
36.87816884040855
 20
24.8830556869508
 30
0.0
  0
VERTEX
  5
73B1
330
73A1
100
AcDbEntity
  8
LW 5015-32-00
100
AcDbVertex
100
AcDb2dVertex
 10
36.5630021286013
 20
24.89308834075939
 30
0.0
  0
VERTEX
  5
73B2
330
73A1
100
AcDbEntity
  8
LW 5015-32-00
100
AcDbVertex
100
AcDb2dVertex
 10
36.26523878097557
 20
24.90634918212902
 30
0.0
  0
VERTEX
  5
73B3
330
73A1
100
AcDbEntity
  8
LW 5015-32-00
100
AcDbVertex
100
AcDb2dVertex
 10
35.99259998321556
 20
24.92156982421886
 30
0.0
  0
VERTEX
  5
73B4
330
73A1
100
AcDbEntity
  8
LW 5015-32-00
100
AcDbVertex
100
AcDb2dVertex
 10
35.75223471641563
 20
24.93742227554333
 30
0.0
  0
VERTEX
  5
73B5
330
73A1
100
AcDbEntity
  8
LW 5015-32-00
100
AcDbVertex
100
AcDb2dVertex
 10
35.54152276039146
 20
24.95326280593884
 30
0.0
  0
VERTEX
  5
73B6
330
73A1
100
AcDbEntity
  8
LW 5015-32-00
100
AcDbVertex
100
AcDb2dVertex
 10
35.35830523490928
 20
24.96845483779919
 30
0.0
  0
VERTEX
  5
73B7
330
73A1
100
AcDbEntity
  8
LW 5015-32-00
100
AcDbVertex
100
AcDb2dVertex
 10
35.21042253494285
 20
24.98167514801037
 30
0.0
  0
VERTEX
  5
73B8
330
73A1
100
AcDbEntity
  8
LW 5015-32-00
100
AcDbVertex
100
AcDb2dVertex
 10
35.10434295654319
 20
24.99166965484631
 30
0.0
  0
VERTEX
  5
73B9
330
73A1
100
AcDbEntity
  8
LW 5015-32-00
100
AcDbVertex
100
AcDb2dVertex
 10
35.04101302146934
 20
24.99787092208874
 30
0.0
  0
VERTEX
  5
73BA
330
73A1
100
AcDbEntity
  8
LW 5015-32-00
100
AcDbVertex
100
AcDb2dVertex
 10
35.02000000000022
 20
25.00000000000011
 30
0.0
  0
SEQEND
  5
73BB
330
73A1
100
AcDbEntity
  8
LW 5015-32-00
  0
LINE
  5
73BC
330
7367
100
AcDbEntity
  8
LW 5015-32-00
100
AcDbLine
 10
41.52000000000022
 20
-24.99999999999995
 30
0.0
 11
41.52000000000022
 21
25.00000000000011
 31
0.0
  0
LINE
  5
73BD
330
7367
100
AcDbEntity
  8
LW 5015-32-00
100
AcDbLine
 10
47.52000000000022
 20
-18.99999999999989
 30
0.0
 11
47.52000000000022
 21
19.00000000000005
 31
0.0
  0
LINE
  5
73BE
330
7367
100
AcDbEntity
  8
LW 5015-32-00
100
AcDbLine
 10
141.5200000000002
 20
-9.999999999999943
 30
0.0
 11
141.5200000000002
 21
10.00000000000011
 31
0.0
  0
LINE
  5
73BF
330
7367
100
AcDbEntity
  8
LW 5015-32-00
100
AcDbLine
 10
142.5200000000002
 20
-8.999999999999943
 30
0.0
 11
142.5200000000002
 21
9.000000000000113
 31
0.0
  0
LINE
  5
73C0
330
7367
100
AcDbEntity
  8
LW 5015-32-00
100
AcDbLine
 10
22.52000000000022
 20
25.00000000000011
 30
0.0
 11
35.02000000000022
 21
25.00000000000011
 31
0.0
  0
LINE
  5
73C1
330
7367
100
AcDbEntity
  8
LW 5015-32-00
100
AcDbLine
 10
40.02000000000022
 20
25.00000000000011
 30
0.0
 11
41.52000000000022
 21
25.00000000000011
 31
0.0
  0
LINE
  5
73C2
330
7367
100
AcDbEntity
  8
LW 5015-32-00
100
AcDbLine
 10
22.52000000000022
 20
-24.99999999999995
 30
0.0
 11
41.52000000000022
 21
-24.99999999999995
 31
0.0
  0
LINE
  5
73C3
330
7367
100
AcDbEntity
  8
LW 5015-32-00
100
AcDbLine
 10
47.52000000000022
 20
-18.99999999999989
 30
0.0
 11
41.52000000000022
 21
-24.99999999999995
 31
0.0
  0
LINE
  5
73C4
330
7367
100
AcDbEntity
  8
LW 5015-32-00
100
AcDbLine
 10
47.52000000000022
 20
19.00000000000005
 30
0.0
 11
41.52000000000022
 21
25.00000000000011
 31
0.0
  0
ARC
  5
73C5
330
7367
100
AcDbEntity
  8
LW 5015-32-00
100
AcDbCircle
 10
48.52000000000022
 20
-10.99999999999988
 30
0.0
 40
1.000000000000001
100
AcDbArc
 50
90.0
 51
180.0
  0
ARC
  5
73C6
330
7367
100
AcDbEntity
  8
LW 5015-32-00
100
AcDbCircle
 10
48.52000000000022
 20
11.00000000000011
 30
0.0
 40
1.000000000000001
100
AcDbArc
 50
180.0
 51
270.0
  0
LINE
  5
73C7
330
7367
100
AcDbEntity
  8
LW 5015-32-00
100
AcDbLine
 10
48.52000000000022
 20
10.00000000000011
 30
0.0
 11
90.10435004493523
 21
10.00000000000011
 31
0.0
  0
LINE
  5
73C8
330
7367
100
AcDbEntity
  8
LW 5015-32-00
100
AcDbLine
 10
124.8956499550653
 20
10.00000000000011
 30
0.0
 11
141.5200000000002
 21
10.00000000000011
 31
0.0
  0
LINE
  5
73C9
330
7367
100
AcDbEntity
  8
LW 5015-32-00
100
AcDbLine
 10
48.52000000000022
 20
-9.999999999999943
 30
0.0
 11
90.10435004493439
 21
-9.999999999999941
 31
0.0
  0
LINE
  5
73CA
330
7367
100
AcDbEntity
  8
LW 5015-32-00
100
AcDbLine
 10
124.8956499550661
 20
-9.999999999999943
 30
0.0
 11
141.5200000000002
 21
-9.999999999999943
 31
0.0
  0
LINE
  5
73CB
330
7367
100
AcDbEntity
  8
LW 5015-32-00
100
AcDbLine
 10
142.5200000000002
 20
-8.999999999999886
 30
0.0
 11
141.5200000000002
 21
-9.999999999999943
 31
0.0
  0
LINE
  5
73CC
330
7367
100
AcDbEntity
  8
LW 5015-32-00
100
AcDbLine
 10
142.5200000000002
 20
9.000000000000113
 30
0.0
 11
141.5200000000002
 21
10.00000000000011
 31
0.0
  0
ELLIPSE
  5
73CD
330
7367
100
AcDbEntity
  8
LW 5015-32-00
100
AcDbEllipse
 10
-37.51999999999977
 20
-9.499999999999943
 30
0.0
 11
-2.499999999999997
 21
0.0000000000002
 31
0.0
210
0.0
220
0.0
230
1.0
 40
0.866025403784439
 41
0.7560039322268107
 42
2.385588721363187
  0
POLYLINE
  5
73CE
330
7367
100
AcDbEntity
  8
LW 5015-32-00
100
AcDb2dPolyline
 66
     1
 10
0.0
 20
0.0
 30
0.0
 70
   128
  0
VERTEX
  5
73CF
330
73CE
100
AcDbEntity
  8
LW 5015-32-00
100
AcDbVertex
100
AcDb2dVertex
 10
-40.01999999999976
 20
-12.49999999999994
 30
0.0
  0
VERTEX
  5
73D0
330
73CE
100
AcDbEntity
  8
LW 5015-32-00
100
AcDbVertex
100
AcDb2dVertex
 10
-39.99898697853065
 20
-12.22241878509516
 30
0.0
  0
VERTEX
  5
73D1
330
73CE
100
AcDbEntity
  8
LW 5015-32-00
100
AcDbVertex
100
AcDb2dVertex
 10
-39.9356570434568
 20
-11.93999171257013
 30
0.0
  0
VERTEX
  5
73D2
330
73CE
100
AcDbEntity
  8
LW 5015-32-00
100
AcDbVertex
100
AcDb2dVertex
 10
-39.82957746505714
 20
-11.6620504856109
 30
0.0
  0
VERTEX
  5
73D3
330
73CE
100
AcDbEntity
  8
LW 5015-32-00
100
AcDbVertex
100
AcDb2dVertex
 10
-39.68169476509071
 20
-11.39756798744196
 30
0.0
  0
VERTEX
  5
73D4
330
73CE
100
AcDbEntity
  8
LW 5015-32-00
100
AcDbVertex
100
AcDb2dVertex
 10
-39.49847723960854
 20
-11.15386009216303
 30
0.0
  0
VERTEX
  5
73D5
330
73CE
100
AcDbEntity
  8
LW 5015-32-00
100
AcDbVertex
100
AcDb2dVertex
 10
-39.28776528358437
 20
-10.9377777576446
 30
0.0
  0
VERTEX
  5
73D6
330
73CE
100
AcDbEntity
  8
LW 5015-32-00
100
AcDbVertex
100
AcDb2dVertex
 10
-39.04740001678444
 20
-10.74736952781671
 30
0.0
  0
VERTEX
  5
73D7
330
73CE
100
AcDbEntity
  8
LW 5015-32-00
100
AcDbVertex
100
AcDb2dVertex
 10
-38.77476121902443
 20
-10.58108925819391
 30
0.0
  0
VERTEX
  5
73D8
330
73CE
100
AcDbEntity
  8
LW 5015-32-00
100
AcDbVertex
100
AcDb2dVertex
 10
-38.4769978713987
 20
-10.4463899135589
 30
0.0
  0
VERTEX
  5
73D9
330
73CE
100
AcDbEntity
  8
LW 5015-32-00
100
AcDbVertex
100
AcDb2dVertex
 10
-38.16183115959145
 20
-10.34950613975519
 30
0.0
  0
VERTEX
  5
73DA
330
73CE
100
AcDbEntity
  8
LW 5015-32-00
100
AcDbVertex
100
AcDb2dVertex
 10
-37.83929254531837
 20
-10.2915477752685
 30
0.0
  0
VERTEX
  5
73DB
330
73CE
100
AcDbEntity
  8
LW 5015-32-00
100
AcDbVertex
100
AcDb2dVertex
 10
-37.51999999999977
 20
-10.2722799777984
 30
0.0
  0
VERTEX
  5
73DC
330
73CE
100
AcDbEntity
  8
LW 5015-32-00
100
AcDbVertex
100
AcDb2dVertex
 10
-37.20070745468117
 20
-10.2915477752685
 30
0.0
  0
VERTEX
  5
73DD
330
73CE
100
AcDbEntity
  8
LW 5015-32-00
100
AcDbVertex
100
AcDb2dVertex
 10
-36.8781688404081
 20
-10.34950613975519
 30
0.0
  0
VERTEX
  5
73DE
330
73CE
100
AcDbEntity
  8
LW 5015-32-00
100
AcDbVertex
100
AcDb2dVertex
 10
-36.56300212860084
 20
-10.4463899135589
 30
0.0
  0
VERTEX
  5
73DF
330
73CE
100
AcDbEntity
  8
LW 5015-32-00
100
AcDbVertex
100
AcDb2dVertex
 10
-36.26523878097511
 20
-10.58108925819391
 30
0.0
  0
VERTEX
  5
73E0
330
73CE
100
AcDbEntity
  8
LW 5015-32-00
100
AcDbVertex
100
AcDb2dVertex
 10
-35.9925999832151
 20
-10.74736952781671
 30
0.0
  0
VERTEX
  5
73E1
330
73CE
100
AcDbEntity
  8
LW 5015-32-00
100
AcDbVertex
100
AcDb2dVertex
 10
-35.75223471641518
 20
-10.9377777576446
 30
0.0
  0
VERTEX
  5
73E2
330
73CE
100
AcDbEntity
  8
LW 5015-32-00
100
AcDbVertex
100
AcDb2dVertex
 10
-35.54152276039101
 20
-11.15386009216303
 30
0.0
  0
VERTEX
  5
73E3
330
73CE
100
AcDbEntity
  8
LW 5015-32-00
100
AcDbVertex
100
AcDb2dVertex
 10
-35.35830523490883
 20
-11.39756798744196
 30
0.0
  0
VERTEX
  5
73E4
330
73CE
100
AcDbEntity
  8
LW 5015-32-00
100
AcDbVertex
100
AcDb2dVertex
 10
-35.2104225349424
 20
-11.6620504856109
 30
0.0
  0
VERTEX
  5
73E5
330
73CE
100
AcDbEntity
  8
LW 5015-32-00
100
AcDbVertex
100
AcDb2dVertex
 10
-35.10434295654274
 20
-11.93999171257013
 30
0.0
  0
VERTEX
  5
73E6
330
73CE
100
AcDbEntity
  8
LW 5015-32-00
100
AcDbVertex
100
AcDb2dVertex
 10
-35.04101302146889
 20
-12.22241878509516
 30
0.0
  0
VERTEX
  5
73E7
330
73CE
100
AcDbEntity
  8
LW 5015-32-00
100
AcDbVertex
100
AcDb2dVertex
 10
-35.01999999999977
 20
-12.49999999999994
 30
0.0
  0
SEQEND
  5
73E8
330
73CE
100
AcDbEntity
  8
LW 5015-32-00
  0
POLYLINE
  5
73E9
330
7367
100
AcDbEntity
  8
LW 5015-32-00
100
AcDb2dPolyline
 66
     1
 10
0.0
 20
0.0
 30
0.0
 70
   128
  0
VERTEX
  5
73EA
330
73E9
100
AcDbEntity
  8
LW 5015-32-00
100
AcDbVertex
100
AcDb2dVertex
 10
-35.01999999999977
 20
-12.49999999999994
 30
0.0
  0
VERTEX
  5
73EB
330
73E9
100
AcDbEntity
  8
LW 5015-32-00
100
AcDbVertex
100
AcDb2dVertex
 10
-35.04101302146889
 20
-12.77545213699335
 30
0.0
  0
VERTEX
  5
73EC
330
73E9
100
AcDbEntity
  8
LW 5015-32-00
100
AcDbVertex
100
AcDb2dVertex
 10
-35.10434295654274
 20
-13.05167794227594
 30
0.0
  0
VERTEX
  5
73ED
330
73E9
100
AcDbEntity
  8
LW 5015-32-00
100
AcDbVertex
100
AcDb2dVertex
 10
-35.2104225349424
 20
-13.31962585449213
 30
0.0
  0
VERTEX
  5
73EE
330
73E9
100
AcDbEntity
  8
LW 5015-32-00
100
AcDbVertex
100
AcDb2dVertex
 10
-35.35830523490883
 20
-13.5708856582641
 30
0.0
  0
VERTEX
  5
73EF
330
73E9
100
AcDbEntity
  8
LW 5015-32-00
100
AcDbVertex
100
AcDb2dVertex
 10
-35.54152276039101
 20
-13.79940271377558
 30
0.0
  0
VERTEX
  5
73F0
330
73E9
100
AcDbEntity
  8
LW 5015-32-00
100
AcDbVertex
100
AcDb2dVertex
 10
-35.75223471641518
 20
-13.99964332580561
 30
0.0
  0
VERTEX
  5
73F1
330
73E9
100
AcDbEntity
  8
LW 5015-32-00
100
AcDbVertex
100
AcDb2dVertex
 10
-35.9925999832151
 20
-14.17419910430902
 30
0.0
  0
VERTEX
  5
73F2
330
73E9
100
AcDbEntity
  8
LW 5015-32-00
100
AcDbVertex
100
AcDb2dVertex
 10
-36.26523878097511
 20
-14.32525992393488
 30
0.0
  0
VERTEX
  5
73F3
330
73E9
100
AcDbEntity
  8
LW 5015-32-00
100
AcDbVertex
100
AcDb2dVertex
 10
-36.56300212860084
 20
-14.44669842720026
 30
0.0
  0
VERTEX
  5
73F4
330
73E9
100
AcDbEntity
  8
LW 5015-32-00
100
AcDbVertex
100
AcDb2dVertex
 10
-36.8781688404081
 20
-14.53354954719538
 30
0.0
  0
VERTEX
  5
73F5
330
73E9
100
AcDbEntity
  8
LW 5015-32-00
100
AcDbVertex
100
AcDb2dVertex
 10
-37.20070745468117
 20
-14.58527922630304
 30
0.0
  0
VERTEX
  5
73F6
330
73E9
100
AcDbEntity
  8
LW 5015-32-00
100
AcDbVertex
100
AcDb2dVertex
 10
-37.51999999999977
 20
-14.6024060249328
 30
0.0
  0
VERTEX
  5
73F7
330
73E9
100
AcDbEntity
  8
LW 5015-32-00
100
AcDbVertex
100
AcDb2dVertex
 10
-37.83929254531837
 20
-14.58527922630304
 30
0.0
  0
VERTEX
  5
73F8
330
73E9
100
AcDbEntity
  8
LW 5015-32-00
100
AcDbVertex
100
AcDb2dVertex
 10
-38.16183115959145
 20
-14.53354954719538
 30
0.0
  0
VERTEX
  5
73F9
330
73E9
100
AcDbEntity
  8
LW 5015-32-00
100
AcDbVertex
100
AcDb2dVertex
 10
-38.4769978713987
 20
-14.44669842720026
 30
0.0
  0
VERTEX
  5
73FA
330
73E9
100
AcDbEntity
  8
LW 5015-32-00
100
AcDbVertex
100
AcDb2dVertex
 10
-38.77476121902443
 20
-14.32525992393488
 30
0.0
  0
VERTEX
  5
73FB
330
73E9
100
AcDbEntity
  8
LW 5015-32-00
100
AcDbVertex
100
AcDb2dVertex
 10
-39.04740001678444
 20
-14.17419910430902
 30
0.0
  0
VERTEX
  5
73FC
330
73E9
100
AcDbEntity
  8
LW 5015-32-00
100
AcDbVertex
100
AcDb2dVertex
 10
-39.28776528358437
 20
-13.99964332580561
 30
0.0
  0
VERTEX
  5
73FD
330
73E9
100
AcDbEntity
  8
LW 5015-32-00
100
AcDbVertex
100
AcDb2dVertex
 10
-39.49847723960854
 20
-13.79940271377558
 30
0.0
  0
VERTEX
  5
73FE
330
73E9
100
AcDbEntity
  8
LW 5015-32-00
100
AcDbVertex
100
AcDb2dVertex
 10
-39.68169476509071
 20
-13.5708856582641
 30
0.0
  0
VERTEX
  5
73FF
330
73E9
100
AcDbEntity
  8
LW 5015-32-00
100
AcDbVertex
100
AcDb2dVertex
 10
-39.82957746505714
 20
-13.31962585449213
 30
0.0
  0
VERTEX
  5
7400
330
73E9
100
AcDbEntity
  8
LW 5015-32-00
100
AcDbVertex
100
AcDb2dVertex
 10
-39.9356570434568
 20
-13.05167794227594
 30
0.0
  0
VERTEX
  5
7401
330
73E9
100
AcDbEntity
  8
LW 5015-32-00
100
AcDbVertex
100
AcDb2dVertex
 10
-39.99898697853065
 20
-12.77545213699335
 30
0.0
  0
VERTEX
  5
7402
330
73E9
100
AcDbEntity
  8
LW 5015-32-00
100
AcDbVertex
100
AcDb2dVertex
 10
-40.01999999999976
 20
-12.49999999999994
 30
0.0
  0
SEQEND
  5
7403
330
73E9
100
AcDbEntity
  8
LW 5015-32-00
  0
POLYLINE
  5
7404
330
7367
100
AcDbEntity
  8
LW 5015-32-00
100
AcDb2dPolyline
 66
     1
 10
0.0
 20
0.0
 30
0.0
 70
   128
  0
VERTEX
  5
7405
330
7404
100
AcDbEntity
  8
LW 5015-32-00
100
AcDbVertex
100
AcDb2dVertex
 10
-35.01999999999977
 20
25.00000000000011
 30
0.0
  0
VERTEX
  5
7406
330
7404
100
AcDbEntity
  8
LW 5015-32-00
100
AcDbVertex
100
AcDb2dVertex
 10
-35.04101302146889
 20
24.99787092208874
 30
0.0
  0
VERTEX
  5
7407
330
7404
100
AcDbEntity
  8
LW 5015-32-00
100
AcDbVertex
100
AcDb2dVertex
 10
-35.10434295654274
 20
24.99166965484631
 30
0.0
  0
VERTEX
  5
7408
330
7404
100
AcDbEntity
  8
LW 5015-32-00
100
AcDbVertex
100
AcDb2dVertex
 10
-35.2104225349424
 20
24.98167514801037
 30
0.0
  0
VERTEX
  5
7409
330
7404
100
AcDbEntity
  8
LW 5015-32-00
100
AcDbVertex
100
AcDb2dVertex
 10
-35.35830523490883
 20
24.96845483779919
 30
0.0
  0
VERTEX
  5
740A
330
7404
100
AcDbEntity
  8
LW 5015-32-00
100
AcDbVertex
100
AcDb2dVertex
 10
-35.54152276039101
 20
24.95326280593884
 30
0.0
  0
VERTEX
  5
740B
330
7404
100
AcDbEntity
  8
LW 5015-32-00
100
AcDbVertex
100
AcDb2dVertex
 10
-35.75223471641518
 20
24.93742227554333
 30
0.0
  0
VERTEX
  5
740C
330
7404
100
AcDbEntity
  8
LW 5015-32-00
100
AcDbVertex
100
AcDb2dVertex
 10
-35.9925999832151
 20
24.92156982421886
 30
0.0
  0
VERTEX
  5
740D
330
7404
100
AcDbEntity
  8
LW 5015-32-00
100
AcDbVertex
100
AcDb2dVertex
 10
-36.26523878097511
 20
24.90634918212902
 30
0.0
  0
VERTEX
  5
740E
330
7404
100
AcDbEntity
  8
LW 5015-32-00
100
AcDbVertex
100
AcDb2dVertex
 10
-36.56300212860084
 20
24.89308834075939
 30
0.0
  0
VERTEX
  5
740F
330
7404
100
AcDbEntity
  8
LW 5015-32-00
100
AcDbVertex
100
AcDb2dVertex
 10
-36.8781688404081
 20
24.8830556869508
 30
0.0
  0
VERTEX
  5
7410
330
7404
100
AcDbEntity
  8
LW 5015-32-00
100
AcDbVertex
100
AcDb2dVertex
 10
-37.20070745468117
 20
24.87682580947887
 30
0.0
  0
VERTEX
  5
7411
330
7404
100
AcDbEntity
  8
LW 5015-32-00
100
AcDbVertex
100
AcDb2dVertex
 10
-37.51999999999977
 20
24.87468481063854
 30
0.0
  0
VERTEX
  5
7412
330
7404
100
AcDbEntity
  8
LW 5015-32-00
100
AcDbVertex
100
AcDb2dVertex
 10
-37.83929254531837
 20
24.87682580947887
 30
0.0
  0
VERTEX
  5
7413
330
7404
100
AcDbEntity
  8
LW 5015-32-00
100
AcDbVertex
100
AcDb2dVertex
 10
-38.16183115959145
 20
24.8830556869508
 30
0.0
  0
VERTEX
  5
7414
330
7404
100
AcDbEntity
  8
LW 5015-32-00
100
AcDbVertex
100
AcDb2dVertex
 10
-38.4769978713987
 20
24.89308834075939
 30
0.0
  0
VERTEX
  5
7415
330
7404
100
AcDbEntity
  8
LW 5015-32-00
100
AcDbVertex
100
AcDb2dVertex
 10
-38.77476121902443
 20
24.90634918212902
 30
0.0
  0
VERTEX
  5
7416
330
7404
100
AcDbEntity
  8
LW 5015-32-00
100
AcDbVertex
100
AcDb2dVertex
 10
-39.04740001678444
 20
24.92156982421886
 30
0.0
  0
VERTEX
  5
7417
330
7404
100
AcDbEntity
  8
LW 5015-32-00
100
AcDbVertex
100
AcDb2dVertex
 10
-39.28776528358437
 20
24.93742227554333
 30
0.0
  0
VERTEX
  5
7418
330
7404
100
AcDbEntity
  8
LW 5015-32-00
100
AcDbVertex
100
AcDb2dVertex
 10
-39.49847723960854
 20
24.95326280593884
 30
0.0
  0
VERTEX
  5
7419
330
7404
100
AcDbEntity
  8
LW 5015-32-00
100
AcDbVertex
100
AcDb2dVertex
 10
-39.68169476509071
 20
24.96845483779919
 30
0.0
  0
VERTEX
  5
741A
330
7404
100
AcDbEntity
  8
LW 5015-32-00
100
AcDbVertex
100
AcDb2dVertex
 10
-39.82957746505714
 20
24.98167514801037
 30
0.0
  0
VERTEX
  5
741B
330
7404
100
AcDbEntity
  8
LW 5015-32-00
100
AcDbVertex
100
AcDb2dVertex
 10
-39.9356570434568
 20
24.99166965484631
 30
0.0
  0
VERTEX
  5
741C
330
7404
100
AcDbEntity
  8
LW 5015-32-00
100
AcDbVertex
100
AcDb2dVertex
 10
-39.99898697853065
 20
24.99787092208874
 30
0.0
  0
VERTEX
  5
741D
330
7404
100
AcDbEntity
  8
LW 5015-32-00
100
AcDbVertex
100
AcDb2dVertex
 10
-40.01999999999976
 20
25.00000000000011
 30
0.0
  0
SEQEND
  5
741E
330
7404
100
AcDbEntity
  8
LW 5015-32-00
  0
LINE
  5
741F
330
7367
100
AcDbEntity
  8
LW 5015-32-00
100
AcDbLine
 10
-41.51999999999977
 20
25.00000000000011
 30
0.0
 11
-41.51999999999977
 21
-24.99999999999995
 31
0.0
  0
LINE
  5
7420
330
7367
100
AcDbEntity
  8
LW 5015-32-00
100
AcDbLine
 10
-47.51999999999976
 20
19.00000000000005
 30
0.0
 11
-47.51999999999976
 21
-18.99999999999989
 31
0.0
  0
LINE
  5
7421
330
7367
100
AcDbEntity
  8
LW 5015-32-00
100
AcDbLine
 10
-141.52
 20
10.00000000000011
 30
0.0
 11
-141.52
 21
-9.999999999999943
 31
0.0
  0
LINE
  5
7422
330
7367
100
AcDbEntity
  8
LW 5015-32-00
100
AcDbLine
 10
-142.52
 20
9.000000000000113
 30
0.0
 11
-142.52
 21
-8.999999999999943
 31
0.0
  0
LINE
  5
7423
330
7367
100
AcDbEntity
  8
LW 5015-32-00
100
AcDbLine
 10
-22.51999999999977
 20
-24.99999999999995
 30
0.0
 11
-41.51999999999977
 21
-24.99999999999995
 31
0.0
  0
LINE
  5
7424
330
7367
100
AcDbEntity
  8
LW 5015-32-00
100
AcDbLine
 10
-22.51999999999977
 20
25.00000000000011
 30
0.0
 11
-35.01999999999977
 21
25.00000000000011
 31
0.0
  0
LINE
  5
7425
330
7367
100
AcDbEntity
  8
LW 5015-32-00
100
AcDbLine
 10
-40.01999999999976
 20
25.00000000000011
 30
0.0
 11
-41.51999999999977
 21
25.00000000000011
 31
0.0
  0
LINE
  5
7426
330
7367
100
AcDbEntity
  8
LW 5015-32-00
100
AcDbLine
 10
-47.51999999999976
 20
19.00000000000005
 30
0.0
 11
-41.51999999999977
 21
25.00000000000011
 31
0.0
  0
LINE
  5
7427
330
7367
100
AcDbEntity
  8
LW 5015-32-00
100
AcDbLine
 10
-47.51999999999976
 20
-18.99999999999989
 30
0.0
 11
-41.51999999999977
 21
-24.99999999999995
 31
0.0
  0
ARC
  5
7428
330
7367
100
AcDbEntity
  8
LW 5015-32-00
100
AcDbCircle
 10
-48.52
 20
11.00000000000011
 30
0.0
 40
1.000000000000002
100
AcDbArc
 50
270.0
 51
0.0
  0
ARC
  5
7429
330
7367
100
AcDbEntity
  8
LW 5015-32-00
100
AcDbCircle
 10
-48.52
 20
-10.99999999999994
 30
0.0
 40
1.000000000000002
100
AcDbArc
 50
0.0
 51
90.0
  0
LINE
  5
742A
330
7367
100
AcDbEntity
  8
LW 5015-32-00
100
AcDbLine
 10
-48.52
 20
-9.999999999999943
 30
0.0
 11
-90.10435004493384
 21
-9.999999999999943
 31
0.0
  0
LINE
  5
742B
330
7367
100
AcDbEntity
  8
LW 5015-32-00
100
AcDbLine
 10
-124.8956499550655
 20
-9.999999999999943
 30
0.0
 11
-141.52
 21
-9.999999999999943
 31
0.0
  0
LINE
  5
742C
330
7367
100
AcDbEntity
  8
LW 5015-32-00
100
AcDbLine
 10
-48.52
 20
10.00000000000011
 30
0.0
 11
-90.10435004493468
 21
10.00000000000011
 31
0.0
  0
LINE
  5
742D
330
7367
100
AcDbEntity
  8
LW 5015-32-00
100
AcDbLine
 10
-124.8956499550647
 20
10.00000000000011
 30
0.0
 11
-141.52
 21
10.00000000000011
 31
0.0
  0
LINE
  5
742E
330
7367
100
AcDbEntity
  8
LW 5015-32-00
100
AcDbLine
 10
-142.52
 20
9.000000000000056
 30
0.0
 11
-141.52
 21
10.00000000000011
 31
0.0
  0
LINE
  5
742F
330
7367
100
AcDbEntity
  8
LW 5015-32-00
100
AcDbLine
 10
-142.52
 20
-8.999999999999943
 30
0.0
 11
-141.52
 21
-9.999999999999943
 31
0.0
  0
LINE
  5
7430
330
7367
100
AcDbEntity
  8
LW 5015-32-00
100
AcDbLine
 10
-124.9999999999997
 20
60.87500000000005
 30
0.0
 11
-89.99999999999976
 21
60.87500000000005
 31
0.0
  0
LINE
  5
7431
330
7367
100
AcDbEntity
  8
LW 5015-32-00
100
AcDbLine
 10
-123.4999999999997
 20
-19.99999999999994
 30
0.0
 11
-91.49999999999975
 21
-19.99999999999994
 31
0.0
  0
LINE
  5
7432
330
7367
100
AcDbEntity
  8
LW 5015-32-00
100
AcDbLine
 10
-89.99999999999976
 20
60.87500000000005
 30
0.0
 11
-89.99999999999976
 21
10.10000000000008
 31
0.0
  0
LINE
  5
7433
330
7367
100
AcDbEntity
  8
LW 5015-32-00
100
AcDbLine
 10
-89.99999999999976
 20
-10.09999999999996
 30
0.0
 11
-89.99999999999976
 21
-18.49999999999994
 31
0.0
  0
LINE
  5
7434
330
7367
100
AcDbEntity
  8
LW 5015-32-00
100
AcDbLine
 10
-124.9999999999997
 20
60.87500000000005
 30
0.0
 11
-124.9999999999997
 21
10.10000000000008
 31
0.0
  0
LINE
  5
7435
330
7367
100
AcDbEntity
  8
LW 5015-32-00
100
AcDbLine
 10
-124.9999999999997
 20
-10.09999999999996
 30
0.0
 11
-124.9999999999997
 21
-18.49999999999994
 31
0.0
  0
ARC
  5
7436
330
7367
100
AcDbEntity
  8
LW 5015-32-00
100
AcDbCircle
 10
-123.4999999999997
 20
-18.49999999999994
 30
0.0
 40
1.500000000000012
100
AcDbArc
 50
180.0
 51
270.0
  0
ARC
  5
7437
330
7367
100
AcDbEntity
  8
LW 5015-32-00
100
AcDbCircle
 10
-91.49999999999975
 20
-18.49999999999994
 30
0.0
 40
1.500000000000012
100
AcDbArc
 50
270.0
 51
0.0
  0
LINE
  5
7438
330
7367
100
AcDbEntity
  8
LW 5015-32-00
100
AcDbLine
 10
120.2377392028572
 20
-0.0999999999999091
 30
0.0
 11
120.2377392028572
 21
0.1000000000000796
 31
0.0
  0
LINE
  5
7439
330
7367
100
AcDbEntity
  8
LW 5015-32-00
100
AcDbLine
 10
94.76226079714319
 20
0.1000000000000796
 30
0.0
 11
94.76226079714319
 21
-0.0999999999999091
 31
0.0
  0
LINE
  5
743A
330
7367
100
AcDbEntity
  8
LW 5015-32-00
100
AcDbLine
 10
90.00000000000021
 20
60.87500000000005
 30
0.0
 11
125.0000000000002
 21
60.87500000000005
 31
0.0
  0
LINE
  5
743B
330
7367
100
AcDbEntity
  8
LW 5015-32-00
100
AcDbLine
 10
91.50000000000021
 20
-19.99999999999994
 30
0.0
 11
123.5000000000002
 21
-19.99999999999994
 31
0.0
  0
LINE
  5
743C
330
7367
100
AcDbEntity
  8
LW 5015-32-00
100
AcDbLine
 10
125.0000000000002
 20
60.87500000000005
 30
0.0
 11
125.0000000000002
 21
10.10000000000008
 31
0.0
  0
LINE
  5
743D
330
7367
100
AcDbEntity
  8
LW 5015-32-00
100
AcDbLine
 10
125.0000000000002
 20
-10.09999999999991
 30
0.0
 11
125.0000000000002
 21
-18.49999999999994
 31
0.0
  0
LINE
  5
743E
330
7367
100
AcDbEntity
  8
LW 5015-32-00
100
AcDbLine
 10
90.00000000000021
 20
60.87500000000005
 30
0.0
 11
90.00000000000021
 21
10.10000000000008
 31
0.0
  0
LINE
  5
743F
330
7367
100
AcDbEntity
  8
LW 5015-32-00
100
AcDbLine
 10
90.00000000000021
 20
-10.09999999999991
 30
0.0
 11
90.00000000000021
 21
-18.49999999999994
 31
0.0
  0
ARC
  5
7440
330
7367
100
AcDbEntity
  8
LW 5015-32-00
100
AcDbCircle
 10
91.50000000000021
 20
-18.49999999999994
 30
0.0
 40
1.500000000000012
100
AcDbArc
 50
180.0
 51
270.0
  0
ARC
  5
7441
330
7367
100
AcDbEntity
  8
LW 5015-32-00
100
AcDbCircle
 10
123.5000000000002
 20
-18.49999999999994
 30
0.0
 40
1.500000000000012
100
AcDbArc
 50
270.0
 51
0.0
  0
LINE
  5
7442
330
7367
100
AcDbEntity
  8
LW 5015-32-00
100
AcDbLine
 10
-113.2730999999999
 20
77.00000000000006
 30
0.0
 11
-101.7268999999998
 21
77.00000000000006
 31
0.0
  0
LINE
  5
7443
330
7367
100
AcDbEntity
  8
LW 5015-32-00
100
AcDbLine
 10
-100.4999999999997
 20
75.77310000000017
 30
0.0
 11
-114.4999999999997
 21
75.77310000000017
 31
0.0
  0
LINE
  5
7444
330
7367
100
AcDbEntity
  8
LW 5015-32-00
100
AcDbLine
 10
-101.7268999999998
 20
77.00000000000006
 30
0.0
 11
-100.4999999999997
 21
75.77310000000017
 31
0.0
  0
LINE
  5
7445
330
7367
100
AcDbEntity
  8
LW 5015-32-00
100
AcDbLine
 10
-113.2730999999999
 20
77.00000000000006
 30
0.0
 11
-114.4999999999997
 21
75.77310000000017
 31
0.0
  0
LINE
  5
7446
330
7367
100
AcDbEntity
  8
LW 5015-32-00
100
AcDbLine
 10
-100.4999999999997
 20
75.77310000000017
 30
0.0
 11
-100.4999999999997
 21
60.87500000000005
 31
0.0
  0
LINE
  5
7447
330
7367
100
AcDbEntity
  8
LW 5015-32-00
100
AcDbLine
 10
-114.4999999999997
 20
75.77310000000017
 30
0.0
 11
-114.4999999999997
 21
60.87500000000005
 31
0.0
  0
LINE
  5
7448
330
7367
100
AcDbEntity
  8
LW 5015-32-00
 62
     3
100
AcDbLine
 10
-101.7054999999998
 20
60.87500000000005
 30
0.0
 11
-101.7054999999998
 21
76.97860000000009
 31
0.0
  0
LINE
  5
7449
330
7367
100
AcDbEntity
  8
LW 5015-32-00
 62
     3
100
AcDbLine
 10
-113.2944999999997
 20
76.97860000000009
 30
0.0
 11
-113.2944999999997
 21
60.87500000000005
 31
0.0
  0
LINE
  5
744A
330
7367
100
AcDbEntity
  8
LW 5015-32-00
100
AcDbLine
 10
101.7269000000001
 20
77.00000000000006
 30
0.0
 11
113.2731000000001
 21
77.00000000000006
 31
0.0
  0
LINE
  5
744B
330
7367
100
AcDbEntity
  8
LW 5015-32-00
100
AcDbLine
 10
114.5000000000002
 20
75.77310000000017
 30
0.0
 11
100.5000000000002
 21
75.77310000000017
 31
0.0
  0
LINE
  5
744C
330
7367
100
AcDbEntity
  8
LW 5015-32-00
100
AcDbLine
 10
113.2731000000001
 20
77.00000000000006
 30
0.0
 11
114.5000000000002
 21
75.77310000000017
 31
0.0
  0
LINE
  5
744D
330
7367
100
AcDbEntity
  8
LW 5015-32-00
100
AcDbLine
 10
101.7269000000001
 20
77.00000000000006
 30
0.0
 11
100.5000000000002
 21
75.77310000000017
 31
0.0
  0
LINE
  5
744E
330
7367
100
AcDbEntity
  8
LW 5015-32-00
100
AcDbLine
 10
114.5000000000002
 20
75.77310000000017
 30
0.0
 11
114.5000000000002
 21
60.87500000000005
 31
0.0
  0
LINE
  5
744F
330
7367
100
AcDbEntity
  8
LW 5015-32-00
100
AcDbLine
 10
100.5000000000002
 20
75.77310000000017
 30
0.0
 11
100.5000000000002
 21
60.87500000000005
 31
0.0
  0
LINE
  5
7450
330
7367
100
AcDbEntity
  8
LW 5015-32-00
 62
     3
100
AcDbLine
 10
113.2945000000002
 20
60.87500000000005
 30
0.0
 11
113.2945000000002
 21
76.97860000000019
 31
0.0
  0
LINE
  5
7451
330
7367
100
AcDbEntity
  8
LW 5015-32-00
 62
     3
100
AcDbLine
 10
101.7055000000002
 20
76.97860000000009
 30
0.0
 11
101.7055000000002
 21
60.87500000000005
 31
0.0
  0
LINE
  5
7452
330
7367
100
AcDbEntity
  8
LW 5015-32-00
100
AcDbLine
 10
16.0
 20
12.00000000000005
 30
0.0
 11
16.0
 21
-11.99999999999994
 31
0.0
  0
LINE
  5
7453
330
7367
100
AcDbEntity
  8
LW 5015-32-00
100
AcDbLine
 10
-16.0
 20
12.00000000000005
 30
0.0
 11
-16.0
 21
-11.99999999999994
 31
0.0
  0
LINE
  5
7454
330
7367
100
AcDbEntity
  8
LW 5015-32-00
100
AcDbLine
 10
-16.0
 20
12.00000000000005
 30
0.0
 11
16.0
 21
12.00000000000005
 31
0.0
  0
LINE
  5
7455
330
7367
100
AcDbEntity
  8
LW 5015-32-00
100
AcDbLine
 10
-16.0
 20
-11.99999999999994
 30
0.0
 11
16.0
 21
-11.99999999999994
 31
0.0
  0
LINE
  5
7456
330
7367
100
AcDbEntity
  8
LW 5015-32-00
100
AcDbLine
 10
-19.51999999999977
 20
32.50000000000006
 30
0.0
 11
-19.51999999999977
 21
-32.49999999999995
 31
0.0
  0
LINE
  5
7457
330
7367
100
AcDbEntity
  8
LW 5015-32-00
100
AcDbLine
 10
-22.51999999999977
 20
32.50000000000006
 30
0.0
 11
-22.51999999999977
 21
-32.49999999999995
 31
0.0
  0
LINE
  5
7458
330
7367
100
AcDbEntity
  8
LW 5015-32-00
100
AcDbLine
 10
-22.51999999999977
 20
32.50000000000006
 30
0.0
 11
-19.51999999999977
 21
32.50000000000006
 31
0.0
  0
LINE
  5
7459
330
7367
100
AcDbEntity
  8
LW 5015-32-00
100
AcDbLine
 10
-22.51999999999977
 20
-32.49999999999995
 30
0.0
 11
-19.51999999999977
 21
-32.49999999999995
 31
0.0
  0
LINE
  5
745A
330
7367
100
AcDbEntity
  8
LW 5015-32-00
100
AcDbLine
 10
19.52000000000022
 20
-32.49999999999995
 30
0.0
 11
19.52000000000022
 21
32.50000000000006
 31
0.0
  0
LINE
  5
745B
330
7367
100
AcDbEntity
  8
LW 5015-32-00
100
AcDbLine
 10
22.52000000000022
 20
-32.49999999999995
 30
0.0
 11
22.52000000000022
 21
32.50000000000006
 31
0.0
  0
LINE
  5
745C
330
7367
100
AcDbEntity
  8
LW 5015-32-00
100
AcDbLine
 10
22.52000000000022
 20
-32.49999999999995
 30
0.0
 11
19.52000000000022
 21
-32.49999999999995
 31
0.0
  0
LINE
  5
745D
330
7367
100
AcDbEntity
  8
LW 5015-32-00
100
AcDbLine
 10
22.52000000000022
 20
32.50000000000006
 30
0.0
 11
19.52000000000022
 21
32.50000000000006
 31
0.0
  0
LINE
  5
745E
330
7367
100
AcDbEntity
  8
LW 5015-32-00
100
AcDbLine
 10
-17.51999999999977
 20
32.00000000000006
 30
0.0
 11
-17.51999999999977
 21
-31.99999999999994
 31
0.0
  0
LINE
  5
745F
330
7367
100
AcDbEntity
  8
LW 5015-32-00
100
AcDbLine
 10
-19.51999999999977
 20
32.00000000000006
 30
0.0
 11
-17.51999999999977
 21
32.00000000000006
 31
0.0
  0
LINE
  5
7460
330
7367
100
AcDbEntity
  8
LW 5015-32-00
100
AcDbLine
 10
-19.51999999999977
 20
-31.99999999999994
 30
0.0
 11
-17.51999999999977
 21
-31.99999999999994
 31
0.0
  0
LINE
  5
7461
330
7367
100
AcDbEntity
  8
LW 5015-32-00
100
AcDbLine
 10
17.52000000000022
 20
-31.99999999999994
 30
0.0
 11
17.52000000000022
 21
32.00000000000006
 31
0.0
  0
LINE
  5
7462
330
7367
100
AcDbEntity
  8
LW 5015-32-00
100
AcDbLine
 10
19.52000000000022
 20
-31.99999999999994
 30
0.0
 11
17.52000000000022
 21
-31.99999999999994
 31
0.0
  0
LINE
  5
7463
330
7367
100
AcDbEntity
  8
LW 5015-32-00
100
AcDbLine
 10
19.52000000000022
 20
32.00000000000006
 30
0.0
 11
17.52000000000022
 21
32.00000000000006
 31
0.0
  0
LINE
  5
7464
330
7367
100
AcDbEntity
  8
LW 5015-32-00
100
AcDbLine
 10
17.52000000000022
 20
-6.999999999999943
 30
0.0
 11
16.0
 21
-6.999999999999943
 31
0.0
  0
LINE
  5
7465
330
7367
100
AcDbEntity
  8
LW 5015-32-00
100
AcDbLine
 10
-15.99999999999977
 20
-6.999999999999943
 30
0.0
 11
-17.51999999999977
 21
-6.999999999999943
 31
0.0
  0
LINE
  5
7466
330
7367
100
AcDbEntity
  8
LW 5015-32-00
100
AcDbLine
 10
17.52000000000022
 20
7.000000000000056
 30
0.0
 11
16.0
 21
7.000000000000056
 31
0.0
  0
LINE
  5
7467
330
7367
100
AcDbEntity
  8
LW 5015-32-00
100
AcDbLine
 10
-15.99999999999977
 20
7.000000000000056
 30
0.0
 11
-17.51999999999977
 21
7.000000000000056
 31
0.0
  0
LINE
  5
7468
330
7367
100
AcDbEntity
  8
LW 5015-32-00
 62
     3
100
AcDbLine
 10
-17.51999999999977
 20
-5.794499999999914
 30
0.0
 11
-15.99999999999977
 21
-5.794499999999914
 31
0.0
  0
LINE
  5
7469
330
7367
100
AcDbEntity
  8
LW 5015-32-00
 62
     3
100
AcDbLine
 10
16.0
 20
-5.794499999999914
 30
0.0
 11
17.52000000000022
 21
-5.794499999999914
 31
0.0
  0
LINE
  5
746A
330
7367
100
AcDbEntity
  8
LW 5015-32-00
 62
     3
100
AcDbLine
 10
17.52000000000022
 20
5.794500000000084
 30
0.0
 11
16.0
 21
5.794500000000084
 31
0.0
  0
LINE
  5
746B
330
7367
100
AcDbEntity
  8
LW 5015-32-00
 62
     3
100
AcDbLine
 10
-16.0
 20
5.794500000000084
 30
0.0
 11
-17.51999999999977
 21
5.794500000000084
 31
0.0
  0
LINE
  5
746C
330
7367
100
AcDbEntity
  8
LW 5015-32-00
  6
MITTE2
 62
     3
100
AcDbLine
 10
-107.4999999999997
 20
96.48528480478473
 30
0.0
 11
-107.4999999999997
 21
-28.08786257571905
 31
0.0
  0
LINE
  5
746D
330
7367
100
AcDbEntity
  8
LW 5015-32-00
  6
MITTE2
 62
     3
100
AcDbLine
 10
107.5000000000002
 20
97.33561345584604
 30
0.0
 11
107.5000000000002
 21
-28.08786257571899
 31
0.0
  0
LINE
  5
746E
330
7367
100
AcDbEntity
  8
LW 5015-32-00
  6
MITTE2
 62
     3
100
AcDbLine
 10
146.4412863273748
 20
0.0
 30
0.0
 11
-146.4412863273749
 21
0.0
 31
0.0
  0
LINE
  5
746F
330
7367
100
AcDbEntity
  8
LW 5015-32-00
  6
VERDECKT
 62
     6
100
AcDbLine
 10
92.83989145726193
 20
60.00000000000437
 30
0.0
 11
122.160108542738
 21
59.99999999999573
 31
0.0
  0
ARC
  5
7470
330
7367
100
AcDbEntity
  8
LW 5015-32-00
  6
VERDECKT
 62
     6
100
AcDbCircle
 10
92.8398914572624
 20
62.00000000000438
 30
0.0
 40
2.0
100
AcDbArc
 50
250.7099537807859
 51
270.0
  0
ARC
  5
7471
330
7367
100
AcDbEntity
  8
LW 5015-32-00
  6
VERDECKT
 62
     6
100
AcDbCircle
 10
122.1601085427385
 20
61.99999999999573
 30
0.0
 40
2.0
100
AcDbArc
 50
270.0
 51
289.2900462191729
  0
LINE
  5
7472
330
7367
100
AcDbEntity
  8
LW 5015-32-00
  6
VERDECKT
 62
     6
100
AcDbLine
 10
92.1791906078058
 20
60.11228328727276
 30
0.0
 11
90.00000000000021
 21
60.87500000000528
 31
0.0
  0
LINE
  5
7473
330
7367
100
AcDbEntity
  8
LW 5015-32-00
  6
VERDECKT
 62
     6
100
AcDbLine
 10
122.8208093921941
 20
60.11228328726367
 30
0.0
 11
125.0000000000002
 21
60.87499999999483
 31
0.0
  0
LINE
  5
7474
330
7367
100
AcDbEntity
  8
LW 5015-32-00
  6
VERDECKT
 62
     6
100
AcDbLine
 10
-122.160108542738
 20
60.00000000000437
 30
0.0
 11
-92.83989145726193
 21
59.99999999999573
 31
0.0
  0
ARC
  5
7475
330
7367
100
AcDbEntity
  8
LW 5015-32-00
  6
VERDECKT
 62
     6
100
AcDbCircle
 10
-122.1601085427375
 20
62.00000000000438
 30
0.0
 40
2.0
100
AcDbArc
 50
250.7099537807859
 51
270.0
  0
ARC
  5
7476
330
7367
100
AcDbEntity
  8
LW 5015-32-00
  6
VERDECKT
 62
     6
100
AcDbCircle
 10
-92.83989145726149
 20
61.99999999999573
 30
0.0
 40
2.0
100
AcDbArc
 50
270.0
 51
289.2900462191729
  0
LINE
  5
7477
330
7367
100
AcDbEntity
  8
LW 5015-32-00
  6
VERDECKT
 62
     6
100
AcDbLine
 10
-122.8208093921941
 20
60.11228328727276
 30
0.0
 11
-124.9999999999997
 21
60.87500000000528
 31
0.0
  0
LINE
  5
7478
330
7367
100
AcDbEntity
  8
LW 5015-32-00
  6
VERDECKT
 62
     6
100
AcDbLine
 10
-92.1791906078058
 20
60.11228328726367
 30
0.0
 11
-89.99999999999976
 21
60.87499999999483
 31
0.0
  0
HATCH
  5
7479
330
7367
100
AcDbEntity
  8
LW 5015-32-00
 62
     1
100
AcDbHatch
 10
0.0
 20
0.0
 30
0.0
210
0.0
220
0.0
230
1.0
  2
SOLID
 70
     1
 71
     0
 91
        5
 92
        7
 72
     0
 73
     1
 93
       76
 10
-115.9849828252545
 20
27.54233513799324
 10
-116.0365637870963
 20
27.57419396736606
 10
-116.187806186112
 20
27.69235209159734
 10
-116.3282303163746
 20
27.82683016681
 10
-116.4566148780882
 20
27.97285007327156
 10
-116.573521161004
 20
28.13651886935355
 10
-116.6756990428255
 20
28.3119058227183
 10
-116.7670507224084
 20
28.49365875531868
 10
-116.8365690348546
 20
28.6748276907843
 10
-116.8365690348546
 20
26.41768975258429
 10
-116.8278793796544
 20
26.20479320018427
 10
-116.8018104140546
 20
26.00275871678429
 10
-116.7605345518545
 20
25.80724147478424
 10
-116.7062242068545
 20
25.62258630178445
 10
-116.6367069652544
 20
25.4466207839842
 10
-116.5541552408544
 20
25.27934492138439
 10
-116.4588297233103
 20
25.12877665883735
 10
-116.3521207574544
 20
24.98606905838443
 10
-116.2330724812143
 20
24.86062780281378
 10
-116.1048131704624
 20
24.74936285073642
 10
-115.9676035148545
 20
24.64934491938431
 10
-115.8220517902543
 20
24.56679319498431
 10
-115.6678104104544
 20
24.50379319478435
 10
-115.5070517892545
 20
24.45382767738448
 10
-115.3419483404545
 20
24.42558629798447
 10
-115.1681552364543
 20
24.41689664278448
 10
-114.9943621324541
 20
24.42775871178452
 10
-114.8270862698543
 20
24.45817250498436
 10
-114.6663276486542
 20
24.51248284998456
 10
-114.5099138550545
 20
24.58200009158446
 10
-114.3621897166545
 20
24.67106905738461
 10
-114.2209828196546
 20
24.77751733358451
 10
-114.0897690261345
 20
24.90021526500851
 10
-113.9686352326466
 20
25.03641431371676
 10
-113.8581897150543
 20
25.18375871418454
 10
-113.7604310940546
 20
25.34451733538464
 10
-113.6755331627505
 20
25.52014395663178
 10
-113.6018448866543
 20
25.70079319858434
 10
-113.5453621278543
 20
25.89196561298451
 10
-113.5019138518546
 20
26.09182768258444
 10
-113.4758448862544
 20
26.30037940738436
 10
-113.4671552310544
 20
26.51110354598433
 10
-113.4671552310546
 20
28.630274631737
 10
-113.5302260347893
 20
28.46973076768455
 10
-113.6208463083121
 20
28.28616662388214
 10
-113.7253760012436
 20
28.11770021771196
 10
-113.8409942396692
 20
27.95486732295132
 10
-113.9707838362091
 20
27.81095495458118
 10
-114.1101375194375
 20
27.68351906109689
 10
-114.26062576415
 20
27.5698137063535
 10
-114.3448104062545
 20
27.51784247490474
 10
-114.3448104062545
 20
26.48937940798447
 10
-114.3523704062786
 20
26.35727057997889
 10
-114.3727041994466
 20
26.22651733818435
 10
-114.4056379926544
 20
26.0983449239846
 10
-114.4512586824544
 20
25.98320699258449
 10
-114.5077414412544
 20
25.87826202673415
 10
-114.5753469587102
 20
25.78011237125003
 10
-114.6532931658543
 20
25.68993112958452
 10
-114.7380173040544
 20
25.61824147418457
 10
-114.7380173040546
 20
27.34576278844321
 10
-114.7706527448126
 20
27.33517832117019
 10
-114.956026692364
 20
27.2990665132059
 10
-115.1463164063147
 20
27.28702286042409
 10
-115.3410674996698
 20
27.29904453285354
 10
-115.527436870936
 20
27.3353502545288
 10
-115.5765690308544
 20
27.35194895720366
 10
-115.5765690308544
 20
25.58131043958435
 10
-115.6721552380545
 20
25.65082768118447
 10
-115.7547069624543
 20
25.73337940558446
 10
-115.8245717902623
 20
25.82847030243789
 10
-115.8828793766545
 20
25.93106906138434
 10
-115.9268490319664
 20
26.0497610617611
 10
-115.9589138596543
 20
26.17220699318437
 10
-115.9784655838543
 20
26.30906906258434
 10
-115.9849828252545
 20
26.45244837338447
 97
        0
 92
        7
 72
     0
 73
     1
 93
       72
 10
-115.9703842045185
 20
29.27079900302107
 10
-115.9884586873345
 20
29.39366203789388
 10
-115.9936724804547
 20
29.51772424518441
 10
-115.9936724804547
 20
30.78641390438435
 10
-115.1790173054546
 20
29.93917252238436
 10
-113.4606379896545
 20
31.70534494178452
 10
-113.4606379896545
 20
33.02400011838432
 10
-115.2029138572547
 20
31.30996563018454
 10
-116.8365690348546
 20
32.99141391138443
 10
-116.8365690348546
 20
29.55248286598436
 10
-116.8257938624065
 20
29.34449596877227
 10
-116.8003331726704
 20
29.13777776121952
 10
-116.7605345518545
 20
28.93334493298431
 10
-116.7040517930545
 20
28.74000010478432
 10
-116.6323621376545
 20
28.55317251798425
 10
-116.5463345511743
 20
28.38201237950995
 10
-116.4498793784546
 20
28.21644837898436
 10
-116.3412586884546
 20
28.06437941298447
 10
-116.2219497225585
 20
27.92868175738119
 10
-116.0914311014544
 20
27.8036897569844
 10
-115.9523966182546
 20
27.69506906698422
 10
-115.8046724798546
 20
27.60382768738447
 10
-115.6504311000544
 20
27.53213803198429
 10
-115.4896724788545
 20
27.47782768698431
 10
-115.3223966162545
 20
27.44524147998442
 10
-115.1464310984543
 20
27.43437941098438
 10
-114.9748104082546
 20
27.44524147998442
 10
-114.8075345456545
 20
27.47782768698454
 10
-114.6467759244546
 20
27.52996561818446
 10
-114.4925345446545
 20
27.59948285978436
 10
-114.3437676476305
 20
27.6913238255932
 10
-114.2042986816704
 20
27.7967032742036
 10
-114.0752573019506
 20
27.91470879181981
 10
-113.9559483360544
 20
28.04700010258449
 10
-113.8479359219186
 20
28.19912120651571
 10
-113.7495690250543
 20
28.35765527598443
 10
-113.6648448868545
 20
28.52927596618457
 10
-113.5931552314546
 20
28.71175872538453
 10
-113.5391055761106
 20
28.90598989841493
 10
-113.4953966104544
 20
29.1027932093844
 10
-113.4693276448547
 20
29.31134493418455
 10
-113.4606379896545
 20
29.52206907278452
 10
-113.4606379896545
 20
31.42510356158442
 10
-114.3339483372546
 20
30.53875873118438
 10
-114.3339483372546
 20
29.52206907278452
 10
-114.337695630194
 20
29.45540203808997
 10
-114.3476779924703
 20
29.35445431363161
 10
-114.3691414408144
 20
29.23431983049165
 10
-114.4034655788546
 20
29.11720065770607
 10
-114.4443938548465
 20
29.01570548497017
 10
-114.4725483376946
 20
28.95957031237805
 10
-114.5051345446945
 20
28.90588562255249
 10
-114.6044573036306
 20
28.77332493247633
 10
-114.6744959245425
 20
28.69972355293254
 10
-114.7423621316543
 20
28.64465720793015
 10
-114.8149207525744
 20
28.59595169053392
 10
-114.8920848907505
 20
28.55658755247788
 10
-114.9735069599746
 20
28.52716437997088
 10
-115.0606642016305
 20
28.50646562128446
 10
-115.1499938570864
 20
28.49894906953642
 10
-115.2122986848703
 20
28.5003046557477
 10
-115.2744297195504
 20
28.50630920749092
 10
-115.3376035128544
 20
28.51846603511564
 10
-115.3993000647747
 20
28.53667955241491
 10
-115.4980145478464
 20
28.58032769048424
 10
-115.5658807549584
 20
28.6218555526853
 10
-115.6439138586545
 20
28.68493375978193
 10
-115.7704365957083
 20
28.81433570014684
 10
-115.8104945488385
 20
28.87360355348443
 10
-115.8548117903583
 20
28.94989872614047
 10
-115.8969566180785
 20
29.03391900226921
 10
-115.9397966182146
 20
29.15045596815645
 97
        0
 92
        7
 72
     0
 73
     1
 93
       57
 10
-115.9483124803109
 20
33.82883598300856
 10
-115.9882848942306
 20
33.96031046618447
 10
-116.0153966184548
 20
34.09500012178438
 10
-116.0240862736545
 20
34.23837943258428
 10
-116.0240862736548
 20
35.47882771238443
 10
-116.8496035176549
 20
35.47882771238443
 10
-116.8496035176547
 20
34.24489667398444
 10
-116.8409138624547
 20
34.03417253538447
 10
-116.8126724830547
 20
33.82779322438438
 10
-116.7713966208548
 20
33.6301035685845
 10
-116.7170862758548
 20
33.44110356798438
 10
-116.6453966204549
 20
33.25644839498437
 10
-116.5627579995025
 20
33.09004149790423
 10
-116.4663028267828
 20
32.93122066981397
 10
-116.3568131712627
 20
32.78114163485481
 10
-116.2375911019187
 20
32.64658232408289
 10
-116.1088104118548
 20
32.52651735818432
 10
-115.9697759286546
 20
32.42224149578448
 10
-115.8242242040546
 20
32.33751735758443
 10
-115.6699828242544
 20
32.26582770218425
 10
-115.5092242030546
 20
32.21586218478439
 10
-115.3419483404547
 20
32.18327597778449
 10
-115.1681552364548
 20
32.17241390878445
 10
-114.9943621324546
 20
32.18327597778449
 10
-114.8270862698546
 20
32.21586218478439
 10
-114.6663276486547
 20
32.26800011598431
 10
-114.5099138550547
 20
32.33968977138449
 10
-114.3621897166547
 20
32.42658632338458
 10
-114.2226338541427
 20
32.53543294441971
 10
-114.0922890261427
 20
32.65528935859317
 10
-113.9709814395505
 20
32.79171694523331
 10
-113.8603621288548
 20
32.93927598018451
 10
-113.7626035078546
 20
33.10003460138438
 10
-113.6778793696548
 20
33.27382770538435
 10
-113.6040173004548
 20
33.45848287838459
 10
-113.5475345416548
 20
33.64965529278453
 10
-113.5040862656546
 20
33.84951736238446
 10
-113.4801897138545
 20
34.05589667338456
 10
-113.4715000586547
 20
34.26879322578458
 10
-113.4715000586547
 20
35.47882771238443
 10
-114.3296035096545
 20
35.47882771238443
 10
-114.3296035096545
 20
34.24489667398444
 10
-114.3399441993426
 20
34.11124977700848
 10
-114.3619290269989
 20
33.97899322486461
 10
-114.3962531650386
 20
33.85838081068852
 10
-114.4442200617427
 20
33.74237391376852
 10
-114.5051345446947
 20
33.63271046514439
 10
-114.5727400621508
 20
33.53564701656052
 10
-114.6525110968868
 20
33.44822908524844
 10
-114.7380173040546
 20
33.37375874018454
 10
-114.7380173040546
 20
35.47882771238443
 10
-115.5657069618546
 20
35.47882771238443
 10
-115.5657069618546
 20
33.33682770558431
 10
-115.6634655828547
 20
33.40634494718444
 10
-115.7525345486547
 20
33.49324149918431
 10
-115.8288297213107
 20
33.59438908571252
 10
-115.8959138594546
 20
33.70179322398445
 97
        0
 92
        7
 72
     0
 73
     1
 93
        6
 10
-116.8365690348548
 20
35.70910357518443
 10
-113.4671552310546
 20
35.70910357518443
 10
-113.4671552310549
 20
37.94668978918463
 10
-114.3339483372549
 20
37.94668978918441
 10
-114.3339483372549
 20
36.73231047498445
 10
-116.8365690348548
 20
36.73231047498445
 97
        0
 92
        7
 72
     0
 73
     1
 93
        8
 10
-116.8365690348548
 20
36.96475875158427
 10
-116.0110517908547
 20
36.96475875158427
 10
-116.0110517908549
 20
38.19868978998449
 10
-113.4606379896549
 20
38.19868978998449
 10
-113.4606379896549
 20
39.22406910358456
 10
-116.0110517908547
 20
39.22406910358433
 10
-116.0110517908549
 20
40.4666897971843
 10
-116.836569034855
 20
40.4666897971843
 97
        0
 75
     0
 76
     1
 47
0.0142553043587597
 98
        5
 10
-116.3941193652654
 20
26.85199526405956
 10
-116.2515663802596
 20
29.11949247740228
 10
-116.3085875528077
 20
33.61170420960372
 10
-116.5509277774999
 20
36.33555329343546
 10
-116.4511406450865
 20
37.7473912756621
450
        0
451
        0
460
0.0
461
0.0
452
        0
462
0.0
453
        0
470

  0
LWPOLYLINE
  5
747A
330
7367
100
AcDbEntity
  8
LW 5015-32-00
 62
     1
100
AcDbPolyline
 90
        8
 70
     1
 43
0.0
 10
-116.0110517908547
 20
39.22406910358433
 10
-113.4606379896549
 20
39.22406910358456
 10
-113.4606379896549
 20
38.19868978998449
 10
-116.0110517908549
 20
38.19868978998449
 10
-116.0110517908547
 20
36.96475875158427
 10
-116.8365690348548
 20
36.96475875158427
 10
-116.836569034855
 20
40.4666897971843
 10
-116.0110517908549
 20
40.4666897971843
  0
LWPOLYLINE
  5
747B
330
7367
100
AcDbEntity
  8
LW 5015-32-00
 62
     1
100
AcDbPolyline
 90
       73
 70
     1
 43
0.0
 10
-114.3339483372546
 20
29.52206907278452
 10
-114.3339483372546
 20
30.53875873118438
 10
-113.4606379896545
 20
31.42510356158442
 10
-113.4606379896545
 20
29.52206907278452
 10
-113.4693276448547
 20
29.31134493418455
 10
-113.4953966104544
 20
29.1027932093844
 10
-113.5391055761106
 20
28.90598989841493
 10
-113.5931552314546
 20
28.71175872538453
 10
-113.6648448868545
 20
28.52927596618457
 10
-113.7495690250543
 20
28.35765527598443
 10
-113.8479359219186
 20
28.19912120651571
 10
-113.9559483360544
 20
28.04700010258449
 10
-114.0752573019504
 20
27.91470879181958
 10
-114.2042986816704
 20
27.7967032742036
 10
-114.3437676476305
 20
27.6913238255932
 10
-114.4925345446545
 20
27.59948285978436
 10
-114.6467759244546
 20
27.52996561818446
 10
-114.8075345456545
 20
27.47782768698454
 10
-114.9748104082546
 20
27.44524147998442
 10
-115.1464310984545
 20
27.43437941098438
 10
-115.3223966162545
 20
27.44524147998442
 10
-115.4896724788545
 20
27.47782768698431
 10
-115.6504311000544
 20
27.53213803198452
 10
-115.8046724798546
 20
27.60382768738447
 10
-115.9523966182546
 20
27.69506906698445
 10
-116.0914311014544
 20
27.8036897569844
 10
-116.2219497225587
 20
27.92868175738119
 10
-116.3412586884546
 20
28.06437941298424
 10
-116.4498793784546
 20
28.21644837898436
 10
-116.5463345511743
 20
28.38201237950995
 10
-116.6323621376545
 20
28.55317251798425
 10
-116.7040517930545
 20
28.74000010478432
 10
-116.7605345518545
 20
28.93334493298431
 10
-116.8003331726704
 20
29.13777776121952
 10
-116.8257938624065
 20
29.34449596877227
 10
-116.8365690348546
 20
29.55248286598436
 10
-116.8365690348546
 20
32.99141391138443
 10
-115.2029138572547
 20
31.30996563018454
 10
-113.4606379896545
 20
33.02400011838432
 10
-113.4606379896545
 20
31.70534494178452
 10
-115.1790173054546
 20
29.93917252238436
 10
-115.9936724804547
 20
30.78641390438435
 10
-115.9936724804547
 20
29.51772424518441
 10
-115.9884586873345
 20
29.39366203789388
 10
-115.9703842045185
 20
29.27079900302107
 10
-115.9397966182146
 20
29.15045596815645
 10
-115.8969566180785
 20
29.03391900226921
 10
-115.8548117903585
 20
28.94989872614025
 10
-115.8104945488385
 20
28.87360355348443
 10
-115.7832959280626
 20
28.83336176025324
 10
-115.7523607555503
 20
28.7958485187549
 10
-115.6439138586545
 20
28.68493375978193
 10
-115.5658807549584
 20
28.6218555526853
 10
-115.4980145478466
 20
28.58032769048447
 10
-115.3993000647747
 20
28.53667955241491
 10
-115.3376035128544
 20
28.51846603511564
 10
-115.2744297195504
 20
28.50630920749092
 10
-115.2122986848705
 20
28.5003046557477
 10
-115.1499938570864
 20
28.49894906953642
 10
-115.0606642016305
 20
28.50646562128446
 10
-114.9735069599746
 20
28.52716437997088
 10
-114.8920848907505
 20
28.55658755247811
 10
-114.8149207525744
 20
28.59595169053392
 10
-114.7423621316545
 20
28.64465720792992
 10
-114.6744959245425
 20
28.69972355293254
 10
-114.6044573036306
 20
28.77332493247633
 10
-114.5051345446945
 20
28.90588562255249
 10
-114.4725483376946
 20
28.95957031237805
 10
-114.4443938548465
 20
29.01570548497017
 10
-114.4034655788546
 20
29.11720065770607
 10
-114.3691414408144
 20
29.23431983049165
 10
-114.3476779924703
 20
29.35445431363161
 10
-114.337695630194
 20
29.45540203808997
  0
LWPOLYLINE
  5
747C
330
7367
100
AcDbEntity
  8
LW 5015-32-00
 62
     1
100
AcDbPolyline
 90
       76
 70
     1
 43
0.0
 10
-116.6756990428255
 20
28.3119058227183
 10
-116.5735211610037
 20
28.13651886935355
 10
-116.4566148780882
 20
27.97285007327156
 10
-116.3282303163746
 20
27.82683016681
 10
-116.187806186112
 20
27.69235209159734
 10
-116.0365637870963
 20
27.57419396736606
 10
-115.9849828252545
 20
27.54233513799324
 10
-115.9849828252545
 20
26.45244837338447
 10
-115.9784655838543
 20
26.30906906258434
 10
-115.9589138596543
 20
26.17220699318437
 10
-115.9268490319664
 20
26.0497610617611
 10
-115.8828793766545
 20
25.93106906138434
 10
-115.8245717902623
 20
25.82847030243812
 10
-115.7547069624543
 20
25.73337940558446
 10
-115.6721552380545
 20
25.65082768118424
 10
-115.5765690308544
 20
25.58131043958435
 10
-115.5765690308544
 20
27.35194895720366
 10
-115.527436870936
 20
27.3353502545288
 10
-115.3410674996694
 20
27.29904453285332
 10
-115.1463164063147
 20
27.28702286042409
 10
-114.956026692364
 20
27.2990665132059
 10
-114.7706527448128
 20
27.33517832117042
 10
-114.7380173040546
 20
27.34576278844321
 10
-114.7380173040544
 20
25.61824147418457
 10
-114.6532931658543
 20
25.68993112958452
 10
-114.5753469587102
 20
25.78011237125003
 10
-114.5077414412544
 20
25.87826202673415
 10
-114.4512586824544
 20
25.98320699258449
 10
-114.4056379926546
 20
26.0983449239846
 10
-114.3727041994466
 20
26.22651733818435
 10
-114.3523704062786
 20
26.35727057997889
 10
-114.3448104062545
 20
26.48937940798447
 10
-114.3448104062545
 20
27.51784247490474
 10
-114.26062576415
 20
27.5698137063535
 10
-114.1101375194375
 20
27.68351906109689
 10
-113.9707838362091
 20
27.81095495458118
 10
-113.8409942396692
 20
27.95486732295132
 10
-113.7253760012436
 20
28.11770021771196
 10
-113.6208463083121
 20
28.28616662388214
 10
-113.5302260347893
 20
28.46973076768455
 10
-113.4671552310546
 20
28.630274631737
 10
-113.4671552310542
 20
26.51110354598456
 10
-113.4758448862544
 20
26.30037940738436
 10
-113.5019138518546
 20
26.09182768258444
 10
-113.5453621278543
 20
25.89196561298451
 10
-113.6018448866543
 20
25.70079319858456
 10
-113.6755331627505
 20
25.52014395663156
 10
-113.7604310940546
 20
25.34451733538464
 10
-113.8581897150543
 20
25.18375871418454
 10
-113.9686352326464
 20
25.03641431371676
 10
-114.0897690261345
 20
24.90021526500851
 10
-114.2209828196544
 20
24.77751733358451
 10
-114.3621897166545
 20
24.67106905738439
 10
-114.5099138550545
 20
24.58200009158446
 10
-114.6663276486542
 20
24.51248284998456
 10
-114.8270862698543
 20
24.45817250498436
 10
-114.9943621324546
 20
24.42775871178452
 10
-115.1681552364543
 20
24.41689664278448
 10
-115.3419483404543
 20
24.42558629798424
 10
-115.5070517892545
 20
24.45382767738448
 10
-115.6678104104544
 20
24.50379319478435
 10
-115.8220517902543
 20
24.56679319498431
 10
-115.9676035148545
 20
24.64934491938431
 10
-116.1048131704624
 20
24.74936285073642
 10
-116.2330724812145
 20
24.86062780281378
 10
-116.3521207574544
 20
24.98606905838443
 10
-116.4588297233103
 20
25.12877665883735
 10
-116.5541552408544
 20
25.27934492138439
 10
-116.6367069652542
 20
25.44662078398443
 10
-116.7062242068545
 20
25.62258630178445
 10
-116.7605345518545
 20
25.80724147478446
 10
-116.8018104140546
 20
26.00275871678429
 10
-116.8278793796544
 20
26.20479320018427
 10
-116.8365690348546
 20
26.41768975258429
 10
-116.8365690348546
 20
28.67482769078453
 10
-116.7670507224084
 20
28.49365875531868
  0
LWPOLYLINE
  5
747D
330
7367
100
AcDbEntity
  8
LW 5015-32-00
 62
     1
100
AcDbPolyline
 90
        6
 70
     1
 43
0.0
 10
-113.4671552310549
 20
37.94668978918463
 10
-113.4671552310546
 20
35.70910357518443
 10
-116.8365690348548
 20
35.70910357518443
 10
-116.8365690348548
 20
36.73231047498445
 10
-114.3339483372549
 20
36.73231047498445
 10
-114.3339483372549
 20
37.94668978918441
  0
LWPOLYLINE
  5
747E
330
7367
100
AcDbEntity
  8
LW 5015-32-00
 62
     1
100
AcDbPolyline
 90
       57
 70
     1
 43
0.0
 10
-114.0922890261427
 20
32.65528935859317
 10
-114.2226338541427
 20
32.53543294441971
 10
-114.3621897166545
 20
32.42658632338436
 10
-114.5099138550547
 20
32.33968977138449
 10
-114.6663276486547
 20
32.26800011598431
 10
-114.8270862698546
 20
32.21586218478439
 10
-114.9943621324546
 20
32.18327597778449
 10
-115.1681552364548
 20
32.17241390878445
 10
-115.3419483404545
 20
32.18327597778449
 10
-115.5092242030546
 20
32.21586218478439
 10
-115.6699828242544
 20
32.26582770218425
 10
-115.8242242040546
 20
32.33751735758443
 10
-115.9697759286546
 20
32.42224149578425
 10
-116.1088104118548
 20
32.52651735818432
 10
-116.2375911019185
 20
32.64658232408266
 10
-116.3568131712627
 20
32.78114163485481
 10
-116.4663028267828
 20
32.93122066981397
 10
-116.5627579995027
 20
33.09004149790445
 10
-116.6453966204549
 20
33.25644839498437
 10
-116.7170862758548
 20
33.44110356798438
 10
-116.7713966208548
 20
33.6301035685845
 10
-116.8126724830547
 20
33.82779322438438
 10
-116.8409138624547
 20
34.03417253538447
 10
-116.8496035176547
 20
34.24489667398444
 10
-116.8496035176549
 20
35.47882771238443
 10
-116.0240862736548
 20
35.47882771238443
 10
-116.0240862736545
 20
34.23837943258451
 10
-116.0153966184548
 20
34.09500012178438
 10
-115.9882848942306
 20
33.96031046618447
 10
-115.9483124803107
 20
33.82883598300833
 10
-115.8959138594546
 20
33.70179322398445
 10
-115.8288297213107
 20
33.59438908571252
 10
-115.7525345486547
 20
33.49324149918431
 10
-115.6634655828547
 20
33.40634494718444
 10
-115.5657069618546
 20
33.33682770558431
 10
-115.5657069618546
 20
35.47882771238443
 10
-114.7380173040546
 20
35.47882771238443
 10
-114.7380173040546
 20
33.37375874018454
 10
-114.6525110968868
 20
33.44822908524844
 10
-114.5727400621508
 20
33.53564701656052
 10
-114.5051345446947
 20
33.63271046514439
 10
-114.4442200617427
 20
33.74237391376852
 10
-114.3962531650386
 20
33.85838081068852
 10
-114.3619290269989
 20
33.97899322486461
 10
-114.3399441993426
 20
34.11124977700848
 10
-114.3296035096545
 20
34.24489667398444
 10
-114.3296035096545
 20
35.47882771238443
 10
-113.4715000586547
 20
35.47882771238443
 10
-113.4715000586547
 20
34.26879322578458
 10
-113.4801897138545
 20
34.05589667338456
 10
-113.5040862656546
 20
33.84951736238446
 10
-113.5475345416548
 20
33.64965529278453
 10
-113.6040173004548
 20
33.45848287838459
 10
-113.6778793696548
 20
33.27382770538435
 10
-113.7626035078546
 20
33.10003460138438
 10
-113.8603621288548
 20
32.93927598018451
 10
-113.9709814395505
 20
32.79171694523331
  0
LINE
  5
747F
330
7367
100
AcDbEntity
  8
LW 5015-32-00
  6
MITTE2
 62
     3
100
AcDbLine
 10
0.0
 20
37.00000000000006
 30
0.0
 11
0.0
 21
-37.00000000000006
 31
0.0
  0
INSERT
  5
7480
330
7367
100
AcDbEntity
  8
LW 5015-32-00
100
AcDbBlockReference
 66
     1
  2
insertpoint-ECKELT
 10
0.0
 20
0.0
 30
0.0
  0
ATTRIB
  5
7481
330
7480
100
AcDbEntity
  8
insertpoint_ECKELT
100
AcDbText
 10
-6.93151432469286
 20
0.0
 30
0.0
 40
0.6
  1
LW 5015/32-00
 72
     2
 11
-1.199999999999818
 21
0.0
 31
0.0
100
AcDbAttribute
  2
LINKS
 70
     0
  0
ATTRIB
  5
7482
330
7480
100
AcDbEntity
  8
insertpoint_ECKELT
100
AcDbText
 10
1.199999999999818
 20
0.0
 30
0.0
 40
0.6
  1

100
AcDbAttribute
  2
RECHTS
 70
     0
  0
SEQEND
  5
7483
330
7480
100
AcDbEntity
  8
LW 5015-32-00
  0
POLYLINE
  5
7484
330
7367
100
AcDbEntity
  8
LW 5015-32-00
100
AcDb2dPolyline
 66
     1
 10
0.0
 20
0.0
 30
0.0
 70
   128
  0
VERTEX
  5
7485
330
7484
100
AcDbEntity
  8
LW 5015-32-00
100
AcDbVertex
100
AcDb2dVertex
 10
-93.50000023841834
 20
0.1000022888189846
 30
0.0
  0
VERTEX
  5
7486
330
7484
100
AcDbEntity
  8
LW 5015-32-00
100
AcDbVertex
100
AcDb2dVertex
 10
-93.48383784294105
 20
0.7524204254156644
 30
0.0
  0
VERTEX
  5
7487
330
7484
100
AcDbEntity
  8
LW 5015-32-00
100
AcDbVertex
100
AcDb2dVertex
 10
-93.43569993972755
 20
1.408705711365371
 30
0.0
  0
VERTEX
  5
7488
330
7484
100
AcDbEntity
  8
LW 5015-32-00
100
AcDbVertex
100
AcDb2dVertex
 10
-93.35610747337318
 20
2.063431739807754
 30
0.0
  0
VERTEX
  5
7489
330
7484
100
AcDbEntity
  8
LW 5015-32-00
100
AcDbVertex
100
AcDb2dVertex
 10
-93.24622988700843
 20
2.711348533630996
 30
0.0
  0
VERTEX
  5
748A
330
7484
100
AcDbEntity
  8
LW 5015-32-00
100
AcDbVertex
100
AcDb2dVertex
 10
-93.10924053192115
 20
3.347783088684707
 30
0.0
  0
VERTEX
  5
748B
330
7484
100
AcDbEntity
  8
LW 5015-32-00
100
AcDbVertex
100
AcDb2dVertex
 10
-92.94866681098914
 20
3.968186378479629
 30
0.0
  0
VERTEX
  5
748C
330
7484
100
AcDbEntity
  8
LW 5015-32-00
100
AcDbVertex
100
AcDb2dVertex
 10
-92.76835083961463
 20
4.56830501556459
 30
0.0
  0
VERTEX
  5
748D
330
7484
100
AcDbEntity
  8
LW 5015-32-00
100
AcDbVertex
100
AcDb2dVertex
 10
-92.57279276847816
 20
5.14498710632381
 30
0.0
  0
VERTEX
  5
748E
330
7484
100
AcDbEntity
  8
LW 5015-32-00
100
AcDbVertex
100
AcDb2dVertex
 10
-92.36650586128211
 20
5.695304870606037
 30
0.0
  0
VERTEX
  5
748F
330
7484
100
AcDbEntity
  8
LW 5015-32-00
100
AcDbVertex
100
AcDb2dVertex
 10
-92.15400457382179
 20
6.216325759888263
 30
0.0
  0
VERTEX
  5
7490
330
7484
100
AcDbEntity
  8
LW 5015-32-00
100
AcDbVertex
100
AcDb2dVertex
 10
-91.93980336189246
 20
6.705121994019123
 30
0.0
  0
VERTEX
  5
7491
330
7484
100
AcDbEntity
  8
LW 5015-32-00
100
AcDbVertex
100
AcDb2dVertex
 10
-91.72841668128944
 20
7.158765792847248
 30
0.0
  0
VERTEX
  5
7492
330
7484
100
AcDbEntity
  8
LW 5015-32-00
100
AcDbVertex
100
AcDb2dVertex
 10
-91.51902914047218
 20
7.584662437439533
 30
0.0
  0
VERTEX
  5
7493
330
7484
100
AcDbEntity
  8
LW 5015-32-00
100
AcDbVertex
100
AcDb2dVertex
 10
-91.31035447120643
 20
7.989382743836017
 30
0.0
  0
VERTEX
  5
7494
330
7484
100
AcDbEntity
  8
LW 5015-32-00
100
AcDbVertex
100
AcDb2dVertex
 10
-91.10615491867042
 20
8.368849754334064
 30
0.0
  0
VERTEX
  5
7495
330
7484
100
AcDbEntity
  8
LW 5015-32-00
100
AcDbVertex
100
AcDb2dVertex
 10
-90.91019630432105
 20
8.718976974487816
 30
0.0
  0
VERTEX
  5
7496
330
7484
100
AcDbEntity
  8
LW 5015-32-00
100
AcDbVertex
100
AcDb2dVertex
 10
-90.72623848915077
 20
9.035677909851585
 30
0.0
  0
VERTEX
  5
7497
330
7484
100
AcDbEntity
  8
LW 5015-32-00
100
AcDbVertex
100
AcDb2dVertex
 10
-90.55804610252357
 20
9.314870834351097
 30
0.0
  0
VERTEX
  5
7498
330
7484
100
AcDbEntity
  8
LW 5015-32-00
100
AcDbVertex
100
AcDb2dVertex
 10
-90.40935873985267
 20
9.552946090698753
 30
0.0
  0
VERTEX
  5
7499
330
7484
100
AcDbEntity
  8
LW 5015-32-00
100
AcDbVertex
100
AcDb2dVertex
 10
-90.28207540512061
 20
9.748716354370628
 30
0.0
  0
VERTEX
  5
749A
330
7484
100
AcDbEntity
  8
LW 5015-32-00
100
AcDbVertex
100
AcDb2dVertex
 10
-90.1772058010099
 20
9.901742935181175
 30
0.0
  0
VERTEX
  5
749B
330
7484
100
AcDbEntity
  8
LW 5015-32-00
100
AcDbVertex
100
AcDb2dVertex
 10
-90.09575486183143
 20
10.01159191131643
 30
0.0
  0
VERTEX
  5
749C
330
7484
100
AcDbEntity
  8
LW 5015-32-00
100
AcDbVertex
100
AcDb2dVertex
 10
-90.03873229026771
 20
10.07782459259084
 30
0.0
  0
VERTEX
  5
749D
330
7484
100
AcDbEntity
  8
LW 5015-32-00
100
AcDbVertex
100
AcDb2dVertex
 10
-90.00714421272254
 20
10.10000228881887
 30
0.0
  0
SEQEND
  5
749E
330
7484
100
AcDbEntity
  8
LW 5015-32-00
  0
POLYLINE
  5
749F
330
7367
100
AcDbEntity
  8
LW 5015-32-00
100
AcDb2dPolyline
 66
     1
 10
0.0
 20
0.0
 30
0.0
 70
   128
  0
VERTEX
  5
74A0
330
749F
100
AcDbEntity
  8
LW 5015-32-00
100
AcDbVertex
100
AcDb2dVertex
 10
-124.9928557872769
 20
10.10000228881887
 30
0.0
  0
VERTEX
  5
74A1
330
749F
100
AcDbEntity
  8
LW 5015-32-00
100
AcDbVertex
100
AcDb2dVertex
 10
-124.9612677097317
 20
10.07782459259084
 30
0.0
  0
VERTEX
  5
74A2
330
749F
100
AcDbEntity
  8
LW 5015-32-00
100
AcDbVertex
100
AcDb2dVertex
 10
-124.904245138168
 20
10.01159191131643
 30
0.0
  0
VERTEX
  5
74A3
330
749F
100
AcDbEntity
  8
LW 5015-32-00
100
AcDbVertex
100
AcDb2dVertex
 10
-124.8227941989895
 20
9.901742935181175
 30
0.0
  0
VERTEX
  5
74A4
330
749F
100
AcDbEntity
  8
LW 5015-32-00
100
AcDbVertex
100
AcDb2dVertex
 10
-124.7179245948789
 20
9.748716354370628
 30
0.0
  0
VERTEX
  5
74A5
330
749F
100
AcDbEntity
  8
LW 5015-32-00
100
AcDbVertex
100
AcDb2dVertex
 10
-124.5906412601468
 20
9.552946090698753
 30
0.0
  0
VERTEX
  5
74A6
330
749F
100
AcDbEntity
  8
LW 5015-32-00
100
AcDbVertex
100
AcDb2dVertex
 10
-124.4419538974759
 20
9.314870834351097
 30
0.0
  0
VERTEX
  5
74A7
330
749F
100
AcDbEntity
  8
LW 5015-32-00
100
AcDbVertex
100
AcDb2dVertex
 10
-124.2737615108487
 20
9.035677909851585
 30
0.0
  0
VERTEX
  5
74A8
330
749F
100
AcDbEntity
  8
LW 5015-32-00
100
AcDbVertex
100
AcDb2dVertex
 10
-124.0898036956785
 20
8.718976974487816
 30
0.0
  0
VERTEX
  5
74A9
330
749F
100
AcDbEntity
  8
LW 5015-32-00
100
AcDbVertex
100
AcDb2dVertex
 10
-123.8938450813291
 20
8.368849754334064
 30
0.0
  0
VERTEX
  5
74AA
330
749F
100
AcDbEntity
  8
LW 5015-32-00
100
AcDbVertex
100
AcDb2dVertex
 10
-123.6896455287931
 20
7.989382743836017
 30
0.0
  0
VERTEX
  5
74AB
330
749F
100
AcDbEntity
  8
LW 5015-32-00
100
AcDbVertex
100
AcDb2dVertex
 10
-123.4809708595273
 20
7.584662437439533
 30
0.0
  0
VERTEX
  5
74AC
330
749F
100
AcDbEntity
  8
LW 5015-32-00
100
AcDbVertex
100
AcDb2dVertex
 10
-123.2715833187101
 20
7.158765792847248
 30
0.0
  0
VERTEX
  5
74AD
330
749F
100
AcDbEntity
  8
LW 5015-32-00
100
AcDbVertex
100
AcDb2dVertex
 10
-123.060196638107
 20
6.705121994019123
 30
0.0
  0
VERTEX
  5
74AE
330
749F
100
AcDbEntity
  8
LW 5015-32-00
100
AcDbVertex
100
AcDb2dVertex
 10
-122.8459954261777
 20
6.216325759888263
 30
0.0
  0
VERTEX
  5
74AF
330
749F
100
AcDbEntity
  8
LW 5015-32-00
100
AcDbVertex
100
AcDb2dVertex
 10
-122.6334941387174
 20
5.695304870606037
 30
0.0
  0
VERTEX
  5
74B0
330
749F
100
AcDbEntity
  8
LW 5015-32-00
100
AcDbVertex
100
AcDb2dVertex
 10
-122.4272072315213
 20
5.14498710632381
 30
0.0
  0
VERTEX
  5
74B1
330
749F
100
AcDbEntity
  8
LW 5015-32-00
100
AcDbVertex
100
AcDb2dVertex
 10
-122.2316491603849
 20
4.56830501556459
 30
0.0
  0
VERTEX
  5
74B2
330
749F
100
AcDbEntity
  8
LW 5015-32-00
100
AcDbVertex
100
AcDb2dVertex
 10
-122.0513331890104
 20
3.968186378479629
 30
0.0
  0
VERTEX
  5
74B3
330
749F
100
AcDbEntity
  8
LW 5015-32-00
100
AcDbVertex
100
AcDb2dVertex
 10
-121.8907594680783
 20
3.347783088684707
 30
0.0
  0
VERTEX
  5
74B4
330
749F
100
AcDbEntity
  8
LW 5015-32-00
100
AcDbVertex
100
AcDb2dVertex
 10
-121.7537701129911
 20
2.711348533630996
 30
0.0
  0
VERTEX
  5
74B5
330
749F
100
AcDbEntity
  8
LW 5015-32-00
100
AcDbVertex
100
AcDb2dVertex
 10
-121.6438925266263
 20
2.063431739807754
 30
0.0
  0
VERTEX
  5
74B6
330
749F
100
AcDbEntity
  8
LW 5015-32-00
100
AcDbVertex
100
AcDb2dVertex
 10
-121.5643000602719
 20
1.408705711365371
 30
0.0
  0
VERTEX
  5
74B7
330
749F
100
AcDbEntity
  8
LW 5015-32-00
100
AcDbVertex
100
AcDb2dVertex
 10
-121.5161621570584
 20
0.7524204254156644
 30
0.0
  0
VERTEX
  5
74B8
330
749F
100
AcDbEntity
  8
LW 5015-32-00
100
AcDbVertex
100
AcDb2dVertex
 10
-121.4999997615812
 20
0.1000022888189846
 30
0.0
  0
SEQEND
  5
74B9
330
749F
100
AcDbEntity
  8
LW 5015-32-00
  0
POLYLINE
  5
74BA
330
7367
100
AcDbEntity
  8
LW 5015-32-00
100
AcDb2dPolyline
 66
     1
 10
0.0
 20
0.0
 30
0.0
 70
   128
  0
VERTEX
  5
74BB
330
74BA
100
AcDbEntity
  8
LW 5015-32-00
100
AcDbVertex
100
AcDb2dVertex
 10
-90.00714421272254
 20
-10.10000228881756
 30
0.0
  0
VERTEX
  5
74BC
330
74BA
100
AcDbEntity
  8
LW 5015-32-00
100
AcDbVertex
100
AcDb2dVertex
 10
-90.03873229026771
 20
-10.07782459258953
 30
0.0
  0
VERTEX
  5
74BD
330
74BA
100
AcDbEntity
  8
LW 5015-32-00
100
AcDbVertex
100
AcDb2dVertex
 10
-90.09575486183143
 20
-10.01159191131512
 30
0.0
  0
VERTEX
  5
74BE
330
74BA
100
AcDbEntity
  8
LW 5015-32-00
100
AcDbVertex
100
AcDb2dVertex
 10
-90.1772058010099
 20
-9.901742935179868
 30
0.0
  0
VERTEX
  5
74BF
330
74BA
100
AcDbEntity
  8
LW 5015-32-00
100
AcDbVertex
100
AcDb2dVertex
 10
-90.28207540512061
 20
-9.748716354369321
 30
0.0
  0
VERTEX
  5
74C0
330
74BA
100
AcDbEntity
  8
LW 5015-32-00
100
AcDbVertex
100
AcDb2dVertex
 10
-90.40935873985267
 20
-9.552946090697446
 30
0.0
  0
VERTEX
  5
74C1
330
74BA
100
AcDbEntity
  8
LW 5015-32-00
100
AcDbVertex
100
AcDb2dVertex
 10
-90.55804610252357
 20
-9.31487083434979
 30
0.0
  0
VERTEX
  5
74C2
330
74BA
100
AcDbEntity
  8
LW 5015-32-00
100
AcDbVertex
100
AcDb2dVertex
 10
-90.72623848915077
 20
-9.035677909850335
 30
0.0
  0
VERTEX
  5
74C3
330
74BA
100
AcDbEntity
  8
LW 5015-32-00
100
AcDbVertex
100
AcDb2dVertex
 10
-90.91019630432105
 20
-8.718976974486565
 30
0.0
  0
VERTEX
  5
74C4
330
74BA
100
AcDbEntity
  8
LW 5015-32-00
100
AcDbVertex
100
AcDb2dVertex
 10
-91.10615491867042
 20
-8.368849754332757
 30
0.0
  0
VERTEX
  5
74C5
330
74BA
100
AcDbEntity
  8
LW 5015-32-00
100
AcDbVertex
100
AcDb2dVertex
 10
-91.31035447120643
 20
-7.98938274383471
 30
0.0
  0
VERTEX
  5
74C6
330
74BA
100
AcDbEntity
  8
LW 5015-32-00
100
AcDbVertex
100
AcDb2dVertex
 10
-91.51902914047218
 20
-7.584662437438225
 30
0.0
  0
VERTEX
  5
74C7
330
74BA
100
AcDbEntity
  8
LW 5015-32-00
100
AcDbVertex
100
AcDb2dVertex
 10
-91.72841668128944
 20
-7.15876579284594
 30
0.0
  0
VERTEX
  5
74C8
330
74BA
100
AcDbEntity
  8
LW 5015-32-00
100
AcDbVertex
100
AcDb2dVertex
 10
-91.93980336189246
 20
-6.705121994017815
 30
0.0
  0
VERTEX
  5
74C9
330
74BA
100
AcDbEntity
  8
LW 5015-32-00
100
AcDbVertex
100
AcDb2dVertex
 10
-92.15400457382179
 20
-6.216325759886956
 30
0.0
  0
VERTEX
  5
74CA
330
74BA
100
AcDbEntity
  8
LW 5015-32-00
100
AcDbVertex
100
AcDb2dVertex
 10
-92.36650586128211
 20
-5.695304870604729
 30
0.0
  0
VERTEX
  5
74CB
330
74BA
100
AcDbEntity
  8
LW 5015-32-00
100
AcDbVertex
100
AcDb2dVertex
 10
-92.57279276847816
 20
-5.144987106322503
 30
0.0
  0
VERTEX
  5
74CC
330
74BA
100
AcDbEntity
  8
LW 5015-32-00
100
AcDbVertex
100
AcDb2dVertex
 10
-92.76835083961463
 20
-4.568305015563225
 30
0.0
  0
VERTEX
  5
74CD
330
74BA
100
AcDbEntity
  8
LW 5015-32-00
100
AcDbVertex
100
AcDb2dVertex
 10
-92.94866681098914
 20
-3.968186378478264
 30
0.0
  0
VERTEX
  5
74CE
330
74BA
100
AcDbEntity
  8
LW 5015-32-00
100
AcDbVertex
100
AcDb2dVertex
 10
-93.10924053192115
 20
-3.347783088683343
 30
0.0
  0
VERTEX
  5
74CF
330
74BA
100
AcDbEntity
  8
LW 5015-32-00
100
AcDbVertex
100
AcDb2dVertex
 10
-93.24622988700843
 20
-2.711348533629688
 30
0.0
  0
VERTEX
  5
74D0
330
74BA
100
AcDbEntity
  8
LW 5015-32-00
100
AcDbVertex
100
AcDb2dVertex
 10
-93.35610747337318
 20
-2.063431739806446
 30
0.0
  0
VERTEX
  5
74D1
330
74BA
100
AcDbEntity
  8
LW 5015-32-00
100
AcDbVertex
100
AcDb2dVertex
 10
-93.43569993972755
 20
-1.408705711364063
 30
0.0
  0
VERTEX
  5
74D2
330
74BA
100
AcDbEntity
  8
LW 5015-32-00
100
AcDbVertex
100
AcDb2dVertex
 10
-93.48383784294105
 20
-0.7524204254144138
 30
0.0
  0
VERTEX
  5
74D3
330
74BA
100
AcDbEntity
  8
LW 5015-32-00
100
AcDbVertex
100
AcDb2dVertex
 10
-93.50000023841834
 20
-0.1000022888177341
 30
0.0
  0
SEQEND
  5
74D4
330
74BA
100
AcDbEntity
  8
LW 5015-32-00
  0
POLYLINE
  5
74D5
330
7367
100
AcDbEntity
  8
LW 5015-32-00
100
AcDb2dPolyline
 66
     1
 10
0.0
 20
0.0
 30
0.0
 70
   128
  0
VERTEX
  5
74D6
330
74D5
100
AcDbEntity
  8
LW 5015-32-00
100
AcDbVertex
100
AcDb2dVertex
 10
-121.4999997615812
 20
-0.1000022888177341
 30
0.0
  0
VERTEX
  5
74D7
330
74D5
100
AcDbEntity
  8
LW 5015-32-00
100
AcDbVertex
100
AcDb2dVertex
 10
-121.5161621570584
 20
-0.7524204254144138
 30
0.0
  0
VERTEX
  5
74D8
330
74D5
100
AcDbEntity
  8
LW 5015-32-00
100
AcDbVertex
100
AcDb2dVertex
 10
-121.5643000602719
 20
-1.408705711364063
 30
0.0
  0
VERTEX
  5
74D9
330
74D5
100
AcDbEntity
  8
LW 5015-32-00
100
AcDbVertex
100
AcDb2dVertex
 10
-121.6438925266263
 20
-2.063431739806446
 30
0.0
  0
VERTEX
  5
74DA
330
74D5
100
AcDbEntity
  8
LW 5015-32-00
100
AcDbVertex
100
AcDb2dVertex
 10
-121.7537701129911
 20
-2.711348533629688
 30
0.0
  0
VERTEX
  5
74DB
330
74D5
100
AcDbEntity
  8
LW 5015-32-00
100
AcDbVertex
100
AcDb2dVertex
 10
-121.8907594680783
 20
-3.347783088683343
 30
0.0
  0
VERTEX
  5
74DC
330
74D5
100
AcDbEntity
  8
LW 5015-32-00
100
AcDbVertex
100
AcDb2dVertex
 10
-122.0513331890104
 20
-3.968186378478264
 30
0.0
  0
VERTEX
  5
74DD
330
74D5
100
AcDbEntity
  8
LW 5015-32-00
100
AcDbVertex
100
AcDb2dVertex
 10
-122.2316491603849
 20
-4.568305015563225
 30
0.0
  0
VERTEX
  5
74DE
330
74D5
100
AcDbEntity
  8
LW 5015-32-00
100
AcDbVertex
100
AcDb2dVertex
 10
-122.4272072315213
 20
-5.144987106322503
 30
0.0
  0
VERTEX
  5
74DF
330
74D5
100
AcDbEntity
  8
LW 5015-32-00
100
AcDbVertex
100
AcDb2dVertex
 10
-122.6334941387174
 20
-5.695304870604729
 30
0.0
  0
VERTEX
  5
74E0
330
74D5
100
AcDbEntity
  8
LW 5015-32-00
100
AcDbVertex
100
AcDb2dVertex
 10
-122.8459954261777
 20
-6.216325759886956
 30
0.0
  0
VERTEX
  5
74E1
330
74D5
100
AcDbEntity
  8
LW 5015-32-00
100
AcDbVertex
100
AcDb2dVertex
 10
-123.060196638107
 20
-6.705121994017815
 30
0.0
  0
VERTEX
  5
74E2
330
74D5
100
AcDbEntity
  8
LW 5015-32-00
100
AcDbVertex
100
AcDb2dVertex
 10
-123.2715833187101
 20
-7.15876579284594
 30
0.0
  0
VERTEX
  5
74E3
330
74D5
100
AcDbEntity
  8
LW 5015-32-00
100
AcDbVertex
100
AcDb2dVertex
 10
-123.4809708595273
 20
-7.584662437438225
 30
0.0
  0
VERTEX
  5
74E4
330
74D5
100
AcDbEntity
  8
LW 5015-32-00
100
AcDbVertex
100
AcDb2dVertex
 10
-123.6896455287931
 20
-7.98938274383471
 30
0.0
  0
VERTEX
  5
74E5
330
74D5
100
AcDbEntity
  8
LW 5015-32-00
100
AcDbVertex
100
AcDb2dVertex
 10
-123.8938450813291
 20
-8.368849754332757
 30
0.0
  0
VERTEX
  5
74E6
330
74D5
100
AcDbEntity
  8
LW 5015-32-00
100
AcDbVertex
100
AcDb2dVertex
 10
-124.0898036956785
 20
-8.718976974486565
 30
0.0
  0
VERTEX
  5
74E7
330
74D5
100
AcDbEntity
  8
LW 5015-32-00
100
AcDbVertex
100
AcDb2dVertex
 10
-124.2737615108487
 20
-9.035677909850335
 30
0.0
  0
VERTEX
  5
74E8
330
74D5
100
AcDbEntity
  8
LW 5015-32-00
100
AcDbVertex
100
AcDb2dVertex
 10
-124.4419538974759
 20
-9.31487083434979
 30
0.0
  0
VERTEX
  5
74E9
330
74D5
100
AcDbEntity
  8
LW 5015-32-00
100
AcDbVertex
100
AcDb2dVertex
 10
-124.5906412601468
 20
-9.552946090697446
 30
0.0
  0
VERTEX
  5
74EA
330
74D5
100
AcDbEntity
  8
LW 5015-32-00
100
AcDbVertex
100
AcDb2dVertex
 10
-124.7179245948789
 20
-9.748716354369321
 30
0.0
  0
VERTEX
  5
74EB
330
74D5
100
AcDbEntity
  8
LW 5015-32-00
100
AcDbVertex
100
AcDb2dVertex
 10
-124.8227941989895
 20
-9.901742935179868
 30
0.0
  0
VERTEX
  5
74EC
330
74D5
100
AcDbEntity
  8
LW 5015-32-00
100
AcDbVertex
100
AcDb2dVertex
 10
-124.904245138168
 20
-10.01159191131512
 30
0.0
  0
VERTEX
  5
74ED
330
74D5
100
AcDbEntity
  8
LW 5015-32-00
100
AcDbVertex
100
AcDb2dVertex
 10
-124.9612677097317
 20
-10.07782459258953
 30
0.0
  0
VERTEX
  5
74EE
330
74D5
100
AcDbEntity
  8
LW 5015-32-00
100
AcDbVertex
100
AcDb2dVertex
 10
-124.9928557872769
 20
-10.10000228881756
 30
0.0
  0
SEQEND
  5
74EF
330
74D5
100
AcDbEntity
  8
LW 5015-32-00
  0
LINE
  5
74F0
330
7367
100
AcDbEntity
  8
LW 5015-32-00
100
AcDbLine
 10
-121.4999997615812
 20
-0.1000022888177341
 30
0.0
 11
-121.4999997615812
 21
0.1000022888189846
 31
0.0
  0
LINE
  5
74F1
330
7367
100
AcDbEntity
  8
LW 5015-32-00
100
AcDbLine
 10
-93.50000023841834
 20
-0.1000022888177341
 30
0.0
 11
-93.50000023841834
 21
0.1000022888189846
 31
0.0
  0
LINE
  5
74F2
330
7367
100
AcDbEntity
  8
LW 5015-32-00
100
AcDbLine
 10
-124.9928557872769
 20
-10.10000228881756
 30
0.0
 11
-124.9999999999998
 21
-10.10000228881756
 31
0.0
  0
LINE
  5
74F3
330
7367
100
AcDbEntity
  8
LW 5015-32-00
100
AcDbLine
 10
-124.9928557872769
 20
10.10000228881887
 30
0.0
 11
-124.9999999999997
 21
10.10000000000008
 31
0.0
  0
LINE
  5
74F4
330
7367
100
AcDbEntity
  8
LW 5015-32-00
100
AcDbLine
 10
-90.00714421272254
 20
10.10000228881887
 30
0.0
 11
-89.99999999999976
 21
10.10000000000008
 31
0.0
  0
LINE
  5
74F5
330
7367
100
AcDbEntity
  8
LW 5015-32-00
100
AcDbLine
 10
-90.00714421272254
 20
-10.10000228881756
 30
0.0
 11
-89.99999999999976
 21
-10.09999999999996
 31
0.0
  0
POLYLINE
  5
74F6
330
7367
100
AcDbEntity
  8
LW 5015-32-00
100
AcDb2dPolyline
 66
     1
 10
0.0
 20
0.0
 30
0.0
 70
   128
  0
VERTEX
  5
74F7
330
74F6
100
AcDbEntity
  8
LW 5015-32-00
100
AcDbVertex
100
AcDb2dVertex
 10
121.4999997615816
 20
0.1000022888189846
 30
0.0
  0
VERTEX
  5
74F8
330
74F6
100
AcDbEntity
  8
LW 5015-32-00
100
AcDbVertex
100
AcDb2dVertex
 10
121.5161621570589
 20
0.7524204254156644
 30
0.0
  0
VERTEX
  5
74F9
330
74F6
100
AcDbEntity
  8
LW 5015-32-00
100
AcDbVertex
100
AcDb2dVertex
 10
121.5643000602724
 20
1.408705711365371
 30
0.0
  0
VERTEX
  5
74FA
330
74F6
100
AcDbEntity
  8
LW 5015-32-00
100
AcDbVertex
100
AcDb2dVertex
 10
121.6438925266268
 20
2.063431739807754
 30
0.0
  0
VERTEX
  5
74FB
330
74F6
100
AcDbEntity
  8
LW 5015-32-00
100
AcDbVertex
100
AcDb2dVertex
 10
121.7537701129915
 20
2.711348533630996
 30
0.0
  0
VERTEX
  5
74FC
330
74F6
100
AcDbEntity
  8
LW 5015-32-00
100
AcDbVertex
100
AcDb2dVertex
 10
121.8907594680788
 20
3.347783088684707
 30
0.0
  0
VERTEX
  5
74FD
330
74F6
100
AcDbEntity
  8
LW 5015-32-00
100
AcDbVertex
100
AcDb2dVertex
 10
122.0513331890108
 20
3.968186378479629
 30
0.0
  0
VERTEX
  5
74FE
330
74F6
100
AcDbEntity
  8
LW 5015-32-00
100
AcDbVertex
100
AcDb2dVertex
 10
122.2316491603853
 20
4.56830501556459
 30
0.0
  0
VERTEX
  5
74FF
330
74F6
100
AcDbEntity
  8
LW 5015-32-00
100
AcDbVertex
100
AcDb2dVertex
 10
122.4272072315218
 20
5.14498710632381
 30
0.0
  0
VERTEX
  5
7500
330
74F6
100
AcDbEntity
  8
LW 5015-32-00
100
AcDbVertex
100
AcDb2dVertex
 10
122.6334941387178
 20
5.695304870606037
 30
0.0
  0
VERTEX
  5
7501
330
74F6
100
AcDbEntity
  8
LW 5015-32-00
100
AcDbVertex
100
AcDb2dVertex
 10
122.8459954261782
 20
6.216325759888263
 30
0.0
  0
VERTEX
  5
7502
330
74F6
100
AcDbEntity
  8
LW 5015-32-00
100
AcDbVertex
100
AcDb2dVertex
 10
123.0601966381075
 20
6.705121994019123
 30
0.0
  0
VERTEX
  5
7503
330
74F6
100
AcDbEntity
  8
LW 5015-32-00
100
AcDbVertex
100
AcDb2dVertex
 10
123.2715833187105
 20
7.158765792847248
 30
0.0
  0
VERTEX
  5
7504
330
74F6
100
AcDbEntity
  8
LW 5015-32-00
100
AcDbVertex
100
AcDb2dVertex
 10
123.4809708595278
 20
7.584662437439533
 30
0.0
  0
VERTEX
  5
7505
330
74F6
100
AcDbEntity
  8
LW 5015-32-00
100
AcDbVertex
100
AcDb2dVertex
 10
123.6896455287935
 20
7.989382743836017
 30
0.0
  0
VERTEX
  5
7506
330
74F6
100
AcDbEntity
  8
LW 5015-32-00
100
AcDbVertex
100
AcDb2dVertex
 10
123.8938450813295
 20
8.368849754334064
 30
0.0
  0
VERTEX
  5
7507
330
74F6
100
AcDbEntity
  8
LW 5015-32-00
100
AcDbVertex
100
AcDb2dVertex
 10
124.0898036956789
 20
8.718976974487816
 30
0.0
  0
VERTEX
  5
7508
330
74F6
100
AcDbEntity
  8
LW 5015-32-00
100
AcDbVertex
100
AcDb2dVertex
 10
124.2737615108492
 20
9.035677909851585
 30
0.0
  0
VERTEX
  5
7509
330
74F6
100
AcDbEntity
  8
LW 5015-32-00
100
AcDbVertex
100
AcDb2dVertex
 10
124.4419538974764
 20
9.314870834351097
 30
0.0
  0
VERTEX
  5
750A
330
74F6
100
AcDbEntity
  8
LW 5015-32-00
100
AcDbVertex
100
AcDb2dVertex
 10
124.5906412601473
 20
9.552946090698753
 30
0.0
  0
VERTEX
  5
750B
330
74F6
100
AcDbEntity
  8
LW 5015-32-00
100
AcDbVertex
100
AcDb2dVertex
 10
124.7179245948793
 20
9.748716354370628
 30
0.0
  0
VERTEX
  5
750C
330
74F6
100
AcDbEntity
  8
LW 5015-32-00
100
AcDbVertex
100
AcDb2dVertex
 10
124.8227941989901
 20
9.901742935181175
 30
0.0
  0
VERTEX
  5
750D
330
74F6
100
AcDbEntity
  8
LW 5015-32-00
100
AcDbVertex
100
AcDb2dVertex
 10
124.9042451381685
 20
10.01159191131643
 30
0.0
  0
VERTEX
  5
750E
330
74F6
100
AcDbEntity
  8
LW 5015-32-00
100
AcDbVertex
100
AcDb2dVertex
 10
124.9612677097323
 20
10.07782459259084
 30
0.0
  0
VERTEX
  5
750F
330
74F6
100
AcDbEntity
  8
LW 5015-32-00
100
AcDbVertex
100
AcDb2dVertex
 10
124.9928557872774
 20
10.10000228881887
 30
0.0
  0
SEQEND
  5
7510
330
74F6
100
AcDbEntity
  8
LW 5015-32-00
  0
POLYLINE
  5
7511
330
7367
100
AcDbEntity
  8
LW 5015-32-00
100
AcDb2dPolyline
 66
     1
 10
0.0
 20
0.0
 30
0.0
 70
   128
  0
VERTEX
  5
7512
330
7511
100
AcDbEntity
  8
LW 5015-32-00
100
AcDbVertex
100
AcDb2dVertex
 10
90.00714421272311
 20
10.10000228881887
 30
0.0
  0
VERTEX
  5
7513
330
7511
100
AcDbEntity
  8
LW 5015-32-00
100
AcDbVertex
100
AcDb2dVertex
 10
90.03873229026828
 20
10.07782459259084
 30
0.0
  0
VERTEX
  5
7514
330
7511
100
AcDbEntity
  8
LW 5015-32-00
100
AcDbVertex
100
AcDb2dVertex
 10
90.095754861832
 20
10.01159191131643
 30
0.0
  0
VERTEX
  5
7515
330
7511
100
AcDbEntity
  8
LW 5015-32-00
100
AcDbVertex
100
AcDb2dVertex
 10
90.17720580101046
 20
9.901742935181175
 30
0.0
  0
VERTEX
  5
7516
330
7511
100
AcDbEntity
  8
LW 5015-32-00
100
AcDbVertex
100
AcDb2dVertex
 10
90.28207540512106
 20
9.748716354370628
 30
0.0
  0
VERTEX
  5
7517
330
7511
100
AcDbEntity
  8
LW 5015-32-00
100
AcDbVertex
100
AcDb2dVertex
 10
90.40935873985311
 20
9.552946090698753
 30
0.0
  0
VERTEX
  5
7518
330
7511
100
AcDbEntity
  8
LW 5015-32-00
100
AcDbVertex
100
AcDb2dVertex
 10
90.55804610252401
 20
9.314870834351097
 30
0.0
  0
VERTEX
  5
7519
330
7511
100
AcDbEntity
  8
LW 5015-32-00
100
AcDbVertex
100
AcDb2dVertex
 10
90.72623848915121
 20
9.035677909851585
 30
0.0
  0
VERTEX
  5
751A
330
7511
100
AcDbEntity
  8
LW 5015-32-00
100
AcDbVertex
100
AcDb2dVertex
 10
90.9101963043215
 20
8.718976974487816
 30
0.0
  0
VERTEX
  5
751B
330
7511
100
AcDbEntity
  8
LW 5015-32-00
100
AcDbVertex
100
AcDb2dVertex
 10
91.10615491867086
 20
8.368849754334064
 30
0.0
  0
VERTEX
  5
751C
330
7511
100
AcDbEntity
  8
LW 5015-32-00
100
AcDbVertex
100
AcDb2dVertex
 10
91.31035447120687
 20
7.989382743836017
 30
0.0
  0
VERTEX
  5
751D
330
7511
100
AcDbEntity
  8
LW 5015-32-00
100
AcDbVertex
100
AcDb2dVertex
 10
91.51902914047262
 20
7.584662437439533
 30
0.0
  0
VERTEX
  5
751E
330
7511
100
AcDbEntity
  8
LW 5015-32-00
100
AcDbVertex
100
AcDb2dVertex
 10
91.72841668128988
 20
7.158765792847248
 30
0.0
  0
VERTEX
  5
751F
330
7511
100
AcDbEntity
  8
LW 5015-32-00
100
AcDbVertex
100
AcDb2dVertex
 10
91.93980336189291
 20
6.705121994019123
 30
0.0
  0
VERTEX
  5
7520
330
7511
100
AcDbEntity
  8
LW 5015-32-00
100
AcDbVertex
100
AcDb2dVertex
 10
92.15400457382223
 20
6.216325759888263
 30
0.0
  0
VERTEX
  5
7521
330
7511
100
AcDbEntity
  8
LW 5015-32-00
100
AcDbVertex
100
AcDb2dVertex
 10
92.36650586128256
 20
5.695304870606037
 30
0.0
  0
VERTEX
  5
7522
330
7511
100
AcDbEntity
  8
LW 5015-32-00
100
AcDbVertex
100
AcDb2dVertex
 10
92.5727927684786
 20
5.14498710632381
 30
0.0
  0
VERTEX
  5
7523
330
7511
100
AcDbEntity
  8
LW 5015-32-00
100
AcDbVertex
100
AcDb2dVertex
 10
92.76835083961508
 20
4.56830501556459
 30
0.0
  0
VERTEX
  5
7524
330
7511
100
AcDbEntity
  8
LW 5015-32-00
100
AcDbVertex
100
AcDb2dVertex
 10
92.94866681098959
 20
3.968186378479629
 30
0.0
  0
VERTEX
  5
7525
330
7511
100
AcDbEntity
  8
LW 5015-32-00
100
AcDbVertex
100
AcDb2dVertex
 10
93.10924053192159
 20
3.347783088684707
 30
0.0
  0
VERTEX
  5
7526
330
7511
100
AcDbEntity
  8
LW 5015-32-00
100
AcDbVertex
100
AcDb2dVertex
 10
93.24622988700888
 20
2.711348533630996
 30
0.0
  0
VERTEX
  5
7527
330
7511
100
AcDbEntity
  8
LW 5015-32-00
100
AcDbVertex
100
AcDb2dVertex
 10
93.35610747337362
 20
2.063431739807754
 30
0.0
  0
VERTEX
  5
7528
330
7511
100
AcDbEntity
  8
LW 5015-32-00
100
AcDbVertex
100
AcDb2dVertex
 10
93.43569993972799
 20
1.408705711365371
 30
0.0
  0
VERTEX
  5
7529
330
7511
100
AcDbEntity
  8
LW 5015-32-00
100
AcDbVertex
100
AcDb2dVertex
 10
93.48383784294149
 20
0.7524204254156644
 30
0.0
  0
VERTEX
  5
752A
330
7511
100
AcDbEntity
  8
LW 5015-32-00
100
AcDbVertex
100
AcDb2dVertex
 10
93.50000023841879
 20
0.1000022888189846
 30
0.0
  0
SEQEND
  5
752B
330
7511
100
AcDbEntity
  8
LW 5015-32-00
  0
POLYLINE
  5
752C
330
7367
100
AcDbEntity
  8
LW 5015-32-00
100
AcDb2dPolyline
 66
     1
 10
0.0
 20
0.0
 30
0.0
 70
   128
  0
VERTEX
  5
752D
330
752C
100
AcDbEntity
  8
LW 5015-32-00
100
AcDbVertex
100
AcDb2dVertex
 10
124.9928557872774
 20
-10.10000228881756
 30
0.0
  0
VERTEX
  5
752E
330
752C
100
AcDbEntity
  8
LW 5015-32-00
100
AcDbVertex
100
AcDb2dVertex
 10
124.9612677097323
 20
-10.07782459258953
 30
0.0
  0
VERTEX
  5
752F
330
752C
100
AcDbEntity
  8
LW 5015-32-00
100
AcDbVertex
100
AcDb2dVertex
 10
124.9042451381685
 20
-10.01159191131512
 30
0.0
  0
VERTEX
  5
7530
330
752C
100
AcDbEntity
  8
LW 5015-32-00
100
AcDbVertex
100
AcDb2dVertex
 10
124.8227941989901
 20
-9.901742935179868
 30
0.0
  0
VERTEX
  5
7531
330
752C
100
AcDbEntity
  8
LW 5015-32-00
100
AcDbVertex
100
AcDb2dVertex
 10
124.7179245948793
 20
-9.748716354369321
 30
0.0
  0
VERTEX
  5
7532
330
752C
100
AcDbEntity
  8
LW 5015-32-00
100
AcDbVertex
100
AcDb2dVertex
 10
124.5906412601473
 20
-9.552946090697446
 30
0.0
  0
VERTEX
  5
7533
330
752C
100
AcDbEntity
  8
LW 5015-32-00
100
AcDbVertex
100
AcDb2dVertex
 10
124.4419538974764
 20
-9.31487083434979
 30
0.0
  0
VERTEX
  5
7534
330
752C
100
AcDbEntity
  8
LW 5015-32-00
100
AcDbVertex
100
AcDb2dVertex
 10
124.2737615108492
 20
-9.035677909850335
 30
0.0
  0
VERTEX
  5
7535
330
752C
100
AcDbEntity
  8
LW 5015-32-00
100
AcDbVertex
100
AcDb2dVertex
 10
124.0898036956789
 20
-8.718976974486565
 30
0.0
  0
VERTEX
  5
7536
330
752C
100
AcDbEntity
  8
LW 5015-32-00
100
AcDbVertex
100
AcDb2dVertex
 10
123.8938450813295
 20
-8.368849754332757
 30
0.0
  0
VERTEX
  5
7537
330
752C
100
AcDbEntity
  8
LW 5015-32-00
100
AcDbVertex
100
AcDb2dVertex
 10
123.6896455287935
 20
-7.98938274383471
 30
0.0
  0
VERTEX
  5
7538
330
752C
100
AcDbEntity
  8
LW 5015-32-00
100
AcDbVertex
100
AcDb2dVertex
 10
123.4809708595278
 20
-7.584662437438225
 30
0.0
  0
VERTEX
  5
7539
330
752C
100
AcDbEntity
  8
LW 5015-32-00
100
AcDbVertex
100
AcDb2dVertex
 10
123.2715833187105
 20
-7.15876579284594
 30
0.0
  0
VERTEX
  5
753A
330
752C
100
AcDbEntity
  8
LW 5015-32-00
100
AcDbVertex
100
AcDb2dVertex
 10
123.0601966381075
 20
-6.705121994017815
 30
0.0
  0
VERTEX
  5
753B
330
752C
100
AcDbEntity
  8
LW 5015-32-00
100
AcDbVertex
100
AcDb2dVertex
 10
122.8459954261782
 20
-6.216325759886956
 30
0.0
  0
VERTEX
  5
753C
330
752C
100
AcDbEntity
  8
LW 5015-32-00
100
AcDbVertex
100
AcDb2dVertex
 10
122.6334941387178
 20
-5.695304870604729
 30
0.0
  0
VERTEX
  5
753D
330
752C
100
AcDbEntity
  8
LW 5015-32-00
100
AcDbVertex
100
AcDb2dVertex
 10
122.4272072315218
 20
-5.144987106322503
 30
0.0
  0
VERTEX
  5
753E
330
752C
100
AcDbEntity
  8
LW 5015-32-00
100
AcDbVertex
100
AcDb2dVertex
 10
122.2316491603853
 20
-4.568305015563225
 30
0.0
  0
VERTEX
  5
753F
330
752C
100
AcDbEntity
  8
LW 5015-32-00
100
AcDbVertex
100
AcDb2dVertex
 10
122.0513331890108
 20
-3.968186378478264
 30
0.0
  0
VERTEX
  5
7540
330
752C
100
AcDbEntity
  8
LW 5015-32-00
100
AcDbVertex
100
AcDb2dVertex
 10
121.8907594680788
 20
-3.347783088683343
 30
0.0
  0
VERTEX
  5
7541
330
752C
100
AcDbEntity
  8
LW 5015-32-00
100
AcDbVertex
100
AcDb2dVertex
 10
121.7537701129915
 20
-2.711348533629688
 30
0.0
  0
VERTEX
  5
7542
330
752C
100
AcDbEntity
  8
LW 5015-32-00
100
AcDbVertex
100
AcDb2dVertex
 10
121.6438925266268
 20
-2.063431739806446
 30
0.0
  0
VERTEX
  5
7543
330
752C
100
AcDbEntity
  8
LW 5015-32-00
100
AcDbVertex
100
AcDb2dVertex
 10
121.5643000602724
 20
-1.408705711364063
 30
0.0
  0
VERTEX
  5
7544
330
752C
100
AcDbEntity
  8
LW 5015-32-00
100
AcDbVertex
100
AcDb2dVertex
 10
121.5161621570589
 20
-0.7524204254144138
 30
0.0
  0
VERTEX
  5
7545
330
752C
100
AcDbEntity
  8
LW 5015-32-00
100
AcDbVertex
100
AcDb2dVertex
 10
121.4999997615816
 20
-0.1000022888177341
 30
0.0
  0
SEQEND
  5
7546
330
752C
100
AcDbEntity
  8
LW 5015-32-00
  0
POLYLINE
  5
7547
330
7367
100
AcDbEntity
  8
LW 5015-32-00
100
AcDb2dPolyline
 66
     1
 10
0.0
 20
0.0
 30
0.0
 70
   128
  0
VERTEX
  5
7548
330
7547
100
AcDbEntity
  8
LW 5015-32-00
100
AcDbVertex
100
AcDb2dVertex
 10
93.50000023841879
 20
-0.1000022888177341
 30
0.0
  0
VERTEX
  5
7549
330
7547
100
AcDbEntity
  8
LW 5015-32-00
100
AcDbVertex
100
AcDb2dVertex
 10
93.48383784294149
 20
-0.7524204254144138
 30
0.0
  0
VERTEX
  5
754A
330
7547
100
AcDbEntity
  8
LW 5015-32-00
100
AcDbVertex
100
AcDb2dVertex
 10
93.43569993972799
 20
-1.408705711364063
 30
0.0
  0
VERTEX
  5
754B
330
7547
100
AcDbEntity
  8
LW 5015-32-00
100
AcDbVertex
100
AcDb2dVertex
 10
93.35610747337362
 20
-2.063431739806446
 30
0.0
  0
VERTEX
  5
754C
330
7547
100
AcDbEntity
  8
LW 5015-32-00
100
AcDbVertex
100
AcDb2dVertex
 10
93.24622988700888
 20
-2.711348533629688
 30
0.0
  0
VERTEX
  5
754D
330
7547
100
AcDbEntity
  8
LW 5015-32-00
100
AcDbVertex
100
AcDb2dVertex
 10
93.10924053192159
 20
-3.347783088683343
 30
0.0
  0
VERTEX
  5
754E
330
7547
100
AcDbEntity
  8
LW 5015-32-00
100
AcDbVertex
100
AcDb2dVertex
 10
92.94866681098959
 20
-3.968186378478264
 30
0.0
  0
VERTEX
  5
754F
330
7547
100
AcDbEntity
  8
LW 5015-32-00
100
AcDbVertex
100
AcDb2dVertex
 10
92.76835083961508
 20
-4.568305015563225
 30
0.0
  0
VERTEX
  5
7550
330
7547
100
AcDbEntity
  8
LW 5015-32-00
100
AcDbVertex
100
AcDb2dVertex
 10
92.5727927684786
 20
-5.144987106322503
 30
0.0
  0
VERTEX
  5
7551
330
7547
100
AcDbEntity
  8
LW 5015-32-00
100
AcDbVertex
100
AcDb2dVertex
 10
92.36650586128256
 20
-5.695304870604729
 30
0.0
  0
VERTEX
  5
7552
330
7547
100
AcDbEntity
  8
LW 5015-32-00
100
AcDbVertex
100
AcDb2dVertex
 10
92.15400457382223
 20
-6.216325759886956
 30
0.0
  0
VERTEX
  5
7553
330
7547
100
AcDbEntity
  8
LW 5015-32-00
100
AcDbVertex
100
AcDb2dVertex
 10
91.93980336189291
 20
-6.705121994017815
 30
0.0
  0
VERTEX
  5
7554
330
7547
100
AcDbEntity
  8
LW 5015-32-00
100
AcDbVertex
100
AcDb2dVertex
 10
91.72841668128988
 20
-7.15876579284594
 30
0.0
  0
VERTEX
  5
7555
330
7547
100
AcDbEntity
  8
LW 5015-32-00
100
AcDbVertex
100
AcDb2dVertex
 10
91.51902914047262
 20
-7.584662437438225
 30
0.0
  0
VERTEX
  5
7556
330
7547
100
AcDbEntity
  8
LW 5015-32-00
100
AcDbVertex
100
AcDb2dVertex
 10
91.31035447120687
 20
-7.98938274383471
 30
0.0
  0
VERTEX
  5
7557
330
7547
100
AcDbEntity
  8
LW 5015-32-00
100
AcDbVertex
100
AcDb2dVertex
 10
91.10615491867086
 20
-8.368849754332757
 30
0.0
  0
VERTEX
  5
7558
330
7547
100
AcDbEntity
  8
LW 5015-32-00
100
AcDbVertex
100
AcDb2dVertex
 10
90.9101963043215
 20
-8.718976974486565
 30
0.0
  0
VERTEX
  5
7559
330
7547
100
AcDbEntity
  8
LW 5015-32-00
100
AcDbVertex
100
AcDb2dVertex
 10
90.72623848915121
 20
-9.035677909850335
 30
0.0
  0
VERTEX
  5
755A
330
7547
100
AcDbEntity
  8
LW 5015-32-00
100
AcDbVertex
100
AcDb2dVertex
 10
90.55804610252401
 20
-9.31487083434979
 30
0.0
  0
VERTEX
  5
755B
330
7547
100
AcDbEntity
  8
LW 5015-32-00
100
AcDbVertex
100
AcDb2dVertex
 10
90.40935873985311
 20
-9.552946090697446
 30
0.0
  0
VERTEX
  5
755C
330
7547
100
AcDbEntity
  8
LW 5015-32-00
100
AcDbVertex
100
AcDb2dVertex
 10
90.28207540512106
 20
-9.748716354369321
 30
0.0
  0
VERTEX
  5
755D
330
7547
100
AcDbEntity
  8
LW 5015-32-00
100
AcDbVertex
100
AcDb2dVertex
 10
90.17720580101046
 20
-9.901742935179868
 30
0.0
  0
VERTEX
  5
755E
330
7547
100
AcDbEntity
  8
LW 5015-32-00
100
AcDbVertex
100
AcDb2dVertex
 10
90.095754861832
 20
-10.01159191131512
 30
0.0
  0
VERTEX
  5
755F
330
7547
100
AcDbEntity
  8
LW 5015-32-00
100
AcDbVertex
100
AcDb2dVertex
 10
90.03873229026828
 20
-10.07782459258953
 30
0.0
  0
VERTEX
  5
7560
330
7547
100
AcDbEntity
  8
LW 5015-32-00
100
AcDbVertex
100
AcDb2dVertex
 10
90.00714421272311
 20
-10.10000228881756
 30
0.0
  0
SEQEND
  5
7561
330
7547
100
AcDbEntity
  8
LW 5015-32-00
  0
LINE
  5
7562
330
7367
100
AcDbEntity
  8
LW 5015-32-00
100
AcDbLine
 10
93.50000023841879
 20
-0.1000022888177341
 30
0.0
 11
93.50000023841879
 21
0.1000022888189846
 31
0.0
  0
LINE
  5
7563
330
7367
100
AcDbEntity
  8
LW 5015-32-00
100
AcDbLine
 10
121.4999997615816
 20
-0.1000022888177341
 30
0.0
 11
121.4999997615816
 21
0.1000022888189846
 31
0.0
  0
LINE
  5
7564
330
7367
100
AcDbEntity
  8
LW 5015-32-00
100
AcDbLine
 10
90.00714421272311
 20
-10.10000228881756
 30
0.0
 11
90.00000000000019
 21
-10.10000228881756
 31
0.0
  0
LINE
  5
7565
330
7367
100
AcDbEntity
  8
LW 5015-32-00
100
AcDbLine
 10
90.00714421272311
 20
10.10000228881887
 30
0.0
 11
90.00000000000021
 21
10.10000000000008
 31
0.0
  0
LINE
  5
7566
330
7367
100
AcDbEntity
  8
LW 5015-32-00
100
AcDbLine
 10
124.9928557872774
 20
10.10000228881887
 30
0.0
 11
125.0000000000002
 21
10.10000000000008
 31
0.0
  0
LINE
  5
7567
330
7367
100
AcDbEntity
  8
LW 5015-32-00
100
AcDbLine
 10
124.9928557872774
 20
-10.10000228881756
 30
0.0
 11
125.0000000000002
 21
-10.09999999999996
 31
0.0
  0
ENDBLK
  5
7369
330
7367
100
AcDbEntity
  8
0
100
AcDbBlockEnd
  0
BLOCK
  5
756A
330
7569
100
AcDbEntity
  8
0
100
AcDbBlockBegin
  2
LW 5015-32-00_b
 70
     0
 10
0.0
 20
0.0
 30
0.0
  3
LW 5015-32-00_b
  1

  0
POLYLINE
  5
756C
330
7569
100
AcDbEntity
  8
LW 5015-32-00
100
AcDb2dPolyline
 66
     1
 10
0.0
 20
0.0
 30
0.0
 70
   128
  0
VERTEX
  5
756D
330
756C
100
AcDbEntity
  8
LW 5015-32-00
100
AcDbVertex
100
AcDb2dVertex
 10
40.01999999999999
 20
-21.65063619614023
 30
0.0
  0
VERTEX
  5
756E
330
756C
100
AcDbEntity
  8
LW 5015-32-00
100
AcDbVertex
100
AcDb2dVertex
 10
39.99898697853088
 20
-21.80843830109006
 30
0.0
  0
VERTEX
  5
756F
330
756C
100
AcDbEntity
  8
LW 5015-32-00
100
AcDbVertex
100
AcDb2dVertex
 10
39.93565704345703
 20
-21.96433782577878
 30
0.0
  0
VERTEX
  5
7570
330
756C
100
AcDbEntity
  8
LW 5015-32-00
100
AcDbVertex
100
AcDb2dVertex
 10
39.82957746505737
 20
-22.11326599121457
 30
0.0
  0
VERTEX
  5
7571
330
756C
100
AcDbEntity
  8
LW 5015-32-00
100
AcDbVertex
100
AcDb2dVertex
 10
39.68169476509094
 20
-22.25069761276586
 30
0.0
  0
VERTEX
  5
7572
330
756C
100
AcDbEntity
  8
LW 5015-32-00
100
AcDbVertex
100
AcDb2dVertex
 10
39.49847723960876
 20
-22.37386226654394
 30
0.0
  0
VERTEX
  5
7573
330
756C
100
AcDbEntity
  8
LW 5015-32-00
100
AcDbVertex
100
AcDb2dVertex
 10
39.28776528358459
 20
-22.48032569885595
 30
0.0
  0
VERTEX
  5
7574
330
756C
100
AcDbEntity
  8
LW 5015-32-00
100
AcDbVertex
100
AcDb2dVertex
 10
39.04740001678467
 20
-22.57195234299024
 30
0.0
  0
VERTEX
  5
7575
330
756C
100
AcDbEntity
  8
LW 5015-32-00
100
AcDbVertex
100
AcDb2dVertex
 10
38.77476121902466
 20
-22.6503801345857
 30
0.0
  0
VERTEX
  5
7576
330
756C
100
AcDbEntity
  8
LW 5015-32-00
100
AcDbVertex
100
AcDb2dVertex
 10
38.47699787139892
 20
-22.71283626556715
 30
0.0
  0
VERTEX
  5
7577
330
756C
100
AcDbEntity
  8
LW 5015-32-00
100
AcDbVertex
100
AcDb2dVertex
 10
38.16183115959167
 20
-22.75718688965162
 30
0.0
  0
VERTEX
  5
7578
330
756C
100
AcDbEntity
  8
LW 5015-32-00
100
AcDbVertex
100
AcDb2dVertex
 10
37.8392925453186
 20
-22.78345584869703
 30
0.0
  0
VERTEX
  5
7579
330
756C
100
AcDbEntity
  8
LW 5015-32-00
100
AcDbVertex
100
AcDb2dVertex
 10
37.52
 20
-22.79211044311842
 30
0.0
  0
VERTEX
  5
757A
330
756C
100
AcDbEntity
  8
LW 5015-32-00
100
AcDbVertex
100
AcDb2dVertex
 10
37.20070745468139
 20
-22.78345584869703
 30
0.0
  0
VERTEX
  5
757B
330
756C
100
AcDbEntity
  8
LW 5015-32-00
100
AcDbVertex
100
AcDb2dVertex
 10
36.87816884040832
 20
-22.75718688965162
 30
0.0
  0
VERTEX
  5
757C
330
756C
100
AcDbEntity
  8
LW 5015-32-00
100
AcDbVertex
100
AcDb2dVertex
 10
36.56300212860107
 20
-22.71283626556715
 30
0.0
  0
VERTEX
  5
757D
330
756C
100
AcDbEntity
  8
LW 5015-32-00
100
AcDbVertex
100
AcDb2dVertex
 10
36.26523878097534
 20
-22.6503801345857
 30
0.0
  0
VERTEX
  5
757E
330
756C
100
AcDbEntity
  8
LW 5015-32-00
100
AcDbVertex
100
AcDb2dVertex
 10
35.99259998321533
 20
-22.57195234299024
 30
0.0
  0
VERTEX
  5
757F
330
756C
100
AcDbEntity
  8
LW 5015-32-00
100
AcDbVertex
100
AcDb2dVertex
 10
35.7522347164154
 20
-22.48032569885595
 30
0.0
  0
VERTEX
  5
7580
330
756C
100
AcDbEntity
  8
LW 5015-32-00
100
AcDbVertex
100
AcDb2dVertex
 10
35.54152276039123
 20
-22.37386226654394
 30
0.0
  0
VERTEX
  5
7581
330
756C
100
AcDbEntity
  8
LW 5015-32-00
100
AcDbVertex
100
AcDb2dVertex
 10
35.35830523490905
 20
-22.25069761276586
 30
0.0
  0
VERTEX
  5
7582
330
756C
100
AcDbEntity
  8
LW 5015-32-00
100
AcDbVertex
100
AcDb2dVertex
 10
35.21042253494262
 20
-22.11326599121457
 30
0.0
  0
VERTEX
  5
7583
330
756C
100
AcDbEntity
  8
LW 5015-32-00
100
AcDbVertex
100
AcDb2dVertex
 10
35.10434295654297
 20
-21.96433782577878
 30
0.0
  0
VERTEX
  5
7584
330
756C
100
AcDbEntity
  8
LW 5015-32-00
100
AcDbVertex
100
AcDb2dVertex
 10
35.04101302146911
 20
-21.80843830109006
 30
0.0
  0
VERTEX
  5
7585
330
756C
100
AcDbEntity
  8
LW 5015-32-00
100
AcDbVertex
100
AcDb2dVertex
 10
35.02
 20
-21.65063619614023
 30
0.0
  0
SEQEND
  5
7586
330
756C
100
AcDbEntity
  8
LW 5015-32-00
  0
POLYLINE
  5
7587
330
7569
100
AcDbEntity
  8
LW 5015-32-00
100
AcDb2dPolyline
 66
     1
 10
0.0
 20
0.0
 30
0.0
 70
   128
  0
VERTEX
  5
7588
330
7587
100
AcDbEntity
  8
LW 5015-32-00
100
AcDbVertex
100
AcDb2dVertex
 10
35.02
 20
-21.65063619614023
 30
0.0
  0
VERTEX
  5
7589
330
7587
100
AcDbEntity
  8
LW 5015-32-00
100
AcDbVertex
100
AcDb2dVertex
 10
35.04101302146911
 20
-21.48914575577169
 30
0.0
  0
VERTEX
  5
758A
330
7587
100
AcDbEntity
  8
LW 5015-32-00
100
AcDbVertex
100
AcDb2dVertex
 10
35.10434295654297
 20
-21.32250547409455
 30
0.0
  0
VERTEX
  5
758B
330
7587
100
AcDbEntity
  8
LW 5015-32-00
100
AcDbVertex
100
AcDb2dVertex
 10
35.21042253494262
 20
-21.15626573563031
 30
0.0
  0
VERTEX
  5
758C
330
7587
100
AcDbEntity
  8
LW 5015-32-00
100
AcDbVertex
100
AcDb2dVertex
 10
35.35830523490905
 20
-20.9959340095561
 30
0.0
  0
VERTEX
  5
758D
330
7587
100
AcDbEntity
  8
LW 5015-32-00
100
AcDbVertex
100
AcDb2dVertex
 10
35.54152276039123
 20
-20.84645748138848
 30
0.0
  0
VERTEX
  5
758E
330
7587
100
AcDbEntity
  8
LW 5015-32-00
100
AcDbVertex
100
AcDb2dVertex
 10
35.7522347164154
 20
-20.71255683899346
 30
0.0
  0
VERTEX
  5
758F
330
7587
100
AcDbEntity
  8
LW 5015-32-00
100
AcDbVertex
100
AcDb2dVertex
 10
35.99259998321533
 20
-20.59347152710393
 30
0.0
  0
VERTEX
  5
7590
330
7587
100
AcDbEntity
  8
LW 5015-32-00
100
AcDbVertex
100
AcDb2dVertex
 10
36.26523878097534
 20
-20.48868179321721
 30
0.0
  0
VERTEX
  5
7591
330
7587
100
AcDbEntity
  8
LW 5015-32-00
100
AcDbVertex
100
AcDb2dVertex
 10
36.56300212860107
 20
-20.40325641632512
 30
0.0
  0
VERTEX
  5
7592
330
7587
100
AcDbEntity
  8
LW 5015-32-00
100
AcDbVertex
100
AcDb2dVertex
 10
36.87816884040832
 20
-20.34152984619573
 30
0.0
  0
VERTEX
  5
7593
330
7587
100
AcDbEntity
  8
LW 5015-32-00
100
AcDbVertex
100
AcDb2dVertex
 10
37.20070745468139
 20
-20.30447006226018
 30
0.0
  0
VERTEX
  5
7594
330
7587
100
AcDbEntity
  8
LW 5015-32-00
100
AcDbVertex
100
AcDb2dVertex
 10
37.52
 20
-20.29211044311955
 30
0.0
  0
VERTEX
  5
7595
330
7587
100
AcDbEntity
  8
LW 5015-32-00
100
AcDbVertex
100
AcDb2dVertex
 10
37.8392925453186
 20
-20.30447006226018
 30
0.0
  0
VERTEX
  5
7596
330
7587
100
AcDbEntity
  8
LW 5015-32-00
100
AcDbVertex
100
AcDb2dVertex
 10
38.16183115959167
 20
-20.34152984619573
 30
0.0
  0
VERTEX
  5
7597
330
7587
100
AcDbEntity
  8
LW 5015-32-00
100
AcDbVertex
100
AcDb2dVertex
 10
38.47699787139892
 20
-20.40325641632512
 30
0.0
  0
VERTEX
  5
7598
330
7587
100
AcDbEntity
  8
LW 5015-32-00
100
AcDbVertex
100
AcDb2dVertex
 10
38.77476121902466
 20
-20.48868179321721
 30
0.0
  0
VERTEX
  5
7599
330
7587
100
AcDbEntity
  8
LW 5015-32-00
100
AcDbVertex
100
AcDb2dVertex
 10
39.04740001678467
 20
-20.59347152710393
 30
0.0
  0
VERTEX
  5
759A
330
7587
100
AcDbEntity
  8
LW 5015-32-00
100
AcDbVertex
100
AcDb2dVertex
 10
39.28776528358459
 20
-20.71255683899346
 30
0.0
  0
VERTEX
  5
759B
330
7587
100
AcDbEntity
  8
LW 5015-32-00
100
AcDbVertex
100
AcDb2dVertex
 10
39.49847723960876
 20
-20.84645748138848
 30
0.0
  0
VERTEX
  5
759C
330
7587
100
AcDbEntity
  8
LW 5015-32-00
100
AcDbVertex
100
AcDb2dVertex
 10
39.68169476509094
 20
-20.9959340095561
 30
0.0
  0
VERTEX
  5
759D
330
7587
100
AcDbEntity
  8
LW 5015-32-00
100
AcDbVertex
100
AcDb2dVertex
 10
39.82957746505737
 20
-21.15626573563031
 30
0.0
  0
VERTEX
  5
759E
330
7587
100
AcDbEntity
  8
LW 5015-32-00
100
AcDbVertex
100
AcDb2dVertex
 10
39.93565704345703
 20
-21.32250547409455
 30
0.0
  0
VERTEX
  5
759F
330
7587
100
AcDbEntity
  8
LW 5015-32-00
100
AcDbVertex
100
AcDb2dVertex
 10
39.99898697853088
 20
-21.48914575577169
 30
0.0
  0
VERTEX
  5
75A0
330
7587
100
AcDbEntity
  8
LW 5015-32-00
100
AcDbVertex
100
AcDb2dVertex
 10
40.01999999999999
 20
-21.65063619614023
 30
0.0
  0
SEQEND
  5
75A1
330
7587
100
AcDbEntity
  8
LW 5015-32-00
  0
POLYLINE
  5
75A2
330
7569
100
AcDbEntity
  8
LW 5015-32-00
100
AcDb2dPolyline
 66
     1
 10
0.0
 20
0.0
 30
0.0
 70
   128
  0
VERTEX
  5
75A3
330
75A2
100
AcDbEntity
  8
LW 5015-32-00
100
AcDbVertex
100
AcDb2dVertex
 10
40.01999999999999
 20
21.65063619613272
 30
0.0
  0
VERTEX
  5
75A4
330
75A2
100
AcDbEntity
  8
LW 5015-32-00
100
AcDbVertex
100
AcDb2dVertex
 10
39.99898697853088
 20
21.48914575576396
 30
0.0
  0
VERTEX
  5
75A5
330
75A2
100
AcDbEntity
  8
LW 5015-32-00
100
AcDbVertex
100
AcDb2dVertex
 10
39.93565704345703
 20
21.3225054740866
 30
0.0
  0
VERTEX
  5
75A6
330
75A2
100
AcDbEntity
  8
LW 5015-32-00
100
AcDbVertex
100
AcDb2dVertex
 10
39.82957746505737
 20
21.15626573562213
 30
0.0
  0
VERTEX
  5
75A7
330
75A2
100
AcDbEntity
  8
LW 5015-32-00
100
AcDbVertex
100
AcDb2dVertex
 10
39.68169476509094
 20
20.99593400954791
 30
0.0
  0
VERTEX
  5
75A8
330
75A2
100
AcDbEntity
  8
LW 5015-32-00
100
AcDbVertex
100
AcDb2dVertex
 10
39.49847723960876
 20
20.84645748138007
 30
0.0
  0
VERTEX
  5
75A9
330
75A2
100
AcDbEntity
  8
LW 5015-32-00
100
AcDbVertex
100
AcDb2dVertex
 10
39.28776528358459
 20
20.71255683898505
 30
0.0
  0
VERTEX
  5
75AA
330
75A2
100
AcDbEntity
  8
LW 5015-32-00
100
AcDbVertex
100
AcDb2dVertex
 10
39.04740001678467
 20
20.59347152709529
 30
0.0
  0
VERTEX
  5
75AB
330
75A2
100
AcDbEntity
  8
LW 5015-32-00
100
AcDbVertex
100
AcDb2dVertex
 10
38.77476121902466
 20
20.48868179320857
 30
0.0
  0
VERTEX
  5
75AC
330
75A2
100
AcDbEntity
  8
LW 5015-32-00
100
AcDbVertex
100
AcDb2dVertex
 10
38.47699787139892
 20
20.40325641631648
 30
0.0
  0
VERTEX
  5
75AD
330
75A2
100
AcDbEntity
  8
LW 5015-32-00
100
AcDbVertex
100
AcDb2dVertex
 10
38.16183115959167
 20
20.34152984618708
 30
0.0
  0
VERTEX
  5
75AE
330
75A2
100
AcDbEntity
  8
LW 5015-32-00
100
AcDbVertex
100
AcDb2dVertex
 10
37.8392925453186
 20
20.30447006225154
 30
0.0
  0
VERTEX
  5
75AF
330
75A2
100
AcDbEntity
  8
LW 5015-32-00
100
AcDbVertex
100
AcDb2dVertex
 10
37.52
 20
20.29211044311091
 30
0.0
  0
VERTEX
  5
75B0
330
75A2
100
AcDbEntity
  8
LW 5015-32-00
100
AcDbVertex
100
AcDb2dVertex
 10
37.20070745468139
 20
20.30447006225154
 30
0.0
  0
VERTEX
  5
75B1
330
75A2
100
AcDbEntity
  8
LW 5015-32-00
100
AcDbVertex
100
AcDb2dVertex
 10
36.87816884040832
 20
20.34152984618708
 30
0.0
  0
VERTEX
  5
75B2
330
75A2
100
AcDbEntity
  8
LW 5015-32-00
100
AcDbVertex
100
AcDb2dVertex
 10
36.56300212860107
 20
20.40325641631648
 30
0.0
  0
VERTEX
  5
75B3
330
75A2
100
AcDbEntity
  8
LW 5015-32-00
100
AcDbVertex
100
AcDb2dVertex
 10
36.26523878097534
 20
20.48868179320857
 30
0.0
  0
VERTEX
  5
75B4
330
75A2
100
AcDbEntity
  8
LW 5015-32-00
100
AcDbVertex
100
AcDb2dVertex
 10
35.99259998321533
 20
20.59347152709529
 30
0.0
  0
VERTEX
  5
75B5
330
75A2
100
AcDbEntity
  8
LW 5015-32-00
100
AcDbVertex
100
AcDb2dVertex
 10
35.7522347164154
 20
20.71255683898505
 30
0.0
  0
VERTEX
  5
75B6
330
75A2
100
AcDbEntity
  8
LW 5015-32-00
100
AcDbVertex
100
AcDb2dVertex
 10
35.54152276039123
 20
20.84645748138007
 30
0.0
  0
VERTEX
  5
75B7
330
75A2
100
AcDbEntity
  8
LW 5015-32-00
100
AcDbVertex
100
AcDb2dVertex
 10
35.35830523490905
 20
20.99593400954791
 30
0.0
  0
VERTEX
  5
75B8
330
75A2
100
AcDbEntity
  8
LW 5015-32-00
100
AcDbVertex
100
AcDb2dVertex
 10
35.21042253494262
 20
21.15626573562213
 30
0.0
  0
VERTEX
  5
75B9
330
75A2
100
AcDbEntity
  8
LW 5015-32-00
100
AcDbVertex
100
AcDb2dVertex
 10
35.10434295654297
 20
21.3225054740866
 30
0.0
  0
VERTEX
  5
75BA
330
75A2
100
AcDbEntity
  8
LW 5015-32-00
100
AcDbVertex
100
AcDb2dVertex
 10
35.04101302146911
 20
21.48914575576396
 30
0.0
  0
VERTEX
  5
75BB
330
75A2
100
AcDbEntity
  8
LW 5015-32-00
100
AcDbVertex
100
AcDb2dVertex
 10
35.02
 20
21.65063619613272
 30
0.0
  0
SEQEND
  5
75BC
330
75A2
100
AcDbEntity
  8
LW 5015-32-00
  0
POLYLINE
  5
75BD
330
7569
100
AcDbEntity
  8
LW 5015-32-00
100
AcDb2dPolyline
 66
     1
 10
0.0
 20
0.0
 30
0.0
 70
   128
  0
VERTEX
  5
75BE
330
75BD
100
AcDbEntity
  8
LW 5015-32-00
100
AcDbVertex
100
AcDb2dVertex
 10
35.02
 20
21.65063619613272
 30
0.0
  0
VERTEX
  5
75BF
330
75BD
100
AcDbEntity
  8
LW 5015-32-00
100
AcDbVertex
100
AcDb2dVertex
 10
35.04101302146911
 20
21.80843830108279
 30
0.0
  0
VERTEX
  5
75C0
330
75BD
100
AcDbEntity
  8
LW 5015-32-00
100
AcDbVertex
100
AcDb2dVertex
 10
35.10434295654297
 20
21.96433782577151
 30
0.0
  0
VERTEX
  5
75C1
330
75BD
100
AcDbEntity
  8
LW 5015-32-00
100
AcDbVertex
100
AcDb2dVertex
 10
35.21042253494262
 20
22.1132659912073
 30
0.0
  0
VERTEX
  5
75C2
330
75BD
100
AcDbEntity
  8
LW 5015-32-00
100
AcDbVertex
100
AcDb2dVertex
 10
35.35830523490905
 20
22.25069761275904
 30
0.0
  0
VERTEX
  5
75C3
330
75BD
100
AcDbEntity
  8
LW 5015-32-00
100
AcDbVertex
100
AcDb2dVertex
 10
35.54152276039123
 20
22.37386226653712
 30
0.0
  0
VERTEX
  5
75C4
330
75BD
100
AcDbEntity
  8
LW 5015-32-00
100
AcDbVertex
100
AcDb2dVertex
 10
35.7522347164154
 20
22.48032569884913
 30
0.0
  0
VERTEX
  5
75C5
330
75BD
100
AcDbEntity
  8
LW 5015-32-00
100
AcDbVertex
100
AcDb2dVertex
 10
35.99259998321533
 20
22.57195234298388
 30
0.0
  0
VERTEX
  5
75C6
330
75BD
100
AcDbEntity
  8
LW 5015-32-00
100
AcDbVertex
100
AcDb2dVertex
 10
36.26523878097534
 20
22.65038013457933
 30
0.0
  0
VERTEX
  5
75C7
330
75BD
100
AcDbEntity
  8
LW 5015-32-00
100
AcDbVertex
100
AcDb2dVertex
 10
36.56300212860107
 20
22.71283626556078
 30
0.0
  0
VERTEX
  5
75C8
330
75BD
100
AcDbEntity
  8
LW 5015-32-00
100
AcDbVertex
100
AcDb2dVertex
 10
36.87816884040832
 20
22.75718688964525
 30
0.0
  0
VERTEX
  5
75C9
330
75BD
100
AcDbEntity
  8
LW 5015-32-00
100
AcDbVertex
100
AcDb2dVertex
 10
37.20070745468139
 20
22.78345584869066
 30
0.0
  0
VERTEX
  5
75CA
330
75BD
100
AcDbEntity
  8
LW 5015-32-00
100
AcDbVertex
100
AcDb2dVertex
 10
37.52
 20
22.79211044311205
 30
0.0
  0
VERTEX
  5
75CB
330
75BD
100
AcDbEntity
  8
LW 5015-32-00
100
AcDbVertex
100
AcDb2dVertex
 10
37.8392925453186
 20
22.78345584869066
 30
0.0
  0
VERTEX
  5
75CC
330
75BD
100
AcDbEntity
  8
LW 5015-32-00
100
AcDbVertex
100
AcDb2dVertex
 10
38.16183115959167
 20
22.75718688964525
 30
0.0
  0
VERTEX
  5
75CD
330
75BD
100
AcDbEntity
  8
LW 5015-32-00
100
AcDbVertex
100
AcDb2dVertex
 10
38.47699787139892
 20
22.71283626556078
 30
0.0
  0
VERTEX
  5
75CE
330
75BD
100
AcDbEntity
  8
LW 5015-32-00
100
AcDbVertex
100
AcDb2dVertex
 10
38.77476121902466
 20
22.65038013457933
 30
0.0
  0
VERTEX
  5
75CF
330
75BD
100
AcDbEntity
  8
LW 5015-32-00
100
AcDbVertex
100
AcDb2dVertex
 10
39.04740001678467
 20
22.57195234298388
 30
0.0
  0
VERTEX
  5
75D0
330
75BD
100
AcDbEntity
  8
LW 5015-32-00
100
AcDbVertex
100
AcDb2dVertex
 10
39.28776528358459
 20
22.48032569884913
 30
0.0
  0
VERTEX
  5
75D1
330
75BD
100
AcDbEntity
  8
LW 5015-32-00
100
AcDbVertex
100
AcDb2dVertex
 10
39.49847723960876
 20
22.37386226653712
 30
0.0
  0
VERTEX
  5
75D2
330
75BD
100
AcDbEntity
  8
LW 5015-32-00
100
AcDbVertex
100
AcDb2dVertex
 10
39.68169476509094
 20
22.25069761275904
 30
0.0
  0
VERTEX
  5
75D3
330
75BD
100
AcDbEntity
  8
LW 5015-32-00
100
AcDbVertex
100
AcDb2dVertex
 10
39.82957746505737
 20
22.1132659912073
 30
0.0
  0
VERTEX
  5
75D4
330
75BD
100
AcDbEntity
  8
LW 5015-32-00
100
AcDbVertex
100
AcDb2dVertex
 10
39.93565704345703
 20
21.96433782577151
 30
0.0
  0
VERTEX
  5
75D5
330
75BD
100
AcDbEntity
  8
LW 5015-32-00
100
AcDbVertex
100
AcDb2dVertex
 10
39.99898697853088
 20
21.80843830108279
 30
0.0
  0
VERTEX
  5
75D6
330
75BD
100
AcDbEntity
  8
LW 5015-32-00
100
AcDbVertex
100
AcDb2dVertex
 10
40.01999999999999
 20
21.65063619613272
 30
0.0
  0
SEQEND
  5
75D7
330
75BD
100
AcDbEntity
  8
LW 5015-32-00
  0
LINE
  5
75D8
330
7569
100
AcDbEntity
  8
LW 5015-32-00
100
AcDbLine
 10
41.52
 20
-25.0
 30
0.0
 11
41.52
 21
25.0
 31
0.0
  0
LINE
  5
75D9
330
7569
100
AcDbEntity
  8
LW 5015-32-00
100
AcDbLine
 10
47.51999999999999
 20
-19.0
 30
0.0
 11
47.51999999999999
 21
19.0
 31
0.0
  0
LINE
  5
75DA
330
7569
100
AcDbEntity
  8
LW 5015-32-00
100
AcDbLine
 10
141.52
 20
-10.0
 30
0.0
 11
141.52
 21
10.0
 31
0.0
  0
LINE
  5
75DB
330
7569
100
AcDbEntity
  8
LW 5015-32-00
100
AcDbLine
 10
142.52
 20
-9.0
 30
0.0
 11
142.52
 21
9.0
 31
0.0
  0
LINE
  5
75DC
330
7569
100
AcDbEntity
  8
LW 5015-32-00
100
AcDbLine
 10
22.52
 20
25.0
 30
0.0
 11
41.52
 21
25.0
 31
0.0
  0
LINE
  5
75DD
330
7569
100
AcDbEntity
  8
LW 5015-32-00
100
AcDbLine
 10
22.52
 20
-25.0
 30
0.0
 11
41.52
 21
-25.0
 31
0.0
  0
LINE
  5
75DE
330
7569
100
AcDbEntity
  8
LW 5015-32-00
100
AcDbLine
 10
47.51999999999999
 20
-19.0
 30
0.0
 11
41.52
 21
-25.0
 31
0.0
  0
LINE
  5
75DF
330
7569
100
AcDbEntity
  8
LW 5015-32-00
100
AcDbLine
 10
47.51999999999999
 20
19.0
 30
0.0
 11
41.52
 21
25.0
 31
0.0
  0
ARC
  5
75E0
330
7569
100
AcDbEntity
  8
LW 5015-32-00
100
AcDbCircle
 10
48.52
 20
-11.0
 30
0.0
 40
1.000000000000001
100
AcDbArc
 50
90.0
 51
180.0
  0
ARC
  5
75E1
330
7569
100
AcDbEntity
  8
LW 5015-32-00
100
AcDbCircle
 10
48.52
 20
11.0
 30
0.0
 40
1.000000000000001
100
AcDbArc
 50
180.0
 51
270.0
  0
LINE
  5
75E2
330
7569
100
AcDbEntity
  8
LW 5015-32-00
100
AcDbLine
 10
48.52
 20
10.0
 30
0.0
 11
90.72949016875318
 21
9.999999999999971
 31
0.0
  0
LINE
  5
75E3
330
7569
100
AcDbEntity
  8
LW 5015-32-00
100
AcDbLine
 10
124.2705098312468
 20
9.999999999999971
 30
0.0
 11
141.52
 21
10.0
 31
0.0
  0
LINE
  5
75E4
330
7569
100
AcDbEntity
  8
LW 5015-32-00
100
AcDbLine
 10
48.52
 20
-10.0
 30
0.0
 11
98.48612181133098
 21
-10.00000000000003
 31
0.0
  0
LINE
  5
75E5
330
7569
100
AcDbEntity
  8
LW 5015-32-00
100
AcDbLine
 10
116.513878188669
 20
-10.0
 30
0.0
 11
141.52
 21
-10.0
 31
0.0
  0
LINE
  5
75E6
330
7569
100
AcDbEntity
  8
LW 5015-32-00
100
AcDbLine
 10
142.52
 20
-9.0
 30
0.0
 11
141.52
 21
-10.0
 31
0.0
  0
LINE
  5
75E7
330
7569
100
AcDbEntity
  8
LW 5015-32-00
100
AcDbLine
 10
142.52
 20
9.0
 30
0.0
 11
141.52
 21
10.0
 31
0.0
  0
POLYLINE
  5
75E8
330
7569
100
AcDbEntity
  8
LW 5015-32-00
100
AcDb2dPolyline
 66
     1
 10
0.0
 20
0.0
 30
0.0
 70
   128
  0
VERTEX
  5
75E9
330
75E8
100
AcDbEntity
  8
LW 5015-32-00
100
AcDbVertex
100
AcDb2dVertex
 10
-40.01999999999999
 20
21.65063619613272
 30
0.0
  0
VERTEX
  5
75EA
330
75E8
100
AcDbEntity
  8
LW 5015-32-00
100
AcDbVertex
100
AcDb2dVertex
 10
-39.99898697853088
 20
21.80843830108279
 30
0.0
  0
VERTEX
  5
75EB
330
75E8
100
AcDbEntity
  8
LW 5015-32-00
100
AcDbVertex
100
AcDb2dVertex
 10
-39.93565704345703
 20
21.96433782577151
 30
0.0
  0
VERTEX
  5
75EC
330
75E8
100
AcDbEntity
  8
LW 5015-32-00
100
AcDbVertex
100
AcDb2dVertex
 10
-39.82957746505737
 20
22.1132659912073
 30
0.0
  0
VERTEX
  5
75ED
330
75E8
100
AcDbEntity
  8
LW 5015-32-00
100
AcDbVertex
100
AcDb2dVertex
 10
-39.68169476509094
 20
22.25069761275904
 30
0.0
  0
VERTEX
  5
75EE
330
75E8
100
AcDbEntity
  8
LW 5015-32-00
100
AcDbVertex
100
AcDb2dVertex
 10
-39.49847723960876
 20
22.37386226653712
 30
0.0
  0
VERTEX
  5
75EF
330
75E8
100
AcDbEntity
  8
LW 5015-32-00
100
AcDbVertex
100
AcDb2dVertex
 10
-39.28776528358459
 20
22.48032569884913
 30
0.0
  0
VERTEX
  5
75F0
330
75E8
100
AcDbEntity
  8
LW 5015-32-00
100
AcDbVertex
100
AcDb2dVertex
 10
-39.04740001678467
 20
22.57195234298388
 30
0.0
  0
VERTEX
  5
75F1
330
75E8
100
AcDbEntity
  8
LW 5015-32-00
100
AcDbVertex
100
AcDb2dVertex
 10
-38.77476121902466
 20
22.65038013457933
 30
0.0
  0
VERTEX
  5
75F2
330
75E8
100
AcDbEntity
  8
LW 5015-32-00
100
AcDbVertex
100
AcDb2dVertex
 10
-38.47699787139892
 20
22.71283626556078
 30
0.0
  0
VERTEX
  5
75F3
330
75E8
100
AcDbEntity
  8
LW 5015-32-00
100
AcDbVertex
100
AcDb2dVertex
 10
-38.16183115959167
 20
22.75718688964525
 30
0.0
  0
VERTEX
  5
75F4
330
75E8
100
AcDbEntity
  8
LW 5015-32-00
100
AcDbVertex
100
AcDb2dVertex
 10
-37.8392925453186
 20
22.78345584869066
 30
0.0
  0
VERTEX
  5
75F5
330
75E8
100
AcDbEntity
  8
LW 5015-32-00
100
AcDbVertex
100
AcDb2dVertex
 10
-37.52
 20
22.79211044311205
 30
0.0
  0
VERTEX
  5
75F6
330
75E8
100
AcDbEntity
  8
LW 5015-32-00
100
AcDbVertex
100
AcDb2dVertex
 10
-37.20070745468139
 20
22.78345584869066
 30
0.0
  0
VERTEX
  5
75F7
330
75E8
100
AcDbEntity
  8
LW 5015-32-00
100
AcDbVertex
100
AcDb2dVertex
 10
-36.87816884040832
 20
22.75718688964525
 30
0.0
  0
VERTEX
  5
75F8
330
75E8
100
AcDbEntity
  8
LW 5015-32-00
100
AcDbVertex
100
AcDb2dVertex
 10
-36.56300212860107
 20
22.71283626556078
 30
0.0
  0
VERTEX
  5
75F9
330
75E8
100
AcDbEntity
  8
LW 5015-32-00
100
AcDbVertex
100
AcDb2dVertex
 10
-36.26523878097534
 20
22.65038013457933
 30
0.0
  0
VERTEX
  5
75FA
330
75E8
100
AcDbEntity
  8
LW 5015-32-00
100
AcDbVertex
100
AcDb2dVertex
 10
-35.99259998321533
 20
22.57195234298388
 30
0.0
  0
VERTEX
  5
75FB
330
75E8
100
AcDbEntity
  8
LW 5015-32-00
100
AcDbVertex
100
AcDb2dVertex
 10
-35.7522347164154
 20
22.48032569884913
 30
0.0
  0
VERTEX
  5
75FC
330
75E8
100
AcDbEntity
  8
LW 5015-32-00
100
AcDbVertex
100
AcDb2dVertex
 10
-35.54152276039123
 20
22.37386226653712
 30
0.0
  0
VERTEX
  5
75FD
330
75E8
100
AcDbEntity
  8
LW 5015-32-00
100
AcDbVertex
100
AcDb2dVertex
 10
-35.35830523490905
 20
22.25069761275904
 30
0.0
  0
VERTEX
  5
75FE
330
75E8
100
AcDbEntity
  8
LW 5015-32-00
100
AcDbVertex
100
AcDb2dVertex
 10
-35.21042253494262
 20
22.1132659912073
 30
0.0
  0
VERTEX
  5
75FF
330
75E8
100
AcDbEntity
  8
LW 5015-32-00
100
AcDbVertex
100
AcDb2dVertex
 10
-35.10434295654297
 20
21.96433782577151
 30
0.0
  0
VERTEX
  5
7600
330
75E8
100
AcDbEntity
  8
LW 5015-32-00
100
AcDbVertex
100
AcDb2dVertex
 10
-35.04101302146911
 20
21.80843830108279
 30
0.0
  0
VERTEX
  5
7601
330
75E8
100
AcDbEntity
  8
LW 5015-32-00
100
AcDbVertex
100
AcDb2dVertex
 10
-35.02
 20
21.65063619613272
 30
0.0
  0
SEQEND
  5
7602
330
75E8
100
AcDbEntity
  8
LW 5015-32-00
  0
POLYLINE
  5
7603
330
7569
100
AcDbEntity
  8
LW 5015-32-00
100
AcDb2dPolyline
 66
     1
 10
0.0
 20
0.0
 30
0.0
 70
   128
  0
VERTEX
  5
7604
330
7603
100
AcDbEntity
  8
LW 5015-32-00
100
AcDbVertex
100
AcDb2dVertex
 10
-35.02
 20
21.65063619613272
 30
0.0
  0
VERTEX
  5
7605
330
7603
100
AcDbEntity
  8
LW 5015-32-00
100
AcDbVertex
100
AcDb2dVertex
 10
-35.04101302146911
 20
21.48914575576396
 30
0.0
  0
VERTEX
  5
7606
330
7603
100
AcDbEntity
  8
LW 5015-32-00
100
AcDbVertex
100
AcDb2dVertex
 10
-35.10434295654297
 20
21.3225054740866
 30
0.0
  0
VERTEX
  5
7607
330
7603
100
AcDbEntity
  8
LW 5015-32-00
100
AcDbVertex
100
AcDb2dVertex
 10
-35.21042253494262
 20
21.15626573562213
 30
0.0
  0
VERTEX
  5
7608
330
7603
100
AcDbEntity
  8
LW 5015-32-00
100
AcDbVertex
100
AcDb2dVertex
 10
-35.35830523490905
 20
20.99593400954791
 30
0.0
  0
VERTEX
  5
7609
330
7603
100
AcDbEntity
  8
LW 5015-32-00
100
AcDbVertex
100
AcDb2dVertex
 10
-35.54152276039123
 20
20.84645748138007
 30
0.0
  0
VERTEX
  5
760A
330
7603
100
AcDbEntity
  8
LW 5015-32-00
100
AcDbVertex
100
AcDb2dVertex
 10
-35.7522347164154
 20
20.71255683898494
 30
0.0
  0
VERTEX
  5
760B
330
7603
100
AcDbEntity
  8
LW 5015-32-00
100
AcDbVertex
100
AcDb2dVertex
 10
-35.99259998321533
 20
20.59347152709529
 30
0.0
  0
VERTEX
  5
760C
330
7603
100
AcDbEntity
  8
LW 5015-32-00
100
AcDbVertex
100
AcDb2dVertex
 10
-36.26523878097534
 20
20.48868179320857
 30
0.0
  0
VERTEX
  5
760D
330
7603
100
AcDbEntity
  8
LW 5015-32-00
100
AcDbVertex
100
AcDb2dVertex
 10
-36.56300212860107
 20
20.40325641631648
 30
0.0
  0
VERTEX
  5
760E
330
7603
100
AcDbEntity
  8
LW 5015-32-00
100
AcDbVertex
100
AcDb2dVertex
 10
-36.87816884040832
 20
20.34152984618708
 30
0.0
  0
VERTEX
  5
760F
330
7603
100
AcDbEntity
  8
LW 5015-32-00
100
AcDbVertex
100
AcDb2dVertex
 10
-37.20070745468139
 20
20.30447006225154
 30
0.0
  0
VERTEX
  5
7610
330
7603
100
AcDbEntity
  8
LW 5015-32-00
100
AcDbVertex
100
AcDb2dVertex
 10
-37.52
 20
20.29211044311091
 30
0.0
  0
VERTEX
  5
7611
330
7603
100
AcDbEntity
  8
LW 5015-32-00
100
AcDbVertex
100
AcDb2dVertex
 10
-37.8392925453186
 20
20.30447006225154
 30
0.0
  0
VERTEX
  5
7612
330
7603
100
AcDbEntity
  8
LW 5015-32-00
100
AcDbVertex
100
AcDb2dVertex
 10
-38.16183115959167
 20
20.34152984618708
 30
0.0
  0
VERTEX
  5
7613
330
7603
100
AcDbEntity
  8
LW 5015-32-00
100
AcDbVertex
100
AcDb2dVertex
 10
-38.47699787139892
 20
20.40325641631648
 30
0.0
  0
VERTEX
  5
7614
330
7603
100
AcDbEntity
  8
LW 5015-32-00
100
AcDbVertex
100
AcDb2dVertex
 10
-38.77476121902466
 20
20.48868179320857
 30
0.0
  0
VERTEX
  5
7615
330
7603
100
AcDbEntity
  8
LW 5015-32-00
100
AcDbVertex
100
AcDb2dVertex
 10
-39.04740001678467
 20
20.59347152709529
 30
0.0
  0
VERTEX
  5
7616
330
7603
100
AcDbEntity
  8
LW 5015-32-00
100
AcDbVertex
100
AcDb2dVertex
 10
-39.28776528358459
 20
20.71255683898494
 30
0.0
  0
VERTEX
  5
7617
330
7603
100
AcDbEntity
  8
LW 5015-32-00
100
AcDbVertex
100
AcDb2dVertex
 10
-39.49847723960876
 20
20.84645748138007
 30
0.0
  0
VERTEX
  5
7618
330
7603
100
AcDbEntity
  8
LW 5015-32-00
100
AcDbVertex
100
AcDb2dVertex
 10
-39.68169476509094
 20
20.99593400954791
 30
0.0
  0
VERTEX
  5
7619
330
7603
100
AcDbEntity
  8
LW 5015-32-00
100
AcDbVertex
100
AcDb2dVertex
 10
-39.82957746505737
 20
21.15626573562213
 30
0.0
  0
VERTEX
  5
761A
330
7603
100
AcDbEntity
  8
LW 5015-32-00
100
AcDbVertex
100
AcDb2dVertex
 10
-39.93565704345703
 20
21.3225054740866
 30
0.0
  0
VERTEX
  5
761B
330
7603
100
AcDbEntity
  8
LW 5015-32-00
100
AcDbVertex
100
AcDb2dVertex
 10
-39.99898697853088
 20
21.48914575576396
 30
0.0
  0
VERTEX
  5
761C
330
7603
100
AcDbEntity
  8
LW 5015-32-00
100
AcDbVertex
100
AcDb2dVertex
 10
-40.01999999999999
 20
21.65063619613272
 30
0.0
  0
SEQEND
  5
761D
330
7603
100
AcDbEntity
  8
LW 5015-32-00
  0
POLYLINE
  5
761E
330
7569
100
AcDbEntity
  8
LW 5015-32-00
100
AcDb2dPolyline
 66
     1
 10
0.0
 20
0.0
 30
0.0
 70
   128
  0
VERTEX
  5
761F
330
761E
100
AcDbEntity
  8
LW 5015-32-00
100
AcDbVertex
100
AcDb2dVertex
 10
-40.01999999999999
 20
-21.65063619614023
 30
0.0
  0
VERTEX
  5
7620
330
761E
100
AcDbEntity
  8
LW 5015-32-00
100
AcDbVertex
100
AcDb2dVertex
 10
-39.99898697853088
 20
-21.48914575577169
 30
0.0
  0
VERTEX
  5
7621
330
761E
100
AcDbEntity
  8
LW 5015-32-00
100
AcDbVertex
100
AcDb2dVertex
 10
-39.93565704345703
 20
-21.32250547409455
 30
0.0
  0
VERTEX
  5
7622
330
761E
100
AcDbEntity
  8
LW 5015-32-00
100
AcDbVertex
100
AcDb2dVertex
 10
-39.82957746505737
 20
-21.15626573563031
 30
0.0
  0
VERTEX
  5
7623
330
761E
100
AcDbEntity
  8
LW 5015-32-00
100
AcDbVertex
100
AcDb2dVertex
 10
-39.68169476509094
 20
-20.9959340095561
 30
0.0
  0
VERTEX
  5
7624
330
761E
100
AcDbEntity
  8
LW 5015-32-00
100
AcDbVertex
100
AcDb2dVertex
 10
-39.49847723960876
 20
-20.84645748138848
 30
0.0
  0
VERTEX
  5
7625
330
761E
100
AcDbEntity
  8
LW 5015-32-00
100
AcDbVertex
100
AcDb2dVertex
 10
-39.28776528358459
 20
-20.71255683899358
 30
0.0
  0
VERTEX
  5
7626
330
761E
100
AcDbEntity
  8
LW 5015-32-00
100
AcDbVertex
100
AcDb2dVertex
 10
-39.04740001678467
 20
-20.59347152710393
 30
0.0
  0
VERTEX
  5
7627
330
761E
100
AcDbEntity
  8
LW 5015-32-00
100
AcDbVertex
100
AcDb2dVertex
 10
-38.77476121902466
 20
-20.48868179321721
 30
0.0
  0
VERTEX
  5
7628
330
761E
100
AcDbEntity
  8
LW 5015-32-00
100
AcDbVertex
100
AcDb2dVertex
 10
-38.47699787139892
 20
-20.40325641632512
 30
0.0
  0
VERTEX
  5
7629
330
761E
100
AcDbEntity
  8
LW 5015-32-00
100
AcDbVertex
100
AcDb2dVertex
 10
-38.16183115959167
 20
-20.34152984619573
 30
0.0
  0
VERTEX
  5
762A
330
761E
100
AcDbEntity
  8
LW 5015-32-00
100
AcDbVertex
100
AcDb2dVertex
 10
-37.8392925453186
 20
-20.30447006226018
 30
0.0
  0
VERTEX
  5
762B
330
761E
100
AcDbEntity
  8
LW 5015-32-00
100
AcDbVertex
100
AcDb2dVertex
 10
-37.52
 20
-20.29211044311955
 30
0.0
  0
VERTEX
  5
762C
330
761E
100
AcDbEntity
  8
LW 5015-32-00
100
AcDbVertex
100
AcDb2dVertex
 10
-37.20070745468139
 20
-20.30447006226018
 30
0.0
  0
VERTEX
  5
762D
330
761E
100
AcDbEntity
  8
LW 5015-32-00
100
AcDbVertex
100
AcDb2dVertex
 10
-36.87816884040832
 20
-20.34152984619573
 30
0.0
  0
VERTEX
  5
762E
330
761E
100
AcDbEntity
  8
LW 5015-32-00
100
AcDbVertex
100
AcDb2dVertex
 10
-36.56300212860107
 20
-20.40325641632512
 30
0.0
  0
VERTEX
  5
762F
330
761E
100
AcDbEntity
  8
LW 5015-32-00
100
AcDbVertex
100
AcDb2dVertex
 10
-36.26523878097534
 20
-20.48868179321721
 30
0.0
  0
VERTEX
  5
7630
330
761E
100
AcDbEntity
  8
LW 5015-32-00
100
AcDbVertex
100
AcDb2dVertex
 10
-35.99259998321533
 20
-20.59347152710393
 30
0.0
  0
VERTEX
  5
7631
330
761E
100
AcDbEntity
  8
LW 5015-32-00
100
AcDbVertex
100
AcDb2dVertex
 10
-35.7522347164154
 20
-20.71255683899358
 30
0.0
  0
VERTEX
  5
7632
330
761E
100
AcDbEntity
  8
LW 5015-32-00
100
AcDbVertex
100
AcDb2dVertex
 10
-35.54152276039123
 20
-20.84645748138848
 30
0.0
  0
VERTEX
  5
7633
330
761E
100
AcDbEntity
  8
LW 5015-32-00
100
AcDbVertex
100
AcDb2dVertex
 10
-35.35830523490905
 20
-20.9959340095561
 30
0.0
  0
VERTEX
  5
7634
330
761E
100
AcDbEntity
  8
LW 5015-32-00
100
AcDbVertex
100
AcDb2dVertex
 10
-35.21042253494262
 20
-21.15626573563031
 30
0.0
  0
VERTEX
  5
7635
330
761E
100
AcDbEntity
  8
LW 5015-32-00
100
AcDbVertex
100
AcDb2dVertex
 10
-35.10434295654297
 20
-21.32250547409455
 30
0.0
  0
VERTEX
  5
7636
330
761E
100
AcDbEntity
  8
LW 5015-32-00
100
AcDbVertex
100
AcDb2dVertex
 10
-35.04101302146911
 20
-21.48914575577169
 30
0.0
  0
VERTEX
  5
7637
330
761E
100
AcDbEntity
  8
LW 5015-32-00
100
AcDbVertex
100
AcDb2dVertex
 10
-35.02
 20
-21.65063619614023
 30
0.0
  0
SEQEND
  5
7638
330
761E
100
AcDbEntity
  8
LW 5015-32-00
  0
POLYLINE
  5
7639
330
7569
100
AcDbEntity
  8
LW 5015-32-00
100
AcDb2dPolyline
 66
     1
 10
0.0
 20
0.0
 30
0.0
 70
   128
  0
VERTEX
  5
763A
330
7639
100
AcDbEntity
  8
LW 5015-32-00
100
AcDbVertex
100
AcDb2dVertex
 10
-35.02
 20
-21.65063619614023
 30
0.0
  0
VERTEX
  5
763B
330
7639
100
AcDbEntity
  8
LW 5015-32-00
100
AcDbVertex
100
AcDb2dVertex
 10
-35.04101302146911
 20
-21.80843830109006
 30
0.0
  0
VERTEX
  5
763C
330
7639
100
AcDbEntity
  8
LW 5015-32-00
100
AcDbVertex
100
AcDb2dVertex
 10
-35.10434295654297
 20
-21.96433782577878
 30
0.0
  0
VERTEX
  5
763D
330
7639
100
AcDbEntity
  8
LW 5015-32-00
100
AcDbVertex
100
AcDb2dVertex
 10
-35.21042253494262
 20
-22.11326599121457
 30
0.0
  0
VERTEX
  5
763E
330
7639
100
AcDbEntity
  8
LW 5015-32-00
100
AcDbVertex
100
AcDb2dVertex
 10
-35.35830523490905
 20
-22.25069761276586
 30
0.0
  0
VERTEX
  5
763F
330
7639
100
AcDbEntity
  8
LW 5015-32-00
100
AcDbVertex
100
AcDb2dVertex
 10
-35.54152276039123
 20
-22.37386226654394
 30
0.0
  0
VERTEX
  5
7640
330
7639
100
AcDbEntity
  8
LW 5015-32-00
100
AcDbVertex
100
AcDb2dVertex
 10
-35.7522347164154
 20
-22.48032569885595
 30
0.0
  0
VERTEX
  5
7641
330
7639
100
AcDbEntity
  8
LW 5015-32-00
100
AcDbVertex
100
AcDb2dVertex
 10
-35.99259998321533
 20
-22.57195234299024
 30
0.0
  0
VERTEX
  5
7642
330
7639
100
AcDbEntity
  8
LW 5015-32-00
100
AcDbVertex
100
AcDb2dVertex
 10
-36.26523878097534
 20
-22.6503801345857
 30
0.0
  0
VERTEX
  5
7643
330
7639
100
AcDbEntity
  8
LW 5015-32-00
100
AcDbVertex
100
AcDb2dVertex
 10
-36.56300212860107
 20
-22.71283626556715
 30
0.0
  0
VERTEX
  5
7644
330
7639
100
AcDbEntity
  8
LW 5015-32-00
100
AcDbVertex
100
AcDb2dVertex
 10
-36.87816884040832
 20
-22.75718688965162
 30
0.0
  0
VERTEX
  5
7645
330
7639
100
AcDbEntity
  8
LW 5015-32-00
100
AcDbVertex
100
AcDb2dVertex
 10
-37.20070745468139
 20
-22.78345584869703
 30
0.0
  0
VERTEX
  5
7646
330
7639
100
AcDbEntity
  8
LW 5015-32-00
100
AcDbVertex
100
AcDb2dVertex
 10
-37.52
 20
-22.79211044311842
 30
0.0
  0
VERTEX
  5
7647
330
7639
100
AcDbEntity
  8
LW 5015-32-00
100
AcDbVertex
100
AcDb2dVertex
 10
-37.8392925453186
 20
-22.78345584869703
 30
0.0
  0
VERTEX
  5
7648
330
7639
100
AcDbEntity
  8
LW 5015-32-00
100
AcDbVertex
100
AcDb2dVertex
 10
-38.16183115959167
 20
-22.75718688965162
 30
0.0
  0
VERTEX
  5
7649
330
7639
100
AcDbEntity
  8
LW 5015-32-00
100
AcDbVertex
100
AcDb2dVertex
 10
-38.47699787139892
 20
-22.71283626556715
 30
0.0
  0
VERTEX
  5
764A
330
7639
100
AcDbEntity
  8
LW 5015-32-00
100
AcDbVertex
100
AcDb2dVertex
 10
-38.77476121902466
 20
-22.6503801345857
 30
0.0
  0
VERTEX
  5
764B
330
7639
100
AcDbEntity
  8
LW 5015-32-00
100
AcDbVertex
100
AcDb2dVertex
 10
-39.04740001678467
 20
-22.57195234299024
 30
0.0
  0
VERTEX
  5
764C
330
7639
100
AcDbEntity
  8
LW 5015-32-00
100
AcDbVertex
100
AcDb2dVertex
 10
-39.28776528358459
 20
-22.48032569885595
 30
0.0
  0
VERTEX
  5
764D
330
7639
100
AcDbEntity
  8
LW 5015-32-00
100
AcDbVertex
100
AcDb2dVertex
 10
-39.49847723960876
 20
-22.37386226654394
 30
0.0
  0
VERTEX
  5
764E
330
7639
100
AcDbEntity
  8
LW 5015-32-00
100
AcDbVertex
100
AcDb2dVertex
 10
-39.68169476509094
 20
-22.25069761276586
 30
0.0
  0
VERTEX
  5
764F
330
7639
100
AcDbEntity
  8
LW 5015-32-00
100
AcDbVertex
100
AcDb2dVertex
 10
-39.82957746505737
 20
-22.11326599121457
 30
0.0
  0
VERTEX
  5
7650
330
7639
100
AcDbEntity
  8
LW 5015-32-00
100
AcDbVertex
100
AcDb2dVertex
 10
-39.93565704345703
 20
-21.96433782577878
 30
0.0
  0
VERTEX
  5
7651
330
7639
100
AcDbEntity
  8
LW 5015-32-00
100
AcDbVertex
100
AcDb2dVertex
 10
-39.99898697853088
 20
-21.80843830109006
 30
0.0
  0
VERTEX
  5
7652
330
7639
100
AcDbEntity
  8
LW 5015-32-00
100
AcDbVertex
100
AcDb2dVertex
 10
-40.01999999999999
 20
-21.65063619614023
 30
0.0
  0
SEQEND
  5
7653
330
7639
100
AcDbEntity
  8
LW 5015-32-00
  0
LINE
  5
7654
330
7569
100
AcDbEntity
  8
LW 5015-32-00
100
AcDbLine
 10
-41.52
 20
25.0
 30
0.0
 11
-41.52
 21
-25.0
 31
0.0
  0
LINE
  5
7655
330
7569
100
AcDbEntity
  8
LW 5015-32-00
100
AcDbLine
 10
-47.51999999999999
 20
19.0
 30
0.0
 11
-47.51999999999999
 21
-19.0
 31
0.0
  0
LINE
  5
7656
330
7569
100
AcDbEntity
  8
LW 5015-32-00
100
AcDbLine
 10
-141.52
 20
10.0
 30
0.0
 11
-141.52
 21
-10.0
 31
0.0
  0
LINE
  5
7657
330
7569
100
AcDbEntity
  8
LW 5015-32-00
100
AcDbLine
 10
-142.52
 20
9.0
 30
0.0
 11
-142.52
 21
-9.0
 31
0.0
  0
LINE
  5
7658
330
7569
100
AcDbEntity
  8
LW 5015-32-00
100
AcDbLine
 10
-22.52
 20
-25.0
 30
0.0
 11
-41.52
 21
-25.0
 31
0.0
  0
LINE
  5
7659
330
7569
100
AcDbEntity
  8
LW 5015-32-00
100
AcDbLine
 10
-22.52
 20
25.0
 30
0.0
 11
-41.52
 21
25.0
 31
0.0
  0
LINE
  5
765A
330
7569
100
AcDbEntity
  8
LW 5015-32-00
100
AcDbLine
 10
-47.51999999999999
 20
19.0
 30
0.0
 11
-41.52
 21
25.0
 31
0.0
  0
LINE
  5
765B
330
7569
100
AcDbEntity
  8
LW 5015-32-00
100
AcDbLine
 10
-47.51999999999999
 20
-19.0
 30
0.0
 11
-41.52
 21
-25.0
 31
0.0
  0
ARC
  5
765C
330
7569
100
AcDbEntity
  8
LW 5015-32-00
100
AcDbCircle
 10
-48.52
 20
11.0
 30
0.0
 40
1.000000000000002
100
AcDbArc
 50
270.0
 51
0.0
  0
ARC
  5
765D
330
7569
100
AcDbEntity
  8
LW 5015-32-00
100
AcDbCircle
 10
-48.52
 20
-11.0
 30
0.0
 40
1.000000000000002
100
AcDbArc
 50
0.0
 51
90.0
  0
LINE
  5
765E
330
7569
100
AcDbEntity
  8
LW 5015-32-00
100
AcDbLine
 10
-48.52
 20
-10.0
 30
0.0
 11
-98.48612181133097
 21
-10.00000000000003
 31
0.0
  0
LINE
  5
765F
330
7569
100
AcDbEntity
  8
LW 5015-32-00
100
AcDbLine
 10
-116.513878188669
 20
-10.0
 30
0.0
 11
-141.52
 21
-10.0
 31
0.0
  0
LINE
  5
7660
330
7569
100
AcDbEntity
  8
LW 5015-32-00
100
AcDbLine
 10
-48.52
 20
10.0
 30
0.0
 11
-90.72949016875318
 21
9.999999999999971
 31
0.0
  0
LINE
  5
7661
330
7569
100
AcDbEntity
  8
LW 5015-32-00
100
AcDbLine
 10
-124.2705098312468
 20
10.0
 30
0.0
 11
-141.52
 21
10.0
 31
0.0
  0
LINE
  5
7662
330
7569
100
AcDbEntity
  8
LW 5015-32-00
100
AcDbLine
 10
-142.52
 20
9.0
 30
0.0
 11
-141.52
 21
10.0
 31
0.0
  0
LINE
  5
7663
330
7569
100
AcDbEntity
  8
LW 5015-32-00
100
AcDbLine
 10
-142.52
 20
-9.0
 30
0.0
 11
-141.52
 21
-10.0
 31
0.0
  0
CIRCLE
  5
7664
330
7569
100
AcDbEntity
  8
LW 5015-32-00
100
AcDbCircle
 10
-107.5
 20
4.999999999994543
 30
0.0
 40
17.50000000000001
  0
CIRCLE
  5
7665
330
7569
100
AcDbEntity
  8
LW 5015-32-00
100
AcDbCircle
 10
107.5
 20
4.999999999994543
 30
0.0
 40
17.5
  0
LINE
  5
7666
330
7569
100
AcDbEntity
  8
LW 5015-32-00
100
AcDbLine
 10
16.0
 20
12.0
 30
0.0
 11
16.0
 21
-12.00000000000011
 31
0.0
  0
LINE
  5
7667
330
7569
100
AcDbEntity
  8
LW 5015-32-00
100
AcDbLine
 10
-16.0
 20
12.0
 30
0.0
 11
-16.0
 21
-12.00000000000011
 31
0.0
  0
LINE
  5
7668
330
7569
100
AcDbEntity
  8
LW 5015-32-00
100
AcDbLine
 10
-16.0
 20
12.0
 30
0.0
 11
16.0
 21
12.0
 31
0.0
  0
LINE
  5
7669
330
7569
100
AcDbEntity
  8
LW 5015-32-00
100
AcDbLine
 10
-16.0
 20
-12.00000000000011
 30
0.0
 11
16.0
 21
-12.00000000000011
 31
0.0
  0
LINE
  5
766A
330
7569
100
AcDbEntity
  8
LW 5015-32-00
100
AcDbLine
 10
-19.52
 20
32.5
 30
0.0
 11
-19.52
 21
-32.5
 31
0.0
  0
LINE
  5
766B
330
7569
100
AcDbEntity
  8
LW 5015-32-00
100
AcDbLine
 10
-22.52
 20
32.5
 30
0.0
 11
-22.52
 21
-32.5
 31
0.0
  0
LINE
  5
766C
330
7569
100
AcDbEntity
  8
LW 5015-32-00
100
AcDbLine
 10
-22.52
 20
32.5
 30
0.0
 11
-19.52
 21
32.5
 31
0.0
  0
LINE
  5
766D
330
7569
100
AcDbEntity
  8
LW 5015-32-00
100
AcDbLine
 10
-22.52
 20
-32.5
 30
0.0
 11
-19.52
 21
-32.5
 31
0.0
  0
LINE
  5
766E
330
7569
100
AcDbEntity
  8
LW 5015-32-00
100
AcDbLine
 10
19.51999999999999
 20
-32.5
 30
0.0
 11
19.51999999999999
 21
32.5
 31
0.0
  0
LINE
  5
766F
330
7569
100
AcDbEntity
  8
LW 5015-32-00
100
AcDbLine
 10
22.52
 20
-32.5
 30
0.0
 11
22.52
 21
32.5
 31
0.0
  0
LINE
  5
7670
330
7569
100
AcDbEntity
  8
LW 5015-32-00
100
AcDbLine
 10
22.52
 20
-32.5
 30
0.0
 11
19.51999999999999
 21
-32.5
 31
0.0
  0
LINE
  5
7671
330
7569
100
AcDbEntity
  8
LW 5015-32-00
100
AcDbLine
 10
22.52
 20
32.5
 30
0.0
 11
19.51999999999999
 21
32.5
 31
0.0
  0
LINE
  5
7672
330
7569
100
AcDbEntity
  8
LW 5015-32-00
100
AcDbLine
 10
-17.52
 20
32.0
 30
0.0
 11
-17.52
 21
-32.00000000000012
 31
0.0
  0
LINE
  5
7673
330
7569
100
AcDbEntity
  8
LW 5015-32-00
100
AcDbLine
 10
-19.52
 20
32.0
 30
0.0
 11
-17.52
 21
32.0
 31
0.0
  0
LINE
  5
7674
330
7569
100
AcDbEntity
  8
LW 5015-32-00
100
AcDbLine
 10
-19.52
 20
-32.0
 30
0.0
 11
-17.52
 21
-32.0
 31
0.0
  0
LINE
  5
7675
330
7569
100
AcDbEntity
  8
LW 5015-32-00
100
AcDbLine
 10
17.52
 20
-32.00000000000012
 30
0.0
 11
17.52
 21
32.0
 31
0.0
  0
LINE
  5
7676
330
7569
100
AcDbEntity
  8
LW 5015-32-00
100
AcDbLine
 10
19.51999999999999
 20
-32.0
 30
0.0
 11
17.52
 21
-32.0
 31
0.0
  0
LINE
  5
7677
330
7569
100
AcDbEntity
  8
LW 5015-32-00
100
AcDbLine
 10
19.51999999999999
 20
32.0
 30
0.0
 11
17.52
 21
32.0
 31
0.0
  0
LINE
  5
7678
330
7569
100
AcDbEntity
  8
LW 5015-32-00
100
AcDbLine
 10
17.52
 20
-7.000000000000113
 30
0.0
 11
16.0
 21
-7.000000000000113
 31
0.0
  0
LINE
  5
7679
330
7569
100
AcDbEntity
  8
LW 5015-32-00
100
AcDbLine
 10
-16.0
 20
-7.000000000000113
 30
0.0
 11
-17.52
 21
-7.000000000000113
 31
0.0
  0
LINE
  5
767A
330
7569
100
AcDbEntity
  8
LW 5015-32-00
100
AcDbLine
 10
17.52
 20
7.0
 30
0.0
 11
16.0
 21
7.0
 31
0.0
  0
LINE
  5
767B
330
7569
100
AcDbEntity
  8
LW 5015-32-00
100
AcDbLine
 10
-16.0
 20
7.0
 30
0.0
 11
-17.52
 21
7.0
 31
0.0
  0
LINE
  5
767C
330
7569
100
AcDbEntity
  8
LW 5015-32-00
 62
     3
100
AcDbLine
 10
-17.52
 20
-5.794500000000084
 30
0.0
 11
-16.0
 21
-5.794500000000084
 31
0.0
  0
LINE
  5
767D
330
7569
100
AcDbEntity
  8
LW 5015-32-00
 62
     3
100
AcDbLine
 10
16.0
 20
-5.794500000000084
 30
0.0
 11
17.52
 21
-5.794500000000084
 31
0.0
  0
LINE
  5
767E
330
7569
100
AcDbEntity
  8
LW 5015-32-00
 62
     3
100
AcDbLine
 10
17.52
 20
5.79449999999997
 30
0.0
 11
16.0
 21
5.79449999999997
 31
0.0
  0
LINE
  5
767F
330
7569
100
AcDbEntity
  8
LW 5015-32-00
 62
     3
100
AcDbLine
 10
-16.00000000000022
 20
5.79449999999997
 30
0.0
 11
-17.52
 21
5.79449999999997
 31
0.0
  0
LINE
  5
7680
330
7569
100
AcDbEntity
  8
LW 5015-32-00
  6
MITTE2
 62
     3
100
AcDbLine
 10
-107.5
 20
27.49999999999455
 30
0.0
 11
-107.5
 21
-17.50000000000546
 31
0.0
  0
LINE
  5
7681
330
7569
100
AcDbEntity
  8
LW 5015-32-00
  6
MITTE2
 62
     3
100
AcDbLine
 10
107.5
 20
27.49999999999432
 30
0.0
 11
107.5
 21
-17.50000000000568
 31
0.0
  0
LINE
  5
7682
330
7569
100
AcDbEntity
  8
LW 5015-32-00
  6
MITTE2
 62
     3
100
AcDbLine
 10
145.8643034851964
 20
0.0
 30
0.0
 11
-145.8643034851966
 21
0.0
 31
0.0
  0
HATCH
  5
7683
330
7569
100
AcDbEntity
  8
LW 5015-32-00
 62
     1
100
AcDbHatch
 10
0.0
 20
0.0
 30
0.0
210
0.0
220
0.0
230
1.0
  2
SOLID
 70
     1
 71
     0
 91
        5
 92
        7
 72
     0
 73
     1
 93
       76
 10
60.19907163391032
 20
5.869698514444621
 10
60.23093046328314
 20
5.921279476286372
 10
60.34908858751443
 20
6.0725218753023
 10
60.48356666272709
 20
6.212946005564845
 10
60.62958656918865
 20
6.341330567278191
 10
60.79325536527064
 20
6.458236850193998
 10
60.96864231863539
 20
6.560414732015601
 10
61.15039525123576
 20
6.651766411598487
 10
61.33156418670139
 20
6.721284724044608
 10
59.07442624850138
 20
6.721284724044608
 10
58.86152969610136
 20
6.71259506884462
 10
58.65949521270137
 20
6.686526103244659
 10
58.46397797070132
 20
6.64525024104455
 10
58.27932279770154
 20
6.590939896044574
 10
58.10335727990128
 20
6.521422654444563
 10
57.93608141730148
 20
6.438870930044458
 10
57.78551315475444
 20
6.343545412500589
 10
57.64280555430151
 20
6.236836446644474
 10
57.51736429873087
 20
6.117788170404423
 10
57.4060993466535
 20
5.989528859652523
 10
57.30608141530139
 20
5.852319204044533
 10
57.2235296909014
 20
5.706767479444465
 10
57.16052969070144
 20
5.55252609964441
 10
57.11056417330157
 20
5.391767478444535
 10
57.08232279390156
 20
5.226664029644553
 10
57.07363313870157
 20
5.052870925644583
 10
57.08449520770161
 20
4.879077821644386
 10
57.11490900090145
 20
4.711801959044464
 10
57.16921934590165
 20
4.551043337844475
 10
57.23873658750155
 20
4.39462954424448
 10
57.3278055533017
 20
4.246905405844472
 10
57.4342538295016
 20
4.105698508844625
 10
57.5569517609256
 20
3.974484715324479
 10
57.69315080963385
 20
3.853350921836636
 10
57.84049521010162
 20
3.742905404244538
 10
58.00125383130172
 20
3.645146783244626
 10
58.17688045254887
 20
3.560248851940514
 10
58.35752969450142
 20
3.486560575844578
 10
58.54870210890159
 20
3.430077817044548
 10
58.74856417850153
 20
3.386629541044612
 10
58.95711590330144
 20
3.360560575444537
 10
59.16784004190141
 20
3.35187092024455
 10
61.28701112765408
 20
3.351870920244664
 10
61.12646726360164
 20
3.414941723979609
 10
60.94290311979922
 20
3.505561997502354
 10
60.77443671362904
 20
3.610091690433819
 10
60.6116038188684
 20
3.725709928859259
 10
60.46769145049826
 20
3.855499525399181
 10
60.34025555701397
 20
3.994853208627773
 10
60.22655020227059
 20
4.145341453340279
 10
60.17457897082183
 20
4.229526095444612
 10
59.14611590390156
 20
4.229526095444498
 10
59.01400707589598
 20
4.237086095468612
 10
58.88325383410144
 20
4.257419888636604
 10
58.75508141990168
 20
4.290353681844521
 10
58.63994348850157
 20
4.335974371644624
 10
58.53499852265123
 20
4.39245713044454
 10
58.43684886716712
 20
4.460062647900485
 10
58.34666762550161
 20
4.538008855044495
 10
58.27497797010166
 20
4.62273299324454
 10
60.0024992843603
 20
4.622732993244653
 10
59.99191481708727
 20
4.655368434002866
 10
59.95580300912298
 20
4.840742381554036
 10
59.94375935634117
 20
5.03103209550477
 10
59.95578102877063
 20
5.22578318885985
 10
59.99208675044589
 20
5.412152560126287
 10
60.00868545312075
 20
5.461284720044545
 10
58.23804693550143
 20
5.461284720044545
 10
58.30756417710155
 20
5.556870927244517
 10
58.39011590150154
 20
5.639422651644508
 10
58.48520679835498
 20
5.709287479452541
 10
58.58780555730142
 20
5.767595065844602
 10
58.70649755767819
 20
5.811564721156514
 10
58.82894348910146
 20
5.843629548844546
 10
58.96580555850142
 20
5.863181273044574
 10
59.10918486930156
 20
5.869698514444507
 97
        0
 92
        7
 72
     0
 73
     1
 93
       72
 10
61.92753549893815
 20
5.855099893708597
 10
62.05039853381096
 20
5.873174376524616
 10
62.17446074110149
 20
5.878388169644722
 10
63.44315040030143
 20
5.878388169644722
 10
62.59590901830144
 20
5.063732994644851
 10
64.3620814377016
 20
3.34535367884473
 10
65.6807366143014
 20
3.34535367884473
 10
63.96670212610162
 20
5.087629546444759
 10
65.64815040730151
 20
6.721284724044835
 10
62.20921936190144
 20
6.721284724044608
 10
62.00123246468935
 20
6.710509551596715
 10
61.79451425713661
 20
6.68504886186065
 10
61.5900814289014
 20
6.645250241044664
 10
61.3967366007014
 20
6.588767482244634
 10
61.20990901390134
 20
6.51707782684457
 10
61.03874887542703
 20
6.431050240364584
 10
60.87318487490144
 20
6.334595067644613
 10
60.72111590890155
 20
6.225974377644661
 10
60.58541825329827
 20
6.106665411748622
 10
60.46042625290148
 20
5.976146790644634
 10
60.3518055629013
 20
5.837112307444613
 10
60.26056418330155
 20
5.689388169044718
 10
60.18887452790138
 20
5.535146789244663
 10
60.13456418290139
 20
5.374388168044561
 10
60.10197797590151
 20
5.207112305444525
 10
60.09111590690146
 20
5.031146787644502
 10
60.10197797590151
 20
4.859526097444586
 10
60.13456418290163
 20
4.692250234844664
 10
60.18670211410155
 20
4.531491613644675
 10
60.25621935570145
 20
4.37725023384462
 10
60.34806032151029
 20
4.228483336820772
 10
60.45343977012068
 20
4.089014370860581
 10
60.57144528773689
 20
3.959972991140716
 10
60.70373659850158
 20
3.840664025244677
 10
60.8558577024328
 20
3.732651611108622
 10
61.01439177190151
 20
3.634284714244586
 10
61.18601246210165
 20
3.549560576044655
 10
61.36849522130161
 20
3.477870920644591
 10
61.56272639433201
 20
3.423821265300603
 10
61.75952970530149
 20
3.380112299644679
 10
61.96808143010163
 20
3.354043334044717
 10
62.1788055687016
 20
3.34535367884473
 10
64.0818400575015
 20
3.34535367884473
 10
63.19549522710146
 20
4.218664026444685
 10
62.1788055687016
 20
4.218664026444685
 10
62.11213853400706
 20
4.222411319384036
 10
62.01119080954869
 20
4.232393681660596
 10
61.89105632640873
 20
4.253857130004689
 10
61.77393715362315
 20
4.288181268044581
 10
61.67244198088726
 20
4.329109544036668
 10
61.61630680829514
 20
4.357264026884649
 10
61.56262211846957
 20
4.389850233884772
 10
61.43006142839341
 20
4.489172992820613
 10
61.35646004884963
 20
4.559211613732713
 10
61.30139370384724
 20
4.627077820844533
 10
61.25268818645101
 20
4.699636441764596
 10
61.21332404839496
 20
4.776800579940527
 10
61.18390087588797
 20
4.858222649164645
 10
61.16320211720155
 20
4.945379890820731
 10
61.15568556545351
 20
5.034709546276531
 10
61.15704115166479
 20
5.097014374060563
 10
61.163045703408
 20
5.159145408740528
 10
61.17520253103272
 20
5.222319202044673
 10
61.19341604833199
 20
5.284015753964695
 10
61.23706418640132
 20
5.382730237036525
 10
61.27859204860239
 20
5.450596444148573
 10
61.34167025569901
 20
5.528629547844616
 10
61.47107219606393
 20
5.655152284898349
 10
61.53034004940152
 20
5.695210238028721
 10
61.60663522205756
 20
5.739527479548542
 10
61.6906554981863
 20
5.78167230726865
 10
61.80719246407353
 20
5.824512307404688
 97
        0
 92
        7
 72
     0
 73
     1
 93
       57
 10
66.48557247892565
 20
5.833028169500948
 10
66.61704696210155
 20
5.873000583420889
 10
66.75173661770147
 20
5.900112307644917
 10
66.89511592850137
 20
5.90880196284479
 10
68.13556420830152
 20
5.908801962844904
 10
68.13556420830152
 20
6.734319206844929
 10
66.90163316990153
 20
6.734319206844816
 10
66.69090903130156
 20
6.725629551644829
 10
66.48452972030146
 20
6.697388172244814
 10
66.28684006450159
 20
6.656112310044818
 10
66.09784006390147
 20
6.601801965044842
 10
65.91318489090146
 20
6.530112309644891
 10
65.74677799382131
 20
6.447473688692753
 10
65.58795716573105
 20
6.351018515972782
 10
65.43787813077189
 20
6.241528860452717
 10
65.30331881999997
 20
6.122306791108826
 10
65.18325385410141
 20
5.993526101044835
 10
65.07897799170156
 20
5.854491617844814
 10
64.99425385350152
 20
5.708939893244746
 10
64.92256419810134
 20
5.554698513444691
 10
64.87259868070147
 20
5.393939892244816
 10
64.84001247370158
 20
5.226664029644894
 10
64.82915040470153
 20
5.05287092564481
 10
64.84001247370158
 20
4.879077821644841
 10
64.87259868070147
 20
4.711801959044805
 10
64.92473661190139
 20
4.551043337844703
 10
64.99642626730157
 20
4.394629544244821
 10
65.08332281930167
 20
4.246905405844813
 10
65.19216944033679
 20
4.107349543332816
 10
65.31202585451025
 20
3.977004715332896
 10
65.44845344115039
 20
3.855697128740757
 10
65.59601247610159
 20
3.745077818044819
 10
65.75677109730147
 20
3.64731919704468
 10
65.93056420130143
 20
3.562595058844863
 10
66.11521937430167
 20
3.488732989644859
 10
66.30639178870161
 20
3.432250230844829
 10
66.50625385830155
 20
3.388801954844893
 10
66.71263316930164
 20
3.364905403044758
 10
66.92552972170166
 20
3.356215747844771
 10
68.13556420830152
 20
3.356215747844885
 10
68.13556420830152
 20
4.214319198844805
 10
66.90163316990153
 20
4.214319198844805
 10
66.76798627292557
 20
4.224659888532755
 10
66.6357297207817
 20
4.246644716188939
 10
66.5151173066056
 20
4.280968854228831
 10
66.3991104096856
 20
4.328935750932942
 10
66.28944696106147
 20
4.389850233884885
 10
66.1923835124776
 20
4.45745575134083
 10
66.10496558116553
 20
4.537226786076871
 10
66.03049523610163
 20
4.622732993244881
 10
68.13556420830152
 20
4.622732993244881
 10
68.13556420830152
 20
5.450422651044846
 10
65.9935642015014
 20
5.450422651044846
 10
66.06308144310152
 20
5.548181272044757
 10
66.14997799510139
 20
5.637250237844682
 10
66.2511255816296
 20
5.713545410500842
 10
66.35852971990154
 20
5.78062954864481
 97
        0
 92
        7
 72
     0
 73
     1
 93
        6
 10
68.36584007110151
 20
6.721284724044949
 10
68.36584007110151
 20
3.351870920244891
 10
70.60342628510172
 20
3.351870920245005
 10
70.60342628510149
 20
4.218664026445026
 10
69.38904697090153
 20
4.218664026445026
 10
69.38904697090153
 20
6.721284724044949
 97
        0
 92
        7
 72
     0
 73
     1
 93
        8
 10
69.62149524750135
 20
6.721284724044949
 10
69.62149524750135
 20
5.895767480044924
 10
70.85542628590157
 20
5.895767480045037
 10
70.85542628590157
 20
3.345353678844958
 10
71.88080559950164
 20
3.345353678844958
 10
71.88080559950141
 20
5.895767480044924
 10
73.12342629310139
 20
5.895767480045037
 10
73.12342629310139
 20
6.721284724045062
 97
        0
 75
     0
 76
     1
 47
0.0142553043587597
 98
        5
 10
59.50873175997664
 20
6.278835054455498
 10
61.77622897331936
 20
6.136282069449862
 10
66.2684407055208
 20
6.193303241997682
 10
68.99228978935254
 20
6.435643466690066
 10
70.40412777157918
 20
6.335856334276741
450
        0
451
        0
460
0.0
461
0.0
452
        0
462
0.0
453
        0
470

  0
LWPOLYLINE
  5
7684
330
7569
100
AcDbEntity
  8
LW 5015-32-00
 62
     1
100
AcDbPolyline
 90
        8
 70
     1
 43
0.0
 10
71.88080559950141
 20
5.895767480044924
 10
71.88080559950164
 20
3.345353678844958
 10
70.85542628590157
 20
3.345353678844958
 10
70.85542628590157
 20
5.895767480045037
 10
69.62149524750135
 20
5.895767480044924
 10
69.62149524750135
 20
6.721284724044949
 10
73.12342629310139
 20
6.721284724045062
 10
73.12342629310139
 20
5.895767480045037
  0
LWPOLYLINE
  5
7685
330
7569
100
AcDbEntity
  8
LW 5015-32-00
 62
     1
100
AcDbPolyline
 90
       73
 70
     1
 43
0.0
 10
62.1788055687016
 20
4.218664026444685
 10
63.19549522710146
 20
4.218664026444685
 10
64.0818400575015
 20
3.34535367884473
 10
62.1788055687016
 20
3.345353678844617
 10
61.96808143010163
 20
3.354043334044717
 10
61.75952970530149
 20
3.380112299644679
 10
61.56272639433201
 20
3.423821265300603
 10
61.36849522130161
 20
3.477870920644591
 10
61.18601246210165
 20
3.549560576044655
 10
61.01439177190151
 20
3.634284714244586
 10
60.8558577024328
 20
3.732651611108622
 10
60.70373659850158
 20
3.840664025244677
 10
60.57144528773666
 20
3.959972991140602
 10
60.45343977012068
 20
4.089014370860581
 10
60.34806032151029
 20
4.228483336820659
 10
60.25621935570145
 20
4.37725023384462
 10
60.18670211410155
 20
4.531491613644675
 10
60.13456418290163
 20
4.692250234844664
 10
60.10197797590151
 20
4.859526097444586
 10
60.09111590690146
 20
5.031146787644615
 10
60.10197797590151
 20
5.207112305444525
 10
60.13456418290139
 20
5.374388168044561
 10
60.1888745279016
 20
5.535146789244663
 10
60.26056418330155
 20
5.689388169044605
 10
60.35180556290153
 20
5.837112307444613
 10
60.46042625290148
 20
5.976146790644634
 10
60.58541825329827
 20
6.106665411748736
 10
60.72111590890132
 20
6.225974377644661
 10
60.87318487490144
 20
6.334595067644613
 10
61.03874887542703
 20
6.431050240364584
 10
61.20990901390134
 20
6.51707782684457
 10
61.3967366007014
 20
6.588767482244634
 10
61.5900814289014
 20
6.645250241044777
 10
61.79451425713661
 20
6.68504886186065
 10
62.00123246468935
 20
6.710509551596715
 10
62.20921936190144
 20
6.721284724044608
 10
65.64815040730151
 20
6.721284724044835
 10
63.96670212610162
 20
5.087629546444759
 10
65.6807366143014
 20
3.34535367884473
 10
64.3620814377016
 20
3.34535367884473
 10
62.59590901830144
 20
5.063732994644851
 10
63.44315040030143
 20
5.878388169644722
 10
62.17446074110149
 20
5.878388169644722
 10
62.05039853381096
 20
5.873174376524616
 10
61.92753549893815
 20
5.855099893708597
 10
61.80719246407353
 20
5.824512307404688
 10
61.6906554981863
 20
5.781672307268536
 10
61.60663522205734
 20
5.739527479548655
 10
61.53034004940152
 20
5.695210238028721
 10
61.49009825617032
 20
5.668011617252659
 10
61.45258501467198
 20
5.637076444740614
 10
61.34167025569901
 20
5.528629547844616
 10
61.27859204860239
 20
5.450596444148573
 10
61.23706418640155
 20
5.382730237036639
 10
61.19341604833199
 20
5.284015753964695
 10
61.17520253103272
 20
5.222319202044673
 10
61.163045703408
 20
5.159145408740641
 10
61.15704115166479
 20
5.097014374060677
 10
61.15568556545351
 20
5.034709546276644
 10
61.16320211720155
 20
4.945379890820731
 10
61.18390087588797
 20
4.858222649164645
 10
61.21332404839519
 20
4.776800579940641
 10
61.25268818645101
 20
4.699636441764596
 10
61.30139370384701
 20
4.627077820844647
 10
61.35646004884963
 20
4.559211613732713
 10
61.43006142839341
 20
4.489172992820613
 10
61.56262211846957
 20
4.389850233884772
 10
61.61630680829514
 20
4.357264026884649
 10
61.67244198088726
 20
4.329109544036668
 10
61.77393715362315
 20
4.288181268044581
 10
61.89105632640873
 20
4.253857130004689
 10
62.01119080954869
 20
4.232393681660596
 10
62.11213853400706
 20
4.222411319384036
  0
LWPOLYLINE
  5
7686
330
7569
100
AcDbEntity
  8
LW 5015-32-00
 62
     1
100
AcDbPolyline
 90
       76
 70
     1
 43
0.0
 10
60.96864231863539
 20
6.560414732015601
 10
60.79325536527064
 20
6.458236850193884
 10
60.62958656918865
 20
6.341330567278191
 10
60.48356666272709
 20
6.212946005564845
 10
60.34908858751443
 20
6.0725218753023
 10
60.23093046328314
 20
5.921279476286372
 10
60.19907163391032
 20
5.869698514444621
 10
59.10918486930156
 20
5.869698514444621
 10
58.96580555850142
 20
5.863181273044574
 10
58.82894348910146
 20
5.843629548844546
 10
58.70649755767819
 20
5.811564721156514
 10
58.58780555730142
 20
5.767595065844602
 10
58.4852067983552
 20
5.709287479452541
 10
58.39011590150154
 20
5.639422651644508
 10
58.30756417710133
 20
5.556870927244517
 10
58.23804693550143
 20
5.461284720044545
 10
60.00868545312075
 20
5.461284720044545
 10
59.99208675044589
 20
5.412152560126287
 10
59.9557810287704
 20
5.225783188859622
 10
59.94375935634117
 20
5.03103209550477
 10
59.95580300912298
 20
4.840742381554036
 10
59.9919148170875
 20
4.65536843400298
 10
60.0024992843603
 20
4.622732993244653
 10
58.27497797010166
 20
4.62273299324454
 10
58.34666762550161
 20
4.538008855044495
 10
58.43684886716712
 20
4.460062647900485
 10
58.53499852265123
 20
4.39245713044454
 10
58.63994348850157
 20
4.335974371644624
 10
58.75508141990168
 20
4.290353681844635
 10
58.88325383410144
 20
4.257419888636604
 10
59.01400707589598
 20
4.237086095468612
 10
59.14611590390156
 20
4.229526095444498
 10
60.17457897082183
 20
4.229526095444612
 10
60.22655020227059
 20
4.145341453340279
 10
60.34025555701397
 20
3.994853208627773
 10
60.46769145049826
 20
3.855499525399181
 10
60.6116038188684
 20
3.725709928859487
 10
60.77443671362904
 20
3.610091690433819
 10
60.94290311979922
 20
3.505561997502354
 10
61.12646726360164
 20
3.414941723979609
 10
61.28701112765408
 20
3.351870920244664
 10
59.16784004190164
 20
3.351870920244437
 10
58.95711590330144
 20
3.360560575444537
 10
58.74856417850153
 20
3.386629541044612
 10
58.54870210890159
 20
3.430077817044548
 10
58.35752969450165
 20
3.486560575844464
 10
58.17688045254865
 20
3.560248851940514
 10
58.00125383130172
 20
3.645146783244626
 10
57.84049521010162
 20
3.742905404244538
 10
57.69315080963385
 20
3.853350921836522
 10
57.5569517609256
 20
3.974484715324479
 10
57.4342538295016
 20
4.105698508844511
 10
57.32780555330148
 20
4.246905405844472
 10
57.23873658750155
 20
4.39462954424448
 10
57.16921934590165
 20
4.551043337844475
 10
57.11490900090145
 20
4.711801959044464
 10
57.08449520770161
 20
4.879077821644614
 10
57.07363313870157
 20
5.052870925644469
 10
57.08232279390133
 20
5.226664029644439
 10
57.11056417330157
 20
5.391767478444535
 10
57.16052969070144
 20
5.55252609964441
 10
57.2235296909014
 20
5.706767479444465
 10
57.30608141530139
 20
5.852319204044533
 10
57.4060993466535
 20
5.989528859652523
 10
57.51736429873087
 20
6.117788170404537
 10
57.64280555430151
 20
6.236836446644474
 10
57.78551315475444
 20
6.343545412500589
 10
57.93608141730148
 20
6.438870930044572
 10
58.10335727990151
 20
6.52142265444445
 10
58.27932279770154
 20
6.590939896044574
 10
58.46397797070155
 20
6.64525024104455
 10
58.65949521270137
 20
6.686526103244659
 10
58.86152969610136
 20
6.71259506884462
 10
59.07442624850138
 20
6.721284724044608
 10
61.33156418670161
 20
6.721284724044721
 10
61.15039525123576
 20
6.651766411598487
  0
LWPOLYLINE
  5
7687
330
7569
100
AcDbEntity
  8
LW 5015-32-00
 62
     1
100
AcDbPolyline
 90
        6
 70
     1
 43
0.0
 10
70.60342628510172
 20
3.351870920245005
 10
68.36584007110151
 20
3.351870920244891
 10
68.36584007110151
 20
6.721284724044949
 10
69.38904697090153
 20
6.721284724044949
 10
69.38904697090153
 20
4.218664026445026
 10
70.60342628510149
 20
4.218664026445026
  0
LWPOLYLINE
  5
7688
330
7569
100
AcDbEntity
  8
LW 5015-32-00
 62
     1
100
AcDbPolyline
 90
       57
 70
     1
 43
0.0
 10
65.31202585451025
 20
3.977004715332896
 10
65.19216944033679
 20
4.107349543332702
 10
65.08332281930144
 20
4.246905405844699
 10
64.99642626730157
 20
4.394629544244821
 10
64.92473661190139
 20
4.551043337844703
 10
64.87259868070147
 20
4.711801959044805
 10
64.84001247370158
 20
4.879077821644841
 10
64.82915040470153
 20
5.05287092564481
 10
64.84001247370158
 20
5.22666402964478
 10
64.87259868070147
 20
5.393939892244816
 10
64.92256419810134
 20
5.554698513444691
 10
64.99425385350152
 20
5.70893989324486
 10
65.07897799170134
 20
5.854491617844701
 10
65.18325385410141
 20
5.993526101044835
 10
65.30331881999974
 20
6.122306791108712
 10
65.43787813077189
 20
6.241528860452717
 10
65.58795716573105
 20
6.351018515972782
 10
65.74677799382154
 20
6.447473688692866
 10
65.91318489090146
 20
6.530112309644891
 10
66.09784006390147
 20
6.601801965044842
 10
66.28684006450159
 20
6.656112310044818
 10
66.48452972030146
 20
6.697388172244814
 10
66.69090903130156
 20
6.725629551644829
 10
66.90163316990153
 20
6.734319206844816
 10
68.13556420830152
 20
6.734319206844929
 10
68.13556420830152
 20
5.908801962844904
 10
66.89511592850159
 20
5.90880196284479
 10
66.75173661770147
 20
5.900112307644803
 10
66.61704696210155
 20
5.873000583420889
 10
66.48557247892542
 20
5.833028169500835
 10
66.35852971990154
 20
5.78062954864481
 10
66.2511255816296
 20
5.713545410500842
 10
66.14997799510139
 20
5.637250237844909
 10
66.06308144310152
 20
5.548181272044757
 10
65.9935642015014
 20
5.450422651044846
 10
68.13556420830152
 20
5.450422651044846
 10
68.13556420830152
 20
4.622732993244881
 10
66.03049523610163
 20
4.622732993244881
 10
66.10496558116553
 20
4.537226786076871
 10
66.1923835124776
 20
4.45745575134083
 10
66.28944696106147
 20
4.389850233884885
 10
66.3991104096856
 20
4.328935750932942
 10
66.5151173066056
 20
4.280968854228831
 10
66.6357297207817
 20
4.246644716188939
 10
66.76798627292557
 20
4.224659888532755
 10
66.90163316990153
 20
4.214319198844805
 10
68.13556420830152
 20
4.214319198844805
 10
68.13556420830152
 20
3.356215747844885
 10
66.92552972170166
 20
3.356215747844771
 10
66.71263316930164
 20
3.364905403044758
 10
66.50625385830155
 20
3.388801954844893
 10
66.30639178870161
 20
3.432250230844829
 10
66.11521937430167
 20
3.488732989644859
 10
65.93056420130143
 20
3.562595058844863
 10
65.75677109730147
 20
3.647319197044907
 10
65.59601247610159
 20
3.745077818044819
 10
65.44845344115039
 20
3.855697128740757
  0
LINE
  5
7689
330
7569
100
AcDbEntity
  8
LW 5015-32-00
  6
MITTE2
 62
     3
100
AcDbLine
 10
0.0
 20
37.0
 30
0.0
 11
0.0
 21
-37.00000000000012
 31
0.0
  0
INSERT
  5
768A
330
7569
100
AcDbEntity
  8
LW 5015-32-00
100
AcDbBlockReference
 66
     1
  2
insertpoint-ECKELT
 10
0.0
 20
0.0
 30
0.0
  0
ATTRIB
  5
768B
330
768A
100
AcDbEntity
  8
insertpoint_ECKELT
100
AcDbText
 10
-6.93151432469286
 20
0.0
 30
0.0
 40
0.6
  1
LW 5015/32-00
 72
     2
 11
-1.199999999999818
 21
0.0
 31
0.0
100
AcDbAttribute
  2
LINKS
 70
     0
  0
ATTRIB
  5
768C
330
768A
100
AcDbEntity
  8
insertpoint_ECKELT
100
AcDbText
 10
1.199999999999818
 20
0.0
 30
0.0
 40
0.6
  1

100
AcDbAttribute
  2
RECHTS
 70
     0
  0
SEQEND
  5
768D
330
768A
100
AcDbEntity
  8
LW 5015-32-00
  0
LINE
  5
768E
330
7569
100
AcDbEntity
  8
LW 5015-32-00
  6
MITTE2
 62
     3
100
AcDbLine
 10
-84.99999999999998
 20
4.999999999994543
 30
0.0
 11
-130.0
 21
4.999999999994543
 31
0.0
  0
LINE
  5
768F
330
7569
100
AcDbEntity
  8
LW 5015-32-00
  6
MITTE2
 62
     3
100
AcDbLine
 10
130.0
 20
4.999999999994543
 30
0.0
 11
84.99999999999998
 21
4.999999999994543
 31
0.0
  0
ENDBLK
  5
756B
330
7569
100
AcDbEntity
  8
0
100
AcDbBlockEnd
  0
BLOCK
  5
7692
330
7691
100
AcDbEntity
  8
0
100
AcDbBlockBegin
  2
LW 5015-32-00_c
 70
     0
 10
0.0
 20
0.0
 30
0.0
  3
LW 5015-32-00_c
  1

  0
LINE
  5
7694
330
7691
100
AcDbEntity
  8
LW 5015-32-00
  6
VERDECKT
 62
     6
100
AcDbLine
 10
7.334936490574818
 20
17.70448267190204
 30
0.0
 11
11.66506350949657
 21
15.2044826719009
 31
0.0
  0
LINE
  5
7695
330
7691
100
AcDbEntity
  8
LW 5015-32-00
  6
VERDECKT
 62
     6
100
AcDbLine
 10
11.66506350948748
 20
-15.20448267190795
 30
0.0
 11
7.334936490564359
 21
-17.70448267190659
 31
0.0
  0
LINE
  5
7696
330
7691
100
AcDbEntity
  8
LW 5015-32-00
  6
VERDECKT
 62
     6
100
AcDbLine
 10
8.748924226250892
 20
15.1535812713729
 30
0.0
 11
7.334936490574818
 21
17.70448267190204
 31
0.0
  0
LINE
  5
7697
330
7691
100
AcDbEntity
  8
LW 5015-32-00
  6
VERDECKT
 62
     6
100
AcDbLine
 10
8.748924226250892
 20
15.1535812713729
 30
0.0
 11
11.66506350949657
 21
15.2044826719009
 31
0.0
  0
LINE
  5
7698
330
7691
100
AcDbEntity
  8
LW 5015-32-00
  6
VERDECKT
 62
     6
100
AcDbLine
 10
14.60240647333057
 20
20.29210992451317
 30
0.0
 11
11.66506350949657
 21
15.20448267190068
 31
0.0
  0
LINE
  5
7699
330
7691
100
AcDbEntity
  8
LW 5015-32-00
  6
VERDECKT
 62
     6
100
AcDbLine
 10
10.27227945440927
 20
22.79210992451453
 30
0.0
 11
7.334936490574818
 21
17.70448267190204
 31
0.0
  0
LINE
  5
769A
330
7691
100
AcDbEntity
  8
LW 5015-32-00
  6
VERDECKT
 62
     6
100
AcDbLine
 10
8.748924226241797
 20
-15.15358127137824
 30
0.0
 11
11.66506350948748
 21
-15.20448267190795
 31
0.0
  0
LINE
  5
769B
330
7691
100
AcDbEntity
  8
LW 5015-32-00
  6
VERDECKT
 62
     6
100
AcDbLine
 10
8.748924226241797
 20
-15.15358127137824
 30
0.0
 11
7.334936490564359
 21
-17.70448267190659
 31
0.0
  0
LINE
  5
769C
330
7691
100
AcDbEntity
  8
LW 5015-32-00
  6
VERDECKT
 62
     6
100
AcDbLine
 10
10.27227945439563
 20
-22.79210992452068
 30
0.0
 11
7.334936490564359
 21
-17.70448267190659
 31
0.0
  0
LINE
  5
769D
330
7691
100
AcDbEntity
  8
LW 5015-32-00
  6
VERDECKT
 62
     6
100
AcDbLine
 10
14.60240647331875
 20
-20.29210992452204
 30
0.0
 11
11.66506350948748
 21
-15.20448267190795
 31
0.0
  0
LINE
  5
769E
330
7691
100
AcDbEntity
  8
LW 5015-32-00
  6
VERDECKT
 62
     6
100
AcDbLine
 10
-18.99999999996998
 20
-2.499999999994543
 30
0.0
 11
-18.99999999996862
 21
2.500000000005456
 31
0.0
  0
LINE
  5
769F
330
7691
100
AcDbEntity
  8
LW 5015-32-00
  6
VERDECKT
 62
     6
100
AcDbLine
 10
-17.49784845240037
 20
0.0000000000051159
 30
0.0
 11
-18.99999999996998
 21
-2.499999999994543
 31
0.0
  0
LINE
  5
76A0
330
7691
100
AcDbEntity
  8
LW 5015-32-00
  6
VERDECKT
 62
     6
100
AcDbLine
 10
-17.49784845240037
 20
0.0000000000051159
 30
0.0
 11
-18.99999999996862
 21
2.500000000005456
 31
0.0
  0
LINE
  5
76A1
330
7691
100
AcDbEntity
  8
LW 5015-32-00
  6
VERDECKT
 62
     6
100
AcDbLine
 10
-24.87468592763389
 20
2.500000000007275
 30
0.0
 11
-18.99999999996862
 21
2.500000000005456
 31
0.0
  0
LINE
  5
76A2
330
7691
100
AcDbEntity
  8
LW 5015-32-00
  6
VERDECKT
 62
     6
100
AcDbLine
 10
-24.87468592763526
 20
-2.499999999992724
 30
0.0
 11
-18.99999999996998
 21
-2.499999999994543
 31
0.0
  0
ARC
  5
76A3
330
7691
100
AcDbEntity
  8
LW 5015-32-00
100
AcDbCircle
 10
0.0000000000295586
 20
0.0
 30
0.0
 40
25.0
100
AcDbArc
 50
209.999999999983
 51
36.86989764582579
  0
ARC
  5
76A4
330
7691
100
AcDbEntity
  8
LW 5015-32-00
100
AcDbCircle
 10
0.0000000000295586
 20
0.0
 30
0.0
 40
25.0
100
AcDbArc
 50
64.15806723681654
 51
115.8419327631507
  0
ARC
  5
76A5
330
7691
100
AcDbEntity
  8
LW 5015-32-00
100
AcDbCircle
 10
0.0000000000276827
 20
-0.0000000000000568
 30
0.0
 40
18.99999999999993
100
AcDbArc
 50
221.1395104148819
 51
318.8604895850835
  0
CIRCLE
  5
76A6
330
7691
100
AcDbEntity
  8
LW 5015-32-00
100
AcDbCircle
 10
0.0
 20
0.0
 30
0.0
 40
10.00000000000001
  0
CIRCLE
  5
76A7
330
7691
100
AcDbEntity
  8
LW 5015-32-00
100
AcDbCircle
 10
-0.0000000000004547
 20
0.0
 30
0.0
 40
9.000000000000008
  0
ARC
  5
76A8
330
7691
100
AcDbEntity
  8
LW 5015-32-00
  6
VERDECKT
 62
     6
100
AcDbCircle
 10
0.0000000000300133
 20
0.0000000000002274
 30
0.0
 40
24.99999999999958
100
AcDbArc
 50
36.86989764582579
 51
64.15806723681723
  0
ARC
  5
76A9
330
7691
100
AcDbEntity
  8
LW 5015-32-00
  6
VERDECKT
 62
     6
100
AcDbCircle
 10
0.0000000000295586
 20
0.0
 30
0.0
 40
25.00000000000001
100
AcDbArc
 50
115.8419327631507
 51
209.999999999983
  0
ARC
  5
76AA
330
7691
100
AcDbEntity
  8
LW 5015-32-00
  6
VERDECKT
 62
     6
100
AcDbCircle
 10
0.0000000000277396
 20
-0.0000000000000284
 30
0.0
 40
19.00000000000004
100
AcDbArc
 50
318.8604895850835
 51
221.1395104148819
  0
LINE
  5
76AB
330
7691
100
AcDbEntity
  8
LW 5015-32-00
100
AcDbLine
 10
10.10000000000673
 20
-2.000000000003069
 30
0.0
 11
10.10000000000809
 21
1.999999999996816
 31
0.0
  0
LINE
  5
76AC
330
7691
100
AcDbEntity
  8
LW 5015-32-00
100
AcDbLine
 10
-10.09999999999172
 20
2.000000000002955
 30
0.0
 11
-10.09999999999309
 21
-1.999999999997044
 31
0.0
  0
LINE
  5
76AD
330
7691
100
AcDbEntity
  8
LW 5015-32-00
  6
VERDECKT
 62
     6
100
AcDbLine
 10
-59.99999999999181
 20
-9.660108542720195
 30
0.0
 11
-59.99999999998317
 21
19.66010854275578
 31
0.0
  0
ARC
  5
76AE
330
7691
100
AcDbEntity
  8
LW 5015-32-00
  6
VERDECKT
 62
     6
100
AcDbCircle
 10
-61.99999999999182
 20
-9.660108542719626
 30
0.0
 40
2.0
100
AcDbArc
 50
340.7099537807874
 51
0.0
  0
ARC
  5
76AF
330
7691
100
AcDbEntity
  8
LW 5015-32-00
  6
VERDECKT
 62
     6
100
AcDbCircle
 10
-61.99999999998317
 20
19.66010854275623
 30
0.0
 40
2.0
100
AcDbArc
 50
0.0
 51
19.29004621917444
  0
LINE
  5
76B0
330
7691
100
AcDbEntity
  8
LW 5015-32-00
  6
VERDECKT
 62
     6
100
AcDbLine
 10
-60.11228328726019
 20
-10.32080939217644
 30
0.0
 11
-60.87499999999272
 21
-12.49999999998204
 31
0.0
  0
LINE
  5
76B1
330
7691
100
AcDbEntity
  8
LW 5015-32-00
  6
VERDECKT
 62
     6
100
AcDbLine
 10
-60.1122832872511
 20
20.32080939221192
 30
0.0
 11
-60.87499999998226
 21
22.50000000001796
 31
0.0
  0
LINE
  5
76B2
330
7691
100
AcDbEntity
  8
LW 5015-32-00
100
AcDbLine
 10
-60.87499999999272
 20
-12.49999999998204
 30
0.0
 11
-60.87499999998226
 21
22.50000000001796
 31
0.0
  0
LINE
  5
76B3
330
7691
100
AcDbEntity
  8
LW 5015-32-00
100
AcDbLine
 10
20.00000000000773
 20
-11.00000000000591
 30
0.0
 11
20.00000000001728
 21
20.99999999999409
 31
0.0
  0
LINE
  5
76B4
330
7691
100
AcDbEntity
  8
LW 5015-32-00
100
AcDbLine
 10
-60.87499999998226
 20
22.50000000001796
 30
0.0
 11
18.50000000001762
 21
22.49999999999454
 31
0.0
  0
LINE
  5
76B5
330
7691
100
AcDbEntity
  8
LW 5015-32-00
100
AcDbLine
 10
-60.87499999999272
 20
-12.49999999998204
 30
0.0
 11
-10.09999999999246
 21
-12.49999999999701
 31
0.0
  0
LINE
  5
76B6
330
7691
100
AcDbEntity
  8
LW 5015-32-00
100
AcDbLine
 10
10.10000000000707
 20
-12.50000000000298
 30
0.0
 11
18.50000000000727
 21
-12.50000000000546
 31
0.0
  0
ARC
  5
76B7
330
7691
100
AcDbEntity
  8
LW 5015-32-00
100
AcDbCircle
 10
18.50000000000773
 20
-11.00000000000545
 30
0.0
 40
1.500000000000012
100
AcDbArc
 50
269.999999999987
 51
0.0
  0
ARC
  5
76B8
330
7691
100
AcDbEntity
  8
LW 5015-32-00
100
AcDbCircle
 10
18.50000000001728
 20
20.99999999999454
 30
0.0
 40
1.500000000000012
100
AcDbArc
 50
0.0
 51
89.99999999998697
  0
LINE
  5
76B9
330
7691
100
AcDbEntity
  8
LW 5015-32-00
100
AcDbLine
 10
-76.99999999998908
 20
-0.7730999999771484
 30
0.0
 11
-76.9999999999859
 21
10.77310000002285
 31
0.0
  0
LINE
  5
76BA
330
7691
100
AcDbEntity
  8
LW 5015-32-00
100
AcDbLine
 10
-75.77309999998533
 20
12.00000000002251
 30
0.0
 11
-75.77309999998942
 21
-1.99999999997749
 31
0.0
  0
LINE
  5
76BB
330
7691
100
AcDbEntity
  8
LW 5015-32-00
100
AcDbLine
 10
-76.9999999999859
 20
10.77310000002285
 30
0.0
 11
-75.77309999998533
 21
12.00000000002251
 31
0.0
  0
LINE
  5
76BC
330
7691
100
AcDbEntity
  8
LW 5015-32-00
100
AcDbLine
 10
-76.99999999998908
 20
-0.7730999999771484
 30
0.0
 11
-75.77309999998942
 21
-1.99999999997749
 31
0.0
  0
LINE
  5
76BD
330
7691
100
AcDbEntity
  8
LW 5015-32-00
100
AcDbLine
 10
-75.77309999998533
 20
12.00000000002251
 30
0.0
 11
-60.87499999998545
 21
12.00000000001796
 31
0.0
  0
LINE
  5
76BE
330
7691
100
AcDbEntity
  8
LW 5015-32-00
100
AcDbLine
 10
-75.77309999998942
 20
-1.99999999997749
 30
0.0
 11
-60.87499999998954
 21
-1.999999999982037
 31
0.0
  0
LINE
  5
76BF
330
7691
100
AcDbEntity
  8
LW 5015-32-00
 62
     3
100
AcDbLine
 10
-60.8749999999859
 20
10.79450000001805
 30
0.0
 11
-76.97859999998581
 21
10.79450000002282
 31
0.0
  0
LINE
  5
76C0
330
7691
100
AcDbEntity
  8
LW 5015-32-00
 62
     3
100
AcDbLine
 10
-76.978599999989
 20
-0.7944999999772336
 30
0.0
 11
-60.87499999998908
 21
-0.7944999999820084
 31
0.0
  0
ARC
  5
76C1
330
7691
100
AcDbEntity
  8
LW 5015-32-00
  6
VERDECKT
 62
     6
100
AcDbCircle
 10
0.0000000000354703
 20
0.0
 30
0.0
 40
32.50000000000001
100
AcDbArc
 50
136.1869385395798
 51
202.6198649480234
  0
ARC
  5
76C2
330
7691
100
AcDbEntity
  8
LW 5015-32-00
100
AcDbCircle
 10
0.0000000000354703
 20
0.0
 30
0.0
 40
32.5
100
AcDbArc
 50
202.6198649480234
 51
136.1869385395798
  0
LINE
  5
76C3
330
7691
100
AcDbEntity
  8
LW 5015-32-00
100
AcDbLine
 10
-60.87499999998226
 20
22.50000000001796
 30
0.0
 11
-60.87499999999272
 21
-12.49999999998204
 31
0.0
  0
LINE
  5
76C4
330
7691
100
AcDbEntity
  8
LW 5015-32-00
  6
MITTE2
 62
     3
100
AcDbLine
 10
14.93734296387129
 20
25.87223694343527
 30
0.0
 11
7.00000000003456
 21
12.12435565298006
 31
0.0
  0
LINE
  5
76C5
330
7691
100
AcDbEntity
  8
LW 5015-32-00
  6
MITTE2
 62
     3
100
AcDbLine
 10
14.93734296385582
 20
-25.87223694344425
 30
0.0
 11
7.000000000027284
 21
-12.12435565298426
 31
0.0
  0
LINE
  5
76C6
330
7691
100
AcDbEntity
  8
LW 5015-32-00
  6
MITTE2
 62
     3
100
AcDbLine
 10
-38.96970689545856
 20
0.0000000000173941
 30
0.0
 11
38.96970689545765
 21
-0.0000000000173941
 31
0.0
  0
LINE
  5
76C7
330
7691
100
AcDbEntity
  8
LW 5015-32-00
  6
MITTE2
 62
     3
100
AcDbLine
 10
0.0000000000059117
 20
22.6209724824912
 30
0.0
 11
-0.000000000007276
 21
-22.6209724824912
 31
0.0
  0
HATCH
  5
76C8
330
7691
100
AcDbEntity
  8
LW 5015-32-00
 62
     1
100
AcDbHatch
 10
0.0
 20
0.0
 30
0.0
210
0.0
220
0.0
230
1.0
  2
SOLID
 70
     1
 71
     0
 91
        5
 92
        7
 72
     0
 73
     1
 93
       76
 10
-47.24928876594276
 20
18.15603796707853
 10
-47.21742993657016
 20
18.20761892892028
 10
-47.09927181233843
 20
18.35886132793621
 10
-46.964793737126
 20
18.49928545819875
 10
-46.81877383066466
 20
18.6276700199121
 10
-46.65510503458245
 20
18.74457630282791
 10
-46.47971808121792
 20
18.84675418464951
 10
-46.29796514861709
 20
18.9381058642324
 10
-46.1167962131517
 20
19.00762417667852
 10
-48.37393415135148
 20
19.00762417667852
 10
-48.58683070375173
 20
18.99893452147853
 10
-48.78886518715171
 20
18.97286555587857
 10
-48.98438242915154
 20
18.93158969367846
 10
-49.16903760215155
 20
18.87727934867848
 10
-49.34500311995179
 20
18.80776210707847
 10
-49.51227898255138
 20
18.72521038267837
 10
-49.66284724509887
 20
18.6298848651345
 10
-49.80555484555179
 20
18.52317589927838
 10
-49.93099610112222
 20
18.40412762303833
 10
-50.04226105319958
 20
18.27586831228643
 10
-50.14227898455146
 20
18.13865865667844
 10
-50.22483070895169
 20
17.99310693207837
 10
-50.28783070915188
 20
17.83886555227832
 10
-50.33779622655174
 20
17.67810693107844
 10
-50.36603760595153
 20
17.51300348227846
 10
-50.37472726115129
 20
17.33921037827849
 10
-50.36386519215148
 20
17.1654172742783
 10
-50.33345139895164
 20
16.99814141167837
 10
-50.27914105395166
 20
16.83738279047839
 10
-50.20962381235176
 20
16.68096899687839
 10
-50.12055484655139
 20
16.53324485847838
 10
-50.01410657035148
 20
16.39203796147853
 10
-49.89140863892726
 20
16.26082416795839
 10
-49.75520959021924
 20
16.13969037447054
 10
-49.60786518975146
 20
16.02924485687845
 10
-49.44710656855159
 20
15.93148623587854
 10
-49.27147994730422
 20
15.84658830457442
 10
-49.09083070535189
 20
15.77290002847849
 10
-48.89965829095172
 20
15.71641726967846
 10
-48.69979622135133
 20
15.67296899367852
 10
-48.49124449655164
 20
15.64690002807845
 10
-48.28052035795145
 20
15.63821037287846
 10
-46.161349272199
 20
15.63821037287857
 10
-46.32189313625121
 20
15.70128117661352
 10
-46.50545728005408
 20
15.79190145013626
 10
-46.67392368622404
 20
15.89643114306773
 10
-46.83675658098445
 20
16.01204938149317
 10
-46.98066894935482
 20
16.14183897803309
 10
-47.10810484283911
 20
16.28119266126168
 10
-47.22181019758273
 20
16.43168090597419
 10
-47.27378142903126
 20
16.51586554807852
 10
-48.30224449595153
 20
16.51586554807841
 10
-48.43435332395711
 20
16.52342554810252
 10
-48.56510656575165
 20
16.54375934127051
 10
-48.69327897995162
 20
16.57669313447843
 10
-48.80841691135128
 20
16.62231382427853
 10
-48.91336187720162
 20
16.67879658307845
 10
-49.01151153268575
 20
16.74640210053439
 10
-49.1016927743517
 20
16.8243483076784
 10
-49.1733824297512
 20
16.90907244587845
 10
-47.44586111549279
 20
16.90907244587856
 10
-47.4564455827658
 20
16.94170788663678
 10
-47.49255739072987
 20
17.12708183418795
 10
-47.50460104351214
 20
17.31737154813868
 10
-47.49257937108223
 20
17.51212264149376
 10
-47.45627364940719
 20
17.6984920127602
 10
-47.43967494673234
 20
17.74762417267846
 10
-49.21031346435166
 20
17.74762417267846
 10
-49.14079622275176
 20
17.84321037987843
 10
-49.05824449835154
 20
17.92576210427842
 10
-48.9631536014981
 20
17.99562693208645
 10
-48.86055484255166
 20
18.05393451847851
 10
-48.74186284217512
 20
18.09790417379042
 10
-48.61941691075163
 20
18.12996900147846
 10
-48.48255484135143
 20
18.14952072567848
 10
-48.33917553055153
 20
18.15603796707842
 97
        0
 92
        7
 72
     0
 73
     1
 93
       72
 10
-45.52082490091516
 20
18.14143934634251
 10
-45.39796186604189
 20
18.15951382915853
 10
-45.27389965875181
 20
18.16472762227863
 10
-44.00520999955142
 20
18.16472762227863
 10
-44.85245138155142
 20
17.35007244727876
 10
-43.08627896215148
 20
15.63169313147864
 10
-41.76762378555167
 20
15.63169313147864
 10
-43.48165827375169
 20
17.37396899907867
 10
-41.80020999255157
 20
19.00762417667875
 10
-45.23914103795187
 20
19.00762417667852
 10
-45.44712793516374
 20
18.99684900423062
 10
-45.6538461427167
 20
18.97138831449456
 10
-45.85827897095168
 20
18.93158969367857
 10
-46.05162379915191
 20
18.87510693487854
 10
-46.23845138595197
 20
18.80341727947848
 10
-46.40961152442605
 20
18.71738969299849
 10
-46.57517552495164
 20
18.62093452027852
 10
-46.72724449095176
 20
18.51231383027857
 10
-46.86294214655482
 20
18.39300486438253
 10
-46.98793414695183
 20
18.26248624327854
 10
-47.09655483695178
 20
18.12345176007852
 10
-47.1877962165513
 20
17.97572762167863
 10
-47.25948587195171
 20
17.82148624187857
 10
-47.31379621695168
 20
17.66072762067847
 10
-47.34638242395158
 20
17.49345175807843
 10
-47.35724449295185
 20
17.31748624027841
 10
-47.34638242395158
 20
17.1458655500785
 10
-47.31379621695168
 20
16.97858968747857
 10
-47.26165828575131
 20
16.81783106627859
 10
-47.19214104415141
 20
16.66358968647853
 10
-47.10030007834257
 20
16.51482278945468
 10
-46.99492062973241
 20
16.37535382349449
 10
-46.87691511211641
 20
16.24631244377463
 10
-46.74462380135127
 20
16.12700347787859
 10
-46.59250269742051
 20
16.01899106374253
 10
-46.43396862795134
 20
15.9206241668785
 10
-46.2623479377512
 20
15.83590002867856
 10
-46.07986517855124
 20
15.7642103732785
 10
-45.88563400552129
 20
15.71016071793451
 10
-45.6888306945516
 20
15.66645175227859
 10
-45.48027896975145
 20
15.64038278667863
 10
-45.26955483115171
 20
15.63169313147864
 10
-43.36652034235157
 20
15.63169313147864
 10
-44.25286517275162
 20
16.50500347907859
 10
-45.26955483115171
 20
16.50500347907859
 10
-45.33622186584625
 20
16.50875077201795
 10
-45.43716959030416
 20
16.5187331342945
 10
-45.55730407344436
 20
16.5401965826386
 10
-45.67442324623016
 20
16.57452072067849
 10
-45.77591841896583
 20
16.61544899667058
 10
-45.83205359155772
 20
16.64360347951856
 10
-45.88573828138351
 20
16.67618968651868
 10
-46.01829897145989
 20
16.77551244545452
 10
-46.09190035100346
 20
16.84555106636662
 10
-46.14696669600607
 20
16.91341727347844
 10
-46.1956722134023
 20
16.98597589439851
 10
-46.23503635145834
 20
17.06314003257444
 10
-46.26445952396489
 20
17.14456210179855
 10
-46.28515828265153
 20
17.23171934345464
 10
-46.29267483439934
 20
17.32104899891044
 10
-46.2913192481883
 20
17.38335382669447
 10
-46.28531469644485
 20
17.44548486137444
 10
-46.27315786882036
 20
17.50865865467858
 10
-46.25494435152131
 20
17.5703552065986
 10
-46.21129621345199
 20
17.66906968967044
 10
-46.16976835125069
 20
17.73693589678248
 10
-46.10669014415407
 20
17.81496900047853
 10
-45.97728820378915
 20
17.94149173753226
 10
-45.91802035045157
 20
17.98154969066263
 10
-45.84172517779552
 20
18.02586693218245
 10
-45.75770490166678
 20
18.06801175990256
 10
-45.64116793577932
 20
18.1108517600386
 97
        0
 92
        7
 72
     0
 73
     1
 93
       57
 10
-40.96278792092744
 20
18.11936762213486
 10
-40.83131343775176
 20
18.1593400360548
 10
-40.69662378215162
 20
18.18645176027883
 10
-40.55324447135172
 20
18.1951414154787
 10
-39.31279619155157
 20
18.19514141547881
 10
-39.31279619155157
 20
19.02065865947884
 10
-40.54672722995156
 20
19.02065865947873
 10
-40.75745136855175
 20
19.01196900427874
 10
-40.96383067955184
 20
18.98372762487872
 10
-41.16152033535172
 20
18.94245176267873
 10
-41.35052033595139
 20
18.88814141767875
 10
-41.53517550895185
 20
18.8164517622788
 10
-41.70158240603178
 20
18.73381314132666
 10
-41.86040323412226
 20
18.63735796860669
 10
-42.01048226908142
 20
18.52786831308663
 10
-42.14504157985311
 20
18.40864624374274
 10
-42.26510654575167
 20
18.27986555367874
 10
-42.36938240815152
 20
18.14083107047872
 10
-42.45410654635134
 20
17.99527934587866
 10
-42.52579620175175
 20
17.8410379660786
 10
-42.57576171915161
 20
17.68027934487873
 10
-42.60834792615151
 20
17.5130034822788
 10
-42.61920999515178
 20
17.33921037827872
 10
-42.60834792615151
 20
17.16541727427875
 10
-42.57576171915161
 20
16.99814141167871
 10
-42.52362378795169
 20
16.83738279047861
 10
-42.45193413255174
 20
16.68096899687873
 10
-42.36503758055142
 20
16.53324485847872
 10
-42.25619095951651
 20
16.39368899596673
 10
-42.13633454534283
 20
16.2633441679668
 10
-41.99990695870247
 20
16.14203658137467
 10
-41.85234792375149
 20
16.03141727067873
 10
-41.69158930255162
 20
15.93365864967859
 10
-41.51779619855142
 20
15.84893451147877
 10
-41.33314102555141
 20
15.77507244227877
 10
-41.1419686111517
 20
15.71858968347874
 10
-40.94210654155131
 20
15.6751414074788
 10
-40.73572723055121
 20
15.65124485567867
 10
-40.52283067815142
 20
15.64255520047868
 10
-39.31279619155157
 20
15.64255520047879
 10
-39.31279619155157
 20
16.50065865147871
 10
-40.54672722995156
 20
16.50065865147871
 10
-40.68037412692729
 20
16.51099934116667
 10
-40.81263067907139
 20
16.53298416882285
 10
-40.93324309324771
 20
16.56730830686274
 10
-41.04924999016748
 20
16.61527520356685
 10
-41.15891343879184
 20
16.67618968651879
 10
-41.2559768873757
 20
16.74379520397474
 10
-41.34339481868756
 20
16.82356623871078
 10
-41.41786516375169
 20
16.90907244587879
 10
-39.31279619155157
 20
16.90907244587879
 10
-39.31279619155157
 20
17.73676210367876
 10
-41.45479619835168
 20
17.73676210367876
 10
-41.38527895675133
 20
17.83452072467867
 10
-41.29838240475192
 20
17.92358969047859
 10
-41.19723481822347
 20
17.99988486313475
 10
-41.08983067995132
 20
18.06696900127872
 97
        0
 92
        7
 72
     0
 73
     1
 93
        6
 10
-39.0825203287518
 20
19.00762417667886
 10
-39.0825203287518
 20
15.6382103728788
 10
-36.84493411475114
 20
15.63821037287892
 10
-36.84493411475159
 20
16.50500347907893
 10
-38.05931342895155
 20
16.50500347907893
 10
-38.05931342895155
 20
19.00762417667886
 97
        0
 92
        7
 72
     0
 73
     1
 93
        8
 10
-37.82686515235173
 20
19.00762417667886
 10
-37.82686515235173
 20
18.18210693267883
 10
-36.59293411395129
 20
18.18210693267895
 10
-36.59293411395129
 20
15.63169313147887
 10
-35.56755480035145
 20
15.63169313147887
 10
-35.56755480035145
 20
18.18210693267883
 10
-34.3249341067517
 20
18.18210693267895
 10
-34.3249341067517
 20
19.00762417667897
 97
        0
 75
     0
 76
     1
 47
0.0142553043587597
 98
        5
 10
-47.93962863987644
 20
18.56517450708941
 10
-45.67213142653372
 20
18.42262152208377
 10
-41.1799196943325
 20
18.47964269463159
 10
-38.45607061050078
 20
18.72198291932398
 10
-37.04423262827413
 20
18.62219578691065
450
        0
451
        0
460
0.0
461
0.0
452
        0
462
0.0
453
        0
470

  0
LWPOLYLINE
  5
76C9
330
7691
100
AcDbEntity
  8
LW 5015-32-00
 62
     1
100
AcDbPolyline
 90
        8
 70
     1
 43
0.0
 10
-35.56755480035145
 20
18.18210693267883
 10
-35.56755480035145
 20
15.63169313147887
 10
-36.59293411395129
 20
15.63169313147887
 10
-36.59293411395129
 20
18.18210693267895
 10
-37.82686515235173
 20
18.18210693267883
 10
-37.82686515235173
 20
19.00762417667886
 10
-34.3249341067517
 20
19.00762417667897
 10
-34.3249341067517
 20
18.18210693267895
  0
LWPOLYLINE
  5
76CA
330
7691
100
AcDbEntity
  8
LW 5015-32-00
 62
     1
100
AcDbPolyline
 90
       73
 70
     1
 43
0.0
 10
-45.26955483115171
 20
16.50500347907859
 10
-44.25286517275162
 20
16.50500347907859
 10
-43.36652034235157
 20
15.63169313147864
 10
-45.26955483115171
 20
15.63169313147853
 10
-45.48027896975145
 20
15.64038278667863
 10
-45.6888306945516
 20
15.66645175227859
 10
-45.88563400552129
 20
15.71016071793451
 10
-46.07986517855124
 20
15.7642103732785
 10
-46.2623479377512
 20
15.83590002867856
 10
-46.43396862795134
 20
15.9206241668785
 10
-46.59250269742051
 20
16.01899106374253
 10
-46.74462380135127
 20
16.12700347787859
 10
-46.87691511211641
 20
16.24631244377451
 10
-46.99492062973241
 20
16.37535382349449
 10
-47.10030007834257
 20
16.51482278945457
 10
-47.19214104415141
 20
16.66358968647853
 10
-47.26165828575131
 20
16.81783106627859
 10
-47.31379621695168
 20
16.97858968747857
 10
-47.34638242395158
 20
17.1458655500785
 10
-47.35724449295185
 20
17.31748624027853
 10
-47.34638242395158
 20
17.49345175807843
 10
-47.31379621695168
 20
17.66072762067847
 10
-47.25948587195171
 20
17.82148624187857
 10
-47.1877962165513
 20
17.97572762167851
 10
-47.09655483695178
 20
18.12345176007852
 10
-46.98793414695183
 20
18.26248624327854
 10
-46.86294214655482
 20
18.39300486438264
 10
-46.72724449095176
 20
18.51231383027857
 10
-46.57517552495164
 20
18.62093452027852
 10
-46.40961152442605
 20
18.71738969299849
 10
-46.23845138595197
 20
18.80341727947848
 10
-46.05162379915191
 20
18.87510693487854
 10
-45.85827897095168
 20
18.93158969367869
 10
-45.6538461427167
 20
18.97138831449456
 10
-45.44712793516374
 20
18.99684900423062
 10
-45.23914103795187
 20
19.00762417667852
 10
-41.80020999255157
 20
19.00762417667875
 10
-43.48165827375169
 20
17.37396899907867
 10
-41.76762378555167
 20
15.63169313147864
 10
-43.08627896215148
 20
15.63169313147864
 10
-44.85245138155142
 20
17.35007244727876
 10
-44.00520999955142
 20
18.16472762227863
 10
-45.27389965875181
 20
18.16472762227863
 10
-45.39796186604189
 20
18.15951382915853
 10
-45.52082490091516
 20
18.14143934634251
 10
-45.64116793577932
 20
18.1108517600386
 10
-45.75770490166678
 20
18.06801175990244
 10
-45.84172517779598
 20
18.02586693218257
 10
-45.91802035045157
 20
17.98154969066263
 10
-45.95826214368253
 20
17.95435106988657
 10
-45.99577538518087
 20
17.92341589737452
 10
-46.10669014415407
 20
17.81496900047853
 10
-46.16976835125069
 20
17.73693589678248
 10
-46.21129621345153
 20
17.66906968967055
 10
-46.25494435152131
 20
17.5703552065986
 10
-46.27315786882036
 20
17.50865865467858
 10
-46.28531469644485
 20
17.44548486137455
 10
-46.2913192481883
 20
17.38335382669459
 10
-46.29267483439934
 20
17.32104899891055
 10
-46.28515828265153
 20
17.23171934345464
 10
-46.26445952396489
 20
17.14456210179855
 10
-46.23503635145789
 20
17.06314003257455
 10
-46.1956722134023
 20
16.98597589439851
 10
-46.14696669600607
 20
16.91341727347856
 10
-46.09190035100346
 20
16.84555106636662
 10
-46.01829897145989
 20
16.77551244545452
 10
-45.88573828138351
 20
16.67618968651868
 10
-45.83205359155772
 20
16.64360347951856
 10
-45.77591841896583
 20
16.61544899667058
 10
-45.67442324623016
 20
16.57452072067849
 10
-45.55730407344436
 20
16.5401965826386
 10
-45.43716959030416
 20
16.5187331342945
 10
-45.33622186584625
 20
16.50875077201795
  0
LWPOLYLINE
  5
76CB
330
7691
100
AcDbEntity
  8
LW 5015-32-00
 62
     1
100
AcDbPolyline
 90
       76
 70
     1
 43
0.0
 10
-46.47971808121792
 20
18.84675418464951
 10
-46.65510503458245
 20
18.74457630282779
 10
-46.81877383066466
 20
18.6276700199121
 10
-46.964793737126
 20
18.49928545819875
 10
-47.09927181233843
 20
18.35886132793621
 10
-47.21742993657016
 20
18.20761892892028
 10
-47.24928876594276
 20
18.15603796707853
 10
-48.33917553055153
 20
18.15603796707853
 10
-48.48255484135143
 20
18.14952072567848
 10
-48.61941691075163
 20
18.12996900147846
 10
-48.74186284217512
 20
18.09790417379042
 10
-48.86055484255166
 20
18.05393451847851
 10
-48.9631536014981
 20
17.99562693208645
 10
-49.05824449835154
 20
17.92576210427842
 10
-49.14079622275176
 20
17.84321037987843
 10
-49.21031346435166
 20
17.74762417267846
 10
-47.43967494673234
 20
17.74762417267846
 10
-47.45627364940719
 20
17.6984920127602
 10
-47.49257937108268
 20
17.51212264149353
 10
-47.50460104351214
 20
17.31737154813868
 10
-47.49255739072987
 20
17.12708183418795
 10
-47.45644558276535
 20
16.94170788663689
 10
-47.44586111549279
 20
16.90907244587856
 10
-49.1733824297512
 20
16.90907244587845
 10
-49.1016927743517
 20
16.8243483076784
 10
-49.01151153268575
 20
16.74640210053439
 10
-48.91336187720162
 20
16.67879658307845
 10
-48.80841691135128
 20
16.62231382427853
 10
-48.69327897995162
 20
16.57669313447854
 10
-48.56510656575165
 20
16.54375934127051
 10
-48.43435332395711
 20
16.52342554810252
 10
-48.30224449595153
 20
16.51586554807841
 10
-47.27378142903126
 20
16.51586554807852
 10
-47.22181019758273
 20
16.43168090597419
 10
-47.10810484283911
 20
16.28119266126168
 10
-46.98066894935482
 20
16.14183897803309
 10
-46.83675658098445
 20
16.0120493814934
 10
-46.67392368622404
 20
15.89643114306773
 10
-46.50545728005408
 20
15.79190145013626
 10
-46.32189313625121
 20
15.70128117661352
 10
-46.161349272199
 20
15.63821037287857
 10
-48.28052035795145
 20
15.63821037287835
 10
-48.49124449655164
 20
15.64690002807845
 10
-48.69979622135133
 20
15.67296899367852
 10
-48.89965829095172
 20
15.71641726967846
 10
-49.09083070535143
 20
15.77290002847837
 10
-49.27147994730467
 20
15.84658830457442
 10
-49.44710656855159
 20
15.93148623587854
 10
-49.60786518975146
 20
16.02924485687845
 10
-49.75520959021924
 20
16.13969037447043
 10
-49.89140863892726
 20
16.26082416795839
 10
-50.01410657035148
 20
16.39203796147842
 10
-50.12055484655184
 20
16.53324485847838
 10
-50.20962381235176
 20
16.68096899687839
 10
-50.27914105395166
 20
16.83738279047839
 10
-50.33345139895164
 20
16.99814141167837
 10
-50.36386519215148
 20
17.16541727427852
 10
-50.37472726115129
 20
17.33921037827838
 10
-50.36603760595198
 20
17.51300348227835
 10
-50.33779622655174
 20
17.67810693107844
 10
-50.28783070915188
 20
17.83886555227832
 10
-50.22483070895169
 20
17.99310693207837
 10
-50.14227898455146
 20
18.13865865667844
 10
-50.04226105319958
 20
18.27586831228643
 10
-49.93099610112222
 20
18.40412762303845
 10
-49.80555484555179
 20
18.52317589927838
 10
-49.66284724509887
 20
18.6298848651345
 10
-49.51227898255138
 20
18.72521038267848
 10
-49.34500311995134
 20
18.80776210707836
 10
-49.16903760215155
 20
18.87727934867848
 10
-48.98438242915154
 20
18.93158969367846
 10
-48.78886518715171
 20
18.97286555587857
 10
-48.58683070375173
 20
18.99893452147853
 10
-48.37393415135148
 20
19.00762417667852
 10
-46.1167962131517
 20
19.00762417667863
 10
-46.29796514861709
 20
18.9381058642324
  0
LWPOLYLINE
  5
76CC
330
7691
100
AcDbEntity
  8
LW 5015-32-00
 62
     1
100
AcDbPolyline
 90
        6
 70
     1
 43
0.0
 10
-36.84493411475114
 20
15.63821037287892
 10
-39.0825203287518
 20
15.6382103728788
 10
-39.0825203287518
 20
19.00762417667886
 10
-38.05931342895155
 20
19.00762417667886
 10
-38.05931342895155
 20
16.50500347907893
 10
-36.84493411475159
 20
16.50500347907893
  0
LWPOLYLINE
  5
76CD
330
7691
100
AcDbEntity
  8
LW 5015-32-00
 62
     1
100
AcDbPolyline
 90
       57
 70
     1
 43
0.0
 10
-42.13633454534283
 20
16.2633441679668
 10
-42.25619095951651
 20
16.39368899596661
 10
-42.36503758055142
 20
16.53324485847861
 10
-42.45193413255174
 20
16.68096899687873
 10
-42.52362378795169
 20
16.83738279047861
 10
-42.57576171915161
 20
16.99814141167871
 10
-42.60834792615151
 20
17.16541727427875
 10
-42.61920999515178
 20
17.33921037827872
 10
-42.60834792615151
 20
17.51300348227869
 10
-42.57576171915161
 20
17.68027934487873
 10
-42.52579620175175
 20
17.8410379660786
 10
-42.45410654635134
 20
17.99527934587877
 10
-42.36938240815152
 20
18.14083107047861
 10
-42.26510654575167
 20
18.27986555367874
 10
-42.14504157985311
 20
18.40864624374262
 10
-42.01048226908142
 20
18.52786831308663
 10
-41.86040323412226
 20
18.63735796860669
 10
-41.70158240603131
 20
18.73381314132678
 10
-41.53517550895185
 20
18.8164517622788
 10
-41.35052033595139
 20
18.88814141767875
 10
-41.16152033535172
 20
18.94245176267873
 10
-40.96383067955184
 20
18.98372762487872
 10
-40.75745136855175
 20
19.01196900427874
 10
-40.54672722995156
 20
19.02065865947873
 10
-39.31279619155157
 20
19.02065865947884
 10
-39.31279619155157
 20
18.19514141547881
 10
-40.55324447135126
 20
18.1951414154787
 10
-40.69662378215162
 20
18.18645176027871
 10
-40.83131343775176
 20
18.1593400360548
 10
-40.96278792092789
 20
18.11936762213474
 10
-41.08983067995132
 20
18.06696900127872
 10
-41.19723481822347
 20
17.99988486313475
 10
-41.29838240475192
 20
17.92358969047882
 10
-41.38527895675133
 20
17.83452072467867
 10
-41.45479619835168
 20
17.73676210367876
 10
-39.31279619155157
 20
17.73676210367876
 10
-39.31279619155157
 20
16.90907244587879
 10
-41.41786516375169
 20
16.90907244587879
 10
-41.34339481868756
 20
16.82356623871078
 10
-41.2559768873757
 20
16.74379520397474
 10
-41.15891343879184
 20
16.67618968651879
 10
-41.04924999016748
 20
16.61527520356685
 10
-40.93324309324771
 20
16.56730830686274
 10
-40.81263067907139
 20
16.53298416882285
 10
-40.68037412692729
 20
16.51099934116667
 10
-40.54672722995156
 20
16.50065865147871
 10
-39.31279619155157
 20
16.50065865147871
 10
-39.31279619155157
 20
15.64255520047879
 10
-40.52283067815142
 20
15.64255520047868
 10
-40.73572723055121
 20
15.65124485567867
 10
-40.94210654155131
 20
15.6751414074788
 10
-41.1419686111517
 20
15.71858968347874
 10
-41.33314102555141
 20
15.77507244227877
 10
-41.51779619855142
 20
15.84893451147877
 10
-41.69158930255162
 20
15.93365864967882
 10
-41.85234792375149
 20
16.03141727067873
 10
-41.99990695870247
 20
16.14203658137467
  0
INSERT
  5
76CE
330
7691
100
AcDbEntity
  8
LW 5015-32-00
100
AcDbBlockReference
 66
     1
  2
insertpoint-ECKELT
 10
-0.0000000000004547
 20
0.0
 30
0.0
  0
ATTRIB
  5
76CF
330
76CE
100
AcDbEntity
  8
insertpoint_ECKELT
100
AcDbText
 10
-6.931514324693314
 20
0.0
 30
0.0
 40
0.6
  1
LW 5015/32-00
 72
     2
 11
-1.200000000000272
 21
0.0
 31
0.0
100
AcDbAttribute
  2
LINKS
 70
     0
  0
ATTRIB
  5
76D0
330
76CE
100
AcDbEntity
  8
insertpoint_ECKELT
100
AcDbText
 10
1.199999999999363
 20
0.0
 30
0.0
 40
0.6
  1

100
AcDbAttribute
  2
RECHTS
 70
     0
  0
SEQEND
  5
76D1
330
76CE
100
AcDbEntity
  8
LW 5015-32-00
  0
LINE
  5
76D2
330
7691
100
AcDbEntity
  8
LW 5015-32-00
100
AcDbLine
 10
-10.09999999999218
 20
5.500000000003012
 30
0.0
 11
-10.0999999999924
 21
-12.49999999999701
 31
0.0
  0
POLYLINE
  5
76D3
330
7691
100
AcDbEntity
  8
LW 5015-32-00
100
AcDb2dPolyline
 66
     1
 10
0.0
 20
0.0
 30
0.0
 70
   128
  0
VERTEX
  5
76D4
330
76D3
100
AcDbEntity
  8
LW 5015-32-00
100
AcDbVertex
100
AcDb2dVertex
 10
-10.10000228881063
 20
5.500000007453593
 30
0.0
  0
VERTEX
  5
76D5
330
76D3
100
AcDbEntity
  8
LW 5015-32-00
100
AcDbVertex
100
AcDb2dVertex
 10
-10.07782459258214
 20
6.152630448344325
 30
0.0
  0
VERTEX
  5
76D6
330
76D3
100
AcDbEntity
  8
LW 5015-32-00
100
AcDbVertex
100
AcDb2dVertex
 10
-10.01159191130773
 20
6.810174882414912
 30
0.0
  0
VERTEX
  5
76D7
330
76D3
100
AcDbEntity
  8
LW 5015-32-00
100
AcDbVertex
100
AcDb2dVertex
 10
-9.901742935172023
 20
7.467362880709742
 30
0.0
  0
VERTEX
  5
76D8
330
76D3
100
AcDbEntity
  8
LW 5015-32-00
100
AcDbVertex
100
AcDb2dVertex
 10
-9.748716354361476
 20
8.118924200537719
 30
0.0
  0
VERTEX
  5
76D9
330
76D3
100
AcDbEntity
  8
LW 5015-32-00
100
AcDbVertex
100
AcDb2dVertex
 10
-9.552946090689147
 20
8.759588897231083
 30
0.0
  0
VERTEX
  5
76DA
330
76D3
100
AcDbEntity
  8
LW 5015-32-00
100
AcDbVertex
100
AcDb2dVertex
 10
-9.314870834341263
 20
9.384086430075569
 30
0.0
  0
VERTEX
  5
76DB
330
76D3
100
AcDbEntity
  8
LW 5015-32-00
100
AcDbVertex
100
AcDb2dVertex
 10
-9.035677909841524
 20
9.987690150740434
 30
0.0
  0
VERTEX
  5
76DC
330
76D3
100
AcDbEntity
  8
LW 5015-32-00
100
AcDbVertex
100
AcDb2dVertex
 10
-8.718976974477754
 20
10.56716978550213
 30
0.0
  0
VERTEX
  5
76DD
330
76D3
100
AcDbEntity
  8
LW 5015-32-00
100
AcDbVertex
100
AcDb2dVertex
 10
-8.368849754323719
 20
11.11950039863831
 30
0.0
  0
VERTEX
  5
76DE
330
76D3
100
AcDbEntity
  8
LW 5015-32-00
100
AcDbVertex
100
AcDb2dVertex
 10
-7.989382743825444
 20
11.64165675640339
 30
0.0
  0
VERTEX
  5
76DF
330
76D3
100
AcDbEntity
  8
LW 5015-32-00
100
AcDbVertex
100
AcDb2dVertex
 10
-7.584662437428733
 20
12.13061451912148
 30
0.0
  0
VERTEX
  5
76E0
330
76D3
100
AcDbEntity
  8
LW 5015-32-00
100
AcDbVertex
100
AcDb2dVertex
 10
-7.15876579283622
 20
12.58334755897732
 30
0.0
  0
VERTEX
  5
76E1
330
76D3
100
AcDbEntity
  8
LW 5015-32-00
100
AcDbVertex
100
AcDb2dVertex
 10
-6.705121994007868
 20
13.00724446773728
 30
0.0
  0
VERTEX
  5
76E2
330
76D3
100
AcDbEntity
  8
LW 5015-32-00
100
AcDbVertex
100
AcDb2dVertex
 10
-6.216325759876781
 20
13.40922176838103
 30
0.0
  0
VERTEX
  5
76E3
330
76D3
100
AcDbEntity
  8
LW 5015-32-00
100
AcDbVertex
100
AcDb2dVertex
 10
-5.695304870594554
 20
13.78546059131787
 30
0.0
  0
VERTEX
  5
76E4
330
76D3
100
AcDbEntity
  8
LW 5015-32-00
100
AcDbVertex
100
AcDb2dVertex
 10
-5.1449871063121
 20
14.13214206695704
 30
0.0
  0
VERTEX
  5
76E5
330
76D3
100
AcDbEntity
  8
LW 5015-32-00
100
AcDbVertex
100
AcDb2dVertex
 10
-4.568305015552596
 20
14.44544792175423
 30
0.0
  0
VERTEX
  5
76E6
330
76D3
100
AcDbEntity
  8
LW 5015-32-00
100
AcDbVertex
100
AcDb2dVertex
 10
-3.968186378467635
 20
14.72155869007224
 30
0.0
  0
VERTEX
  5
76E7
330
76D3
100
AcDbEntity
  8
LW 5015-32-00
100
AcDbVertex
100
AcDb2dVertex
 10
-3.347783088672485
 20
14.95777785778136
 30
0.0
  0
VERTEX
  5
76E8
330
76D3
100
AcDbEntity
  8
LW 5015-32-00
100
AcDbVertex
100
AcDb2dVertex
 10
-2.711348533618547
 20
15.15290260315015
 30
0.0
  0
VERTEX
  5
76E9
330
76D3
100
AcDbEntity
  8
LW 5015-32-00
100
AcDbVertex
100
AcDb2dVertex
 10
-2.063431739795305
 20
15.3053522109991
 30
0.0
  0
VERTEX
  5
76EA
330
76D3
100
AcDbEntity
  8
LW 5015-32-00
100
AcDbVertex
100
AcDb2dVertex
 10
-1.408705711352922
 20
15.4138541221622
 30
0.0
  0
VERTEX
  5
76EB
330
76D3
100
AcDbEntity
  8
LW 5015-32-00
100
AcDbVertex
100
AcDb2dVertex
 10
-0.7524204254032157
 20
15.47855496406572
 30
0.0
  0
VERTEX
  5
76EC
330
76D3
100
AcDbEntity
  8
LW 5015-32-00
100
AcDbVertex
100
AcDb2dVertex
 10
-0.1000022888065359
 20
15.49999952316284
 30
0.0
  0
SEQEND
  5
76ED
330
76D3
100
AcDbEntity
  8
LW 5015-32-00
  0
POLYLINE
  5
76EE
330
7691
100
AcDbEntity
  8
LW 5015-32-00
100
AcDb2dPolyline
 66
     1
 10
0.0
 20
0.0
 30
0.0
 70
   128
  0
VERTEX
  5
76EF
330
76EE
100
AcDbEntity
  8
LW 5015-32-00
100
AcDbVertex
100
AcDb2dVertex
 10
0.1000022888301828
 20
15.49999952316278
 30
0.0
  0
VERTEX
  5
76F0
330
76EE
100
AcDbEntity
  8
LW 5015-32-00
100
AcDbVertex
100
AcDb2dVertex
 10
0.7524204254268625
 20
15.47855496406526
 30
0.0
  0
VERTEX
  5
76F1
330
76EE
100
AcDbEntity
  8
LW 5015-32-00
100
AcDbVertex
100
AcDb2dVertex
 10
1.408705711376569
 20
15.41385412216141
 30
0.0
  0
VERTEX
  5
76F2
330
76EE
100
AcDbEntity
  8
LW 5015-32-00
100
AcDbVertex
100
AcDb2dVertex
 10
2.063431739818952
 20
15.30535221099791
 30
0.0
  0
VERTEX
  5
76F3
330
76EE
100
AcDbEntity
  8
LW 5015-32-00
100
AcDbVertex
100
AcDb2dVertex
 10
2.711348533641967
 20
15.15290260314856
 30
0.0
  0
VERTEX
  5
76F4
330
76EE
100
AcDbEntity
  8
LW 5015-32-00
100
AcDbVertex
100
AcDb2dVertex
 10
3.34778308869545
 20
14.95777785777943
 30
0.0
  0
VERTEX
  5
76F5
330
76EE
100
AcDbEntity
  8
LW 5015-32-00
100
AcDbVertex
100
AcDb2dVertex
 10
3.968186378490372
 20
14.72155869006991
 30
0.0
  0
VERTEX
  5
76F6
330
76EE
100
AcDbEntity
  8
LW 5015-32-00
100
AcDbVertex
100
AcDb2dVertex
 10
4.568305015575333
 20
14.44544792175151
 30
0.0
  0
VERTEX
  5
76F7
330
76EE
100
AcDbEntity
  8
LW 5015-32-00
100
AcDbVertex
100
AcDb2dVertex
 10
5.144987106334156
 20
14.13214206695397
 30
0.0
  0
VERTEX
  5
76F8
330
76EE
100
AcDbEntity
  8
LW 5015-32-00
100
AcDbVertex
100
AcDb2dVertex
 10
5.695304870616382
 20
13.78546059131452
 30
0.0
  0
VERTEX
  5
76F9
330
76EE
100
AcDbEntity
  8
LW 5015-32-00
100
AcDbVertex
100
AcDb2dVertex
 10
6.216325759898381
 20
13.40922176837733
 30
0.0
  0
VERTEX
  5
76FA
330
76EE
100
AcDbEntity
  8
LW 5015-32-00
100
AcDbVertex
100
AcDb2dVertex
 10
6.705121994029013
 20
13.0072444677333
 30
0.0
  0
VERTEX
  5
76FB
330
76EE
100
AcDbEntity
  8
LW 5015-32-00
100
AcDbVertex
100
AcDb2dVertex
 10
7.158765792856911
 20
12.58334755897306
 30
0.0
  0
VERTEX
  5
76FC
330
76EE
100
AcDbEntity
  8
LW 5015-32-00
100
AcDbVertex
100
AcDb2dVertex
 10
7.584662437448969
 20
12.13061451911699
 30
0.0
  0
VERTEX
  5
76FD
330
76EE
100
AcDbEntity
  8
LW 5015-32-00
100
AcDbVertex
100
AcDb2dVertex
 10
7.989382743845226
 20
11.64165675639861
 30
0.0
  0
VERTEX
  5
76FE
330
76EE
100
AcDbEntity
  8
LW 5015-32-00
100
AcDbVertex
100
AcDb2dVertex
 10
8.368849754343045
 20
11.11950039863336
 30
0.0
  0
VERTEX
  5
76FF
330
76EE
100
AcDbEntity
  8
LW 5015-32-00
100
AcDbVertex
100
AcDb2dVertex
 10
8.718976974496854
 20
10.5671697854969
 30
0.0
  0
VERTEX
  5
7700
330
76EE
100
AcDbEntity
  8
LW 5015-32-00
100
AcDbVertex
100
AcDb2dVertex
 10
9.035677909860396
 20
9.987690150735033
 30
0.0
  0
VERTEX
  5
7701
330
76EE
100
AcDbEntity
  8
LW 5015-32-00
100
AcDbVertex
100
AcDb2dVertex
 10
9.31487083435968
 20
9.384086430069999
 30
0.0
  0
VERTEX
  5
7702
330
76EE
100
AcDbEntity
  8
LW 5015-32-00
100
AcDbVertex
100
AcDb2dVertex
 10
9.552946090706882
 20
8.759588897225398
 30
0.0
  0
VERTEX
  5
7703
330
76EE
100
AcDbEntity
  8
LW 5015-32-00
100
AcDbVertex
100
AcDb2dVertex
 10
9.748716354378757
 20
8.118924200531921
 30
0.0
  0
VERTEX
  5
7704
330
76EE
100
AcDbEntity
  8
LW 5015-32-00
100
AcDbVertex
100
AcDb2dVertex
 10
9.901742935188849
 20
7.467362880703888
 30
0.0
  0
VERTEX
  5
7705
330
76EE
100
AcDbEntity
  8
LW 5015-32-00
100
AcDbVertex
100
AcDb2dVertex
 10
10.0115919113241
 20
6.810174882408944
 30
0.0
  0
VERTEX
  5
7706
330
76EE
100
AcDbEntity
  8
LW 5015-32-00
100
AcDbVertex
100
AcDb2dVertex
 10
10.07782459259806
 20
6.152630448338356
 30
0.0
  0
VERTEX
  5
7707
330
76EE
100
AcDbEntity
  8
LW 5015-32-00
100
AcDbVertex
100
AcDb2dVertex
 10
10.10000228882609
 20
5.500000007447567
 30
0.0
  0
SEQEND
  5
7708
330
76EE
100
AcDbEntity
  8
LW 5015-32-00
  0
LINE
  5
7709
330
7691
100
AcDbEntity
  8
LW 5015-32-00
100
AcDbLine
 10
10.10000000000707
 20
-12.50000000000298
 30
0.0
 11
10.10000000000764
 21
5.499999999997044
 31
0.0
  0
LINE
  5
770A
330
7691
100
AcDbEntity
  8
LW 5015-32-00
  6
MITTE2
 62
     3
100
AcDbLine
 10
-80.5415240363186
 20
5.000000000023874
 30
0.0
 11
37.06495985655966
 21
4.999999999989086
 31
0.0
  0
ENDBLK
  5
7693
330
7691
100
AcDbEntity
  8
0
100
AcDbBlockEnd
  0
BLOCK
  5
770D
330
770C
100
AcDbEntity
  8
0
100
AcDbBlockBegin
  2
LW 5015-32-00_d
 70
     0
 10
0.0
 20
0.0
 30
0.0
  3
LW 5015-32-00_d
  1

  0
LINE
  5
770F
330
770C
100
AcDbEntity
  8
LW 5015-32-00
  6
VERDECKT
 62
     6
100
AcDbLine
 10
-7.334936490575273
 20
17.70448267190204
 30
0.0
 11
-11.66506350949703
 21
15.2044826719009
 31
0.0
  0
LINE
  5
7710
330
770C
100
AcDbEntity
  8
LW 5015-32-00
  6
VERDECKT
 62
     6
100
AcDbLine
 10
-11.66506350948793
 20
-15.20448267190795
 30
0.0
 11
-7.334936490564814
 21
-17.70448267190659
 31
0.0
  0
LINE
  5
7711
330
770C
100
AcDbEntity
  8
LW 5015-32-00
  6
VERDECKT
 62
     6
100
AcDbLine
 10
-8.748924226251347
 20
15.1535812713729
 30
0.0
 11
-7.334936490575273
 21
17.70448267190204
 31
0.0
  0
LINE
  5
7712
330
770C
100
AcDbEntity
  8
LW 5015-32-00
  6
VERDECKT
 62
     6
100
AcDbLine
 10
-8.748924226251347
 20
15.1535812713729
 30
0.0
 11
-11.66506350949703
 21
15.2044826719009
 31
0.0
  0
LINE
  5
7713
330
770C
100
AcDbEntity
  8
LW 5015-32-00
  6
VERDECKT
 62
     6
100
AcDbLine
 10
-14.60240647333103
 20
20.29210992451317
 30
0.0
 11
-11.66506350949703
 21
15.20448267190068
 31
0.0
  0
LINE
  5
7714
330
770C
100
AcDbEntity
  8
LW 5015-32-00
  6
VERDECKT
 62
     6
100
AcDbLine
 10
-10.27227945440972
 20
22.79210992451453
 30
0.0
 11
-7.334936490575273
 21
17.70448267190204
 31
0.0
  0
LINE
  5
7715
330
770C
100
AcDbEntity
  8
LW 5015-32-00
  6
VERDECKT
 62
     6
100
AcDbLine
 10
-8.748924226242252
 20
-15.15358127137824
 30
0.0
 11
-11.66506350948793
 21
-15.20448267190795
 31
0.0
  0
LINE
  5
7716
330
770C
100
AcDbEntity
  8
LW 5015-32-00
  6
VERDECKT
 62
     6
100
AcDbLine
 10
-8.748924226242252
 20
-15.15358127137824
 30
0.0
 11
-7.334936490564814
 21
-17.70448267190659
 31
0.0
  0
LINE
  5
7717
330
770C
100
AcDbEntity
  8
LW 5015-32-00
  6
VERDECKT
 62
     6
100
AcDbLine
 10
-10.27227945439608
 20
-22.79210992452068
 30
0.0
 11
-7.334936490564814
 21
-17.70448267190659
 31
0.0
  0
LINE
  5
7718
330
770C
100
AcDbEntity
  8
LW 5015-32-00
  6
VERDECKT
 62
     6
100
AcDbLine
 10
-14.6024064733192
 20
-20.29210992452204
 30
0.0
 11
-11.66506350948793
 21
-15.20448267190795
 31
0.0
  0
LINE
  5
7719
330
770C
100
AcDbEntity
  8
LW 5015-32-00
  6
VERDECKT
 62
     6
100
AcDbLine
 10
18.99999999996953
 20
-2.499999999994543
 30
0.0
 11
18.99999999996817
 21
2.500000000005456
 31
0.0
  0
LINE
  5
771A
330
770C
100
AcDbEntity
  8
LW 5015-32-00
  6
VERDECKT
 62
     6
100
AcDbLine
 10
17.49784845239992
 20
0.0000000000051159
 30
0.0
 11
18.99999999996953
 21
-2.499999999994543
 31
0.0
  0
LINE
  5
771B
330
770C
100
AcDbEntity
  8
LW 5015-32-00
  6
VERDECKT
 62
     6
100
AcDbLine
 10
17.49784845239992
 20
0.0000000000051159
 30
0.0
 11
18.99999999996817
 21
2.500000000005456
 31
0.0
  0
LINE
  5
771C
330
770C
100
AcDbEntity
  8
LW 5015-32-00
  6
VERDECKT
 62
     6
100
AcDbLine
 10
24.87468592763344
 20
2.500000000007275
 30
0.0
 11
18.99999999996817
 21
2.500000000005456
 31
0.0
  0
LINE
  5
771D
330
770C
100
AcDbEntity
  8
LW 5015-32-00
  6
VERDECKT
 62
     6
100
AcDbLine
 10
24.8746859276348
 20
-2.499999999992724
 30
0.0
 11
18.99999999996953
 21
-2.499999999994543
 31
0.0
  0
ARC
  5
771E
330
770C
100
AcDbEntity
  8
LW 5015-32-00
100
AcDbCircle
 10
-0.0000000000300133
 20
0.0
 30
0.0
 40
25.0
100
AcDbArc
 50
143.1301023541742
 51
330.0000000000171
  0
ARC
  5
771F
330
770C
100
AcDbEntity
  8
LW 5015-32-00
100
AcDbCircle
 10
-0.0000000000300133
 20
0.0
 30
0.0
 40
25.0
100
AcDbArc
 50
64.1580672368493
 51
115.8419327631834
  0
ARC
  5
7720
330
770C
100
AcDbEntity
  8
LW 5015-32-00
100
AcDbCircle
 10
-0.0000000000281375
 20
-0.0000000000000568
 30
0.0
 40
18.99999999999993
100
AcDbArc
 50
221.1395104149165
 51
318.8604895851181
  0
CIRCLE
  5
7721
330
770C
100
AcDbEntity
  8
LW 5015-32-00
100
AcDbCircle
 10
-0.0000000000004547
 20
0.0
 30
0.0
 40
10.00000000000001
  0
CIRCLE
  5
7722
330
770C
100
AcDbEntity
  8
LW 5015-32-00
100
AcDbCircle
 10
0.0
 20
0.0
 30
0.0
 40
9.000000000000008
  0
ARC
  5
7723
330
770C
100
AcDbEntity
  8
LW 5015-32-00
  6
VERDECKT
 62
     6
100
AcDbCircle
 10
-0.0000000000304681
 20
0.0000000000002274
 30
0.0
 40
24.99999999999958
100
AcDbArc
 50
115.8419327631827
 51
143.1301023541742
  0
ARC
  5
7724
330
770C
100
AcDbEntity
  8
LW 5015-32-00
  6
VERDECKT
 62
     6
100
AcDbCircle
 10
-0.0000000000300133
 20
0.0
 30
0.0
 40
25.00000000000001
100
AcDbArc
 50
330.0000000000171
 51
64.1580672368493
  0
ARC
  5
7725
330
770C
100
AcDbEntity
  8
LW 5015-32-00
  6
VERDECKT
 62
     6
100
AcDbCircle
 10
-0.0000000000281943
 20
-0.0000000000000284
 30
0.0
 40
19.00000000000004
100
AcDbArc
 50
318.8604895851181
 51
221.1395104149165
  0
LINE
  5
7726
330
770C
100
AcDbEntity
  8
LW 5015-32-00
100
AcDbLine
 10
-10.10000000000718
 20
-2.000000000003069
 30
0.0
 11
-10.10000000000855
 21
1.999999999996816
 31
0.0
  0
LINE
  5
7727
330
770C
100
AcDbEntity
  8
LW 5015-32-00
100
AcDbLine
 10
10.09999999999127
 20
2.000000000002955
 30
0.0
 11
10.09999999999263
 21
-1.999999999997044
 31
0.0
  0
LINE
  5
7728
330
770C
100
AcDbEntity
  8
LW 5015-32-00
  6
VERDECKT
 62
     6
100
AcDbLine
 10
59.99999999999139
 20
-9.660108542720223
 30
0.0
 11
59.99999999998275
 21
19.66010854275575
 31
0.0
  0
ARC
  5
7729
330
770C
100
AcDbEntity
  8
LW 5015-32-00
  6
VERDECKT
 62
     6
100
AcDbCircle
 10
61.99999999999139
 20
-9.660108542719655
 30
0.0
 40
2.0
100
AcDbArc
 50
180.0
 51
199.2900462192125
  0
ARC
  5
772A
330
770C
100
AcDbEntity
  8
LW 5015-32-00
  6
VERDECKT
 62
     6
100
AcDbCircle
 10
61.99999999998275
 20
19.6601085427562
 30
0.0
 40
2.0
100
AcDbArc
 50
160.7099537808255
 51
180.0
  0
LINE
  5
772B
330
770C
100
AcDbEntity
  8
LW 5015-32-00
  6
VERDECKT
 62
     6
100
AcDbLine
 10
60.11228328725977
 20
-10.32080939217647
 30
0.0
 11
60.8749999999923
 21
-12.49999999998206
 31
0.0
  0
LINE
  5
772C
330
770C
100
AcDbEntity
  8
LW 5015-32-00
  6
VERDECKT
 62
     6
100
AcDbLine
 10
60.11228328725067
 20
20.32080939221188
 30
0.0
 11
60.87499999998184
 21
22.50000000001794
 31
0.0
  0
LINE
  5
772D
330
770C
100
AcDbEntity
  8
LW 5015-32-00
100
AcDbLine
 10
60.8749999999923
 20
-12.49999999998206
 30
0.0
 11
60.87499999998184
 21
22.50000000001794
 31
0.0
  0
LINE
  5
772E
330
770C
100
AcDbEntity
  8
LW 5015-32-00
100
AcDbLine
 10
-20.00000000000818
 20
-11.00000000000591
 30
0.0
 11
-20.00000000001774
 21
20.99999999999409
 31
0.0
  0
LINE
  5
772F
330
770C
100
AcDbEntity
  8
LW 5015-32-00
100
AcDbLine
 10
60.87499999998184
 20
22.50000000001794
 30
0.0
 11
-18.50000000001807
 21
22.49999999999454
 31
0.0
  0
LINE
  5
7730
330
770C
100
AcDbEntity
  8
LW 5015-32-00
100
AcDbLine
 10
60.8749999999923
 20
-12.49999999998206
 30
0.0
 11
10.09999999999201
 21
-12.49999999999701
 31
0.0
  0
LINE
  5
7731
330
770C
100
AcDbEntity
  8
LW 5015-32-00
100
AcDbLine
 10
-10.10000000000752
 20
-12.50000000000298
 30
0.0
 11
-18.50000000000773
 21
-12.50000000000546
 31
0.0
  0
ARC
  5
7732
330
770C
100
AcDbEntity
  8
LW 5015-32-00
100
AcDbCircle
 10
-18.50000000000818
 20
-11.00000000000545
 30
0.0
 40
1.500000000000012
100
AcDbArc
 50
180.0
 51
270.000000000013
  0
ARC
  5
7733
330
770C
100
AcDbEntity
  8
LW 5015-32-00
100
AcDbCircle
 10
-18.50000000001773
 20
20.99999999999454
 30
0.0
 40
1.500000000000012
100
AcDbArc
 50
90.00000000001303
 51
180.0
  0
LINE
  5
7734
330
770C
100
AcDbEntity
  8
LW 5015-32-00
100
AcDbLine
 10
76.99999999998865
 20
-0.7730999999771769
 30
0.0
 11
76.99999999998548
 21
10.77310000002282
 31
0.0
  0
LINE
  5
7735
330
770C
100
AcDbEntity
  8
LW 5015-32-00
100
AcDbLine
 10
75.7730999999849
 20
12.00000000002248
 30
0.0
 11
75.773099999989
 21
-1.999999999977518
 31
0.0
  0
LINE
  5
7736
330
770C
100
AcDbEntity
  8
LW 5015-32-00
100
AcDbLine
 10
76.99999999998548
 20
10.77310000002282
 30
0.0
 11
75.7730999999849
 21
12.00000000002248
 31
0.0
  0
LINE
  5
7737
330
770C
100
AcDbEntity
  8
LW 5015-32-00
100
AcDbLine
 10
76.99999999998865
 20
-0.7730999999771769
 30
0.0
 11
75.773099999989
 21
-1.999999999977518
 31
0.0
  0
LINE
  5
7738
330
770C
100
AcDbEntity
  8
LW 5015-32-00
100
AcDbLine
 10
75.7730999999849
 20
12.00000000002248
 30
0.0
 11
60.87499999998502
 21
12.00000000001793
 31
0.0
  0
LINE
  5
7739
330
770C
100
AcDbEntity
  8
LW 5015-32-00
100
AcDbLine
 10
75.773099999989
 20
-1.999999999977518
 30
0.0
 11
60.87499999998911
 21
-1.999999999982065
 31
0.0
  0
LINE
  5
773A
330
770C
100
AcDbEntity
  8
LW 5015-32-00
 62
     3
100
AcDbLine
 10
60.87499999998548
 20
10.79450000001802
 30
0.0
 11
76.97859999998539
 21
10.79450000002279
 31
0.0
  0
LINE
  5
773B
330
770C
100
AcDbEntity
  8
LW 5015-32-00
 62
     3
100
AcDbLine
 10
76.97859999998858
 20
-0.794499999977262
 30
0.0
 11
60.87499999998866
 21
-0.7944999999820368
 31
0.0
  0
ARC
  5
773C
330
770C
100
AcDbEntity
  8
LW 5015-32-00
  6
VERDECKT
 62
     6
100
AcDbCircle
 10
-0.000000000035925
 20
0.0
 30
0.0
 40
32.50000000000001
100
AcDbArc
 50
337.3801350519766
 51
43.81306146042019
  0
ARC
  5
773D
330
770C
100
AcDbEntity
  8
LW 5015-32-00
100
AcDbCircle
 10
-0.000000000035925
 20
0.0
 30
0.0
 40
32.5
100
AcDbArc
 50
43.81306146042019
 51
337.3801350519766
  0
LINE
  5
773E
330
770C
100
AcDbEntity
  8
LW 5015-32-00
100
AcDbLine
 10
60.87499999998184
 20
22.50000000001794
 30
0.0
 11
60.8749999999923
 21
-12.49999999998206
 31
0.0
  0
LINE
  5
773F
330
770C
100
AcDbEntity
  8
LW 5015-32-00
  6
MITTE2
 62
     3
100
AcDbLine
 10
-14.93734296387168
 20
25.87223694343527
 30
0.0
 11
-7.000000000035015
 21
12.12435565298006
 31
0.0
  0
LINE
  5
7740
330
770C
100
AcDbEntity
  8
LW 5015-32-00
  6
MITTE2
 62
     3
100
AcDbLine
 10
-14.93734296385628
 20
-25.87223694344425
 30
0.0
 11
-7.000000000027739
 21
-12.12435565298426
 31
0.0
  0
LINE
  5
7741
330
770C
100
AcDbEntity
  8
LW 5015-32-00
  6
MITTE2
 62
     3
100
AcDbLine
 10
38.9697068954581
 20
0.0000000000173657
 30
0.0
 11
-38.9697068954581
 21
-0.0000000000173941
 31
0.0
  0
LINE
  5
7742
330
770C
100
AcDbEntity
  8
LW 5015-32-00
  6
MITTE2
 62
     3
100
AcDbLine
 10
-0.0000000000063665
 20
22.6209724824912
 30
0.0
 11
0.0000000000068212
 21
-22.6209724824912
 31
0.0
  0
INSERT
  5
7743
330
770C
100
AcDbEntity
  8
LW 5015-32-00
100
AcDbBlockReference
 66
     1
  2
insertpoint-ECKELT
 10
0.0
 20
0.0
 30
0.0
 41
-1.0
  0
ATTRIB
  5
7744
330
7743
100
AcDbEntity
  8
insertpoint_ECKELT
100
AcDbText
 10
1.199999999999799
 20
0.0
 30
0.0
 40
0.6
  1
LW 5015/32-00
 72
     2
 11
6.931514324692841
 21
0.0
 31
0.0
100
AcDbAttribute
  2
LINKS
 70
     0
  0
ATTRIB
  5
7745
330
7743
100
AcDbEntity
  8
insertpoint_ECKELT
100
AcDbText
 10
-1.199999999999818
 20
0.0
 30
0.0
 40
0.6
  1

100
AcDbAttribute
  2
RECHTS
 70
     0
  0
SEQEND
  5
7746
330
7743
100
AcDbEntity
  8
LW 5015-32-00
  0
LINE
  5
7747
330
770C
100
AcDbEntity
  8
LW 5015-32-00
100
AcDbLine
 10
10.09999999999172
 20
5.500000000003012
 30
0.0
 11
10.09999999999195
 21
-12.49999999999701
 31
0.0
  0
POLYLINE
  5
7748
330
770C
100
AcDbEntity
  8
LW 5015-32-00
100
AcDb2dPolyline
 66
     1
 10
0.0
 20
0.0
 30
0.0
 70
   128
  0
VERTEX
  5
7749
330
7748
100
AcDbEntity
  8
LW 5015-32-00
100
AcDbVertex
100
AcDb2dVertex
 10
10.10000228881017
 20
5.500000007453593
 30
0.0
  0
VERTEX
  5
774A
330
7748
100
AcDbEntity
  8
LW 5015-32-00
100
AcDbVertex
100
AcDb2dVertex
 10
10.07782459258169
 20
6.152630448344325
 30
0.0
  0
VERTEX
  5
774B
330
7748
100
AcDbEntity
  8
LW 5015-32-00
100
AcDbVertex
100
AcDb2dVertex
 10
10.01159191130728
 20
6.810174882414912
 30
0.0
  0
VERTEX
  5
774C
330
7748
100
AcDbEntity
  8
LW 5015-32-00
100
AcDbVertex
100
AcDb2dVertex
 10
9.901742935171569
 20
7.467362880709742
 30
0.0
  0
VERTEX
  5
774D
330
7748
100
AcDbEntity
  8
LW 5015-32-00
100
AcDbVertex
100
AcDb2dVertex
 10
9.748716354361022
 20
8.118924200537719
 30
0.0
  0
VERTEX
  5
774E
330
7748
100
AcDbEntity
  8
LW 5015-32-00
100
AcDbVertex
100
AcDb2dVertex
 10
9.552946090688692
 20
8.759588897231083
 30
0.0
  0
VERTEX
  5
774F
330
7748
100
AcDbEntity
  8
LW 5015-32-00
100
AcDbVertex
100
AcDb2dVertex
 10
9.314870834340808
 20
9.384086430075569
 30
0.0
  0
VERTEX
  5
7750
330
7748
100
AcDbEntity
  8
LW 5015-32-00
100
AcDbVertex
100
AcDb2dVertex
 10
9.035677909841069
 20
9.987690150740434
 30
0.0
  0
VERTEX
  5
7751
330
7748
100
AcDbEntity
  8
LW 5015-32-00
100
AcDbVertex
100
AcDb2dVertex
 10
8.7189769744773
 20
10.56716978550213
 30
0.0
  0
VERTEX
  5
7752
330
7748
100
AcDbEntity
  8
LW 5015-32-00
100
AcDbVertex
100
AcDb2dVertex
 10
8.368849754323264
 20
11.11950039863831
 30
0.0
  0
VERTEX
  5
7753
330
7748
100
AcDbEntity
  8
LW 5015-32-00
100
AcDbVertex
100
AcDb2dVertex
 10
7.98938274382499
 20
11.64165675640339
 30
0.0
  0
VERTEX
  5
7754
330
7748
100
AcDbEntity
  8
LW 5015-32-00
100
AcDbVertex
100
AcDb2dVertex
 10
7.584662437428278
 20
12.13061451912148
 30
0.0
  0
VERTEX
  5
7755
330
7748
100
AcDbEntity
  8
LW 5015-32-00
100
AcDbVertex
100
AcDb2dVertex
 10
7.158765792835765
 20
12.58334755897732
 30
0.0
  0
VERTEX
  5
7756
330
7748
100
AcDbEntity
  8
LW 5015-32-00
100
AcDbVertex
100
AcDb2dVertex
 10
6.705121994007413
 20
13.00724446773728
 30
0.0
  0
VERTEX
  5
7757
330
7748
100
AcDbEntity
  8
LW 5015-32-00
100
AcDbVertex
100
AcDb2dVertex
 10
6.216325759876326
 20
13.40922176838103
 30
0.0
  0
VERTEX
  5
7758
330
7748
100
AcDbEntity
  8
LW 5015-32-00
100
AcDbVertex
100
AcDb2dVertex
 10
5.6953048705941
 20
13.78546059131787
 30
0.0
  0
VERTEX
  5
7759
330
7748
100
AcDbEntity
  8
LW 5015-32-00
100
AcDbVertex
100
AcDb2dVertex
 10
5.144987106311646
 20
14.13214206695704
 30
0.0
  0
VERTEX
  5
775A
330
7748
100
AcDbEntity
  8
LW 5015-32-00
100
AcDbVertex
100
AcDb2dVertex
 10
4.568305015552141
 20
14.44544792175423
 30
0.0
  0
VERTEX
  5
775B
330
7748
100
AcDbEntity
  8
LW 5015-32-00
100
AcDbVertex
100
AcDb2dVertex
 10
3.96818637846718
 20
14.72155869007224
 30
0.0
  0
VERTEX
  5
775C
330
7748
100
AcDbEntity
  8
LW 5015-32-00
100
AcDbVertex
100
AcDb2dVertex
 10
3.347783088672031
 20
14.95777785778136
 30
0.0
  0
VERTEX
  5
775D
330
7748
100
AcDbEntity
  8
LW 5015-32-00
100
AcDbVertex
100
AcDb2dVertex
 10
2.711348533618092
 20
15.15290260315015
 30
0.0
  0
VERTEX
  5
775E
330
7748
100
AcDbEntity
  8
LW 5015-32-00
100
AcDbVertex
100
AcDb2dVertex
 10
2.06343173979485
 20
15.3053522109991
 30
0.0
  0
VERTEX
  5
775F
330
7748
100
AcDbEntity
  8
LW 5015-32-00
100
AcDbVertex
100
AcDb2dVertex
 10
1.408705711352467
 20
15.4138541221622
 30
0.0
  0
VERTEX
  5
7760
330
7748
100
AcDbEntity
  8
LW 5015-32-00
100
AcDbVertex
100
AcDb2dVertex
 10
0.7524204254027609
 20
15.47855496406572
 30
0.0
  0
VERTEX
  5
7761
330
7748
100
AcDbEntity
  8
LW 5015-32-00
100
AcDbVertex
100
AcDb2dVertex
 10
0.1000022888060812
 20
15.49999952316284
 30
0.0
  0
SEQEND
  5
7762
330
7748
100
AcDbEntity
  8
LW 5015-32-00
  0
POLYLINE
  5
7763
330
770C
100
AcDbEntity
  8
LW 5015-32-00
100
AcDb2dPolyline
 66
     1
 10
0.0
 20
0.0
 30
0.0
 70
   128
  0
VERTEX
  5
7764
330
7763
100
AcDbEntity
  8
LW 5015-32-00
100
AcDbVertex
100
AcDb2dVertex
 10
-0.1000022888306375
 20
15.49999952316278
 30
0.0
  0
VERTEX
  5
7765
330
7763
100
AcDbEntity
  8
LW 5015-32-00
100
AcDbVertex
100
AcDb2dVertex
 10
-0.7524204254273173
 20
15.47855496406526
 30
0.0
  0
VERTEX
  5
7766
330
7763
100
AcDbEntity
  8
LW 5015-32-00
100
AcDbVertex
100
AcDb2dVertex
 10
-1.408705711377024
 20
15.41385412216141
 30
0.0
  0
VERTEX
  5
7767
330
7763
100
AcDbEntity
  8
LW 5015-32-00
100
AcDbVertex
100
AcDb2dVertex
 10
-2.063431739819407
 20
15.30535221099791
 30
0.0
  0
VERTEX
  5
7768
330
7763
100
AcDbEntity
  8
LW 5015-32-00
100
AcDbVertex
100
AcDb2dVertex
 10
-2.711348533642421
 20
15.15290260314856
 30
0.0
  0
VERTEX
  5
7769
330
7763
100
AcDbEntity
  8
LW 5015-32-00
100
AcDbVertex
100
AcDb2dVertex
 10
-3.347783088695905
 20
14.95777785777943
 30
0.0
  0
VERTEX
  5
776A
330
7763
100
AcDbEntity
  8
LW 5015-32-00
100
AcDbVertex
100
AcDb2dVertex
 10
-3.968186378490827
 20
14.72155869006991
 30
0.0
  0
VERTEX
  5
776B
330
7763
100
AcDbEntity
  8
LW 5015-32-00
100
AcDbVertex
100
AcDb2dVertex
 10
-4.568305015575788
 20
14.44544792175151
 30
0.0
  0
VERTEX
  5
776C
330
7763
100
AcDbEntity
  8
LW 5015-32-00
100
AcDbVertex
100
AcDb2dVertex
 10
-5.14498710633461
 20
14.13214206695397
 30
0.0
  0
VERTEX
  5
776D
330
7763
100
AcDbEntity
  8
LW 5015-32-00
100
AcDbVertex
100
AcDb2dVertex
 10
-5.695304870616837
 20
13.78546059131452
 30
0.0
  0
VERTEX
  5
776E
330
7763
100
AcDbEntity
  8
LW 5015-32-00
100
AcDbVertex
100
AcDb2dVertex
 10
-6.216325759898836
 20
13.40922176837733
 30
0.0
  0
VERTEX
  5
776F
330
7763
100
AcDbEntity
  8
LW 5015-32-00
100
AcDbVertex
100
AcDb2dVertex
 10
-6.705121994029468
 20
13.0072444677333
 30
0.0
  0
VERTEX
  5
7770
330
7763
100
AcDbEntity
  8
LW 5015-32-00
100
AcDbVertex
100
AcDb2dVertex
 10
-7.158765792857366
 20
12.58334755897306
 30
0.0
  0
VERTEX
  5
7771
330
7763
100
AcDbEntity
  8
LW 5015-32-00
100
AcDbVertex
100
AcDb2dVertex
 10
-7.584662437449424
 20
12.13061451911699
 30
0.0
  0
VERTEX
  5
7772
330
7763
100
AcDbEntity
  8
LW 5015-32-00
100
AcDbVertex
100
AcDb2dVertex
 10
-7.989382743845681
 20
11.64165675639861
 30
0.0
  0
VERTEX
  5
7773
330
7763
100
AcDbEntity
  8
LW 5015-32-00
100
AcDbVertex
100
AcDb2dVertex
 10
-8.3688497543435
 20
11.11950039863336
 30
0.0
  0
VERTEX
  5
7774
330
7763
100
AcDbEntity
  8
LW 5015-32-00
100
AcDbVertex
100
AcDb2dVertex
 10
-8.718976974497309
 20
10.5671697854969
 30
0.0
  0
VERTEX
  5
7775
330
7763
100
AcDbEntity
  8
LW 5015-32-00
100
AcDbVertex
100
AcDb2dVertex
 10
-9.035677909860851
 20
9.987690150735033
 30
0.0
  0
VERTEX
  5
7776
330
7763
100
AcDbEntity
  8
LW 5015-32-00
100
AcDbVertex
100
AcDb2dVertex
 10
-9.314870834360135
 20
9.384086430069999
 30
0.0
  0
VERTEX
  5
7777
330
7763
100
AcDbEntity
  8
LW 5015-32-00
100
AcDbVertex
100
AcDb2dVertex
 10
-9.552946090707337
 20
8.759588897225398
 30
0.0
  0
VERTEX
  5
7778
330
7763
100
AcDbEntity
  8
LW 5015-32-00
100
AcDbVertex
100
AcDb2dVertex
 10
-9.748716354379212
 20
8.118924200531921
 30
0.0
  0
VERTEX
  5
7779
330
7763
100
AcDbEntity
  8
LW 5015-32-00
100
AcDbVertex
100
AcDb2dVertex
 10
-9.901742935189304
 20
7.467362880703888
 30
0.0
  0
VERTEX
  5
777A
330
7763
100
AcDbEntity
  8
LW 5015-32-00
100
AcDbVertex
100
AcDb2dVertex
 10
-10.01159191132455
 20
6.810174882408944
 30
0.0
  0
VERTEX
  5
777B
330
7763
100
AcDbEntity
  8
LW 5015-32-00
100
AcDbVertex
100
AcDb2dVertex
 10
-10.07782459259852
 20
6.152630448338356
 30
0.0
  0
VERTEX
  5
777C
330
7763
100
AcDbEntity
  8
LW 5015-32-00
100
AcDbVertex
100
AcDb2dVertex
 10
-10.10000228882654
 20
5.500000007447567
 30
0.0
  0
SEQEND
  5
777D
330
7763
100
AcDbEntity
  8
LW 5015-32-00
  0
LINE
  5
777E
330
770C
100
AcDbEntity
  8
LW 5015-32-00
100
AcDbLine
 10
-10.10000000000752
 20
-12.50000000000298
 30
0.0
 11
-10.10000000000809
 21
5.499999999997044
 31
0.0
  0
LINE
  5
777F
330
770C
100
AcDbEntity
  8
LW 5015-32-00
  6
MITTE2
 62
     3
100
AcDbLine
 10
80.54152403631817
 20
5.000000000023845
 30
0.0
 11
-37.06495985656011
 21
4.999999999989086
 31
0.0
  0
HATCH
  5
7780
330
770C
100
AcDbEntity
  8
LW 5015-32-00
 62
     1
100
AcDbHatch
 10
0.0
 20
0.0
 30
0.0
210
0.0
220
0.0
230
1.0
  2
SOLID
 70
     1
 71
     0
 91
        5
 92
        7
 72
     0
 73
     1
 93
       76
 10
40.23351265046358
 20
18.15603796707847
 10
40.26537147983617
 20
18.20761892892022
 10
40.38352960406792
 20
18.35886132793615
 10
40.51800767928035
 20
18.4992854581987
 10
40.66402758574167
 20
18.62767001991204
 10
40.8276963818239
 20
18.74457630282785
 10
41.00308333518841
 20
18.84675418464945
 10
41.18483626778925
 20
18.93810586423234
 10
41.36600520325464
 20
19.00762417667846
 10
39.10886726505487
 20
19.00762417667846
 10
38.89597071265462
 20
18.99893452147847
 10
38.69393622925463
 20
18.97286555587851
 10
38.49841898725481
 20
18.9315896936784
 10
38.3137638142548
 20
18.87727934867843
 10
38.13779829645455
 20
18.80776210707842
 10
37.97052243385497
 20
18.72521038267831
 10
37.81995417130747
 20
18.62988486513444
 10
37.67724657085455
 20
18.52317589927833
 10
37.55180531528413
 20
18.40412762303827
 10
37.44054036320676
 20
18.27586831228638
 10
37.34052243185488
 20
18.13865865667839
 10
37.25797070745466
 20
17.99310693207832
 10
37.19497070725447
 20
17.83886555227826
 10
37.1450051898546
 20
17.67810693107839
 10
37.11676381045482
 20
17.51300348227841
 10
37.10807415525505
 20
17.33921037827844
 10
37.11893622425487
 20
17.16541727427824
 10
37.14935001745471
 20
16.99814141167832
 10
37.20366036245469
 20
16.83738279047833
 10
37.27317760405458
 20
16.68096899687833
 10
37.36224656985496
 20
16.53324485847832
 10
37.46869484605486
 20
16.39203796147848
 10
37.59139277747909
 20
16.26082416795833
 10
37.72759182618711
 20
16.13969037447049
 10
37.87493622665488
 20
16.02924485687839
 10
38.03569484785476
 20
15.93148623587848
 10
38.21132146910213
 20
15.84658830457437
 10
38.39197071105445
 20
15.77290002847843
 10
38.58314312545463
 20
15.7164172696784
 10
38.78300519505501
 20
15.67296899367846
 10
38.9915569198547
 20
15.64690002807839
 10
39.2022810584549
 20
15.6382103728784
 10
41.32145214420734
 20
15.63821037287852
 10
41.16090828015512
 20
15.70128117661346
 10
40.97734413635225
 20
15.79190145013621
 10
40.8088777301823
 20
15.89643114306767
 10
40.64604483542189
 20
16.01204938149311
 10
40.50213246705152
 20
16.14183897803303
 10
40.37469657356723
 20
16.28119266126162
 10
40.26099121882362
 20
16.43168090597413
 10
40.20901998737508
 20
16.51586554807846
 10
39.18055692045482
 20
16.51586554807835
 10
39.04844809244924
 20
16.52342554810246
 10
38.9176948506547
 20
16.54375934127046
 10
38.78952243645472
 20
16.57669313447837
 10
38.67438450505506
 20
16.62231382427848
 10
38.56943953920473
 20
16.67879658307839
 10
38.4712898837206
 20
16.74640210053434
 10
38.38110864205464
 20
16.82434830767835
 10
38.30941898665515
 20
16.90907244587839
 10
40.03694030091355
 20
16.90907244587851
 10
40.02635583364053
 20
16.94170788663672
 10
39.99024402567648
 20
17.12708183418789
 10
39.97820037289421
 20
17.31737154813862
 10
39.99022204532412
 20
17.5121226414937
 10
40.02652776699915
 20
17.69849201276014
 10
40.04312646967401
 20
17.7476241726784
 10
38.27248795205469
 20
17.7476241726784
 10
38.34200519365459
 20
17.84321037987837
 10
38.42455691805481
 20
17.92576210427836
 10
38.51964781490824
 20
17.99562693208639
 10
38.62224657385468
 20
18.05393451847846
 10
38.74093857423122
 20
18.09790417379037
 10
38.86338450565472
 20
18.1299690014784
 10
39.00024657505492
 20
18.14952072567843
 10
39.14362588585482
 20
18.15603796707836
 97
        0
 92
        7
 72
     0
 73
     1
 93
       72
 10
41.96197651549119
 20
18.14143934634245
 10
42.08483955036444
 20
18.15951382915847
 10
42.20890175765453
 20
18.16472762227858
 10
43.47759141685492
 20
18.16472762227858
 10
42.63035003485493
 20
17.3500724472787
 10
44.39652245425486
 20
15.63169313147858
 10
45.71517763085466
 20
15.63169313147858
 10
44.00114314265465
 20
17.37396899907861
 10
45.68259142385477
 20
19.00762417667869
 10
42.24366037845448
 20
19.00762417667846
 10
42.03567348124261
 20
18.99684900423057
 10
41.82895527368964
 20
18.9713883144945
 10
41.62452244545465
 20
18.93158969367852
 10
41.43117761725443
 20
18.87510693487849
 10
41.24435003045436
 20
18.80341727947842
 10
41.07318989198029
 20
18.71738969299844
 10
40.90762589145469
 20
18.62093452027847
 10
40.75555692545458
 20
18.51231383027851
 10
40.61985926985153
 20
18.39300486438247
 10
40.49486726945452
 20
18.26248624327849
 10
40.38624657945456
 20
18.12345176007847
 10
40.29500519985504
 20
17.97572762167857
 10
40.22331554445464
 20
17.82148624187852
 10
40.16900519945465
 20
17.66072762067841
 10
40.13641899245476
 20
17.49345175807838
 10
40.1255569234545
 20
17.31748624027835
 10
40.13641899245476
 20
17.14586555007844
 10
40.16900519945465
 20
16.97858968747852
 10
40.22114313065503
 20
16.81783106627853
 10
40.29066037225493
 20
16.66358968647847
 10
40.38250133806378
 20
16.51482278945463
 10
40.48788078667394
 20
16.37535382349443
 10
40.60588630428992
 20
16.24631244377457
 10
40.73817761505506
 20
16.12700347787853
 10
40.89029871898583
 20
16.01899106374247
 10
41.048832788455
 20
15.92062416687844
 10
41.22045347865515
 20
15.83590002867851
 10
41.4029362378551
 20
15.76421037327844
 10
41.59716741088504
 20
15.71016071793446
 10
41.79397072185475
 20
15.66645175227853
 10
42.00252244665489
 20
15.64038278667857
 10
42.21324658525463
 20
15.63169313147858
 10
44.11628107405476
 20
15.63169313147858
 10
43.22993624365472
 20
16.50500347907854
 10
42.21324658525463
 20
16.50500347907854
 10
42.14657955056009
 20
16.50875077201789
 10
42.04563182610217
 20
16.51873313429445
 10
41.92549734296199
 20
16.54019658263854
 10
41.80837817017618
 20
16.57452072067843
 10
41.70688299744051
 20
16.61544899667052
 10
41.65074782484862
 20
16.6436034795185
 10
41.59706313502283
 20
16.67618968651862
 10
41.46450244494644
 20
16.77551244545447
 10
41.39090106540288
 20
16.84555106636657
 10
41.33583472040027
 20
16.91341727347839
 10
41.28712920300404
 20
16.98597589439845
 10
41.24776506494799
 20
17.06314003257438
 10
41.21834189244146
 20
17.1445621017985
 10
41.19764313375481
 20
17.23171934345458
 10
41.19012658200699
 20
17.32104899891038
 10
41.19148216821804
 20
17.38335382669442
 10
41.19748671996148
 20
17.44548486137438
 10
41.20964354758598
 20
17.50865865467853
 10
41.22785706488502
 20
17.57035520659855
 10
41.27150520295436
 20
17.66906968967038
 10
41.31303306515564
 20
17.73693589678243
 10
41.37611127225227
 20
17.81496900047847
 10
41.50551321261718
 20
17.9414917375322
 10
41.56478106595478
 20
17.98154969066257
 10
41.64107623861082
 20
18.02586693218239
 10
41.72509651473956
 20
18.0680117599025
 10
41.84163348062702
 20
18.11085176003854
 97
        0
 92
        7
 72
     0
 73
     1
 93
       57
 10
46.5200134954789
 20
18.1193676221348
 10
46.65148797865458
 20
18.15934003605474
 10
46.78617763425473
 20
18.18645176027877
 10
46.92955694505463
 20
18.19514141547864
 10
48.17000522485478
 20
18.19514141547876
 10
48.17000522485478
 20
19.02065865947878
 10
46.93607418645479
 20
19.02065865947867
 10
46.72535004785459
 20
19.01196900427868
 10
46.51897073685449
 20
18.98372762487867
 10
46.32128108105462
 20
18.94245176267867
 10
46.13228108045496
 20
18.88814141767869
 10
45.94762590745449
 20
18.81645176227874
 10
45.78121901037457
 20
18.7338131413266
 10
45.62239818228408
 20
18.63735796860664
 10
45.47231914732492
 20
18.52786831308657
 10
45.33775983655323
 20
18.40864624374268
 10
45.21769487065466
 20
18.27986555367869
 10
45.11341900825482
 20
18.14083107047867
 10
45.028694870055
 20
17.9952793458786
 10
44.9570052146546
 20
17.84103796607854
 10
44.90703969725473
 20
17.68027934487867
 10
44.87445349025484
 20
17.51300348227875
 10
44.86359142125457
 20
17.33921037827866
 10
44.87445349025484
 20
17.16541727427869
 10
44.90703969725473
 20
16.99814141167866
 10
44.95917762845465
 20
16.83738279047856
 10
45.0308672838546
 20
16.68096899687867
 10
45.11776383585493
 20
16.53324485847867
 10
45.22661045688983
 20
16.39368899596667
 10
45.34646687106351
 20
16.26334416796675
 10
45.48289445770388
 20
16.14203658137461
 10
45.63045349265485
 20
16.03141727067867
 10
45.79121211385472
 20
15.93365864967853
 10
45.96500521785492
 20
15.84893451147872
 10
46.14966039085493
 20
15.77507244227871
 10
46.34083280525465
 20
15.71858968347868
 10
46.54069487485503
 20
15.67514140747874
 10
46.74707418585512
 20
15.65124485567861
 10
46.95997073825492
 20
15.64255520047862
 10
48.17000522485478
 20
15.64255520047874
 10
48.17000522485478
 20
16.50065865147866
 10
46.93607418645479
 20
16.50065865147866
 10
46.80242728947905
 20
16.51099934116661
 10
46.67017073733496
 20
16.53298416882279
 10
46.54955832315863
 20
16.56730830686268
 10
46.43355142623886
 20
16.61527520356679
 10
46.3238879776145
 20
16.67618968651874
 10
46.22682452903063
 20
16.74379520397468
 10
46.13940659771879
 20
16.82356623871072
 10
46.06493625265466
 20
16.90907244587873
 10
48.17000522485478
 20
16.90907244587873
 10
48.17000522485478
 20
17.7367621036787
 10
46.02800521805465
 20
17.7367621036787
 10
46.09752245965501
 20
17.83452072467861
 10
46.18441901165442
 20
17.92358969047853
 10
46.28556659818286
 20
17.99988486313469
 10
46.39297073645503
 20
18.06696900127866
 97
        0
 92
        7
 72
     0
 73
     1
 93
        6
 10
48.40028108765455
 20
19.0076241766788
 10
48.40028108765455
 20
15.63821037287874
 10
50.63786730165521
 20
15.63821037287886
 10
50.63786730165475
 20
16.50500347907888
 10
49.42348798745479
 20
16.50500347907888
 10
49.42348798745479
 20
19.0076241766788
 97
        0
 92
        7
 72
     0
 73
     1
 93
        8
 10
49.65593626405461
 20
19.0076241766788
 10
49.65593626405461
 20
18.18210693267878
 10
50.88986730245506
 20
18.18210693267889
 10
50.88986730245506
 20
15.63169313147881
 10
51.9152466160549
 20
15.63169313147881
 10
51.9152466160549
 20
18.18210693267878
 10
53.15786730965465
 20
18.18210693267889
 10
53.15786730965465
 20
19.00762417667891
 97
        0
 75
     0
 76
     1
 47
0.0142553043587597
 98
        5
 10
39.5431727765299
 20
18.56517450708935
 10
41.81066998987262
 20
18.42262152208371
 10
46.30288172207383
 20
18.47964269463153
 10
49.02673080590557
 20
18.72198291932392
 10
50.43856878813222
 20
18.62219578691059
450
        0
451
        0
460
0.0
461
0.0
452
        0
462
0.0
453
        0
470

  0
LWPOLYLINE
  5
7781
330
770C
100
AcDbEntity
  8
LW 5015-32-00
 62
     1
100
AcDbPolyline
 90
        8
 70
     1
 43
0.0
 10
51.9152466160549
 20
18.18210693267878
 10
51.9152466160549
 20
15.63169313147881
 10
50.88986730245506
 20
15.63169313147881
 10
50.88986730245506
 20
18.18210693267889
 10
49.65593626405461
 20
18.18210693267878
 10
49.65593626405461
 20
19.0076241766788
 10
53.15786730965465
 20
19.00762417667891
 10
53.15786730965465
 20
18.18210693267889
  0
LWPOLYLINE
  5
7782
330
770C
100
AcDbEntity
  8
LW 5015-32-00
 62
     1
100
AcDbPolyline
 90
       73
 70
     1
 43
0.0
 10
42.21324658525463
 20
16.50500347907854
 10
43.22993624365472
 20
16.50500347907854
 10
44.11628107405476
 20
15.63169313147858
 10
42.21324658525463
 20
15.63169313147847
 10
42.00252244665489
 20
15.64038278667857
 10
41.79397072185475
 20
15.66645175227853
 10
41.59716741088504
 20
15.71016071793446
 10
41.4029362378551
 20
15.76421037327844
 10
41.22045347865515
 20
15.83590002867851
 10
41.048832788455
 20
15.92062416687844
 10
40.89029871898583
 20
16.01899106374247
 10
40.73817761505506
 20
16.12700347787853
 10
40.60588630428992
 20
16.24631244377445
 10
40.48788078667394
 20
16.37535382349443
 10
40.38250133806378
 20
16.51482278945451
 10
40.29066037225493
 20
16.66358968647847
 10
40.22114313065503
 20
16.81783106627853
 10
40.16900519945465
 20
16.97858968747852
 10
40.13641899245476
 20
17.14586555007844
 10
40.1255569234545
 20
17.31748624027847
 10
40.13641899245476
 20
17.49345175807838
 10
40.16900519945465
 20
17.66072762067841
 10
40.22331554445464
 20
17.82148624187852
 10
40.29500519985504
 20
17.97572762167846
 10
40.38624657945456
 20
18.12345176007847
 10
40.49486726945452
 20
18.26248624327849
 10
40.61985926985153
 20
18.39300486438259
 10
40.75555692545458
 20
18.51231383027851
 10
40.90762589145469
 20
18.62093452027847
 10
41.07318989198029
 20
18.71738969299844
 10
41.24435003045436
 20
18.80341727947842
 10
41.43117761725443
 20
18.87510693487849
 10
41.62452244545465
 20
18.93158969367863
 10
41.82895527368964
 20
18.9713883144945
 10
42.03567348124261
 20
18.99684900423057
 10
42.24366037845448
 20
19.00762417667846
 10
45.68259142385477
 20
19.00762417667869
 10
44.00114314265465
 20
17.37396899907861
 10
45.71517763085466
 20
15.63169313147858
 10
44.39652245425486
 20
15.63169313147858
 10
42.63035003485493
 20
17.3500724472787
 10
43.47759141685492
 20
18.16472762227858
 10
42.20890175765453
 20
18.16472762227858
 10
42.08483955036444
 20
18.15951382915847
 10
41.96197651549119
 20
18.14143934634245
 10
41.84163348062702
 20
18.11085176003854
 10
41.72509651473956
 20
18.06801175990239
 10
41.64107623861037
 20
18.02586693218251
 10
41.56478106595478
 20
17.98154969066257
 10
41.52453927272381
 20
17.95435106988651
 10
41.48702603122546
 20
17.92341589737447
 10
41.37611127225227
 20
17.81496900047847
 10
41.31303306515564
 20
17.73693589678243
 10
41.27150520295481
 20
17.66906968967049
 10
41.22785706488502
 20
17.57035520659855
 10
41.20964354758598
 20
17.50865865467853
 10
41.19748671996148
 20
17.44548486137449
 10
41.19148216821804
 20
17.38335382669453
 10
41.19012658200699
 20
17.3210489989105
 10
41.19764313375481
 20
17.23171934345458
 10
41.21834189244146
 20
17.1445621017985
 10
41.24776506494845
 20
17.06314003257449
 10
41.28712920300404
 20
16.98597589439845
 10
41.33583472040027
 20
16.9134172734785
 10
41.39090106540288
 20
16.84555106636657
 10
41.46450244494644
 20
16.77551244545447
 10
41.59706313502283
 20
16.67618968651862
 10
41.65074782484862
 20
16.6436034795185
 10
41.70688299744051
 20
16.61544899667052
 10
41.80837817017618
 20
16.57452072067843
 10
41.92549734296199
 20
16.54019658263854
 10
42.04563182610217
 20
16.51873313429445
 10
42.14657955056009
 20
16.50875077201789
  0
LWPOLYLINE
  5
7783
330
770C
100
AcDbEntity
  8
LW 5015-32-00
 62
     1
100
AcDbPolyline
 90
       76
 70
     1
 43
0.0
 10
41.00308333518841
 20
18.84675418464945
 10
40.8276963818239
 20
18.74457630282774
 10
40.66402758574167
 20
18.62767001991204
 10
40.51800767928035
 20
18.4992854581987
 10
40.38352960406792
 20
18.35886132793615
 10
40.26537147983617
 20
18.20761892892022
 10
40.23351265046358
 20
18.15603796707847
 10
39.14362588585482
 20
18.15603796707847
 10
39.00024657505492
 20
18.14952072567843
 10
38.86338450565472
 20
18.1299690014784
 10
38.74093857423122
 20
18.09790417379037
 10
38.62224657385468
 20
18.05393451847846
 10
38.51964781490824
 20
17.99562693208639
 10
38.42455691805481
 20
17.92576210427836
 10
38.34200519365459
 20
17.84321037987837
 10
38.27248795205469
 20
17.7476241726784
 10
40.04312646967401
 20
17.7476241726784
 10
40.02652776699915
 20
17.69849201276014
 10
39.99022204532366
 20
17.51212264149347
 10
39.97820037289421
 20
17.31737154813862
 10
39.99024402567648
 20
17.12708183418789
 10
40.02635583364098
 20
16.94170788663683
 10
40.03694030091355
 20
16.90907244587851
 10
38.30941898665515
 20
16.90907244587839
 10
38.38110864205464
 20
16.82434830767835
 10
38.4712898837206
 20
16.74640210053434
 10
38.56943953920473
 20
16.67879658307839
 10
38.67438450505506
 20
16.62231382427848
 10
38.78952243645472
 20
16.57669313447849
 10
38.9176948506547
 20
16.54375934127046
 10
39.04844809244924
 20
16.52342554810246
 10
39.18055692045482
 20
16.51586554807835
 10
40.20901998737508
 20
16.51586554807846
 10
40.26099121882362
 20
16.43168090597413
 10
40.37469657356723
 20
16.28119266126162
 10
40.50213246705152
 20
16.14183897803303
 10
40.64604483542189
 20
16.01204938149334
 10
40.8088777301823
 20
15.89643114306767
 10
40.97734413635225
 20
15.79190145013621
 10
41.16090828015512
 20
15.70128117661346
 10
41.32145214420734
 20
15.63821037287852
 10
39.2022810584549
 20
15.63821037287829
 10
38.9915569198547
 20
15.64690002807839
 10
38.78300519505501
 20
15.67296899367846
 10
38.58314312545463
 20
15.7164172696784
 10
38.39197071105491
 20
15.77290002847832
 10
38.21132146910168
 20
15.84658830457437
 10
38.03569484785476
 20
15.93148623587848
 10
37.87493622665488
 20
16.02924485687839
 10
37.72759182618711
 20
16.13969037447037
 10
37.59139277747909
 20
16.26082416795833
 10
37.46869484605486
 20
16.39203796147836
 10
37.36224656985451
 20
16.53324485847832
 10
37.27317760405458
 20
16.68096899687833
 10
37.20366036245469
 20
16.83738279047833
 10
37.14935001745471
 20
16.99814141167832
 10
37.11893622425487
 20
17.16541727427847
 10
37.10807415525505
 20
17.33921037827832
 10
37.11676381045436
 20
17.51300348227829
 10
37.1450051898546
 20
17.67810693107839
 10
37.19497070725447
 20
17.83886555227826
 10
37.25797070745466
 20
17.99310693207832
 10
37.34052243185488
 20
18.13865865667839
 10
37.44054036320676
 20
18.27586831228638
 10
37.55180531528413
 20
18.40412762303839
 10
37.67724657085455
 20
18.52317589927833
 10
37.81995417130747
 20
18.62988486513444
 10
37.97052243385497
 20
18.72521038267842
 10
38.137798296455
 20
18.8077621070783
 10
38.3137638142548
 20
18.87727934867843
 10
38.49841898725481
 20
18.9315896936784
 10
38.69393622925463
 20
18.97286555587851
 10
38.89597071265462
 20
18.99893452147847
 10
39.10886726505487
 20
19.00762417667846
 10
41.36600520325464
 20
19.00762417667857
 10
41.18483626778925
 20
18.93810586423234
  0
LWPOLYLINE
  5
7784
330
770C
100
AcDbEntity
  8
LW 5015-32-00
 62
     1
100
AcDbPolyline
 90
        6
 70
     1
 43
0.0
 10
50.63786730165521
 20
15.63821037287886
 10
48.40028108765455
 20
15.63821037287874
 10
48.40028108765455
 20
19.0076241766788
 10
49.42348798745479
 20
19.0076241766788
 10
49.42348798745479
 20
16.50500347907888
 10
50.63786730165475
 20
16.50500347907888
  0
LWPOLYLINE
  5
7785
330
770C
100
AcDbEntity
  8
LW 5015-32-00
 62
     1
100
AcDbPolyline
 90
       57
 70
     1
 43
0.0
 10
45.34646687106351
 20
16.26334416796675
 10
45.22661045688983
 20
16.39368899596655
 10
45.11776383585493
 20
16.53324485847855
 10
45.0308672838546
 20
16.68096899687867
 10
44.95917762845465
 20
16.83738279047856
 10
44.90703969725473
 20
16.99814141167866
 10
44.87445349025484
 20
17.16541727427869
 10
44.86359142125457
 20
17.33921037827866
 10
44.87445349025484
 20
17.51300348227863
 10
44.90703969725473
 20
17.68027934487867
 10
44.9570052146546
 20
17.84103796607854
 10
45.028694870055
 20
17.99527934587871
 10
45.11341900825482
 20
18.14083107047855
 10
45.21769487065466
 20
18.27986555367869
 10
45.33775983655323
 20
18.40864624374257
 10
45.47231914732492
 20
18.52786831308657
 10
45.62239818228408
 20
18.63735796860664
 10
45.78121901037502
 20
18.73381314132672
 10
45.94762590745449
 20
18.81645176227874
 10
46.13228108045496
 20
18.88814141767869
 10
46.32128108105462
 20
18.94245176267867
 10
46.51897073685449
 20
18.98372762487867
 10
46.72535004785459
 20
19.01196900427868
 10
46.93607418645479
 20
19.02065865947867
 10
48.17000522485478
 20
19.02065865947878
 10
48.17000522485478
 20
18.19514141547876
 10
46.92955694505508
 20
18.19514141547864
 10
46.78617763425473
 20
18.18645176027866
 10
46.65148797865458
 20
18.15934003605474
 10
46.52001349547845
 20
18.11936762213469
 10
46.39297073645503
 20
18.06696900127866
 10
46.28556659818286
 20
17.99988486313469
 10
46.18441901165442
 20
17.92358969047876
 10
46.09752245965501
 20
17.83452072467861
 10
46.02800521805465
 20
17.7367621036787
 10
48.17000522485478
 20
17.7367621036787
 10
48.17000522485478
 20
16.90907244587873
 10
46.06493625265466
 20
16.90907244587873
 10
46.13940659771879
 20
16.82356623871072
 10
46.22682452903063
 20
16.74379520397468
 10
46.3238879776145
 20
16.67618968651874
 10
46.43355142623886
 20
16.61527520356679
 10
46.54955832315863
 20
16.56730830686268
 10
46.67017073733496
 20
16.53298416882279
 10
46.80242728947905
 20
16.51099934116661
 10
46.93607418645479
 20
16.50065865147866
 10
48.17000522485478
 20
16.50065865147866
 10
48.17000522485478
 20
15.64255520047874
 10
46.95997073825492
 20
15.64255520047862
 10
46.74707418585512
 20
15.65124485567861
 10
46.54069487485503
 20
15.67514140747874
 10
46.34083280525465
 20
15.71858968347868
 10
46.14966039085493
 20
15.77507244227871
 10
45.96500521785492
 20
15.84893451147872
 10
45.79121211385472
 20
15.93365864967876
 10
45.63045349265485
 20
16.03141727067867
 10
45.48289445770388
 20
16.14203658137461
  0
LINE
  5
7786
330
770C
100
AcDbEntity
  8
LW 5015-32-00
  6
VERDECKT
 62
     6
100
AcDbLine
 10
-7.334936490575728
 20
17.70448267190204
 30
0.0
 11
-11.66506350949748
 21
15.2044826719009
 31
0.0
  0
LINE
  5
7787
330
770C
100
AcDbEntity
  8
LW 5015-32-00
  6
VERDECKT
 62
     6
100
AcDbLine
 10
-11.66506350948839
 20
-15.20448267190795
 30
0.0
 11
-7.334936490565269
 21
-17.70448267190659
 31
0.0
  0
LINE
  5
7788
330
770C
100
AcDbEntity
  8
LW 5015-32-00
  6
VERDECKT
 62
     6
100
AcDbLine
 10
-8.748924226251801
 20
15.1535812713729
 30
0.0
 11
-7.334936490575728
 21
17.70448267190204
 31
0.0
  0
LINE
  5
7789
330
770C
100
AcDbEntity
  8
LW 5015-32-00
  6
VERDECKT
 62
     6
100
AcDbLine
 10
-8.748924226251801
 20
15.1535812713729
 30
0.0
 11
-11.66506350949748
 21
15.2044826719009
 31
0.0
  0
LINE
  5
778A
330
770C
100
AcDbEntity
  8
LW 5015-32-00
  6
VERDECKT
 62
     6
100
AcDbLine
 10
-14.60240647333148
 20
20.29210992451317
 30
0.0
 11
-11.66506350949748
 21
15.20448267190068
 31
0.0
  0
LINE
  5
778B
330
770C
100
AcDbEntity
  8
LW 5015-32-00
  6
VERDECKT
 62
     6
100
AcDbLine
 10
-10.27227945441018
 20
22.79210992451453
 30
0.0
 11
-7.334936490575728
 21
17.70448267190204
 31
0.0
  0
LINE
  5
778C
330
770C
100
AcDbEntity
  8
LW 5015-32-00
  6
VERDECKT
 62
     6
100
AcDbLine
 10
-8.748924226242706
 20
-15.15358127137824
 30
0.0
 11
-11.66506350948839
 21
-15.20448267190795
 31
0.0
  0
LINE
  5
778D
330
770C
100
AcDbEntity
  8
LW 5015-32-00
  6
VERDECKT
 62
     6
100
AcDbLine
 10
-8.748924226242706
 20
-15.15358127137824
 30
0.0
 11
-7.334936490565269
 21
-17.70448267190659
 31
0.0
  0
LINE
  5
778E
330
770C
100
AcDbEntity
  8
LW 5015-32-00
  6
VERDECKT
 62
     6
100
AcDbLine
 10
-10.27227945439654
 20
-22.79210992452068
 30
0.0
 11
-7.334936490565269
 21
-17.70448267190659
 31
0.0
  0
LINE
  5
778F
330
770C
100
AcDbEntity
  8
LW 5015-32-00
  6
VERDECKT
 62
     6
100
AcDbLine
 10
-14.60240647331966
 20
-20.29210992452204
 30
0.0
 11
-11.66506350948839
 21
-15.20448267190795
 31
0.0
  0
LINE
  5
7790
330
770C
100
AcDbEntity
  8
LW 5015-32-00
  6
VERDECKT
 62
     6
100
AcDbLine
 10
18.99999999996907
 20
-2.499999999994543
 30
0.0
 11
18.99999999996771
 21
2.500000000005456
 31
0.0
  0
LINE
  5
7791
330
770C
100
AcDbEntity
  8
LW 5015-32-00
  6
VERDECKT
 62
     6
100
AcDbLine
 10
17.49784845239946
 20
0.0000000000051159
 30
0.0
 11
18.99999999996907
 21
-2.499999999994543
 31
0.0
  0
LINE
  5
7792
330
770C
100
AcDbEntity
  8
LW 5015-32-00
  6
VERDECKT
 62
     6
100
AcDbLine
 10
17.49784845239946
 20
0.0000000000051159
 30
0.0
 11
18.99999999996771
 21
2.500000000005456
 31
0.0
  0
LINE
  5
7793
330
770C
100
AcDbEntity
  8
LW 5015-32-00
  6
VERDECKT
 62
     6
100
AcDbLine
 10
24.87468592763298
 20
2.500000000007275
 30
0.0
 11
18.99999999996771
 21
2.500000000005456
 31
0.0
  0
LINE
  5
7794
330
770C
100
AcDbEntity
  8
LW 5015-32-00
  6
VERDECKT
 62
     6
100
AcDbLine
 10
24.87468592763435
 20
-2.499999999992724
 30
0.0
 11
18.99999999996907
 21
-2.499999999994543
 31
0.0
  0
ARC
  5
7795
330
770C
100
AcDbEntity
  8
LW 5015-32-00
100
AcDbCircle
 10
-0.0000000000304681
 20
0.0
 30
0.0
 40
25.0
100
AcDbArc
 50
143.1301023541742
 51
330.0000000000171
  0
ARC
  5
7796
330
770C
100
AcDbEntity
  8
LW 5015-32-00
100
AcDbCircle
 10
-0.0000000000304681
 20
0.0
 30
0.0
 40
25.0
100
AcDbArc
 50
64.1580672368493
 51
115.8419327631834
  0
ARC
  5
7797
330
770C
100
AcDbEntity
  8
LW 5015-32-00
100
AcDbCircle
 10
-0.0000000000285922
 20
-0.0000000000000568
 30
0.0
 40
18.99999999999993
100
AcDbArc
 50
221.1395104149165
 51
318.8604895851181
  0
CIRCLE
  5
7798
330
770C
100
AcDbEntity
  8
LW 5015-32-00
100
AcDbCircle
 10
-0.0000000000009095
 20
0.0
 30
0.0
 40
10.00000000000001
  0
CIRCLE
  5
7799
330
770C
100
AcDbEntity
  8
LW 5015-32-00
100
AcDbCircle
 10
-0.0000000000004547
 20
0.0
 30
0.0
 40
9.000000000000008
  0
ARC
  5
779A
330
770C
100
AcDbEntity
  8
LW 5015-32-00
  6
VERDECKT
 62
     6
100
AcDbCircle
 10
-0.0000000000309228
 20
0.0000000000002274
 30
0.0
 40
24.99999999999958
100
AcDbArc
 50
115.8419327631827
 51
143.1301023541742
  0
ARC
  5
779B
330
770C
100
AcDbEntity
  8
LW 5015-32-00
  6
VERDECKT
 62
     6
100
AcDbCircle
 10
-0.0000000000304681
 20
0.0
 30
0.0
 40
25.00000000000001
100
AcDbArc
 50
330.0000000000171
 51
64.1580672368493
  0
ARC
  5
779C
330
770C
100
AcDbEntity
  8
LW 5015-32-00
  6
VERDECKT
 62
     6
100
AcDbCircle
 10
-0.0000000000286491
 20
-0.0000000000000284
 30
0.0
 40
19.00000000000004
100
AcDbArc
 50
318.8604895851181
 51
221.1395104149165
  0
LINE
  5
779D
330
770C
100
AcDbEntity
  8
LW 5015-32-00
100
AcDbLine
 10
-10.10000000000764
 20
-2.000000000003069
 30
0.0
 11
-10.100000000009
 21
1.999999999996816
 31
0.0
  0
LINE
  5
779E
330
770C
100
AcDbEntity
  8
LW 5015-32-00
100
AcDbLine
 10
10.09999999999081
 20
2.000000000002955
 30
0.0
 11
10.09999999999218
 21
-1.999999999997044
 31
0.0
  0
LINE
  5
779F
330
770C
100
AcDbEntity
  8
LW 5015-32-00
  6
VERDECKT
 62
     6
100
AcDbLine
 10
59.99999999999094
 20
-9.660108542720223
 30
0.0
 11
59.99999999998229
 21
19.66010854275575
 31
0.0
  0
ARC
  5
77A0
330
770C
100
AcDbEntity
  8
LW 5015-32-00
  6
VERDECKT
 62
     6
100
AcDbCircle
 10
61.99999999999093
 20
-9.660108542719655
 30
0.0
 40
2.0
100
AcDbArc
 50
180.0
 51
199.2900462192125
  0
ARC
  5
77A1
330
770C
100
AcDbEntity
  8
LW 5015-32-00
  6
VERDECKT
 62
     6
100
AcDbCircle
 10
61.9999999999823
 20
19.6601085427562
 30
0.0
 40
2.0
100
AcDbArc
 50
160.7099537808255
 51
180.0
  0
LINE
  5
77A2
330
770C
100
AcDbEntity
  8
LW 5015-32-00
  6
VERDECKT
 62
     6
100
AcDbLine
 10
60.11228328725931
 20
-10.32080939217647
 30
0.0
 11
60.87499999999185
 21
-12.49999999998206
 31
0.0
  0
LINE
  5
77A3
330
770C
100
AcDbEntity
  8
LW 5015-32-00
  6
VERDECKT
 62
     6
100
AcDbLine
 10
60.11228328725022
 20
20.32080939221188
 30
0.0
 11
60.87499999998138
 21
22.50000000001794
 31
0.0
  0
LINE
  5
77A4
330
770C
100
AcDbEntity
  8
LW 5015-32-00
100
AcDbLine
 10
60.87499999999185
 20
-12.49999999998206
 30
0.0
 11
60.87499999998138
 21
22.50000000001794
 31
0.0
  0
LINE
  5
77A5
330
770C
100
AcDbEntity
  8
LW 5015-32-00
100
AcDbLine
 10
-20.00000000000864
 20
-11.00000000000591
 30
0.0
 11
-20.00000000001819
 21
20.99999999999409
 31
0.0
  0
LINE
  5
77A6
330
770C
100
AcDbEntity
  8
LW 5015-32-00
100
AcDbLine
 10
60.87499999998138
 20
22.50000000001794
 30
0.0
 11
-18.50000000001853
 21
22.49999999999454
 31
0.0
  0
LINE
  5
77A7
330
770C
100
AcDbEntity
  8
LW 5015-32-00
100
AcDbLine
 10
60.87499999999185
 20
-12.49999999998206
 30
0.0
 11
10.09999999999155
 21
-12.49999999999701
 31
0.0
  0
LINE
  5
77A8
330
770C
100
AcDbEntity
  8
LW 5015-32-00
100
AcDbLine
 10
-10.10000000000798
 20
-12.50000000000298
 30
0.0
 11
-18.50000000000818
 21
-12.50000000000546
 31
0.0
  0
ARC
  5
77A9
330
770C
100
AcDbEntity
  8
LW 5015-32-00
100
AcDbCircle
 10
-18.50000000000864
 20
-11.00000000000545
 30
0.0
 40
1.500000000000012
100
AcDbArc
 50
180.0
 51
270.000000000013
  0
ARC
  5
77AA
330
770C
100
AcDbEntity
  8
LW 5015-32-00
100
AcDbCircle
 10
-18.50000000001819
 20
20.99999999999454
 30
0.0
 40
1.500000000000012
100
AcDbArc
 50
90.00000000001303
 51
180.0
  0
LINE
  5
77AB
330
770C
100
AcDbEntity
  8
LW 5015-32-00
100
AcDbLine
 10
76.9999999999882
 20
-0.7730999999771769
 30
0.0
 11
76.99999999998502
 21
10.77310000002282
 31
0.0
  0
LINE
  5
77AC
330
770C
100
AcDbEntity
  8
LW 5015-32-00
100
AcDbLine
 10
75.77309999998445
 20
12.00000000002248
 30
0.0
 11
75.77309999998854
 21
-1.999999999977518
 31
0.0
  0
LINE
  5
77AD
330
770C
100
AcDbEntity
  8
LW 5015-32-00
100
AcDbLine
 10
76.99999999998502
 20
10.77310000002282
 30
0.0
 11
75.77309999998445
 21
12.00000000002248
 31
0.0
  0
LINE
  5
77AE
330
770C
100
AcDbEntity
  8
LW 5015-32-00
100
AcDbLine
 10
76.9999999999882
 20
-0.7730999999771769
 30
0.0
 11
75.77309999998854
 21
-1.999999999977518
 31
0.0
  0
LINE
  5
77AF
330
770C
100
AcDbEntity
  8
LW 5015-32-00
100
AcDbLine
 10
75.77309999998445
 20
12.00000000002248
 30
0.0
 11
60.87499999998456
 21
12.00000000001793
 31
0.0
  0
LINE
  5
77B0
330
770C
100
AcDbEntity
  8
LW 5015-32-00
100
AcDbLine
 10
75.77309999998854
 20
-1.999999999977518
 30
0.0
 11
60.87499999998866
 21
-1.999999999982065
 31
0.0
  0
LINE
  5
77B1
330
770C
100
AcDbEntity
  8
LW 5015-32-00
 62
     3
100
AcDbLine
 10
60.87499999998502
 20
10.79450000001802
 30
0.0
 11
76.97859999998494
 21
10.79450000002279
 31
0.0
  0
LINE
  5
77B2
330
770C
100
AcDbEntity
  8
LW 5015-32-00
 62
     3
100
AcDbLine
 10
76.97859999998811
 20
-0.794499999977262
 30
0.0
 11
60.8749999999882
 21
-0.7944999999820368
 31
0.0
  0
ARC
  5
77B3
330
770C
100
AcDbEntity
  8
LW 5015-32-00
  6
VERDECKT
 62
     6
100
AcDbCircle
 10
-0.0000000000363798
 20
0.0
 30
0.0
 40
32.50000000000001
100
AcDbArc
 50
337.3801350519766
 51
43.81306146042019
  0
ARC
  5
77B4
330
770C
100
AcDbEntity
  8
LW 5015-32-00
100
AcDbCircle
 10
-0.0000000000363798
 20
0.0
 30
0.0
 40
32.5
100
AcDbArc
 50
43.81306146042019
 51
337.3801350519766
  0
LINE
  5
77B5
330
770C
100
AcDbEntity
  8
LW 5015-32-00
100
AcDbLine
 10
60.87499999998138
 20
22.50000000001794
 30
0.0
 11
60.87499999999185
 21
-12.49999999998206
 31
0.0
  0
LINE
  5
77B6
330
770C
100
AcDbEntity
  8
LW 5015-32-00
  6
MITTE2
 62
     3
100
AcDbLine
 10
-14.93734296387214
 20
25.87223694343527
 30
0.0
 11
-7.00000000003547
 21
12.12435565298006
 31
0.0
  0
LINE
  5
77B7
330
770C
100
AcDbEntity
  8
LW 5015-32-00
  6
MITTE2
 62
     3
100
AcDbLine
 10
-14.93734296385673
 20
-25.87223694344425
 30
0.0
 11
-7.000000000028194
 21
-12.12435565298426
 31
0.0
  0
LINE
  5
77B8
330
770C
100
AcDbEntity
  8
LW 5015-32-00
  6
MITTE2
 62
     3
100
AcDbLine
 10
38.96970689545765
 20
0.0000000000173657
 30
0.0
 11
-38.96970689545856
 21
-0.0000000000173941
 31
0.0
  0
LINE
  5
77B9
330
770C
100
AcDbEntity
  8
LW 5015-32-00
  6
MITTE2
 62
     3
100
AcDbLine
 10
-0.0000000000068212
 20
22.6209724824912
 30
0.0
 11
0.0000000000063665
 21
-22.6209724824912
 31
0.0
  0
LINE
  5
77BA
330
770C
100
AcDbEntity
  8
LW 5015-32-00
100
AcDbLine
 10
10.09999999999127
 20
5.500000000003012
 30
0.0
 11
10.09999999999149
 21
-12.49999999999701
 31
0.0
  0
POLYLINE
  5
77BB
330
770C
100
AcDbEntity
  8
LW 5015-32-00
100
AcDb2dPolyline
 66
     1
 10
0.0
 20
0.0
 30
0.0
 70
   128
  0
VERTEX
  5
77BC
330
77BB
100
AcDbEntity
  8
LW 5015-32-00
100
AcDbVertex
100
AcDb2dVertex
 10
10.10000228880972
 20
5.500000007453593
 30
0.0
  0
VERTEX
  5
77BD
330
77BB
100
AcDbEntity
  8
LW 5015-32-00
100
AcDbVertex
100
AcDb2dVertex
 10
10.07782459258123
 20
6.152630448344325
 30
0.0
  0
VERTEX
  5
77BE
330
77BB
100
AcDbEntity
  8
LW 5015-32-00
100
AcDbVertex
100
AcDb2dVertex
 10
10.01159191130682
 20
6.810174882414912
 30
0.0
  0
VERTEX
  5
77BF
330
77BB
100
AcDbEntity
  8
LW 5015-32-00
100
AcDbVertex
100
AcDb2dVertex
 10
9.901742935171114
 20
7.467362880709742
 30
0.0
  0
VERTEX
  5
77C0
330
77BB
100
AcDbEntity
  8
LW 5015-32-00
100
AcDbVertex
100
AcDb2dVertex
 10
9.748716354360567
 20
8.118924200537719
 30
0.0
  0
VERTEX
  5
77C1
330
77BB
100
AcDbEntity
  8
LW 5015-32-00
100
AcDbVertex
100
AcDb2dVertex
 10
9.552946090688237
 20
8.759588897231083
 30
0.0
  0
VERTEX
  5
77C2
330
77BB
100
AcDbEntity
  8
LW 5015-32-00
100
AcDbVertex
100
AcDb2dVertex
 10
9.314870834340354
 20
9.384086430075569
 30
0.0
  0
VERTEX
  5
77C3
330
77BB
100
AcDbEntity
  8
LW 5015-32-00
100
AcDbVertex
100
AcDb2dVertex
 10
9.035677909840615
 20
9.987690150740434
 30
0.0
  0
VERTEX
  5
77C4
330
77BB
100
AcDbEntity
  8
LW 5015-32-00
100
AcDbVertex
100
AcDb2dVertex
 10
8.718976974476845
 20
10.56716978550213
 30
0.0
  0
VERTEX
  5
77C5
330
77BB
100
AcDbEntity
  8
LW 5015-32-00
100
AcDbVertex
100
AcDb2dVertex
 10
8.368849754322809
 20
11.11950039863831
 30
0.0
  0
VERTEX
  5
77C6
330
77BB
100
AcDbEntity
  8
LW 5015-32-00
100
AcDbVertex
100
AcDb2dVertex
 10
7.989382743824535
 20
11.64165675640339
 30
0.0
  0
VERTEX
  5
77C7
330
77BB
100
AcDbEntity
  8
LW 5015-32-00
100
AcDbVertex
100
AcDb2dVertex
 10
7.584662437427823
 20
12.13061451912148
 30
0.0
  0
VERTEX
  5
77C8
330
77BB
100
AcDbEntity
  8
LW 5015-32-00
100
AcDbVertex
100
AcDb2dVertex
 10
7.158765792835311
 20
12.58334755897732
 30
0.0
  0
VERTEX
  5
77C9
330
77BB
100
AcDbEntity
  8
LW 5015-32-00
100
AcDbVertex
100
AcDb2dVertex
 10
6.705121994006958
 20
13.00724446773728
 30
0.0
  0
VERTEX
  5
77CA
330
77BB
100
AcDbEntity
  8
LW 5015-32-00
100
AcDbVertex
100
AcDb2dVertex
 10
6.216325759875871
 20
13.40922176838103
 30
0.0
  0
VERTEX
  5
77CB
330
77BB
100
AcDbEntity
  8
LW 5015-32-00
100
AcDbVertex
100
AcDb2dVertex
 10
5.695304870593645
 20
13.78546059131787
 30
0.0
  0
VERTEX
  5
77CC
330
77BB
100
AcDbEntity
  8
LW 5015-32-00
100
AcDbVertex
100
AcDb2dVertex
 10
5.144987106311191
 20
14.13214206695704
 30
0.0
  0
VERTEX
  5
77CD
330
77BB
100
AcDbEntity
  8
LW 5015-32-00
100
AcDbVertex
100
AcDb2dVertex
 10
4.568305015551686
 20
14.44544792175423
 30
0.0
  0
VERTEX
  5
77CE
330
77BB
100
AcDbEntity
  8
LW 5015-32-00
100
AcDbVertex
100
AcDb2dVertex
 10
3.968186378466725
 20
14.72155869007224
 30
0.0
  0
VERTEX
  5
77CF
330
77BB
100
AcDbEntity
  8
LW 5015-32-00
100
AcDbVertex
100
AcDb2dVertex
 10
3.347783088671576
 20
14.95777785778136
 30
0.0
  0
VERTEX
  5
77D0
330
77BB
100
AcDbEntity
  8
LW 5015-32-00
100
AcDbVertex
100
AcDb2dVertex
 10
2.711348533617638
 20
15.15290260315015
 30
0.0
  0
VERTEX
  5
77D1
330
77BB
100
AcDbEntity
  8
LW 5015-32-00
100
AcDbVertex
100
AcDb2dVertex
 10
2.063431739794395
 20
15.3053522109991
 30
0.0
  0
VERTEX
  5
77D2
330
77BB
100
AcDbEntity
  8
LW 5015-32-00
100
AcDbVertex
100
AcDb2dVertex
 10
1.408705711352013
 20
15.4138541221622
 30
0.0
  0
VERTEX
  5
77D3
330
77BB
100
AcDbEntity
  8
LW 5015-32-00
100
AcDbVertex
100
AcDb2dVertex
 10
0.7524204254023062
 20
15.47855496406572
 30
0.0
  0
VERTEX
  5
77D4
330
77BB
100
AcDbEntity
  8
LW 5015-32-00
100
AcDbVertex
100
AcDb2dVertex
 10
0.1000022888056264
 20
15.49999952316284
 30
0.0
  0
SEQEND
  5
77D5
330
77BB
100
AcDbEntity
  8
LW 5015-32-00
  0
POLYLINE
  5
77D6
330
770C
100
AcDbEntity
  8
LW 5015-32-00
100
AcDb2dPolyline
 66
     1
 10
0.0
 20
0.0
 30
0.0
 70
   128
  0
VERTEX
  5
77D7
330
77D6
100
AcDbEntity
  8
LW 5015-32-00
100
AcDbVertex
100
AcDb2dVertex
 10
-0.1000022888310923
 20
15.49999952316278
 30
0.0
  0
VERTEX
  5
77D8
330
77D6
100
AcDbEntity
  8
LW 5015-32-00
100
AcDbVertex
100
AcDb2dVertex
 10
-0.752420425427772
 20
15.47855496406526
 30
0.0
  0
VERTEX
  5
77D9
330
77D6
100
AcDbEntity
  8
LW 5015-32-00
100
AcDbVertex
100
AcDb2dVertex
 10
-1.408705711377479
 20
15.41385412216141
 30
0.0
  0
VERTEX
  5
77DA
330
77D6
100
AcDbEntity
  8
LW 5015-32-00
100
AcDbVertex
100
AcDb2dVertex
 10
-2.063431739819861
 20
15.30535221099791
 30
0.0
  0
VERTEX
  5
77DB
330
77D6
100
AcDbEntity
  8
LW 5015-32-00
100
AcDbVertex
100
AcDb2dVertex
 10
-2.711348533642876
 20
15.15290260314856
 30
0.0
  0
VERTEX
  5
77DC
330
77D6
100
AcDbEntity
  8
LW 5015-32-00
100
AcDbVertex
100
AcDb2dVertex
 10
-3.34778308869636
 20
14.95777785777943
 30
0.0
  0
VERTEX
  5
77DD
330
77D6
100
AcDbEntity
  8
LW 5015-32-00
100
AcDbVertex
100
AcDb2dVertex
 10
-3.968186378491282
 20
14.72155869006991
 30
0.0
  0
VERTEX
  5
77DE
330
77D6
100
AcDbEntity
  8
LW 5015-32-00
100
AcDbVertex
100
AcDb2dVertex
 10
-4.568305015576243
 20
14.44544792175151
 30
0.0
  0
VERTEX
  5
77DF
330
77D6
100
AcDbEntity
  8
LW 5015-32-00
100
AcDbVertex
100
AcDb2dVertex
 10
-5.144987106335065
 20
14.13214206695397
 30
0.0
  0
VERTEX
  5
77E0
330
77D6
100
AcDbEntity
  8
LW 5015-32-00
100
AcDbVertex
100
AcDb2dVertex
 10
-5.695304870617292
 20
13.78546059131452
 30
0.0
  0
VERTEX
  5
77E1
330
77D6
100
AcDbEntity
  8
LW 5015-32-00
100
AcDbVertex
100
AcDb2dVertex
 10
-6.216325759899291
 20
13.40922176837733
 30
0.0
  0
VERTEX
  5
77E2
330
77D6
100
AcDbEntity
  8
LW 5015-32-00
100
AcDbVertex
100
AcDb2dVertex
 10
-6.705121994029923
 20
13.0072444677333
 30
0.0
  0
VERTEX
  5
77E3
330
77D6
100
AcDbEntity
  8
LW 5015-32-00
100
AcDbVertex
100
AcDb2dVertex
 10
-7.15876579285782
 20
12.58334755897306
 30
0.0
  0
VERTEX
  5
77E4
330
77D6
100
AcDbEntity
  8
LW 5015-32-00
100
AcDbVertex
100
AcDb2dVertex
 10
-7.584662437449878
 20
12.13061451911699
 30
0.0
  0
VERTEX
  5
77E5
330
77D6
100
AcDbEntity
  8
LW 5015-32-00
100
AcDbVertex
100
AcDb2dVertex
 10
-7.989382743846135
 20
11.64165675639861
 30
0.0
  0
VERTEX
  5
77E6
330
77D6
100
AcDbEntity
  8
LW 5015-32-00
100
AcDbVertex
100
AcDb2dVertex
 10
-8.368849754343955
 20
11.11950039863336
 30
0.0
  0
VERTEX
  5
77E7
330
77D6
100
AcDbEntity
  8
LW 5015-32-00
100
AcDbVertex
100
AcDb2dVertex
 10
-8.718976974497763
 20
10.5671697854969
 30
0.0
  0
VERTEX
  5
77E8
330
77D6
100
AcDbEntity
  8
LW 5015-32-00
100
AcDbVertex
100
AcDb2dVertex
 10
-9.035677909861306
 20
9.987690150735033
 30
0.0
  0
VERTEX
  5
77E9
330
77D6
100
AcDbEntity
  8
LW 5015-32-00
100
AcDbVertex
100
AcDb2dVertex
 10
-9.31487083436059
 20
9.384086430069999
 30
0.0
  0
VERTEX
  5
77EA
330
77D6
100
AcDbEntity
  8
LW 5015-32-00
100
AcDbVertex
100
AcDb2dVertex
 10
-9.552946090707791
 20
8.759588897225398
 30
0.0
  0
VERTEX
  5
77EB
330
77D6
100
AcDbEntity
  8
LW 5015-32-00
100
AcDbVertex
100
AcDb2dVertex
 10
-9.748716354379666
 20
8.118924200531921
 30
0.0
  0
VERTEX
  5
77EC
330
77D6
100
AcDbEntity
  8
LW 5015-32-00
100
AcDbVertex
100
AcDb2dVertex
 10
-9.901742935189759
 20
7.467362880703888
 30
0.0
  0
VERTEX
  5
77ED
330
77D6
100
AcDbEntity
  8
LW 5015-32-00
100
AcDbVertex
100
AcDb2dVertex
 10
-10.01159191132501
 20
6.810174882408944
 30
0.0
  0
VERTEX
  5
77EE
330
77D6
100
AcDbEntity
  8
LW 5015-32-00
100
AcDbVertex
100
AcDb2dVertex
 10
-10.07782459259897
 20
6.152630448338356
 30
0.0
  0
VERTEX
  5
77EF
330
77D6
100
AcDbEntity
  8
LW 5015-32-00
100
AcDbVertex
100
AcDb2dVertex
 10
-10.100002288827
 20
5.500000007447567
 30
0.0
  0
SEQEND
  5
77F0
330
77D6
100
AcDbEntity
  8
LW 5015-32-00
  0
LINE
  5
77F1
330
770C
100
AcDbEntity
  8
LW 5015-32-00
100
AcDbLine
 10
-10.10000000000798
 20
-12.50000000000298
 30
0.0
 11
-10.10000000000855
 21
5.499999999997044
 31
0.0
  0
LINE
  5
77F2
330
770C
100
AcDbEntity
  8
LW 5015-32-00
  6
MITTE2
 62
     3
100
AcDbLine
 10
80.54152403631773
 20
5.000000000023845
 30
0.0
 11
-37.06495985656057
 21
4.999999999989086
 31
0.0
  0
HATCH
  5
77F3
330
770C
100
AcDbEntity
  8
LW 5015-32-00
 62
     1
100
AcDbHatch
 10
0.0
 20
0.0
 30
0.0
210
0.0
220
0.0
230
1.0
  2
SOLID
 70
     1
 71
     0
 91
        5
 92
        7
 72
     0
 73
     1
 93
       76
 10
40.23351265046312
 20
18.15603796707847
 10
40.26537147983572
 20
18.20761892892022
 10
40.38352960406746
 20
18.35886132793615
 10
40.51800767927988
 20
18.4992854581987
 10
40.66402758574122
 20
18.62767001991204
 10
40.82769638182344
 20
18.74457630282785
 10
41.00308333518796
 20
18.84675418464945
 10
41.18483626778879
 20
18.93810586423234
 10
41.36600520325418
 20
19.00762417667846
 10
39.10886726505442
 20
19.00762417667846
 10
38.89597071265416
 20
18.99893452147847
 10
38.69393622925418
 20
18.97286555587851
 10
38.49841898725435
 20
18.9315896936784
 10
38.31376381425434
 20
18.87727934867843
 10
38.13779829645409
 20
18.80776210707842
 10
37.97052243385451
 20
18.72521038267831
 10
37.81995417130702
 20
18.62988486513444
 10
37.67724657085409
 20
18.52317589927833
 10
37.55180531528367
 20
18.40412762303827
 10
37.44054036320631
 20
18.27586831228638
 10
37.34052243185443
 20
18.13865865667839
 10
37.25797070745421
 20
17.99310693207832
 10
37.19497070725402
 20
17.83886555227826
 10
37.14500518985415
 20
17.67810693107839
 10
37.11676381045436
 20
17.51300348227841
 10
37.1080741552546
 20
17.33921037827844
 10
37.11893622425441
 20
17.16541727427824
 10
37.14935001745426
 20
16.99814141167832
 10
37.20366036245423
 20
16.83738279047833
 10
37.27317760405413
 20
16.68096899687833
 10
37.36224656985451
 20
16.53324485847832
 10
37.4686948460544
 20
16.39203796147848
 10
37.59139277747863
 20
16.26082416795833
 10
37.72759182618666
 20
16.13969037447049
 10
37.87493622665443
 20
16.02924485687839
 10
38.0356948478543
 20
15.93148623587848
 10
38.21132146910168
 20
15.84658830457437
 10
38.391970711054
 20
15.77290002847843
 10
38.58314312545417
 20
15.7164172696784
 10
38.78300519505456
 20
15.67296899367846
 10
38.99155691985425
 20
15.64690002807839
 10
39.20228105845445
 20
15.6382103728784
 10
41.32145214420688
 20
15.63821037287852
 10
41.16090828015467
 20
15.70128117661346
 10
40.9773441363518
 20
15.79190145013621
 10
40.80887773018185
 20
15.89643114306767
 10
40.64604483542143
 20
16.01204938149311
 10
40.50213246705107
 20
16.14183897803303
 10
40.37469657356678
 20
16.28119266126162
 10
40.26099121882317
 20
16.43168090597413
 10
40.20901998737463
 20
16.51586554807846
 10
39.18055692045437
 20
16.51586554807835
 10
39.04844809244878
 20
16.52342554810246
 10
38.91769485065424
 20
16.54375934127046
 10
38.78952243645426
 20
16.57669313447837
 10
38.6743845050546
 20
16.62231382427848
 10
38.56943953920427
 20
16.67879658307839
 10
38.47128988372015
 20
16.74640210053434
 10
38.38110864205419
 20
16.82434830767835
 10
38.30941898665469
 20
16.90907244587839
 10
40.0369403009131
 20
16.90907244587851
 10
40.02635583364008
 20
16.94170788663672
 10
39.99024402567602
 20
17.12708183418789
 10
39.97820037289375
 20
17.31737154813862
 10
39.99022204532366
 20
17.5121226414937
 10
40.0265277669987
 20
17.69849201276014
 10
40.04312646967355
 20
17.7476241726784
 10
38.27248795205424
 20
17.7476241726784
 10
38.34200519365413
 20
17.84321037987837
 10
38.42455691805435
 20
17.92576210427836
 10
38.51964781490778
 20
17.99562693208639
 10
38.62224657385423
 20
18.05393451847846
 10
38.74093857423077
 20
18.09790417379037
 10
38.86338450565427
 20
18.1299690014784
 10
39.00024657505446
 20
18.14952072567843
 10
39.14362588585436
 20
18.15603796707836
 97
        0
 92
        7
 72
     0
 73
     1
 93
       72
 10
41.96197651549073
 20
18.14143934634245
 10
42.08483955036399
 20
18.15951382915847
 10
42.20890175765407
 20
18.16472762227858
 10
43.47759141685446
 20
18.16472762227858
 10
42.63035003485447
 20
17.3500724472787
 10
44.39652245425441
 20
15.63169313147858
 10
45.71517763085421
 20
15.63169313147858
 10
44.0011431426542
 20
17.37396899907861
 10
45.68259142385431
 20
19.00762417667869
 10
42.24366037845402
 20
19.00762417667846
 10
42.03567348124216
 20
18.99684900423057
 10
41.82895527368919
 20
18.9713883144945
 10
41.6245224454542
 20
18.93158969367852
 10
41.43117761725398
 20
18.87510693487849
 10
41.24435003045391
 20
18.80341727947842
 10
41.07318989197984
 20
18.71738969299844
 10
40.90762589145424
 20
18.62093452027847
 10
40.75555692545413
 20
18.51231383027851
 10
40.61985926985108
 20
18.39300486438247
 10
40.49486726945406
 20
18.26248624327849
 10
40.38624657945411
 20
18.12345176007847
 10
40.29500519985458
 20
17.97572762167857
 10
40.22331554445417
 20
17.82148624187852
 10
40.1690051994542
 20
17.66072762067841
 10
40.1364189924543
 20
17.49345175807838
 10
40.12555692345403
 20
17.31748624027835
 10
40.1364189924543
 20
17.14586555007844
 10
40.1690051994542
 20
16.97858968747852
 10
40.22114313065458
 20
16.81783106627853
 10
40.29066037225447
 20
16.66358968647847
 10
40.38250133806331
 20
16.51482278945463
 10
40.48788078667349
 20
16.37535382349443
 10
40.60588630428947
 20
16.24631244377457
 10
40.73817761505461
 20
16.12700347787853
 10
40.89029871898538
 20
16.01899106374247
 10
41.04883278845455
 20
15.92062416687844
 10
41.22045347865468
 20
15.83590002867851
 10
41.40293623785464
 20
15.76421037327844
 10
41.59716741088459
 20
15.71016071793446
 10
41.79397072185429
 20
15.66645175227853
 10
42.00252244665444
 20
15.64038278667857
 10
42.21324658525418
 20
15.63169313147858
 10
44.11628107405431
 20
15.63169313147858
 10
43.22993624365426
 20
16.50500347907854
 10
42.21324658525418
 20
16.50500347907854
 10
42.14657955055963
 20
16.50875077201789
 10
42.04563182610172
 20
16.51873313429445
 10
41.92549734296153
 20
16.54019658263854
 10
41.80837817017573
 20
16.57452072067843
 10
41.70688299744006
 20
16.61544899667052
 10
41.65074782484817
 20
16.6436034795185
 10
41.59706313502238
 20
16.67618968651862
 10
41.46450244494599
 20
16.77551244545447
 10
41.39090106540243
 20
16.84555106636657
 10
41.33583472039981
 20
16.91341727347839
 10
41.28712920300358
 20
16.98597589439845
 10
41.24776506494754
 20
17.06314003257438
 10
41.218341892441
 20
17.1445621017985
 10
41.19764313375435
 20
17.23171934345458
 10
41.19012658200654
 20
17.32104899891038
 10
41.19148216821758
 20
17.38335382669442
 10
41.19748671996103
 20
17.44548486137438
 10
41.20964354758553
 20
17.50865865467853
 10
41.22785706488457
 20
17.57035520659855
 10
41.2715052029539
 20
17.66906968967038
 10
41.31303306515519
 20
17.73693589678243
 10
41.37611127225182
 20
17.81496900047847
 10
41.50551321261673
 20
17.9414917375322
 10
41.56478106595431
 20
17.98154969066257
 10
41.64107623861037
 20
18.02586693218239
 10
41.72509651473911
 20
18.0680117599025
 10
41.84163348062656
 20
18.11085176003854
 97
        0
 92
        7
 72
     0
 73
     1
 93
       57
 10
46.52001349547845
 20
18.1193676221348
 10
46.65148797865413
 20
18.15934003605474
 10
46.78617763425427
 20
18.18645176027877
 10
46.92955694505417
 20
18.19514141547864
 10
48.17000522485432
 20
18.19514141547876
 10
48.17000522485432
 20
19.02065865947878
 10
46.93607418645433
 20
19.02065865947867
 10
46.72535004785413
 20
19.01196900427868
 10
46.51897073685404
 20
18.98372762487867
 10
46.32128108105416
 20
18.94245176267867
 10
46.1322810804545
 20
18.88814141767869
 10
45.94762590745403
 20
18.81645176227874
 10
45.78121901037412
 20
18.7338131413266
 10
45.62239818228363
 20
18.63735796860664
 10
45.47231914732447
 20
18.52786831308657
 10
45.33775983655277
 20
18.40864624374268
 10
45.21769487065421
 20
18.27986555367869
 10
45.11341900825437
 20
18.14083107047867
 10
45.02869487005455
 20
17.9952793458786
 10
44.95700521465415
 20
17.84103796607854
 10
44.90703969725427
 20
17.68027934487867
 10
44.87445349025438
 20
17.51300348227875
 10
44.86359142125411
 20
17.33921037827866
 10
44.87445349025438
 20
17.16541727427869
 10
44.90703969725427
 20
16.99814141167866
 10
44.9591776284542
 20
16.83738279047856
 10
45.03086728385414
 20
16.68096899687867
 10
45.11776383585448
 20
16.53324485847867
 10
45.22661045688937
 20
16.39368899596667
 10
45.34646687106305
 20
16.26334416796675
 10
45.48289445770342
 20
16.14203658137461
 10
45.63045349265439
 20
16.03141727067867
 10
45.79121211385427
 20
15.93365864967853
 10
45.96500521785446
 20
15.84893451147872
 10
46.14966039085447
 20
15.77507244227871
 10
46.34083280525419
 20
15.71858968347868
 10
46.54069487485458
 20
15.67514140747874
 10
46.74707418585467
 20
15.65124485567861
 10
46.95997073825447
 20
15.64255520047862
 10
48.17000522485432
 20
15.64255520047874
 10
48.17000522485432
 20
16.50065865147866
 10
46.93607418645433
 20
16.50065865147866
 10
46.8024272894786
 20
16.51099934116661
 10
46.67017073733449
 20
16.53298416882279
 10
46.54955832315818
 20
16.56730830686268
 10
46.43355142623841
 20
16.61527520356679
 10
46.32388797761405
 20
16.67618968651874
 10
46.22682452903018
 20
16.74379520397468
 10
46.13940659771833
 20
16.82356623871072
 10
46.06493625265421
 20
16.90907244587873
 10
48.17000522485432
 20
16.90907244587873
 10
48.17000522485432
 20
17.7367621036787
 10
46.0280052180542
 20
17.7367621036787
 10
46.09752245965455
 20
17.83452072467861
 10
46.18441901165397
 20
17.92358969047853
 10
46.28556659818241
 20
17.99988486313469
 10
46.39297073645457
 20
18.06696900127866
 97
        0
 92
        7
 72
     0
 73
     1
 93
        6
 10
48.40028108765409
 20
19.0076241766788
 10
48.40028108765409
 20
15.63821037287874
 10
50.63786730165475
 20
15.63821037287886
 10
50.63786730165429
 20
16.50500347907888
 10
49.42348798745434
 20
16.50500347907888
 10
49.42348798745434
 20
19.0076241766788
 97
        0
 92
        7
 72
     0
 73
     1
 93
        8
 10
49.65593626405416
 20
19.0076241766788
 10
49.65593626405416
 20
18.18210693267878
 10
50.8898673024546
 20
18.18210693267889
 10
50.8898673024546
 20
15.63169313147881
 10
51.91524661605445
 20
15.63169313147881
 10
51.91524661605445
 20
18.18210693267878
 10
53.15786730965419
 20
18.18210693267889
 10
53.15786730965419
 20
19.00762417667891
 97
        0
 75
     0
 76
     1
 47
0.0142553043587597
 98
        5
 10
39.54317277652945
 20
18.56517450708935
 10
41.81066998987216
 20
18.42262152208371
 10
46.30288172207338
 20
18.47964269463153
 10
49.02673080590512
 20
18.72198291932392
 10
50.43856878813176
 20
18.62219578691059
450
        0
451
        0
460
0.0
461
0.0
452
        0
462
0.0
453
        0
470

  0
LWPOLYLINE
  5
77F4
330
770C
100
AcDbEntity
  8
LW 5015-32-00
 62
     1
100
AcDbPolyline
 90
        8
 70
     1
 43
0.0
 10
51.91524661605445
 20
18.18210693267878
 10
51.91524661605445
 20
15.63169313147881
 10
50.8898673024546
 20
15.63169313147881
 10
50.8898673024546
 20
18.18210693267889
 10
49.65593626405416
 20
18.18210693267878
 10
49.65593626405416
 20
19.0076241766788
 10
53.15786730965419
 20
19.00762417667891
 10
53.15786730965419
 20
18.18210693267889
  0
LWPOLYLINE
  5
77F5
330
770C
100
AcDbEntity
  8
LW 5015-32-00
 62
     1
100
AcDbPolyline
 90
       73
 70
     1
 43
0.0
 10
42.21324658525418
 20
16.50500347907854
 10
43.22993624365426
 20
16.50500347907854
 10
44.11628107405431
 20
15.63169313147858
 10
42.21324658525418
 20
15.63169313147847
 10
42.00252244665444
 20
15.64038278667857
 10
41.79397072185429
 20
15.66645175227853
 10
41.59716741088459
 20
15.71016071793446
 10
41.40293623785464
 20
15.76421037327844
 10
41.22045347865468
 20
15.83590002867851
 10
41.04883278845455
 20
15.92062416687844
 10
40.89029871898538
 20
16.01899106374247
 10
40.73817761505461
 20
16.12700347787853
 10
40.60588630428947
 20
16.24631244377445
 10
40.48788078667349
 20
16.37535382349443
 10
40.38250133806331
 20
16.51482278945451
 10
40.29066037225447
 20
16.66358968647847
 10
40.22114313065458
 20
16.81783106627853
 10
40.1690051994542
 20
16.97858968747852
 10
40.1364189924543
 20
17.14586555007844
 10
40.12555692345403
 20
17.31748624027847
 10
40.1364189924543
 20
17.49345175807838
 10
40.1690051994542
 20
17.66072762067841
 10
40.22331554445417
 20
17.82148624187852
 10
40.29500519985458
 20
17.97572762167846
 10
40.38624657945411
 20
18.12345176007847
 10
40.49486726945406
 20
18.26248624327849
 10
40.61985926985108
 20
18.39300486438259
 10
40.75555692545413
 20
18.51231383027851
 10
40.90762589145424
 20
18.62093452027847
 10
41.07318989197984
 20
18.71738969299844
 10
41.24435003045391
 20
18.80341727947842
 10
41.43117761725398
 20
18.87510693487849
 10
41.6245224454542
 20
18.93158969367863
 10
41.82895527368919
 20
18.9713883144945
 10
42.03567348124216
 20
18.99684900423057
 10
42.24366037845402
 20
19.00762417667846
 10
45.68259142385431
 20
19.00762417667869
 10
44.0011431426542
 20
17.37396899907861
 10
45.71517763085421
 20
15.63169313147858
 10
44.39652245425441
 20
15.63169313147858
 10
42.63035003485447
 20
17.3500724472787
 10
43.47759141685446
 20
18.16472762227858
 10
42.20890175765407
 20
18.16472762227858
 10
42.08483955036399
 20
18.15951382915847
 10
41.96197651549073
 20
18.14143934634245
 10
41.84163348062656
 20
18.11085176003854
 10
41.72509651473911
 20
18.06801175990239
 10
41.64107623860991
 20
18.02586693218251
 10
41.56478106595431
 20
17.98154969066257
 10
41.52453927272335
 20
17.95435106988651
 10
41.48702603122501
 20
17.92341589737447
 10
41.37611127225182
 20
17.81496900047847
 10
41.31303306515519
 20
17.73693589678243
 10
41.27150520295436
 20
17.66906968967049
 10
41.22785706488457
 20
17.57035520659855
 10
41.20964354758553
 20
17.50865865467853
 10
41.19748671996103
 20
17.44548486137449
 10
41.19148216821758
 20
17.38335382669453
 10
41.19012658200654
 20
17.3210489989105
 10
41.19764313375435
 20
17.23171934345458
 10
41.218341892441
 20
17.1445621017985
 10
41.24776506494799
 20
17.06314003257449
 10
41.28712920300358
 20
16.98597589439845
 10
41.33583472039981
 20
16.9134172734785
 10
41.39090106540243
 20
16.84555106636657
 10
41.46450244494599
 20
16.77551244545447
 10
41.59706313502238
 20
16.67618968651862
 10
41.65074782484817
 20
16.6436034795185
 10
41.70688299744006
 20
16.61544899667052
 10
41.80837817017573
 20
16.57452072067843
 10
41.92549734296153
 20
16.54019658263854
 10
42.04563182610172
 20
16.51873313429445
 10
42.14657955055963
 20
16.50875077201789
  0
LWPOLYLINE
  5
77F6
330
770C
100
AcDbEntity
  8
LW 5015-32-00
 62
     1
100
AcDbPolyline
 90
       76
 70
     1
 43
0.0
 10
41.00308333518796
 20
18.84675418464945
 10
40.82769638182344
 20
18.74457630282774
 10
40.66402758574122
 20
18.62767001991204
 10
40.51800767927988
 20
18.4992854581987
 10
40.38352960406746
 20
18.35886132793615
 10
40.26537147983572
 20
18.20761892892022
 10
40.23351265046312
 20
18.15603796707847
 10
39.14362588585436
 20
18.15603796707847
 10
39.00024657505446
 20
18.14952072567843
 10
38.86338450565427
 20
18.1299690014784
 10
38.74093857423077
 20
18.09790417379037
 10
38.62224657385423
 20
18.05393451847846
 10
38.51964781490778
 20
17.99562693208639
 10
38.42455691805435
 20
17.92576210427836
 10
38.34200519365413
 20
17.84321037987837
 10
38.27248795205424
 20
17.7476241726784
 10
40.04312646967355
 20
17.7476241726784
 10
40.0265277669987
 20
17.69849201276014
 10
39.99022204532321
 20
17.51212264149347
 10
39.97820037289375
 20
17.31737154813862
 10
39.99024402567602
 20
17.12708183418789
 10
40.02635583364053
 20
16.94170788663683
 10
40.0369403009131
 20
16.90907244587851
 10
38.30941898665469
 20
16.90907244587839
 10
38.38110864205419
 20
16.82434830767835
 10
38.47128988372015
 20
16.74640210053434
 10
38.56943953920427
 20
16.67879658307839
 10
38.6743845050546
 20
16.62231382427848
 10
38.78952243645426
 20
16.57669313447849
 10
38.91769485065424
 20
16.54375934127046
 10
39.04844809244878
 20
16.52342554810246
 10
39.18055692045437
 20
16.51586554807835
 10
40.20901998737463
 20
16.51586554807846
 10
40.26099121882317
 20
16.43168090597413
 10
40.37469657356678
 20
16.28119266126162
 10
40.50213246705107
 20
16.14183897803303
 10
40.64604483542143
 20
16.01204938149334
 10
40.80887773018185
 20
15.89643114306767
 10
40.9773441363518
 20
15.79190145013621
 10
41.16090828015467
 20
15.70128117661346
 10
41.32145214420688
 20
15.63821037287852
 10
39.20228105845445
 20
15.63821037287829
 10
38.99155691985425
 20
15.64690002807839
 10
38.78300519505456
 20
15.67296899367846
 10
38.58314312545417
 20
15.7164172696784
 10
38.39197071105445
 20
15.77290002847832
 10
38.21132146910122
 20
15.84658830457437
 10
38.0356948478543
 20
15.93148623587848
 10
37.87493622665443
 20
16.02924485687839
 10
37.72759182618666
 20
16.13969037447037
 10
37.59139277747863
 20
16.26082416795833
 10
37.4686948460544
 20
16.39203796147836
 10
37.36224656985405
 20
16.53324485847832
 10
37.27317760405413
 20
16.68096899687833
 10
37.20366036245423
 20
16.83738279047833
 10
37.14935001745426
 20
16.99814141167832
 10
37.11893622425441
 20
17.16541727427847
 10
37.1080741552546
 20
17.33921037827832
 10
37.1167638104539
 20
17.51300348227829
 10
37.14500518985415
 20
17.67810693107839
 10
37.19497070725402
 20
17.83886555227826
 10
37.25797070745421
 20
17.99310693207832
 10
37.34052243185443
 20
18.13865865667839
 10
37.44054036320631
 20
18.27586831228638
 10
37.55180531528367
 20
18.40412762303839
 10
37.67724657085409
 20
18.52317589927833
 10
37.81995417130702
 20
18.62988486513444
 10
37.97052243385451
 20
18.72521038267842
 10
38.13779829645455
 20
18.8077621070783
 10
38.31376381425434
 20
18.87727934867843
 10
38.49841898725435
 20
18.9315896936784
 10
38.69393622925418
 20
18.97286555587851
 10
38.89597071265416
 20
18.99893452147847
 10
39.10886726505442
 20
19.00762417667846
 10
41.36600520325418
 20
19.00762417667857
 10
41.18483626778879
 20
18.93810586423234
  0
LWPOLYLINE
  5
77F7
330
770C
100
AcDbEntity
  8
LW 5015-32-00
 62
     1
100
AcDbPolyline
 90
        6
 70
     1
 43
0.0
 10
50.63786730165475
 20
15.63821037287886
 10
48.40028108765409
 20
15.63821037287874
 10
48.40028108765409
 20
19.0076241766788
 10
49.42348798745434
 20
19.0076241766788
 10
49.42348798745434
 20
16.50500347907888
 10
50.63786730165429
 20
16.50500347907888
  0
LWPOLYLINE
  5
77F8
330
770C
100
AcDbEntity
  8
LW 5015-32-00
 62
     1
100
AcDbPolyline
 90
       57
 70
     1
 43
0.0
 10
45.34646687106305
 20
16.26334416796675
 10
45.22661045688937
 20
16.39368899596655
 10
45.11776383585448
 20
16.53324485847855
 10
45.03086728385414
 20
16.68096899687867
 10
44.9591776284542
 20
16.83738279047856
 10
44.90703969725427
 20
16.99814141167866
 10
44.87445349025438
 20
17.16541727427869
 10
44.86359142125411
 20
17.33921037827866
 10
44.87445349025438
 20
17.51300348227863
 10
44.90703969725427
 20
17.68027934487867
 10
44.95700521465415
 20
17.84103796607854
 10
45.02869487005455
 20
17.99527934587871
 10
45.11341900825437
 20
18.14083107047855
 10
45.21769487065421
 20
18.27986555367869
 10
45.33775983655277
 20
18.40864624374257
 10
45.47231914732447
 20
18.52786831308657
 10
45.62239818228363
 20
18.63735796860664
 10
45.78121901037457
 20
18.73381314132672
 10
45.94762590745403
 20
18.81645176227874
 10
46.1322810804545
 20
18.88814141767869
 10
46.32128108105416
 20
18.94245176267867
 10
46.51897073685404
 20
18.98372762487867
 10
46.72535004785413
 20
19.01196900427868
 10
46.93607418645433
 20
19.02065865947867
 10
48.17000522485432
 20
19.02065865947878
 10
48.17000522485432
 20
18.19514141547876
 10
46.92955694505463
 20
18.19514141547864
 10
46.78617763425427
 20
18.18645176027866
 10
46.65148797865413
 20
18.15934003605474
 10
46.52001349547799
 20
18.11936762213469
 10
46.39297073645457
 20
18.06696900127866
 10
46.28556659818241
 20
17.99988486313469
 10
46.18441901165397
 20
17.92358969047876
 10
46.09752245965455
 20
17.83452072467861
 10
46.0280052180542
 20
17.7367621036787
 10
48.17000522485432
 20
17.7367621036787
 10
48.17000522485432
 20
16.90907244587873
 10
46.06493625265421
 20
16.90907244587873
 10
46.13940659771833
 20
16.82356623871072
 10
46.22682452903018
 20
16.74379520397468
 10
46.32388797761405
 20
16.67618968651874
 10
46.43355142623841
 20
16.61527520356679
 10
46.54955832315818
 20
16.56730830686268
 10
46.67017073733449
 20
16.53298416882279
 10
46.8024272894786
 20
16.51099934116661
 10
46.93607418645433
 20
16.50065865147866
 10
48.17000522485432
 20
16.50065865147866
 10
48.17000522485432
 20
15.64255520047874
 10
46.95997073825447
 20
15.64255520047862
 10
46.74707418585467
 20
15.65124485567861
 10
46.54069487485458
 20
15.67514140747874
 10
46.34083280525419
 20
15.71858968347868
 10
46.14966039085447
 20
15.77507244227871
 10
45.96500521785446
 20
15.84893451147872
 10
45.79121211385427
 20
15.93365864967876
 10
45.63045349265439
 20
16.03141727067867
 10
45.48289445770342
 20
16.14203658137461
  0
ENDBLK
  5
770E
330
770C
100
AcDbEntity
  8
0
100
AcDbBlockEnd
  0
ENDSEC
  0
SECTION
  2
ENTITIES
  0
INSERT
  5
7568
330
23
100
AcDbEntity
  8
0
100
AcDbBlockReference
  2
LW 5015-32-00_a
 10
0.0
 20
0.0
 30
0.0
  0
INSERT
  5
7690
330
23
100
AcDbEntity
  8
0
100
AcDbBlockReference
  2
LW 5015-32-00_b
 10
0.000000000165528
 20
207.0345158723449
 30
0.0
  0
INSERT
  5
770B
330
23
100
AcDbEntity
  8
0
100
AcDbBlockReference
  2
LW 5015-32-00_c
 10
303.6796665410893
 20
207.0345158723449
 30
0.0
  0
INSERT
  5
77F9
330
23
100
AcDbEntity
  8
0
100
AcDbBlockReference
  2
LW 5015-32-00_d
 10
-303.6796665407574
 20
207.034515872345
 30
0.0
  0
ENDSEC
  0
SECTION
  2
OBJECTS
  0
DICTIONARY
  5
C
330
0
100
AcDbDictionary
281
     1
  3
ACAD_COLOR
350
1C
  3
ACAD_GROUP
350
D
  3
ACAD_LAYOUT
350
1A
  3
ACAD_MATERIAL
350
1B
  3
ACAD_MLINESTYLE
350
17
  3
ACAD_PLOTSETTINGS
350
19
  3
ACAD_PLOTSTYLENAME
350
E
  3
ACAD_TABLESTYLE
350
1D
  3
AcDbVariableDictionary
350
1064
  0
DICTIONARY
  5
16C1
330
2
100
AcDbDictionary
280
     1
281
     1
  3
ACAD_LAYERFILTERS
360
6EE0
  3
ACLYDICTIONARY
360
6EDF
  0
DICTIONARY
  5
15A2
330
23
100
AcDbDictionary
280
     1
281
     1
  3
ACAD_SORTENTS
360
15A3
  0
DICTIONARY
  5
106F
330
106E
100
AcDbDictionary
280
     1
281
     1
  3
ACAD_SORTENTS
360
1070
  0
DICTIONARY
  5
1C
102
{ACAD_REACTORS
330
C
102
}
330
C
100
AcDbDictionary
281
     1
  0
DICTIONARY
  5
D
102
{ACAD_REACTORS
330
C
102
}
330
C
100
AcDbDictionary
281
     1
  0
DICTIONARY
  5
1A
102
{ACAD_REACTORS
330
C
102
}
330
C
100
AcDbDictionary
281
     1
  3
Layout1
350
22
  3
Layout2
350
2A
  3
Model
350
26
  0
DICTIONARY
  5
1B
102
{ACAD_REACTORS
330
C
102
}
330
C
100
AcDbDictionary
281
     1
  0
DICTIONARY
  5
17
102
{ACAD_REACTORS
330
C
102
}
330
C
100
AcDbDictionary
281
     1
  3
Standard
350
18
  0
DICTIONARY
  5
19
102
{ACAD_REACTORS
330
C
102
}
330
C
100
AcDbDictionary
281
     1
  0
ACDBDICTIONARYWDFLT
  5
E
102
{ACAD_REACTORS
330
C
102
}
330
C
100
AcDbDictionary
281
     1
  3
Normal
350
F
100
AcDbDictionaryWithDefault
340
F
  0
DICTIONARY
  5
1D
102
{ACAD_REACTORS
330
C
102
}
330
C
100
AcDbDictionary
281
     1
  3
Standard
350
1E
  0
DICTIONARY
  5
1064
102
{ACAD_REACTORS
330
C
102
}
330
C
100
AcDbDictionary
281
     1
  3
CTABLESTYLE
350
1065
  3
DIMASSOC
350
18F4
  3
HIDETEXT
350
18F3
  3
PROJECTNAME
350
18F5
  0
DICTIONARY
  5
6EE0
102
{ACAD_REACTORS
330
16C1
102
}
330
16C1
100
AcDbDictionary
281
     1
  0
DICTIONARY
  5
6EDF
102
{ACAD_REACTORS
330
16C1
102
}
330
16C1
100
AcDbDictionary
281
     1
1001
ACAD
1000
<All
  0
SORTENTSTABLE
  5
15A3
102
{ACAD_REACTORS
330
15A2
102
}
330
15A2
100
AcDbSortentsTable
330
23
  0
SORTENTSTABLE
  5
1070
102
{ACAD_REACTORS
330
106F
102
}
330
106F
100
AcDbSortentsTable
330
106E
  0
LAYOUT
  5
22
102
{ACAD_REACTORS
330
1A
102
}
330
1A
100
AcDbPlotSettings
  1

  2

  4

  6

 40
0.0
 41
0.0
 42
0.0
 43
0.0
 44
0.0
 45
0.0
 46
0.0
 47
0.0
 48
0.0
 49
0.0
140
0.0
141
0.0
142
1.0
143
1.0
 70
   688
 72
     0
 73
     0
 74
     5
  7

 75
    16
147
1.0
 76
     0
 77
     2
 78
   300
148
0.0
149
0.0
100
AcDbLayout
  1
Layout1
 70
     1
 71
     1
 10
0.0
 20
0.0
 11
2100.0
 21
1485.0
 12
0.0
 22
0.0
 32
0.0
 14
0.0
 24
0.0
 34
0.0
 15
2100.0
 25
1485.0
 35
0.0
146
0.0
 13
0.0
 23
0.0
 33
0.0
 16
1.0
 26
0.0
 36
0.0
 17
0.0
 27
1.0
 37
0.0
 76
     0
330
1F
  0
LAYOUT
  5
2A
102
{ACAD_REACTORS
330
1A
102
}
330
1A
100
AcDbPlotSettings
  1

  2

  4

  6

 40
0.0
 41
0.0
 42
0.0
 43
0.0
 44
0.0
 45
0.0
 46
0.0
 47
0.0
 48
0.0
 49
0.0
140
0.0
141
0.0
142
1.0
143
1.0
 70
   688
 72
     0
 73
     0
 74
     5
  7

 75
    16
147
1.0
 76
     0
 77
     2
 78
   300
148
0.0
149
0.0
100
AcDbLayout
  1
Layout2
 70
     1
 71
     2
 10
0.0
 20
0.0
 11
12.0
 21
9.0
 12
0.0
 22
0.0
 32
0.0
 14
0.0
 24
0.0
 34
0.0
 15
0.0
 25
0.0
 35
0.0
146
0.0
 13
0.0
 23
0.0
 33
0.0
 16
1.0
 26
0.0
 36
0.0
 17
0.0
 27
1.0
 37
0.0
 76
     0
330
27
  0
LAYOUT
  5
26
102
{ACAD_REACTORS
330
1A
102
}
330
1A
100
AcDbPlotSettings
  1

  2

  4

  6

 40
0.0
 41
0.0
 42
0.0
 43
0.0
 44
0.0
 45
0.0
 46
0.0
 47
0.0
 48
0.0
 49
0.0
140
0.0
141
0.0
142
1.0
143
1.0
 70
  1712
 72
     0
 73
     0
 74
     0
  7

 75
     0
147
1.0
 76
     0
 77
     2
 78
   300
148
0.0
149
0.0
100
AcDbLayout
  1
Model
 70
     1
 71
     0
 10
0.0
 20
0.0
 11
12.0
 21
9.0
 12
0.0
 22
0.0
 32
0.0
 14
0.0
 24
0.0
 34
0.0
 15
0.0
 25
0.0
 35
0.0
146
0.0
 13
0.0
 23
0.0
 33
0.0
 16
1.0
 26
0.0
 36
0.0
 17
0.0
 27
1.0
 37
0.0
 76
     0
330
23
  0
MLINESTYLE
  5
18
102
{ACAD_REACTORS
330
17
102
}
330
17
100
AcDbMlineStyle
  2
STANDARD
 70
     0
  3

 62
   256
 51
90.0
 52
90.0
 71
     2
 49
0.5
 62
   256
  6
BYLAYER
 49
-0.5
 62
   256
  6
BYLAYER
  0
ACDBPLACEHOLDER
  5
F
102
{ACAD_REACTORS
330
E
102
}
330
E
  0
TABLESTYLE
  5
1E
102
{ACAD_REACTORS
330
1D
102
}
330
1D
100
AcDbTableStyle
  3
Standard
 70
     0
 71
     0
 40
0.06
 41
0.06
280
     0
281
     0
  7
Standard
140
0.18
170
     2
 62
     0
 63
     7
283
     0
274
    -2
284
     1
 64
     0
275
    -2
285
     1
 65
     0
276
    -2
286
     1
 66
     0
277
    -2
287
     1
 67
     0
278
    -2
288
     1
 68
     0
279
    -2
289
     1
 69
     0
  7
Standard
140
0.25
170
     5
 62
     0
 63
     7
283
     0
274
    -2
284
     1
 64
     0
275
    -2
285
     1
 65
     0
276
    -2
286
     1
 66
     0
277
    -2
287
     1
 67
     0
278
    -2
288
     1
 68
     0
279
    -2
289
     1
 69
     0
  7
Standard
140
0.18
170
     5
 62
     0
 63
     7
283
     0
274
    -2
284
     1
 64
     0
275
    -2
285
     1
 65
     0
276
    -2
286
     1
 66
     0
277
    -2
287
     1
 67
     0
278
    -2
288
     1
 68
     0
279
    -2
289
     1
 69
     0
  0
DICTIONARYVAR
  5
1065
102
{ACAD_REACTORS
330
1064
102
}
330
1064
100
DictionaryVariables
280
     0
  1
STANDARD
  0
DICTIONARYVAR
  5
18F4
102
{ACAD_REACTORS
330
1064
102
}
330
1064
100
DictionaryVariables
280
     0
  1
1
  0
DICTIONARYVAR
  5
18F3
102
{ACAD_REACTORS
330
1064
102
}
330
1064
100
DictionaryVariables
280
     0
  1
1
  0
DICTIONARYVAR
  5
18F5
102
{ACAD_REACTORS
330
1064
102
}
330
1064
100
DictionaryVariables
280
     0
  1

  0
ENDSEC
  0
EOF
