  0
SECTION
  2
HEADER
  9
$ACADVER
  1
AC1018
  9
$ACADMAINTVER
 70
    76
  9
$DWGCODEPAGE
  3
ANSI_1252
  9
$AUTHOR
  1
Grandl
  9
$CUSTOMPROPERTYTAG
  1
Manager
  9
$CUSTOMPROPERTY
  1

  9
$CUSTOMPROPERTYTAG
  1
Firma
  9
$CUSTOMPROPERTY
  1

  9
$CUSTOMPROPERTYTAG
  1
Kategorie
  9
$CUSTOMPROPERTY
  1

  9
$CUSTOMPROPERTYTAG
  1
Bauteilnummer
  9
$CUSTOMPROPERTY
  1
3250-40-00
  9
$CUSTOMPROPERTYTAG
  1
Bezeichnung
  9
$CUSTOMPROPERTY
  1

  9
$CUSTOMPROPERTYTAG
  1
Projekt
  9
$CUSTOMPROPERTY
  1

  9
$CUSTOMPROPERTYTAG
  1
Konstrukteur
  9
$CUSTOMPROPERTY
  1
Grandl
  9
$CUSTOMPROPERTYTAG
  1
Ingenieur
  9
$CUSTOMPROPERTY
  1

  9
$CUSTOMPROPERTYTAG
  1
Bevollmächtigter
  9
$CUSTOMPROPERTY
  1

  9
$CUSTOMPROPERTYTAG
  1
Kostenstelle
  9
$CUSTOMPROPERTY
  1

  9
$CUSTOMPROPERTYTAG
  1
Händler
  9
$CUSTOMPROPERTY
  1

  9
$CUSTOMPROPERTYTAG
  1
Benutzerstatus
  9
$CUSTOMPROPERTY
  1

  9
$CUSTOMPROPERTYTAG
  1
Konstruktionsstatus
  9
$CUSTOMPROPERTY
  1
InBearbeitung
  9
$CUSTOMPROPERTYTAG
  1
Überprüft von
  9
$CUSTOMPROPERTY
  1

  9
$CUSTOMPROPERTYTAG
  1
Konstruktion genehmigt von
  9
$CUSTOMPROPERTY
  1

  9
$CUSTOMPROPERTYTAG
  1
Fertigung genehmigt von
  9
$CUSTOMPROPERTY
  1

  9
$INSBASE
 10
0.0
 20
0.0
 30
0.0
  9
$EXTMIN
 10
-340.782355476051
 20
-37.00000000000006
 30
0.0
  9
$EXTMAX
 10
342.649373436547
 20
244.0345158723449
 30
0.0
  9
$LIMMIN
 10
0.0
 20
0.0
  9
$LIMMAX
 10
2100.0
 20
1485.0
  9
$ORTHOMODE
 70
     1
  9
$REGENMODE
 70
     1
  9
$FILLMODE
 70
     1
  9
$QTEXTMODE
 70
     0
  9
$MIRRTEXT
 70
     0
  9
$LTSCALE
 40
0.5
  9
$ATTMODE
 70
     1
  9
$TEXTSIZE
 40
0.2
  9
$TRACEWID
 40
0.05
  9
$TEXTSTYLE
  7
Standard
  9
$CLAYER
  8
0
  9
$CELTYPE
  6
ByLayer
  9
$CECOLOR
 62
   256
  9
$CELTSCALE
 40
1.0
  9
$DISPSILH
 70
     0
  9
$DIMSCALE
 40
1.0
  9
$DIMASZ
 40
0.18
  9
$DIMEXO
 40
0.0625
  9
$DIMDLI
 40
0.38
  9
$DIMRND
 40
0.0
  9
$DIMDLE
 40
0.0
  9
$DIMEXE
 40
0.18
  9
$DIMTP
 40
0.0
  9
$DIMTM
 40
0.0
  9
$DIMTXT
 40
0.18
  9
$DIMCEN
 40
0.09
  9
$DIMTSZ
 40
0.0
  9
$DIMTOL
 70
     0
  9
$DIMLIM
 70
     0
  9
$DIMTIH
 70
     1
  9
$DIMTOH
 70
     1
  9
$DIMSE1
 70
     0
  9
$DIMSE2
 70
     0
  9
$DIMTAD
 70
     0
  9
$DIMZIN
 70
     0
  9
$DIMBLK
  1

  9
$DIMASO
 70
     1
  9
$DIMSHO
 70
     1
  9
$DIMPOST
  1

  9
$DIMAPOST
  1

  9
$DIMALT
 70
     0
  9
$DIMALTD
 70
     2
  9
$DIMALTF
 40
25.4
  9
$DIMLFAC
 40
1.0
  9
$DIMTOFL
 70
     0
  9
$DIMTVP
 40
0.0
  9
$DIMTIX
 70
     0
  9
$DIMSOXD
 70
     0
  9
$DIMSAH
 70
     0
  9
$DIMBLK1
  1

  9
$DIMBLK2
  1

  9
$DIMSTYLE
  2
Standard
  9
$DIMCLRD
 70
     0
  9
$DIMCLRE
 70
     0
  9
$DIMCLRT
 70
     0
  9
$DIMTFAC
 40
1.0
  9
$DIMGAP
 40
0.09
  9
$DIMJUST
 70
     0
  9
$DIMSD1
 70
     0
  9
$DIMSD2
 70
     0
  9
$DIMTOLJ
 70
     1
  9
$DIMTZIN
 70
     0
  9
$DIMALTZ
 70
     0
  9
$DIMALTTZ
 70
     0
  9
$DIMUPT
 70
     0
  9
$DIMDEC
 70
     4
  9
$DIMTDEC
 70
     4
  9
$DIMALTU
 70
     2
  9
$DIMALTTD
 70
     2
  9
$DIMTXSTY
  7
Standard
  9
$DIMAUNIT
 70
     0
  9
$DIMADEC
 70
     0
  9
$DIMALTRND
 40
0.0
  9
$DIMAZIN
 70
     0
  9
$DIMDSEP
 70
    46
  9
$DIMATFIT
 70
     3
  9
$DIMFRAC
 70
     0
  9
$DIMLDRBLK
  1

  9
$DIMLUNIT
 70
     2
  9
$DIMLWD
 70
    -2
  9
$DIMLWE
 70
    -2
  9
$DIMTMOVE
 70
     0
  9
$LUNITS
 70
     2
  9
$LUPREC
 70
     4
  9
$SKETCHINC
 40
0.1
  9
$FILLETRAD
 40
0.0
  9
$AUNITS
 70
     0
  9
$AUPREC
 70
     0
  9
$MENU
  1
.
  9
$ELEVATION
 40
0.0
  9
$PELEVATION
 40
0.0
  9
$THICKNESS
 40
0.0
  9
$LIMCHECK
 70
     0
  9
$CHAMFERA
 40
0.0
  9
$CHAMFERB
 40
0.0
  9
$CHAMFERC
 40
0.0
  9
$CHAMFERD
 40
0.0
  9
$SKPOLY
 70
     0
  9
$TDCREATE
 40
2453712.483610903
  9
$TDUCREATE
 40
2453712.441944236
  9
$TDUPDATE
 40
2453717.684860903
  9
$TDUUPDATE
 40
2453717.643194237
  9
$TDINDWG
 40
0.1541570255
  9
$TDUSRTIMER
 40
0.1541570255
  9
$USRTIMER
 70
     1
  9
$ANGBASE
 50
0.0
  9
$ANGDIR
 70
     0
  9
$PDMODE
 70
     0
  9
$PDSIZE
 40
0.0
  9
$PLINEWID
 40
0.0
  9
$SPLFRAME
 70
     0
  9
$SPLINETYPE
 70
     6
  9
$SPLINESEGS
 70
     8
  9
$HANDSEED
  5
81A6
  9
$SURFTAB1
 70
     6
  9
$SURFTAB2
 70
     6
  9
$SURFTYPE
 70
     6
  9
$SURFU
 70
     6
  9
$SURFV
 70
     6
  9
$UCSBASE
  2

  9
$UCSNAME
  2

  9
$UCSORG
 10
0.0
 20
0.0
 30
0.0
  9
$UCSXDIR
 10
1.0
 20
0.0
 30
0.0
  9
$UCSYDIR
 10
0.0
 20
1.0
 30
0.0
  9
$UCSORTHOREF
  2

  9
$UCSORTHOVIEW
 70
     0
  9
$UCSORGTOP
 10
0.0
 20
0.0
 30
0.0
  9
$UCSORGBOTTOM
 10
0.0
 20
0.0
 30
0.0
  9
$UCSORGLEFT
 10
0.0
 20
0.0
 30
0.0
  9
$UCSORGRIGHT
 10
0.0
 20
0.0
 30
0.0
  9
$UCSORGFRONT
 10
0.0
 20
0.0
 30
0.0
  9
$UCSORGBACK
 10
0.0
 20
0.0
 30
0.0
  9
$PUCSBASE
  2

  9
$PUCSNAME
  2

  9
$PUCSORG
 10
0.0
 20
0.0
 30
0.0
  9
$PUCSXDIR
 10
1.0
 20
0.0
 30
0.0
  9
$PUCSYDIR
 10
0.0
 20
1.0
 30
0.0
  9
$PUCSORTHOREF
  2

  9
$PUCSORTHOVIEW
 70
     0
  9
$PUCSORGTOP
 10
0.0
 20
0.0
 30
0.0
  9
$PUCSORGBOTTOM
 10
0.0
 20
0.0
 30
0.0
  9
$PUCSORGLEFT
 10
0.0
 20
0.0
 30
0.0
  9
$PUCSORGRIGHT
 10
0.0
 20
0.0
 30
0.0
  9
$PUCSORGFRONT
 10
0.0
 20
0.0
 30
0.0
  9
$PUCSORGBACK
 10
0.0
 20
0.0
 30
0.0
  9
$USERI1
 70
     0
  9
$USERI2
 70
     0
  9
$USERI3
 70
     0
  9
$USERI4
 70
     0
  9
$USERI5
 70
     0
  9
$USERR1
 40
0.0
  9
$USERR2
 40
0.0
  9
$USERR3
 40
0.0
  9
$USERR4
 40
0.0
  9
$USERR5
 40
0.0
  9
$WORLDVIEW
 70
     1
  9
$SHADEDGE
 70
     3
  9
$SHADEDIF
 70
    70
  9
$TILEMODE
 70
     1
  9
$MAXACTVP
 70
    64
  9
$PINSBASE
 10
0.0
 20
0.0
 30
0.0
  9
$PLIMCHECK
 70
     0
  9
$PEXTMIN
 10
0.0
 20
0.0
 30
0.0
  9
$PEXTMAX
 10
2100.0
 20
1485.0
 30
0.0
  9
$PLIMMIN
 10
0.0
 20
0.0
  9
$PLIMMAX
 10
2100.0
 20
1485.0
  9
$UNITMODE
 70
     0
  9
$VISRETAIN
 70
     1
  9
$PLINEGEN
 70
     0
  9
$PSLTSCALE
 70
     1
  9
$TREEDEPTH
 70
  3020
  9
$CMLSTYLE
  2
Standard
  9
$CMLJUST
 70
     0
  9
$CMLSCALE
 40
1.0
  9
$PROXYGRAPHICS
 70
     1
  9
$MEASUREMENT
 70
     1
  9
$CELWEIGHT
370
    -1
  9
$ENDCAPS
280
     0
  9
$JOINSTYLE
280
     0
  9
$LWDISPLAY
290
     0
  9
$INSUNITS
 70
     0
  9
$HYPERLINKBASE
  1

  9
$STYLESHEET
  1

  9
$XEDIT
290
     1
  9
$CEPSNTYPE
380
     0
  9
$PSTYLEMODE
290
     1
  9
$FINGERPRINTGUID
  2
{C0D17482-A639-492A-87FF-6D529B9E67CF}
  9
$VERSIONGUID
  2
{A50FC2FE-EAED-4260-B4FB-6DAD2535D196}
  9
$EXTNAMES
290
     1
  9
$PSVPSCALE
 40
0.0
  9
$OLESTARTUP
290
     0
  9
$SORTENTS
280
   127
  9
$INDEXCTL
280
     0
  9
$HIDETEXT
280
     1
  9
$XCLIPFRAME
290
     0
  9
$HALOGAP
280
     0
  9
$OBSCOLOR
 70
   257
  9
$OBSLTYPE
280
     0
  9
$INTERSECTIONDISPLAY
280
     0
  9
$INTERSECTIONCOLOR
 70
   257
  9
$DIMASSOC
280
     1
  9
$PROJECTNAME
  1

  0
ENDSEC
  0
SECTION
  2
CLASSES
  0
CLASS
  1
ACDBDICTIONARYWDFLT
  2
AcDbDictionaryWithDefault
  3
ObjectDBX Classes
 90
        0
 91
        1
280
     0
281
     0
  0
CLASS
  1
TABLESTYLE
  2
AcDbTableStyle
  3
ObjectDBX Classes
 90
     2047
 91
        1
280
     0
281
     0
  0
CLASS
  1
DICTIONARYVAR
  2
AcDbDictionaryVar
  3
ObjectDBX Classes
 90
        0
 91
        4
280
     0
281
     0
  0
CLASS
  1
SORTENTSTABLE
  2
AcDbSortentsTable
  3
ObjectDBX Classes
 90
        0
 91
        2
280
     0
281
     0
  0
ENDSEC
  0
SECTION
  2
TABLES
  0
TABLE
  2
VPORT
  5
8
330
0
100
AcDbSymbolTable
 70
     3
  0
VPORT
  5
81A5
330
8
100
AcDbSymbolTableRecord
100
AcDbViewportTableRecord
  2
*Active
 70
     0
 10
0.0
 20
0.0
 11
1.0
 21
1.0
 12
0.8953529966479436
 22
103.4739139989433
 13
0.0
 23
0.0
 14
1.0
 24
1.0
 15
0.0
 25
0.0
 16
0.0
 26
0.0
 36
1.0
 17
0.0
 27
0.0
 37
0.0
 40
387.5136391523619
 41
1.773333333333333
 42
50.0
 43
0.0
 44
0.0
 50
0.0
 51
0.0
 71
     0
 72
   100
 73
     1
 74
     1
 75
     0
 76
     0
 77
     0
 78
     0
281
     0
 65
     1
110
0.0
120
0.0
130
0.0
111
1.0
121
0.0
131
0.0
112
0.0
122
1.0
132
0.0
 79
     0
146
0.0
  0
ENDTAB
  0
TABLE
  2
LTYPE
  5
5
330
0
100
AcDbSymbolTable
 70
     3
  0
LTYPE
  5
14
330
5
100
AcDbSymbolTableRecord
100
AcDbLinetypeTableRecord
  2
ByBlock
 70
     0
  3

 72
    65
 73
     0
 40
0.0
  0
LTYPE
  5
15
330
5
100
AcDbSymbolTableRecord
100
AcDbLinetypeTableRecord
  2
ByLayer
 70
     0
  3

 72
    65
 73
     0
 40
0.0
  0
LTYPE
  5
16
330
5
100
AcDbSymbolTableRecord
100
AcDbLinetypeTableRecord
  2
Continuous
 70
     0
  3
Solid line
 72
    65
 73
     0
 40
0.0
  0
LTYPE
  5
1309
330
5
100
AcDbSymbolTableRecord
100
AcDbLinetypeTableRecord
  2
MITTE2
 70
     0
  3
Mitte (.5x) ___ _ ___ _ ___ _ ___ _ ___ _ ___
 72
    65
 73
     4
 40
28.575
 49
19.05
 74
     0
 49
-3.174999999999999
 74
     0
 49
3.174999999999999
 74
     0
 49
-3.174999999999999
 74
     0
  0
LTYPE
  5
16DC
330
5
100
AcDbSymbolTableRecord
100
AcDbLinetypeTableRecord
  2
VERDECKT
 70
     0
  3
Verdeckt __ __ __ __ __ __ __ __ __ __ __ __ __
 72
    65
 73
     2
 40
9.524999999999998
 49
6.349999999999999
 74
     0
 49
-3.174999999999999
 74
     0
  0
ENDTAB
  0
TABLE
  2
LAYER
  5
2
102
{ACAD_XDICTIONARY
360
16C1
102
}
330
0
100
AcDbSymbolTable
 70
     4
  0
LAYER
  5
10
330
2
100
AcDbSymbolTableRecord
100
AcDbLayerTableRecord
  2
0
 70
     0
 62
     7
  6
Continuous
370
    -3
390
F
  0
LAYER
  5
646
330
2
100
AcDbSymbolTableRecord
100
AcDbLayerTableRecord
  2
Defpoints
 70
     0
 62
     7
  6
Continuous
290
     0
370
    -3
390
F
  0
LAYER
  5
130A
330
2
100
AcDbSymbolTableRecord
100
AcDbLayerTableRecord
  2
LW 5016-06-01
 70
     0
 62
     7
  6
Continuous
370
    -3
390
F
  0
LAYER
  5
130B
330
2
100
AcDbSymbolTableRecord
100
AcDbLayerTableRecord
  2
insertpoint_ECKELT
 70
     0
 62
   141
  6
Continuous
370
    -3
390
F
  0
ENDTAB
  0
TABLE
  2
STYLE
  5
3
330
0
100
AcDbSymbolTable
 70
     1
  0
STYLE
  5
11
330
3
100
AcDbSymbolTableRecord
100
AcDbTextStyleTableRecord
  2
Standard
 70
     0
 40
0.0
 41
1.0
 50
0.0
 71
     0
 42
0.2
  3
ARIAL.TTF
  4

1001
ACAD
1000
Arial
1071
      256
  0
ENDTAB
  0
TABLE
  2
VIEW
  5
6
330
0
100
AcDbSymbolTable
 70
     0
  0
ENDTAB
  0
TABLE
  2
UCS
  5
7
330
0
100
AcDbSymbolTable
 70
     0
  0
ENDTAB
  0
TABLE
  2
APPID
  5
9
330
0
100
AcDbSymbolTable
 70
     2
  0
APPID
  5
12
330
9
100
AcDbSymbolTableRecord
100
AcDbRegAppTableRecord
  2
ACAD
 70
     0
  0
APPID
  5
15AA
330
9
100
AcDbSymbolTableRecord
100
AcDbRegAppTableRecord
  2
ACAD_EXEMPT_FROM_CAD_STANDARDS
 70
     0
  0
ENDTAB
  0
TABLE
  2
DIMSTYLE
  5
A
330
0
100
AcDbSymbolTable
 70
     1
100
AcDbDimStyleTable
 71
     1
340
2B
  0
DIMSTYLE
105
2B
330
A
100
AcDbSymbolTableRecord
100
AcDbDimStyleTableRecord
  2
Standard
 70
     0
340
11
  0
ENDTAB
  0
TABLE
  2
BLOCK_RECORD
  5
1
330
0
100
AcDbSymbolTable
 70
     6
  0
BLOCK_RECORD
  5
23
102
{ACAD_XDICTIONARY
360
15A2
102
}
330
1
100
AcDbSymbolTableRecord
100
AcDbBlockTableRecord
  2
*Model_Space
340
26
  0
BLOCK_RECORD
  5
1F
330
1
100
AcDbSymbolTableRecord
100
AcDbBlockTableRecord
  2
*Paper_Space
340
22
  0
BLOCK_RECORD
  5
27
330
1
100
AcDbSymbolTableRecord
100
AcDbBlockTableRecord
  2
*Paper_Space0
340
2A
  0
BLOCK_RECORD
  5
106E
102
{ACAD_XDICTIONARY
360
106F
102
}
330
1
100
AcDbSymbolTableRecord
100
AcDbBlockTableRecord
  2
insertpoint-ECKELT
340
0
102
{BLKREFS
331
7F7A
331
80F2
331
8135
331
818F
102
}
  0
BLOCK_RECORD
  5
7E99
330
1
100
AcDbSymbolTableRecord
100
AcDbBlockTableRecord
  2
LW 5016-06-01_a
340
0
310
2800000020000000200000000100080000000000000400000000000000000000000000000000000000000000000080000080000000808000800000008000800080800000C0C0C000C0DCC000F0CAA6000020400000206000002080000020A0000020C0000020E00000400000004020000040400000406000004080000040A0
310
000040C0000040E00000600000006020000060400000606000006080000060A0000060C0000060E00000800000008020000080400000806000008080000080A0000080C0000080E00000A0000000A0200000A0400000A0600000A0800000A0A00000A0C00000A0E00000C0000000C0200000C0400000C0600000C0800000C0
310
A00000C0C00000C0E00000E0000000E0200000E0400000E0600000E0800000E0A00000E0C00000E0E00040000000400020004000400040006000400080004000A0004000C0004000E00040200000402020004020400040206000402080004020A0004020C0004020E000404000004040200040404000404060004040800040
310
40A0004040C0004040E00040600000406020004060400040606000406080004060A0004060C0004060E00040800000408020004080400040806000408080004080A0004080C0004080E00040A0000040A0200040A0400040A0600040A0800040A0A00040A0C00040A0E00040C0000040C0200040C0400040C0600040C08000
310
40C0A00040C0C00040C0E00040E0000040E0200040E0400040E0600040E0800040E0A00040E0C00040E0E00080000000800020008000400080006000800080008000A0008000C0008000E00080200000802020008020400080206000802080008020A0008020C0008020E00080400000804020008040400080406000804080
310
008040A0008040C0008040E00080600000806020008060400080606000806080008060A0008060C0008060E00080800000808020008080400080806000808080008080A0008080C0008080E00080A0000080A0200080A0400080A0600080A0800080A0A00080A0C00080A0E00080C0000080C0200080C0400080C0600080C0
310
800080C0A00080C0C00080C0E00080E0000080E0200080E0400080E0600080E0800080E0A00080E0C00080E0E000C0000000C0002000C0004000C0006000C0008000C000A000C000C000C000E000C0200000C0202000C0204000C0206000C0208000C020A000C020C000C020E000C0400000C0402000C0404000C0406000C0
310
408000C040A000C040C000C040E000C0600000C0602000C0604000C0606000C0608000C060A000C060C000C060E000C0800000C0802000C0804000C0806000C0808000C080A000C080C000C080E000C0A00000C0A02000C0A04000C0A06000C0A08000C0A0A000C0A0C000C0A0E000C0C00000C0C02000C0C04000C0C06000
310
C0C08000C0C0A000F0FBFF00A4A0A000808080000000FF0000FF000000FFFF00FF000000FF00FF00FFFF0000FFFFFF0000000000000000000000000000000000000000000000000000000000000000000000000000000000000000000000000000000000000000000000000000000000000000000000000000000000000000
310
000000000000000000000000000000000000000000000000000000000000000000000000000000000000000000000000000000000000000000000000000000000000000000000000FA00000000000000000000000000000000000000000000000000000000000000FA00000000000000000000000000000000FA0000000000
310
0000000000FFFFFFFFFFFFFFFF00000000000000000000FFFFFFFAFFFFFF000000000000FFFF0000FFFF0000FFFF000000000000000000FF0000FA0000FF000000000000FFFFFF00FFFF00FFFFFF000000000000FFFFFFFF0000FA00FFFFFFFFFFFFFFFFFFFFFF00FFFF00FFFFFF000000000000FF0000FFFF00FA00FF0000
310
0000000000FFFF0000FFFF0000FFFF0000000000FAFAFAFAFFFFFAFAFAFFFAFAFAFAFAFAFAFAFAFA09FFFFFAFAFAFAFAFAFA000000FFFFFFFF0000FA00FFFFFFFFFFFFFFFFFFFF0000FFFF0000FFFF000000000000000000FF0000FA0000FF000000000000FFFF0000FFFF0000FFFF000000000000000000FF0000FA0000FF
310
000000000000FFFF0000FFFF0000FFFF000000000000000000FFF9F9FA0000FF00000000000000FFFFFFFFFFFFFFFF00000000000000000000FFF9F9FA0000FF0000000000000000000000FA00000000000000000000000000FFF9F9FA0000FF0000000000000000000000FA00000000000000000000000000FF0000FA0000
310
FF00000000000000000000000000000000000000000000000000FF0000FA0000FF00000000000000000000000000000000000000000000000000FF0000FA0000FF00000000000000000000000000000000000000000000000000FDFDFDFDFDFDFD000000000000000000000000000000000000000000000000000000FAFAFA
310
0000000000000000000000000000000000000000000000000000000000FAFAFA000000000000000000000000000000000000000000000000000000000000FA00000000000000000000000000000000000000000000000000000000000000FA00000000000000000000000000000000000000000000000000000000000000FA
310
00000000000000000000000000000000000000000000000000000000000000FA0000000000000000000000000000000000000000000000000000000000000000000000000000000000000000000000000000000000000000000000000000000000000000000000000000000000000000000000000000000000000000000000
310
0000000000000000000000000000000000000000000000000000000000000000000000000000000000000000000000000000000000000000
102
{BLKREFS
331
7FF2
102
}
  0
BLOCK_RECORD
  5
7FF3
330
1
100
AcDbSymbolTableRecord
100
AcDbBlockTableRecord
  2
LW 5016-06-01_b
340
0
310
2800000020000000200000000100080000000000000400000000000000000000000000000000000000000000000080000080000000808000800000008000800080800000C0C0C000C0DCC000F0CAA6000020400000206000002080000020A0000020C0000020E00000400000004020000040400000406000004080000040A0
310
000040C0000040E00000600000006020000060400000606000006080000060A0000060C0000060E00000800000008020000080400000806000008080000080A0000080C0000080E00000A0000000A0200000A0400000A0600000A0800000A0A00000A0C00000A0E00000C0000000C0200000C0400000C0600000C0800000C0
310
A00000C0C00000C0E00000E0000000E0200000E0400000E0600000E0800000E0A00000E0C00000E0E00040000000400020004000400040006000400080004000A0004000C0004000E00040200000402020004020400040206000402080004020A0004020C0004020E000404000004040200040404000404060004040800040
310
40A0004040C0004040E00040600000406020004060400040606000406080004060A0004060C0004060E00040800000408020004080400040806000408080004080A0004080C0004080E00040A0000040A0200040A0400040A0600040A0800040A0A00040A0C00040A0E00040C0000040C0200040C0400040C0600040C08000
310
40C0A00040C0C00040C0E00040E0000040E0200040E0400040E0600040E0800040E0A00040E0C00040E0E00080000000800020008000400080006000800080008000A0008000C0008000E00080200000802020008020400080206000802080008020A0008020C0008020E00080400000804020008040400080406000804080
310
008040A0008040C0008040E00080600000806020008060400080606000806080008060A0008060C0008060E00080800000808020008080400080806000808080008080A0008080C0008080E00080A0000080A0200080A0400080A0600080A0800080A0A00080A0C00080A0E00080C0000080C0200080C0400080C0600080C0
310
800080C0A00080C0C00080C0E00080E0000080E0200080E0400080E0600080E0800080E0A00080E0C00080E0E000C0000000C0002000C0004000C0006000C0008000C000A000C000C000C000E000C0200000C0202000C0204000C0206000C0208000C020A000C020C000C020E000C0400000C0402000C0404000C0406000C0
310
408000C040A000C040C000C040E000C0600000C0602000C0604000C0606000C0608000C060A000C060C000C060E000C0800000C0802000C0804000C0806000C0808000C080A000C080C000C080E000C0A00000C0A02000C0A04000C0A06000C0A08000C0A0A000C0A0C000C0A0E000C0C00000C0C02000C0C04000C0C06000
310
C0C08000C0C0A000F0FBFF00A4A0A000808080000000FF0000FF000000FFFF00FF000000FF00FF00FFFF0000FFFFFF0000000000000000000000000000000000000000000000000000000000000000000000000000000000000000000000000000000000000000000000000000000000000000000000000000000000000000
310
00000000000000000000000000000000000000000000000000000000000000000000000000000000000000000000000000000000000000000000000000000000000000000000000000000000000000000000000000000000000000000000000000000000000000000000000000000000000000000000000000000000000000
310
000000000000000000000000000000000000000000000000000000000000000000000000000000000000000000000000000000000000000000000000000000000000000000000000000000000000000000000000000000000000000000000000000000000000000000FA000000000000000000000000000000000000000000
310
00000000000000000000FA000000000000000000000000000000000000000000000000000000FFFFFFFFFFFFFFFF0000000000000000000000000000000000000000000000FFFFFF00FFFF00FFFFFF000000000000000000000000FA000000000000000000FFFF0000FFFF0000FFFF000000000000FFFFFFFFFFFFFAFFFFFF
310
FFFFFFFFFFFFFFFF0000FFFF0000FFFF000000000000FF000000FF00FA0000FF000000000000FFFF0000FFFF0000FFFF0000000000FAFAFAFAFAFAFAFAFAFAFAFAFAF9F9F9FAFAFAFA09FFFFFAFAFAFAFAFAFA000000FFFFFFFFFF00FA0000FFFFFFF9F9F9FFFFFF0000FFFF0000FFFF00000000000000000000FF00FA00FF
310
00000000000000FFFF0000FFFF0000FFFF0000000000000000000000FFFAFF0000000000000000FFFFFF00FFFF00FFFFFF000000000000000000000000FA00000000000000000000FFFFFFFFFFFFFFFF00000000000000000000000000000000000000000000000000000000FA000000000000000000000000000000000000
310
00000000000000000000000000FA0000000000000000000000000000000000000000000000000000000000000000000000000000000000000000000000000000000000000000000000000000000000000000000000000000000000000000000000000000000000000000000000000000000000000000000000000000000000
310
00000000000000000000000000000000000000000000000000000000000000000000000000000000000000000000000000000000000000000000000000000000000000000000000000000000000000000000000000000000000000000000000000000000000000000000000000000000000000000000000000000000000000
310
0000000000000000000000000000000000000000000000000000000000000000000000000000000000000000000000000000000000000000
102
{BLKREFS
331
80F9
102
}
  0
BLOCK_RECORD
  5
80FA
330
1
100
AcDbSymbolTableRecord
100
AcDbBlockTableRecord
  2
LW 5016-06-01_c
340
0
310
2800000020000000200000000100080000000000000400000000000000000000000000000000000000000000000080000080000000808000800000008000800080800000C0C0C000C0DCC000F0CAA6000020400000206000002080000020A0000020C0000020E00000400000004020000040400000406000004080000040A0
310
000040C0000040E00000600000006020000060400000606000006080000060A0000060C0000060E00000800000008020000080400000806000008080000080A0000080C0000080E00000A0000000A0200000A0400000A0600000A0800000A0A00000A0C00000A0E00000C0000000C0200000C0400000C0600000C0800000C0
310
A00000C0C00000C0E00000E0000000E0200000E0400000E0600000E0800000E0A00000E0C00000E0E00040000000400020004000400040006000400080004000A0004000C0004000E00040200000402020004020400040206000402080004020A0004020C0004020E000404000004040200040404000404060004040800040
310
40A0004040C0004040E00040600000406020004060400040606000406080004060A0004060C0004060E00040800000408020004080400040806000408080004080A0004080C0004080E00040A0000040A0200040A0400040A0600040A0800040A0A00040A0C00040A0E00040C0000040C0200040C0400040C0600040C08000
310
40C0A00040C0C00040C0E00040E0000040E0200040E0400040E0600040E0800040E0A00040E0C00040E0E00080000000800020008000400080006000800080008000A0008000C0008000E00080200000802020008020400080206000802080008020A0008020C0008020E00080400000804020008040400080406000804080
310
008040A0008040C0008040E00080600000806020008060400080606000806080008060A0008060C0008060E00080800000808020008080400080806000808080008080A0008080C0008080E00080A0000080A0200080A0400080A0600080A0800080A0A00080A0C00080A0E00080C0000080C0200080C0400080C0600080C0
310
800080C0A00080C0C00080C0E00080E0000080E0200080E0400080E0600080E0800080E0A00080E0C00080E0E000C0000000C0002000C0004000C0006000C0008000C000A000C000C000C000E000C0200000C0202000C0204000C0206000C0208000C020A000C020C000C020E000C0400000C0402000C0404000C0406000C0
310
408000C040A000C040C000C040E000C0600000C0602000C0604000C0606000C0608000C060A000C060C000C060E000C0800000C0802000C0804000C0806000C0808000C080A000C080C000C080E000C0A00000C0A02000C0A04000C0A06000C0A08000C0A0A000C0A0C000C0A0E000C0C00000C0C02000C0C04000C0C06000
310
C0C08000C0C0A000F0FBFF00A4A0A000808080000000FF0000FF000000FFFF00FF000000FF00FF00FFFF0000FFFFFF0000000000000000000000000000000000000000000000000000000000000000000000000000000000000000000000000000000000000000000000000000000000000000000000000000000000000000
310
00000000000000000000000000000000000000000000000000000000000000000000000000000000000000000000000000000000000000000000000000000000000000000000000000000000000000000000000000000000000000000000000000000000000000000000000000000000000000000000000000000000000000
310
00000000000000000000000000000000000000000000000000000000000000000000000000000000000000000000000000000000000000000000000000000000000000000000000000000000000000000000000000000000000000000000000000000000000000000000FA0000000000000000000000000000000000000000
310
0000000000FFFFFAFFFFFDFA000000000000000000000000000000000000000000000000FF0000FA00FDFAFF0000000000000000000000000000000000000000000000FF000000FA00FDFA00FF000000000000000000000000FFFFFFFFFFFFFFFFFFFFFFFFFFFFFAFFFAFFFFFFFF0000000000000000000000FF0000000000
310
000000FD00FDFFFFFAFFFFFFFDFFFF00000000000000FAFAFAFAFF0000000000000000FDFD00FFFF0909FAFFFAFAFAFAFAFAFA000000FFFF0000FF00000000FAFAFAFAFAFAFAFF09090900FF00FFFF000000000000FAFAFAFAFAFAFAFAFAFAFAFAFAFAFAFAFAFAFAFAFAFAFAFAFAFAFAFAFA00000000FAFAFAFAFF00000000
310
0000000000FDFDFFFFFAFFFFFFFDFF000000000000000000000000FF0000F9F9F9F900000000FDFDFFFFFFFFFA00FF000000000000000000000000FF0000F9F9F9F900000000FD00FDFAFDFDFAFDFF000000000000000000000000FFFFFFFFFFFFFFFFFFFFFFFFFFFFFAFFFFFFFAFF00000000000000000000000000000000
310
0000000000000000000000000000FA00000000000000000000000000000000000000000000000000000000000000000000000000000000000000000000000000000000000000000000000000000000000000000000000000000000000000000000000000000000000000000000000000000000000000000000000000000000
310
00000000000000000000000000000000000000000000000000000000000000000000000000000000000000000000000000000000000000000000000000000000000000000000000000000000000000000000000000000000000000000000000000000000000000000000000000000000000000000000000000000000000000
310
0000000000000000000000000000000000000000000000000000000000000000000000000000000000000000000000000000000000000000
102
{BLKREFS
331
8172
102
}
  0
BLOCK_RECORD
  5
8173
330
1
100
AcDbSymbolTableRecord
100
AcDbBlockTableRecord
  2
LW 5016-06-01_d
340
0
310
2800000020000000200000000100080000000000000400000000000000000000000000000000000000000000000080000080000000808000800000008000800080800000C0C0C000C0DCC000F0CAA6000020400000206000002080000020A0000020C0000020E00000400000004020000040400000406000004080000040A0
310
000040C0000040E00000600000006020000060400000606000006080000060A0000060C0000060E00000800000008020000080400000806000008080000080A0000080C0000080E00000A0000000A0200000A0400000A0600000A0800000A0A00000A0C00000A0E00000C0000000C0200000C0400000C0600000C0800000C0
310
A00000C0C00000C0E00000E0000000E0200000E0400000E0600000E0800000E0A00000E0C00000E0E00040000000400020004000400040006000400080004000A0004000C0004000E00040200000402020004020400040206000402080004020A0004020C0004020E000404000004040200040404000404060004040800040
310
40A0004040C0004040E00040600000406020004060400040606000406080004060A0004060C0004060E00040800000408020004080400040806000408080004080A0004080C0004080E00040A0000040A0200040A0400040A0600040A0800040A0A00040A0C00040A0E00040C0000040C0200040C0400040C0600040C08000
310
40C0A00040C0C00040C0E00040E0000040E0200040E0400040E0600040E0800040E0A00040E0C00040E0E00080000000800020008000400080006000800080008000A0008000C0008000E00080200000802020008020400080206000802080008020A0008020C0008020E00080400000804020008040400080406000804080
310
008040A0008040C0008040E00080600000806020008060400080606000806080008060A0008060C0008060E00080800000808020008080400080806000808080008080A0008080C0008080E00080A0000080A0200080A0400080A0600080A0800080A0A00080A0C00080A0E00080C0000080C0200080C0400080C0600080C0
310
800080C0A00080C0C00080C0E00080E0000080E0200080E0400080E0600080E0800080E0A00080E0C00080E0E000C0000000C0002000C0004000C0006000C0008000C000A000C000C000C000E000C0200000C0202000C0204000C0206000C0208000C020A000C020C000C020E000C0400000C0402000C0404000C0406000C0
310
408000C040A000C040C000C040E000C0600000C0602000C0604000C0606000C0608000C060A000C060C000C060E000C0800000C0802000C0804000C0806000C0808000C080A000C080C000C080E000C0A00000C0A02000C0A04000C0A06000C0A08000C0A0A000C0A0C000C0A0E000C0C00000C0C02000C0C04000C0C06000
310
C0C08000C0C0A000F0FBFF00A4A0A000808080000000FF0000FF000000FFFF00FF000000FF00FF00FFFF0000FFFFFF0000000000000000000000000000000000000000000000000000000000000000000000000000000000000000000000000000000000000000000000000000000000000000000000000000000000000000
310
000000000000000000000000000000000000000000000000000000000000000000000000000000000000000000000000000000000000000000000000000000000000000000000000000000000000000000000000000000000000000000000000000000000000000000000000000000000000000000000000000000FA000000
310
FFFFFFFF00000000000000000000000000000000000000000000000000FFFFFF0000FA00FFFFFF000000000000000000000000000000000000000000FFFA00FDFFFFFA00000000FF00000000000000000000000000000000000000FF00FDFFFF0000FFFFFF000000FF0000000000000000000000000000000000FF0000FFFA
310
000000FA0000FF000000FF000000000000000000000000000000FF0000FF0000FA0000FA000000FFFF0000FF0000000000000000000000000000FF0000FF0000000000FA0000000000FF00FF0000000000000000000000000000FF00FF000000000000FA0000000000FF00FF00000000000000000000000000FF0000FF0000
310
00000000FA000000000000FF00FF00000000000000FAFAFAFAFAFFFAFAFFFAFAFAFAFA0909000000000000FFFDFF000000000000000000000000FF0000FF00000009090909FAFAFAFAFAFAFFFAFFFAFAFAFAFA00000000000000FF0000FF0000000000FA00000000000000FF00FF00000000000000000000000000FF00FF00
310
00F9F9F9F9F9F9F9000000FF0000FF00000000000000000000000000FF0000FF00F9F9F9F9F9F9F9000000FF00FF0000000000000000000000000000FF0000FF0000FA00FA0000000000FF0000FF000000000000000000000000000000FF0000FFFA0000FA000000FFFF0000FF0000000000000000000000000000000000FF
310
00FDFFFF00FA00FFFF000000FF00000000000000000000000000000000000000FFFA00FDFFFFFF00000000FF000000000000000000000000000000000000000000FFFF0000FA0000FFFFFF000000000000000000000000000000000000000000FA0000FFFFFFFFFF0000000000000000000000000000000000000000000000
310
00000000000000000000000000000000000000000000000000000000000000000000000000000000000000000000000000000000000000000000000000000000000000000000000000000000000000000000000000000000000000000000000000000000000000000000000000000000000000000000000000000000000000
310
0000000000000000000000000000000000000000000000000000000000000000000000000000000000000000000000000000000000000000
102
{BLKREFS
331
8195
102
}
  0
ENDTAB
  0
ENDSEC
  0
SECTION
  2
BLOCKS
  0
BLOCK
  5
24
330
23
100
AcDbEntity
  8
0
100
AcDbBlockBegin
  2
*Model_Space
 70
     0
 10
0.0
 20
0.0
 30
0.0
  3
*Model_Space
  1

  0
ENDBLK
  5
25
330
23
100
AcDbEntity
  8
0
100
AcDbBlockEnd
  0
BLOCK
  5
20
330
1F
100
AcDbEntity
 67
     1
  8
0
100
AcDbBlockBegin
  2
*Paper_Space
 70
     0
 10
0.0
 20
0.0
 30
0.0
  3
*Paper_Space
  1

  0
ENDBLK
  5
21
330
1F
100
AcDbEntity
 67
     1
  8
0
100
AcDbBlockEnd
  0
BLOCK
  5
28
330
27
100
AcDbEntity
 67
     1
  8
0
100
AcDbBlockBegin
  2
*Paper_Space0
 70
     0
 10
0.0
 20
0.0
 30
0.0
  3
*Paper_Space0
  1

  0
ENDBLK
  5
29
330
27
100
AcDbEntity
 67
     1
  8
0
100
AcDbBlockEnd
  0
BLOCK
  5
1071
330
106E
100
AcDbEntity
  8
0
100
AcDbBlockBegin
  2
insertpoint-ECKELT
 70
     2
 10
0.0
 20
0.0
 30
0.0
  3
insertpoint-ECKELT
  1

  0
ATTDEF
  5
1072
330
106E
100
AcDbEntity
  8
insertpoint_ECKELT
100
AcDbText
 10
-2.457298772169167
 20
-0.0000000000000284
 30
0.0
 40
0.6
  1
LW
 72
     2
 11
-1.199999999999999
 21
-0.0000000000000284
 31
0.0
100
AcDbAttributeDefinition
  3
Nr. links
  2
LINKS
 70
     0
  0
ATTDEF
  5
1073
330
106E
100
AcDbEntity
  8
insertpoint_ECKELT
100
AcDbText
 10
1.199999999999999
 20
-0.0000000000000284
 30
0.0
 40
0.6
  1
LW
100
AcDbAttributeDefinition
  3
Nr. rechts
  2
RECHTS
 70
     0
  0
LINE
  5
1074
102
{ACAD_REACTORS
330
1077
102
}
330
106E
100
AcDbEntity
  8
insertpoint_ECKELT
100
AcDbLine
 10
0.0
 20
1.799999999999997
 30
0.0
 11
0.0
 21
-1.799999999999997
 31
0.0
  0
LINE
  5
1075
102
{ACAD_REACTORS
330
1077
102
}
330
106E
100
AcDbEntity
  8
insertpoint_ECKELT
100
AcDbLine
 10
-1.8
 20
-0.0000000000000284
 30
0.0
 11
1.8
 21
-0.0000000000000284
 31
0.0
  0
CIRCLE
  5
1076
102
{ACAD_REACTORS
330
1077
102
}
330
106E
100
AcDbEntity
  8
insertpoint_ECKELT
100
AcDbCircle
 10
0.0
 20
0.0
 30
0.0
 40
1.199999999999999
  0
HATCH
  5
1077
330
106E
100
AcDbEntity
  8
insertpoint_ECKELT
100
AcDbHatch
 10
0.0
 20
0.0
 30
0.0
210
0.0
220
0.0
230
1.0
  2
SOLID
 70
     1
 71
     1
 91
        2
 92
        7
 72
     1
 73
     1
 93
        3
 10
0.0
 20
-0.0000000000000284
 42
0.0
 10
0.0
 20
1.200000000000002
 42
0.4142135623731013
 10
-1.199999999999999
 20
-0.0000000000000284
 42
0.0
 97
        3
330
1076
330
1075
330
1074
 92
        7
 72
     1
 73
     1
 93
        3
 10
1.199999999999999
 20
-0.0000000000000284
 42
0.0
 10
0.0
 20
-0.0000000000000284
 42
0.0
 10
0.0
 20
-1.200000000000002
 42
0.4142135623730888
 97
        3
330
1075
330
1074
330
1076
 75
     0
 76
     1
 47
0.0223086566480813
 98
        2
 10
-0.3163651093721391
 20
0.271413292077348
 10
0.7415965996738798
 20
-0.4513871917946233
450
        0
451
        0
460
0.0
461
0.0
452
        0
462
0.0
453
        0
470

  0
ENDBLK
  5
1078
330
106E
100
AcDbEntity
  8
0
100
AcDbBlockEnd
  0
BLOCK
  5
7E9A
330
7E99
100
AcDbEntity
  8
0
100
AcDbBlockBegin
  2
LW 5016-06-01_a
 70
     0
 10
0.0
 20
0.0
 30
0.0
  3
LW 5016-06-01_a
  1

  0
ELLIPSE
  5
7E9C
330
7E99
100
AcDbEntity
  8
LW 5016-06-01
100
AcDbEllipse
 10
18.00000000000023
 20
-9.499999999999943
 30
0.0
 11
-2.499999999999999
 21
0.0000000000002166
 31
0.0
210
0.0
220
0.0
230
1.0
 40
0.8660254037844381
 41
0.7560039322268093
 42
2.385588721363194
  0
POLYLINE
  5
7E9D
330
7E99
100
AcDbEntity
  8
LW 5016-06-01
100
AcDb2dPolyline
 66
     1
 10
0.0
 20
0.0
 30
0.0
 70
   128
  0
VERTEX
  5
7E9E
330
7E9D
100
AcDbEntity
  8
LW 5016-06-01
100
AcDbVertex
100
AcDb2dVertex
 10
20.50000000000023
 20
-12.49999999999994
 30
0.0
  0
VERTEX
  5
7E9F
330
7E9D
100
AcDbEntity
  8
LW 5016-06-01
100
AcDbVertex
100
AcDb2dVertex
 10
20.47898697853111
 20
-12.77545213699335
 30
0.0
  0
VERTEX
  5
7EA0
330
7E9D
100
AcDbEntity
  8
LW 5016-06-01
100
AcDbVertex
100
AcDb2dVertex
 10
20.41565704345726
 20
-13.05167794227594
 30
0.0
  0
VERTEX
  5
7EA1
330
7E9D
100
AcDbEntity
  8
LW 5016-06-01
100
AcDbVertex
100
AcDb2dVertex
 10
20.3095774650576
 20
-13.31962585449213
 30
0.0
  0
VERTEX
  5
7EA2
330
7E9D
100
AcDbEntity
  8
LW 5016-06-01
100
AcDbVertex
100
AcDb2dVertex
 10
20.16169476509117
 20
-13.5708856582641
 30
0.0
  0
VERTEX
  5
7EA3
330
7E9D
100
AcDbEntity
  8
LW 5016-06-01
100
AcDbVertex
100
AcDb2dVertex
 10
19.97847723960899
 20
-13.79940271377558
 30
0.0
  0
VERTEX
  5
7EA4
330
7E9D
100
AcDbEntity
  8
LW 5016-06-01
100
AcDbVertex
100
AcDb2dVertex
 10
19.76776528358482
 20
-13.99964332580561
 30
0.0
  0
VERTEX
  5
7EA5
330
7E9D
100
AcDbEntity
  8
LW 5016-06-01
100
AcDbVertex
100
AcDb2dVertex
 10
19.52740001678489
 20
-14.17419910430902
 30
0.0
  0
VERTEX
  5
7EA6
330
7E9D
100
AcDbEntity
  8
LW 5016-06-01
100
AcDbVertex
100
AcDb2dVertex
 10
19.25476121902488
 20
-14.32525992393488
 30
0.0
  0
VERTEX
  5
7EA7
330
7E9D
100
AcDbEntity
  8
LW 5016-06-01
100
AcDbVertex
100
AcDb2dVertex
 10
18.95699787139915
 20
-14.44669842720026
 30
0.0
  0
VERTEX
  5
7EA8
330
7E9D
100
AcDbEntity
  8
LW 5016-06-01
100
AcDbVertex
100
AcDb2dVertex
 10
18.6418311595919
 20
-14.53354954719538
 30
0.0
  0
VERTEX
  5
7EA9
330
7E9D
100
AcDbEntity
  8
LW 5016-06-01
100
AcDbVertex
100
AcDb2dVertex
 10
18.31929254531883
 20
-14.58527922630304
 30
0.0
  0
VERTEX
  5
7EAA
330
7E9D
100
AcDbEntity
  8
LW 5016-06-01
100
AcDbVertex
100
AcDb2dVertex
 10
18.00000000000023
 20
-14.6024060249328
 30
0.0
  0
VERTEX
  5
7EAB
330
7E9D
100
AcDbEntity
  8
LW 5016-06-01
100
AcDbVertex
100
AcDb2dVertex
 10
17.68070745468162
 20
-14.58527922630304
 30
0.0
  0
VERTEX
  5
7EAC
330
7E9D
100
AcDbEntity
  8
LW 5016-06-01
100
AcDbVertex
100
AcDb2dVertex
 10
17.35816884040855
 20
-14.53354954719538
 30
0.0
  0
VERTEX
  5
7EAD
330
7E9D
100
AcDbEntity
  8
LW 5016-06-01
100
AcDbVertex
100
AcDb2dVertex
 10
17.0430021286013
 20
-14.44669842720026
 30
0.0
  0
VERTEX
  5
7EAE
330
7E9D
100
AcDbEntity
  8
LW 5016-06-01
100
AcDbVertex
100
AcDb2dVertex
 10
16.74523878097557
 20
-14.32525992393488
 30
0.0
  0
VERTEX
  5
7EAF
330
7E9D
100
AcDbEntity
  8
LW 5016-06-01
100
AcDbVertex
100
AcDb2dVertex
 10
16.47259998321556
 20
-14.17419910430902
 30
0.0
  0
VERTEX
  5
7EB0
330
7E9D
100
AcDbEntity
  8
LW 5016-06-01
100
AcDbVertex
100
AcDb2dVertex
 10
16.23223471641563
 20
-13.99964332580561
 30
0.0
  0
VERTEX
  5
7EB1
330
7E9D
100
AcDbEntity
  8
LW 5016-06-01
100
AcDbVertex
100
AcDb2dVertex
 10
16.02152276039146
 20
-13.79940271377558
 30
0.0
  0
VERTEX
  5
7EB2
330
7E9D
100
AcDbEntity
  8
LW 5016-06-01
100
AcDbVertex
100
AcDb2dVertex
 10
15.83830523490928
 20
-13.5708856582641
 30
0.0
  0
VERTEX
  5
7EB3
330
7E9D
100
AcDbEntity
  8
LW 5016-06-01
100
AcDbVertex
100
AcDb2dVertex
 10
15.69042253494285
 20
-13.31962585449213
 30
0.0
  0
VERTEX
  5
7EB4
330
7E9D
100
AcDbEntity
  8
LW 5016-06-01
100
AcDbVertex
100
AcDb2dVertex
 10
15.5843429565432
 20
-13.05167794227594
 30
0.0
  0
VERTEX
  5
7EB5
330
7E9D
100
AcDbEntity
  8
LW 5016-06-01
100
AcDbVertex
100
AcDb2dVertex
 10
15.52101302146934
 20
-12.77545213699335
 30
0.0
  0
VERTEX
  5
7EB6
330
7E9D
100
AcDbEntity
  8
LW 5016-06-01
100
AcDbVertex
100
AcDb2dVertex
 10
15.50000000000023
 20
-12.49999999999994
 30
0.0
  0
SEQEND
  5
7EB7
330
7E9D
100
AcDbEntity
  8
LW 5016-06-01
  0
POLYLINE
  5
7EB8
330
7E99
100
AcDbEntity
  8
LW 5016-06-01
100
AcDb2dPolyline
 66
     1
 10
0.0
 20
0.0
 30
0.0
 70
   128
  0
VERTEX
  5
7EB9
330
7EB8
100
AcDbEntity
  8
LW 5016-06-01
100
AcDbVertex
100
AcDb2dVertex
 10
15.50000000000023
 20
-12.49999999999994
 30
0.0
  0
VERTEX
  5
7EBA
330
7EB8
100
AcDbEntity
  8
LW 5016-06-01
100
AcDbVertex
100
AcDb2dVertex
 10
15.52101302146934
 20
-12.22241878509516
 30
0.0
  0
VERTEX
  5
7EBB
330
7EB8
100
AcDbEntity
  8
LW 5016-06-01
100
AcDbVertex
100
AcDb2dVertex
 10
15.5843429565432
 20
-11.93999171257013
 30
0.0
  0
VERTEX
  5
7EBC
330
7EB8
100
AcDbEntity
  8
LW 5016-06-01
100
AcDbVertex
100
AcDb2dVertex
 10
15.69042253494285
 20
-11.6620504856109
 30
0.0
  0
VERTEX
  5
7EBD
330
7EB8
100
AcDbEntity
  8
LW 5016-06-01
100
AcDbVertex
100
AcDb2dVertex
 10
15.83830523490928
 20
-11.39756798744196
 30
0.0
  0
VERTEX
  5
7EBE
330
7EB8
100
AcDbEntity
  8
LW 5016-06-01
100
AcDbVertex
100
AcDb2dVertex
 10
16.02152276039146
 20
-11.15386009216303
 30
0.0
  0
VERTEX
  5
7EBF
330
7EB8
100
AcDbEntity
  8
LW 5016-06-01
100
AcDbVertex
100
AcDb2dVertex
 10
16.23223471641563
 20
-10.9377777576446
 30
0.0
  0
VERTEX
  5
7EC0
330
7EB8
100
AcDbEntity
  8
LW 5016-06-01
100
AcDbVertex
100
AcDb2dVertex
 10
16.47259998321556
 20
-10.74736952781671
 30
0.0
  0
VERTEX
  5
7EC1
330
7EB8
100
AcDbEntity
  8
LW 5016-06-01
100
AcDbVertex
100
AcDb2dVertex
 10
16.74523878097557
 20
-10.58108925819391
 30
0.0
  0
VERTEX
  5
7EC2
330
7EB8
100
AcDbEntity
  8
LW 5016-06-01
100
AcDbVertex
100
AcDb2dVertex
 10
17.0430021286013
 20
-10.4463899135589
 30
0.0
  0
VERTEX
  5
7EC3
330
7EB8
100
AcDbEntity
  8
LW 5016-06-01
100
AcDbVertex
100
AcDb2dVertex
 10
17.35816884040855
 20
-10.34950613975519
 30
0.0
  0
VERTEX
  5
7EC4
330
7EB8
100
AcDbEntity
  8
LW 5016-06-01
100
AcDbVertex
100
AcDb2dVertex
 10
17.68070745468162
 20
-10.2915477752685
 30
0.0
  0
VERTEX
  5
7EC5
330
7EB8
100
AcDbEntity
  8
LW 5016-06-01
100
AcDbVertex
100
AcDb2dVertex
 10
18.00000000000023
 20
-10.2722799777984
 30
0.0
  0
VERTEX
  5
7EC6
330
7EB8
100
AcDbEntity
  8
LW 5016-06-01
100
AcDbVertex
100
AcDb2dVertex
 10
18.31929254531883
 20
-10.2915477752685
 30
0.0
  0
VERTEX
  5
7EC7
330
7EB8
100
AcDbEntity
  8
LW 5016-06-01
100
AcDbVertex
100
AcDb2dVertex
 10
18.6418311595919
 20
-10.34950613975519
 30
0.0
  0
VERTEX
  5
7EC8
330
7EB8
100
AcDbEntity
  8
LW 5016-06-01
100
AcDbVertex
100
AcDb2dVertex
 10
18.95699787139915
 20
-10.4463899135589
 30
0.0
  0
VERTEX
  5
7EC9
330
7EB8
100
AcDbEntity
  8
LW 5016-06-01
100
AcDbVertex
100
AcDb2dVertex
 10
19.25476121902488
 20
-10.58108925819391
 30
0.0
  0
VERTEX
  5
7ECA
330
7EB8
100
AcDbEntity
  8
LW 5016-06-01
100
AcDbVertex
100
AcDb2dVertex
 10
19.52740001678489
 20
-10.74736952781671
 30
0.0
  0
VERTEX
  5
7ECB
330
7EB8
100
AcDbEntity
  8
LW 5016-06-01
100
AcDbVertex
100
AcDb2dVertex
 10
19.76776528358482
 20
-10.9377777576446
 30
0.0
  0
VERTEX
  5
7ECC
330
7EB8
100
AcDbEntity
  8
LW 5016-06-01
100
AcDbVertex
100
AcDb2dVertex
 10
19.97847723960899
 20
-11.15386009216303
 30
0.0
  0
VERTEX
  5
7ECD
330
7EB8
100
AcDbEntity
  8
LW 5016-06-01
100
AcDbVertex
100
AcDb2dVertex
 10
20.16169476509117
 20
-11.39756798744196
 30
0.0
  0
VERTEX
  5
7ECE
330
7EB8
100
AcDbEntity
  8
LW 5016-06-01
100
AcDbVertex
100
AcDb2dVertex
 10
20.3095774650576
 20
-11.6620504856109
 30
0.0
  0
VERTEX
  5
7ECF
330
7EB8
100
AcDbEntity
  8
LW 5016-06-01
100
AcDbVertex
100
AcDb2dVertex
 10
20.41565704345726
 20
-11.93999171257013
 30
0.0
  0
VERTEX
  5
7ED0
330
7EB8
100
AcDbEntity
  8
LW 5016-06-01
100
AcDbVertex
100
AcDb2dVertex
 10
20.47898697853111
 20
-12.22241878509516
 30
0.0
  0
VERTEX
  5
7ED1
330
7EB8
100
AcDbEntity
  8
LW 5016-06-01
100
AcDbVertex
100
AcDb2dVertex
 10
20.50000000000023
 20
-12.49999999999994
 30
0.0
  0
SEQEND
  5
7ED2
330
7EB8
100
AcDbEntity
  8
LW 5016-06-01
  0
POLYLINE
  5
7ED3
330
7E99
100
AcDbEntity
  8
LW 5016-06-01
100
AcDb2dPolyline
 66
     1
 10
0.0
 20
0.0
 30
0.0
 70
   128
  0
VERTEX
  5
7ED4
330
7ED3
100
AcDbEntity
  8
LW 5016-06-01
100
AcDbVertex
100
AcDb2dVertex
 10
20.50000000000023
 20
25.00000000000011
 30
0.0
  0
VERTEX
  5
7ED5
330
7ED3
100
AcDbEntity
  8
LW 5016-06-01
100
AcDbVertex
100
AcDb2dVertex
 10
20.47898697853111
 20
24.99787092208874
 30
0.0
  0
VERTEX
  5
7ED6
330
7ED3
100
AcDbEntity
  8
LW 5016-06-01
100
AcDbVertex
100
AcDb2dVertex
 10
20.41565704345726
 20
24.99166965484631
 30
0.0
  0
VERTEX
  5
7ED7
330
7ED3
100
AcDbEntity
  8
LW 5016-06-01
100
AcDbVertex
100
AcDb2dVertex
 10
20.3095774650576
 20
24.98167514801037
 30
0.0
  0
VERTEX
  5
7ED8
330
7ED3
100
AcDbEntity
  8
LW 5016-06-01
100
AcDbVertex
100
AcDb2dVertex
 10
20.16169476509117
 20
24.96845483779919
 30
0.0
  0
VERTEX
  5
7ED9
330
7ED3
100
AcDbEntity
  8
LW 5016-06-01
100
AcDbVertex
100
AcDb2dVertex
 10
19.97847723960899
 20
24.95326280593884
 30
0.0
  0
VERTEX
  5
7EDA
330
7ED3
100
AcDbEntity
  8
LW 5016-06-01
100
AcDbVertex
100
AcDb2dVertex
 10
19.76776528358482
 20
24.93742227554333
 30
0.0
  0
VERTEX
  5
7EDB
330
7ED3
100
AcDbEntity
  8
LW 5016-06-01
100
AcDbVertex
100
AcDb2dVertex
 10
19.52740001678489
 20
24.92156982421886
 30
0.0
  0
VERTEX
  5
7EDC
330
7ED3
100
AcDbEntity
  8
LW 5016-06-01
100
AcDbVertex
100
AcDb2dVertex
 10
19.25476121902488
 20
24.90634918212902
 30
0.0
  0
VERTEX
  5
7EDD
330
7ED3
100
AcDbEntity
  8
LW 5016-06-01
100
AcDbVertex
100
AcDb2dVertex
 10
18.95699787139915
 20
24.89308834075939
 30
0.0
  0
VERTEX
  5
7EDE
330
7ED3
100
AcDbEntity
  8
LW 5016-06-01
100
AcDbVertex
100
AcDb2dVertex
 10
18.6418311595919
 20
24.8830556869508
 30
0.0
  0
VERTEX
  5
7EDF
330
7ED3
100
AcDbEntity
  8
LW 5016-06-01
100
AcDbVertex
100
AcDb2dVertex
 10
18.31929254531883
 20
24.87682580947887
 30
0.0
  0
VERTEX
  5
7EE0
330
7ED3
100
AcDbEntity
  8
LW 5016-06-01
100
AcDbVertex
100
AcDb2dVertex
 10
18.00000000000023
 20
24.87468481063854
 30
0.0
  0
VERTEX
  5
7EE1
330
7ED3
100
AcDbEntity
  8
LW 5016-06-01
100
AcDbVertex
100
AcDb2dVertex
 10
17.68070745468162
 20
24.87682580947887
 30
0.0
  0
VERTEX
  5
7EE2
330
7ED3
100
AcDbEntity
  8
LW 5016-06-01
100
AcDbVertex
100
AcDb2dVertex
 10
17.35816884040855
 20
24.8830556869508
 30
0.0
  0
VERTEX
  5
7EE3
330
7ED3
100
AcDbEntity
  8
LW 5016-06-01
100
AcDbVertex
100
AcDb2dVertex
 10
17.0430021286013
 20
24.89308834075939
 30
0.0
  0
VERTEX
  5
7EE4
330
7ED3
100
AcDbEntity
  8
LW 5016-06-01
100
AcDbVertex
100
AcDb2dVertex
 10
16.74523878097557
 20
24.90634918212902
 30
0.0
  0
VERTEX
  5
7EE5
330
7ED3
100
AcDbEntity
  8
LW 5016-06-01
100
AcDbVertex
100
AcDb2dVertex
 10
16.47259998321556
 20
24.92156982421886
 30
0.0
  0
VERTEX
  5
7EE6
330
7ED3
100
AcDbEntity
  8
LW 5016-06-01
100
AcDbVertex
100
AcDb2dVertex
 10
16.23223471641563
 20
24.93742227554333
 30
0.0
  0
VERTEX
  5
7EE7
330
7ED3
100
AcDbEntity
  8
LW 5016-06-01
100
AcDbVertex
100
AcDb2dVertex
 10
16.02152276039146
 20
24.95326280593884
 30
0.0
  0
VERTEX
  5
7EE8
330
7ED3
100
AcDbEntity
  8
LW 5016-06-01
100
AcDbVertex
100
AcDb2dVertex
 10
15.83830523490928
 20
24.96845483779919
 30
0.0
  0
VERTEX
  5
7EE9
330
7ED3
100
AcDbEntity
  8
LW 5016-06-01
100
AcDbVertex
100
AcDb2dVertex
 10
15.69042253494285
 20
24.98167514801037
 30
0.0
  0
VERTEX
  5
7EEA
330
7ED3
100
AcDbEntity
  8
LW 5016-06-01
100
AcDbVertex
100
AcDb2dVertex
 10
15.5843429565432
 20
24.99166965484631
 30
0.0
  0
VERTEX
  5
7EEB
330
7ED3
100
AcDbEntity
  8
LW 5016-06-01
100
AcDbVertex
100
AcDb2dVertex
 10
15.52101302146934
 20
24.99787092208874
 30
0.0
  0
VERTEX
  5
7EEC
330
7ED3
100
AcDbEntity
  8
LW 5016-06-01
100
AcDbVertex
100
AcDb2dVertex
 10
15.50000000000023
 20
25.00000000000011
 30
0.0
  0
SEQEND
  5
7EED
330
7ED3
100
AcDbEntity
  8
LW 5016-06-01
  0
LINE
  5
7EEE
330
7E99
100
AcDbEntity
  8
LW 5016-06-01
100
AcDbLine
 10
22.00000000000023
 20
-24.99999999999995
 30
0.0
 11
22.00000000000023
 21
25.00000000000011
 31
0.0
  0
LINE
  5
7EEF
330
7E99
100
AcDbEntity
  8
LW 5016-06-01
100
AcDbLine
 10
28.00000000000023
 20
-18.99999999999989
 30
0.0
 11
28.00000000000023
 21
19.00000000000005
 31
0.0
  0
LINE
  5
7EF0
330
7E99
100
AcDbEntity
  8
LW 5016-06-01
100
AcDbLine
 10
3.000000000000227
 20
25.00000000000011
 30
0.0
 11
15.50000000000023
 21
25.00000000000011
 31
0.0
  0
LINE
  5
7EF1
330
7E99
100
AcDbEntity
  8
LW 5016-06-01
100
AcDbLine
 10
20.50000000000023
 20
25.00000000000011
 30
0.0
 11
22.00000000000023
 21
25.00000000000011
 31
0.0
  0
LINE
  5
7EF2
330
7E99
100
AcDbEntity
  8
LW 5016-06-01
100
AcDbLine
 10
3.000000000000227
 20
-24.99999999999995
 30
0.0
 11
22.00000000000023
 21
-24.99999999999995
 31
0.0
  0
LINE
  5
7EF3
330
7E99
100
AcDbEntity
  8
LW 5016-06-01
100
AcDbLine
 10
28.00000000000023
 20
-18.99999999999989
 30
0.0
 11
22.00000000000023
 21
-24.99999999999995
 31
0.0
  0
LINE
  5
7EF4
330
7E99
100
AcDbEntity
  8
LW 5016-06-01
100
AcDbLine
 10
28.00000000000023
 20
19.00000000000005
 30
0.0
 11
22.00000000000023
 21
25.00000000000011
 31
0.0
  0
ELLIPSE
  5
7EF5
330
7E99
100
AcDbEntity
  8
LW 5016-06-01
100
AcDbEllipse
 10
-17.99999999999977
 20
-9.499999999999943
 30
0.0
 11
-2.499999999999999
 21
0.0000000000002266
 31
0.0
210
0.0
220
0.0
230
1.0
 40
0.8660254037844385
 41
0.7560039322268231
 42
2.385588721363199
  0
POLYLINE
  5
7EF6
330
7E99
100
AcDbEntity
  8
LW 5016-06-01
100
AcDb2dPolyline
 66
     1
 10
0.0
 20
0.0
 30
0.0
 70
   128
  0
VERTEX
  5
7EF7
330
7EF6
100
AcDbEntity
  8
LW 5016-06-01
100
AcDbVertex
100
AcDb2dVertex
 10
-20.49999999999977
 20
-12.49999999999994
 30
0.0
  0
VERTEX
  5
7EF8
330
7EF6
100
AcDbEntity
  8
LW 5016-06-01
100
AcDbVertex
100
AcDb2dVertex
 10
-20.47898697853065
 20
-12.22241878509516
 30
0.0
  0
VERTEX
  5
7EF9
330
7EF6
100
AcDbEntity
  8
LW 5016-06-01
100
AcDbVertex
100
AcDb2dVertex
 10
-20.4156570434568
 20
-11.93999171257013
 30
0.0
  0
VERTEX
  5
7EFA
330
7EF6
100
AcDbEntity
  8
LW 5016-06-01
100
AcDbVertex
100
AcDb2dVertex
 10
-20.30957746505714
 20
-11.6620504856109
 30
0.0
  0
VERTEX
  5
7EFB
330
7EF6
100
AcDbEntity
  8
LW 5016-06-01
100
AcDbVertex
100
AcDb2dVertex
 10
-20.16169476509071
 20
-11.39756798744196
 30
0.0
  0
VERTEX
  5
7EFC
330
7EF6
100
AcDbEntity
  8
LW 5016-06-01
100
AcDbVertex
100
AcDb2dVertex
 10
-19.97847723960854
 20
-11.15386009216303
 30
0.0
  0
VERTEX
  5
7EFD
330
7EF6
100
AcDbEntity
  8
LW 5016-06-01
100
AcDbVertex
100
AcDb2dVertex
 10
-19.76776528358437
 20
-10.9377777576446
 30
0.0
  0
VERTEX
  5
7EFE
330
7EF6
100
AcDbEntity
  8
LW 5016-06-01
100
AcDbVertex
100
AcDb2dVertex
 10
-19.52740001678444
 20
-10.74736952781671
 30
0.0
  0
VERTEX
  5
7EFF
330
7EF6
100
AcDbEntity
  8
LW 5016-06-01
100
AcDbVertex
100
AcDb2dVertex
 10
-19.25476121902443
 20
-10.58108925819391
 30
0.0
  0
VERTEX
  5
7F00
330
7EF6
100
AcDbEntity
  8
LW 5016-06-01
100
AcDbVertex
100
AcDb2dVertex
 10
-18.9569978713987
 20
-10.4463899135589
 30
0.0
  0
VERTEX
  5
7F01
330
7EF6
100
AcDbEntity
  8
LW 5016-06-01
100
AcDbVertex
100
AcDb2dVertex
 10
-18.64183115959145
 20
-10.34950613975519
 30
0.0
  0
VERTEX
  5
7F02
330
7EF6
100
AcDbEntity
  8
LW 5016-06-01
100
AcDbVertex
100
AcDb2dVertex
 10
-18.31929254531837
 20
-10.2915477752685
 30
0.0
  0
VERTEX
  5
7F03
330
7EF6
100
AcDbEntity
  8
LW 5016-06-01
100
AcDbVertex
100
AcDb2dVertex
 10
-17.99999999999977
 20
-10.2722799777984
 30
0.0
  0
VERTEX
  5
7F04
330
7EF6
100
AcDbEntity
  8
LW 5016-06-01
100
AcDbVertex
100
AcDb2dVertex
 10
-17.68070745468117
 20
-10.2915477752685
 30
0.0
  0
VERTEX
  5
7F05
330
7EF6
100
AcDbEntity
  8
LW 5016-06-01
100
AcDbVertex
100
AcDb2dVertex
 10
-17.3581688404081
 20
-10.34950613975519
 30
0.0
  0
VERTEX
  5
7F06
330
7EF6
100
AcDbEntity
  8
LW 5016-06-01
100
AcDbVertex
100
AcDb2dVertex
 10
-17.04300212860085
 20
-10.4463899135589
 30
0.0
  0
VERTEX
  5
7F07
330
7EF6
100
AcDbEntity
  8
LW 5016-06-01
100
AcDbVertex
100
AcDb2dVertex
 10
-16.74523878097511
 20
-10.58108925819391
 30
0.0
  0
VERTEX
  5
7F08
330
7EF6
100
AcDbEntity
  8
LW 5016-06-01
100
AcDbVertex
100
AcDb2dVertex
 10
-16.4725999832151
 20
-10.74736952781671
 30
0.0
  0
VERTEX
  5
7F09
330
7EF6
100
AcDbEntity
  8
LW 5016-06-01
100
AcDbVertex
100
AcDb2dVertex
 10
-16.23223471641518
 20
-10.9377777576446
 30
0.0
  0
VERTEX
  5
7F0A
330
7EF6
100
AcDbEntity
  8
LW 5016-06-01
100
AcDbVertex
100
AcDb2dVertex
 10
-16.02152276039101
 20
-11.15386009216303
 30
0.0
  0
VERTEX
  5
7F0B
330
7EF6
100
AcDbEntity
  8
LW 5016-06-01
100
AcDbVertex
100
AcDb2dVertex
 10
-15.83830523490883
 20
-11.39756798744196
 30
0.0
  0
VERTEX
  5
7F0C
330
7EF6
100
AcDbEntity
  8
LW 5016-06-01
100
AcDbVertex
100
AcDb2dVertex
 10
-15.6904225349424
 20
-11.6620504856109
 30
0.0
  0
VERTEX
  5
7F0D
330
7EF6
100
AcDbEntity
  8
LW 5016-06-01
100
AcDbVertex
100
AcDb2dVertex
 10
-15.58434295654274
 20
-11.93999171257013
 30
0.0
  0
VERTEX
  5
7F0E
330
7EF6
100
AcDbEntity
  8
LW 5016-06-01
100
AcDbVertex
100
AcDb2dVertex
 10
-15.52101302146889
 20
-12.22241878509516
 30
0.0
  0
VERTEX
  5
7F0F
330
7EF6
100
AcDbEntity
  8
LW 5016-06-01
100
AcDbVertex
100
AcDb2dVertex
 10
-15.49999999999977
 20
-12.49999999999994
 30
0.0
  0
SEQEND
  5
7F10
330
7EF6
100
AcDbEntity
  8
LW 5016-06-01
  0
POLYLINE
  5
7F11
330
7E99
100
AcDbEntity
  8
LW 5016-06-01
100
AcDb2dPolyline
 66
     1
 10
0.0
 20
0.0
 30
0.0
 70
   128
  0
VERTEX
  5
7F12
330
7F11
100
AcDbEntity
  8
LW 5016-06-01
100
AcDbVertex
100
AcDb2dVertex
 10
-15.49999999999977
 20
-12.49999999999994
 30
0.0
  0
VERTEX
  5
7F13
330
7F11
100
AcDbEntity
  8
LW 5016-06-01
100
AcDbVertex
100
AcDb2dVertex
 10
-15.52101302146889
 20
-12.77545213699335
 30
0.0
  0
VERTEX
  5
7F14
330
7F11
100
AcDbEntity
  8
LW 5016-06-01
100
AcDbVertex
100
AcDb2dVertex
 10
-15.58434295654274
 20
-13.05167794227594
 30
0.0
  0
VERTEX
  5
7F15
330
7F11
100
AcDbEntity
  8
LW 5016-06-01
100
AcDbVertex
100
AcDb2dVertex
 10
-15.6904225349424
 20
-13.31962585449213
 30
0.0
  0
VERTEX
  5
7F16
330
7F11
100
AcDbEntity
  8
LW 5016-06-01
100
AcDbVertex
100
AcDb2dVertex
 10
-15.83830523490883
 20
-13.5708856582641
 30
0.0
  0
VERTEX
  5
7F17
330
7F11
100
AcDbEntity
  8
LW 5016-06-01
100
AcDbVertex
100
AcDb2dVertex
 10
-16.02152276039101
 20
-13.79940271377558
 30
0.0
  0
VERTEX
  5
7F18
330
7F11
100
AcDbEntity
  8
LW 5016-06-01
100
AcDbVertex
100
AcDb2dVertex
 10
-16.23223471641518
 20
-13.99964332580561
 30
0.0
  0
VERTEX
  5
7F19
330
7F11
100
AcDbEntity
  8
LW 5016-06-01
100
AcDbVertex
100
AcDb2dVertex
 10
-16.4725999832151
 20
-14.17419910430902
 30
0.0
  0
VERTEX
  5
7F1A
330
7F11
100
AcDbEntity
  8
LW 5016-06-01
100
AcDbVertex
100
AcDb2dVertex
 10
-16.74523878097511
 20
-14.32525992393488
 30
0.0
  0
VERTEX
  5
7F1B
330
7F11
100
AcDbEntity
  8
LW 5016-06-01
100
AcDbVertex
100
AcDb2dVertex
 10
-17.04300212860085
 20
-14.44669842720026
 30
0.0
  0
VERTEX
  5
7F1C
330
7F11
100
AcDbEntity
  8
LW 5016-06-01
100
AcDbVertex
100
AcDb2dVertex
 10
-17.3581688404081
 20
-14.53354954719538
 30
0.0
  0
VERTEX
  5
7F1D
330
7F11
100
AcDbEntity
  8
LW 5016-06-01
100
AcDbVertex
100
AcDb2dVertex
 10
-17.68070745468117
 20
-14.58527922630304
 30
0.0
  0
VERTEX
  5
7F1E
330
7F11
100
AcDbEntity
  8
LW 5016-06-01
100
AcDbVertex
100
AcDb2dVertex
 10
-17.99999999999977
 20
-14.6024060249328
 30
0.0
  0
VERTEX
  5
7F1F
330
7F11
100
AcDbEntity
  8
LW 5016-06-01
100
AcDbVertex
100
AcDb2dVertex
 10
-18.31929254531837
 20
-14.58527922630304
 30
0.0
  0
VERTEX
  5
7F20
330
7F11
100
AcDbEntity
  8
LW 5016-06-01
100
AcDbVertex
100
AcDb2dVertex
 10
-18.64183115959145
 20
-14.53354954719538
 30
0.0
  0
VERTEX
  5
7F21
330
7F11
100
AcDbEntity
  8
LW 5016-06-01
100
AcDbVertex
100
AcDb2dVertex
 10
-18.9569978713987
 20
-14.44669842720026
 30
0.0
  0
VERTEX
  5
7F22
330
7F11
100
AcDbEntity
  8
LW 5016-06-01
100
AcDbVertex
100
AcDb2dVertex
 10
-19.25476121902443
 20
-14.32525992393488
 30
0.0
  0
VERTEX
  5
7F23
330
7F11
100
AcDbEntity
  8
LW 5016-06-01
100
AcDbVertex
100
AcDb2dVertex
 10
-19.52740001678444
 20
-14.17419910430902
 30
0.0
  0
VERTEX
  5
7F24
330
7F11
100
AcDbEntity
  8
LW 5016-06-01
100
AcDbVertex
100
AcDb2dVertex
 10
-19.76776528358437
 20
-13.99964332580561
 30
0.0
  0
VERTEX
  5
7F25
330
7F11
100
AcDbEntity
  8
LW 5016-06-01
100
AcDbVertex
100
AcDb2dVertex
 10
-19.97847723960854
 20
-13.79940271377558
 30
0.0
  0
VERTEX
  5
7F26
330
7F11
100
AcDbEntity
  8
LW 5016-06-01
100
AcDbVertex
100
AcDb2dVertex
 10
-20.16169476509071
 20
-13.5708856582641
 30
0.0
  0
VERTEX
  5
7F27
330
7F11
100
AcDbEntity
  8
LW 5016-06-01
100
AcDbVertex
100
AcDb2dVertex
 10
-20.30957746505714
 20
-13.31962585449213
 30
0.0
  0
VERTEX
  5
7F28
330
7F11
100
AcDbEntity
  8
LW 5016-06-01
100
AcDbVertex
100
AcDb2dVertex
 10
-20.4156570434568
 20
-13.05167794227594
 30
0.0
  0
VERTEX
  5
7F29
330
7F11
100
AcDbEntity
  8
LW 5016-06-01
100
AcDbVertex
100
AcDb2dVertex
 10
-20.47898697853065
 20
-12.77545213699335
 30
0.0
  0
VERTEX
  5
7F2A
330
7F11
100
AcDbEntity
  8
LW 5016-06-01
100
AcDbVertex
100
AcDb2dVertex
 10
-20.49999999999977
 20
-12.49999999999994
 30
0.0
  0
SEQEND
  5
7F2B
330
7F11
100
AcDbEntity
  8
LW 5016-06-01
  0
POLYLINE
  5
7F2C
330
7E99
100
AcDbEntity
  8
LW 5016-06-01
100
AcDb2dPolyline
 66
     1
 10
0.0
 20
0.0
 30
0.0
 70
   128
  0
VERTEX
  5
7F2D
330
7F2C
100
AcDbEntity
  8
LW 5016-06-01
100
AcDbVertex
100
AcDb2dVertex
 10
-15.49999999999977
 20
25.00000000000011
 30
0.0
  0
VERTEX
  5
7F2E
330
7F2C
100
AcDbEntity
  8
LW 5016-06-01
100
AcDbVertex
100
AcDb2dVertex
 10
-15.52101302146889
 20
24.99787092208874
 30
0.0
  0
VERTEX
  5
7F2F
330
7F2C
100
AcDbEntity
  8
LW 5016-06-01
100
AcDbVertex
100
AcDb2dVertex
 10
-15.58434295654274
 20
24.99166965484631
 30
0.0
  0
VERTEX
  5
7F30
330
7F2C
100
AcDbEntity
  8
LW 5016-06-01
100
AcDbVertex
100
AcDb2dVertex
 10
-15.6904225349424
 20
24.98167514801037
 30
0.0
  0
VERTEX
  5
7F31
330
7F2C
100
AcDbEntity
  8
LW 5016-06-01
100
AcDbVertex
100
AcDb2dVertex
 10
-15.83830523490883
 20
24.96845483779919
 30
0.0
  0
VERTEX
  5
7F32
330
7F2C
100
AcDbEntity
  8
LW 5016-06-01
100
AcDbVertex
100
AcDb2dVertex
 10
-16.02152276039101
 20
24.95326280593884
 30
0.0
  0
VERTEX
  5
7F33
330
7F2C
100
AcDbEntity
  8
LW 5016-06-01
100
AcDbVertex
100
AcDb2dVertex
 10
-16.23223471641518
 20
24.93742227554333
 30
0.0
  0
VERTEX
  5
7F34
330
7F2C
100
AcDbEntity
  8
LW 5016-06-01
100
AcDbVertex
100
AcDb2dVertex
 10
-16.4725999832151
 20
24.92156982421886
 30
0.0
  0
VERTEX
  5
7F35
330
7F2C
100
AcDbEntity
  8
LW 5016-06-01
100
AcDbVertex
100
AcDb2dVertex
 10
-16.74523878097511
 20
24.90634918212902
 30
0.0
  0
VERTEX
  5
7F36
330
7F2C
100
AcDbEntity
  8
LW 5016-06-01
100
AcDbVertex
100
AcDb2dVertex
 10
-17.04300212860085
 20
24.89308834075939
 30
0.0
  0
VERTEX
  5
7F37
330
7F2C
100
AcDbEntity
  8
LW 5016-06-01
100
AcDbVertex
100
AcDb2dVertex
 10
-17.3581688404081
 20
24.8830556869508
 30
0.0
  0
VERTEX
  5
7F38
330
7F2C
100
AcDbEntity
  8
LW 5016-06-01
100
AcDbVertex
100
AcDb2dVertex
 10
-17.68070745468117
 20
24.87682580947887
 30
0.0
  0
VERTEX
  5
7F39
330
7F2C
100
AcDbEntity
  8
LW 5016-06-01
100
AcDbVertex
100
AcDb2dVertex
 10
-17.99999999999977
 20
24.87468481063854
 30
0.0
  0
VERTEX
  5
7F3A
330
7F2C
100
AcDbEntity
  8
LW 5016-06-01
100
AcDbVertex
100
AcDb2dVertex
 10
-18.31929254531837
 20
24.87682580947887
 30
0.0
  0
VERTEX
  5
7F3B
330
7F2C
100
AcDbEntity
  8
LW 5016-06-01
100
AcDbVertex
100
AcDb2dVertex
 10
-18.64183115959145
 20
24.8830556869508
 30
0.0
  0
VERTEX
  5
7F3C
330
7F2C
100
AcDbEntity
  8
LW 5016-06-01
100
AcDbVertex
100
AcDb2dVertex
 10
-18.9569978713987
 20
24.89308834075939
 30
0.0
  0
VERTEX
  5
7F3D
330
7F2C
100
AcDbEntity
  8
LW 5016-06-01
100
AcDbVertex
100
AcDb2dVertex
 10
-19.25476121902443
 20
24.90634918212902
 30
0.0
  0
VERTEX
  5
7F3E
330
7F2C
100
AcDbEntity
  8
LW 5016-06-01
100
AcDbVertex
100
AcDb2dVertex
 10
-19.52740001678444
 20
24.92156982421886
 30
0.0
  0
VERTEX
  5
7F3F
330
7F2C
100
AcDbEntity
  8
LW 5016-06-01
100
AcDbVertex
100
AcDb2dVertex
 10
-19.76776528358437
 20
24.93742227554333
 30
0.0
  0
VERTEX
  5
7F40
330
7F2C
100
AcDbEntity
  8
LW 5016-06-01
100
AcDbVertex
100
AcDb2dVertex
 10
-19.97847723960854
 20
24.95326280593884
 30
0.0
  0
VERTEX
  5
7F41
330
7F2C
100
AcDbEntity
  8
LW 5016-06-01
100
AcDbVertex
100
AcDb2dVertex
 10
-20.16169476509071
 20
24.96845483779919
 30
0.0
  0
VERTEX
  5
7F42
330
7F2C
100
AcDbEntity
  8
LW 5016-06-01
100
AcDbVertex
100
AcDb2dVertex
 10
-20.30957746505714
 20
24.98167514801037
 30
0.0
  0
VERTEX
  5
7F43
330
7F2C
100
AcDbEntity
  8
LW 5016-06-01
100
AcDbVertex
100
AcDb2dVertex
 10
-20.4156570434568
 20
24.99166965484631
 30
0.0
  0
VERTEX
  5
7F44
330
7F2C
100
AcDbEntity
  8
LW 5016-06-01
100
AcDbVertex
100
AcDb2dVertex
 10
-20.47898697853065
 20
24.99787092208874
 30
0.0
  0
VERTEX
  5
7F45
330
7F2C
100
AcDbEntity
  8
LW 5016-06-01
100
AcDbVertex
100
AcDb2dVertex
 10
-20.49999999999977
 20
25.00000000000011
 30
0.0
  0
SEQEND
  5
7F46
330
7F2C
100
AcDbEntity
  8
LW 5016-06-01
  0
LINE
  5
7F47
330
7E99
100
AcDbEntity
  8
LW 5016-06-01
100
AcDbLine
 10
-21.99999999999977
 20
25.00000000000011
 30
0.0
 11
-21.99999999999977
 21
-24.99999999999995
 31
0.0
  0
LINE
  5
7F48
330
7E99
100
AcDbEntity
  8
LW 5016-06-01
100
AcDbLine
 10
-27.99999999999978
 20
19.00000000000005
 30
0.0
 11
-27.99999999999978
 21
-18.99999999999989
 31
0.0
  0
LINE
  5
7F49
330
7E99
100
AcDbEntity
  8
LW 5016-06-01
100
AcDbLine
 10
-122.0
 20
10.00000000000011
 30
0.0
 11
-122.0
 21
-9.999999999999943
 31
0.0
  0
LINE
  5
7F4A
330
7E99
100
AcDbEntity
  8
LW 5016-06-01
100
AcDbLine
 10
-123.0
 20
9.000000000000113
 30
0.0
 11
-123.0
 21
-8.999999999999943
 31
0.0
  0
LINE
  5
7F4B
330
7E99
100
AcDbEntity
  8
LW 5016-06-01
100
AcDbLine
 10
-2.999999999999772
 20
-24.99999999999995
 30
0.0
 11
-21.99999999999977
 21
-24.99999999999995
 31
0.0
  0
LINE
  5
7F4C
330
7E99
100
AcDbEntity
  8
LW 5016-06-01
100
AcDbLine
 10
-2.999999999999772
 20
25.00000000000011
 30
0.0
 11
-15.49999999999977
 21
25.00000000000011
 31
0.0
  0
LINE
  5
7F4D
330
7E99
100
AcDbEntity
  8
LW 5016-06-01
100
AcDbLine
 10
-20.49999999999977
 20
25.00000000000011
 30
0.0
 11
-21.99999999999977
 21
25.00000000000011
 31
0.0
  0
LINE
  5
7F4E
330
7E99
100
AcDbEntity
  8
LW 5016-06-01
100
AcDbLine
 10
-27.99999999999978
 20
19.00000000000005
 30
0.0
 11
-21.99999999999977
 21
25.00000000000011
 31
0.0
  0
LINE
  5
7F4F
330
7E99
100
AcDbEntity
  8
LW 5016-06-01
100
AcDbLine
 10
-27.99999999999978
 20
-18.99999999999989
 30
0.0
 11
-21.99999999999977
 21
-24.99999999999995
 31
0.0
  0
ARC
  5
7F50
330
7E99
100
AcDbEntity
  8
LW 5016-06-01
100
AcDbCircle
 10
-29.0
 20
11.00000000000011
 30
0.0
 40
1.000000000000002
100
AcDbArc
 50
270.0
 51
0.0
  0
ARC
  5
7F51
330
7E99
100
AcDbEntity
  8
LW 5016-06-01
100
AcDbCircle
 10
-29.0
 20
-10.99999999999994
 30
0.0
 40
1.000000000000002
100
AcDbArc
 50
0.0
 51
90.0
  0
LINE
  5
7F52
330
7E99
100
AcDbEntity
  8
LW 5016-06-01
100
AcDbLine
 10
-29.0
 20
-9.999999999999943
 30
0.0
 11
-70.60435004493385
 21
-9.999999999999943
 31
0.0
  0
LINE
  5
7F53
330
7E99
100
AcDbEntity
  8
LW 5016-06-01
100
AcDbLine
 10
-105.3956499550656
 20
-9.999999999999943
 30
0.0
 11
-122.0
 21
-9.999999999999943
 31
0.0
  0
LINE
  5
7F54
330
7E99
100
AcDbEntity
  8
LW 5016-06-01
100
AcDbLine
 10
-29.0
 20
10.00000000000011
 30
0.0
 11
-70.60435004493469
 21
10.00000000000011
 31
0.0
  0
LINE
  5
7F55
330
7E99
100
AcDbEntity
  8
LW 5016-06-01
100
AcDbLine
 10
-105.3956499550647
 20
10.00000000000011
 30
0.0
 11
-122.0
 21
10.00000000000011
 31
0.0
  0
LINE
  5
7F56
330
7E99
100
AcDbEntity
  8
LW 5016-06-01
100
AcDbLine
 10
-123.0
 20
9.000000000000056
 30
0.0
 11
-122.0
 21
10.00000000000011
 31
0.0
  0
LINE
  5
7F57
330
7E99
100
AcDbEntity
  8
LW 5016-06-01
100
AcDbLine
 10
-123.0
 20
-8.999999999999943
 30
0.0
 11
-122.0
 21
-9.999999999999943
 31
0.0
  0
LINE
  5
7F58
330
7E99
100
AcDbEntity
  8
LW 5016-06-01
100
AcDbLine
 10
-105.4999999999997
 20
60.87500000000005
 30
0.0
 11
-70.49999999999977
 21
60.87500000000005
 31
0.0
  0
LINE
  5
7F59
330
7E99
100
AcDbEntity
  8
LW 5016-06-01
100
AcDbLine
 10
-103.9999999999998
 20
-19.99999999999994
 30
0.0
 11
-71.99999999999977
 21
-19.99999999999994
 31
0.0
  0
LINE
  5
7F5A
330
7E99
100
AcDbEntity
  8
LW 5016-06-01
100
AcDbLine
 10
-70.49999999999977
 20
60.87500000000005
 30
0.0
 11
-70.49999999999977
 21
10.10000000000008
 31
0.0
  0
LINE
  5
7F5B
330
7E99
100
AcDbEntity
  8
LW 5016-06-01
100
AcDbLine
 10
-70.49999999999977
 20
-10.09999999999996
 30
0.0
 11
-70.49999999999977
 21
-18.49999999999994
 31
0.0
  0
LINE
  5
7F5C
330
7E99
100
AcDbEntity
  8
LW 5016-06-01
100
AcDbLine
 10
-105.4999999999997
 20
60.87500000000005
 30
0.0
 11
-105.4999999999997
 21
10.10000000000008
 31
0.0
  0
LINE
  5
7F5D
330
7E99
100
AcDbEntity
  8
LW 5016-06-01
100
AcDbLine
 10
-105.4999999999997
 20
-10.09999999999996
 30
0.0
 11
-105.4999999999997
 21
-18.49999999999994
 31
0.0
  0
ARC
  5
7F5E
330
7E99
100
AcDbEntity
  8
LW 5016-06-01
100
AcDbCircle
 10
-103.9999999999998
 20
-18.49999999999994
 30
0.0
 40
1.500000000000012
100
AcDbArc
 50
180.0
 51
270.0
  0
ARC
  5
7F5F
330
7E99
100
AcDbEntity
  8
LW 5016-06-01
100
AcDbCircle
 10
-71.99999999999977
 20
-18.49999999999994
 30
0.0
 40
1.500000000000012
100
AcDbArc
 50
270.0
 51
0.0
  0
LINE
  5
7F60
330
7E99
100
AcDbEntity
  8
LW 5016-06-01
100
AcDbLine
 10
-93.77309999999988
 20
77.00000000000006
 30
0.0
 11
-82.22689999999989
 21
77.00000000000006
 31
0.0
  0
LINE
  5
7F61
330
7E99
100
AcDbEntity
  8
LW 5016-06-01
100
AcDbLine
 10
-80.99999999999978
 20
75.77310000000017
 30
0.0
 11
-94.99999999999976
 21
75.77310000000017
 31
0.0
  0
LINE
  5
7F62
330
7E99
100
AcDbEntity
  8
LW 5016-06-01
100
AcDbLine
 10
-82.22689999999989
 20
77.00000000000006
 30
0.0
 11
-80.99999999999978
 21
75.77310000000017
 31
0.0
  0
LINE
  5
7F63
330
7E99
100
AcDbEntity
  8
LW 5016-06-01
100
AcDbLine
 10
-93.77309999999988
 20
77.00000000000006
 30
0.0
 11
-94.99999999999976
 21
75.77310000000017
 31
0.0
  0
LINE
  5
7F64
330
7E99
100
AcDbEntity
  8
LW 5016-06-01
100
AcDbLine
 10
-80.99999999999978
 20
75.77310000000017
 30
0.0
 11
-80.99999999999978
 21
60.87500000000005
 31
0.0
  0
LINE
  5
7F65
330
7E99
100
AcDbEntity
  8
LW 5016-06-01
100
AcDbLine
 10
-94.99999999999976
 20
75.77310000000017
 30
0.0
 11
-94.99999999999976
 21
60.87500000000005
 31
0.0
  0
LINE
  5
7F66
330
7E99
100
AcDbEntity
  8
LW 5016-06-01
 62
     3
100
AcDbLine
 10
-82.20549999999979
 20
60.87500000000005
 30
0.0
 11
-82.20549999999979
 21
76.97860000000009
 31
0.0
  0
LINE
  5
7F67
330
7E99
100
AcDbEntity
  8
LW 5016-06-01
 62
     3
100
AcDbLine
 10
-93.79449999999975
 20
76.97860000000009
 30
0.0
 11
-93.79449999999975
 21
60.87500000000005
 31
0.0
  0
LINE
  5
7F68
330
7E99
100
AcDbEntity
  8
LW 5016-06-01
100
AcDbLine
 10
3.000000000000227
 20
-6.999999999999943
 30
0.0
 11
-2.99999999999977
 21
-6.999999999999942
 31
0.0
  0
LINE
  5
7F69
330
7E99
100
AcDbEntity
  8
LW 5016-06-01
100
AcDbLine
 10
3.000000000000225
 20
7.000000000000057
 30
0.0
 11
-2.999999999999772
 21
7.000000000000056
 31
0.0
  0
LINE
  5
7F6A
330
7E99
100
AcDbEntity
  8
LW 5016-06-01
 62
     3
100
AcDbLine
 10
-2.99999999999977
 20
-5.794499999999913
 30
0.0
 11
3.000000000000227
 21
-5.794499999999914
 31
0.0
  0
LINE
  5
7F6B
330
7E99
100
AcDbEntity
  8
LW 5016-06-01
 62
     3
100
AcDbLine
 10
3.000000000000225
 20
5.794500000000084
 30
0.0
 11
-2.999999999999772
 21
5.794500000000084
 31
0.0
  0
LINE
  5
7F6C
330
7E99
100
AcDbEntity
  8
LW 5016-06-01
  6
MITTE2
 62
     3
100
AcDbLine
 10
-87.99999999999977
 20
96.48528480478473
 30
0.0
 11
-87.99999999999977
 21
-28.08786257571905
 31
0.0
  0
LINE
  5
7F6D
330
7E99
100
AcDbEntity
  8
LW 5016-06-01
  6
MITTE2
 62
     3
100
AcDbLine
 10
41.9212863273749
 20
0.0
 30
0.0
 11
-126.9212863273749
 21
0.0
 31
0.0
  0
LINE
  5
7F6E
330
7E99
100
AcDbEntity
  8
LW 5016-06-01
  6
VERDECKT
 62
     6
100
AcDbLine
 10
-102.660108542738
 20
60.00000000000437
 30
0.0
 11
-73.33989145726196
 21
59.99999999999573
 31
0.0
  0
ARC
  5
7F6F
330
7E99
100
AcDbEntity
  8
LW 5016-06-01
  6
VERDECKT
 62
     6
100
AcDbCircle
 10
-102.6601085427376
 20
62.00000000000438
 30
0.0
 40
2.0
100
AcDbArc
 50
250.7099537807859
 51
270.0
  0
ARC
  5
7F70
330
7E99
100
AcDbEntity
  8
LW 5016-06-01
  6
VERDECKT
 62
     6
100
AcDbCircle
 10
-73.3398914572615
 20
61.99999999999573
 30
0.0
 40
2.0
100
AcDbArc
 50
270.0
 51
289.2900462191729
  0
LINE
  5
7F71
330
7E99
100
AcDbEntity
  8
LW 5016-06-01
  6
VERDECKT
 62
     6
100
AcDbLine
 10
-103.3208093921942
 20
60.11228328727276
 30
0.0
 11
-105.4999999999997
 21
60.87500000000528
 31
0.0
  0
LINE
  5
7F72
330
7E99
100
AcDbEntity
  8
LW 5016-06-01
  6
VERDECKT
 62
     6
100
AcDbLine
 10
-72.67919060780582
 20
60.11228328726367
 30
0.0
 11
-70.49999999999977
 21
60.87499999999483
 31
0.0
  0
HATCH
  5
7F73
330
7E99
100
AcDbEntity
  8
LW 5016-06-01
 62
     1
100
AcDbHatch
 10
0.0
 20
0.0
 30
0.0
210
0.0
220
0.0
230
1.0
  2
SOLID
 70
     1
 71
     0
 91
        5
 92
        7
 72
     0
 73
     1
 93
       76
 10
-96.48498282525451
 20
27.54233513799324
 10
-96.53656378709639
 20
27.57419396736606
 10
-96.68780618611208
 20
27.69235209159734
 10
-96.82823031637463
 20
27.82683016681
 10
-96.9566148780882
 20
27.97285007327156
 10
-97.07352116100402
 20
28.13651886935355
 10
-97.1756990428255
 20
28.3119058227183
 10
-97.26705072240839
 20
28.49365875531868
 10
-97.33656903485462
 20
28.6748276907843
 10
-97.33656903485462
 20
26.41768975258429
 10
-97.3278793796544
 20
26.20479320018427
 10
-97.30181041405467
 20
26.00275871678429
 10
-97.26053455185457
 20
25.80724147478424
 10
-97.20622420685458
 20
25.62258630178445
 10
-97.13670696525447
 20
25.4466207839842
 10
-97.05415524085447
 20
25.27934492138439
 10
-96.95882972331038
 20
25.12877665883735
 10
-96.85212075745448
 20
24.98606905838443
 10
-96.73307248121432
 20
24.86062780281378
 10
-96.60481317046242
 20
24.74936285073642
 10
-96.46760351485454
 20
24.64934491938431
 10
-96.32205179025437
 20
24.56679319498431
 10
-96.16781041045442
 20
24.50379319478435
 10
-96.00705178925455
 20
24.45382767738448
 10
-95.84194834045456
 20
24.42558629798447
 10
-95.66815523645436
 20
24.41689664278448
 10
-95.49436213245417
 20
24.42775871178452
 10
-95.32708626985437
 20
24.45817250498436
 10
-95.16632764865425
 20
24.51248284998456
 10
-95.00991385505448
 20
24.58200009158446
 10
-94.86218971665449
 20
24.67106905738461
 10
-94.72098281965463
 20
24.77751733358451
 10
-94.58976902613448
 20
24.90021526500851
 10
-94.46863523264665
 20
25.03641431371676
 10
-94.35818971505431
 20
25.18375871418454
 10
-94.26043109405464
 20
25.34451733538464
 10
-94.17553316275052
 20
25.52014395663178
 10
-94.10184488665436
 20
25.70079319858434
 10
-94.04536212785433
 20
25.89196561298451
 10
-94.00191385185463
 20
26.09182768258444
 10
-93.97584488625444
 20
26.30037940738436
 10
-93.96715523105445
 20
26.51110354598433
 10
-93.96715523105468
 20
28.630274631737
 10
-94.03022603478939
 20
28.46973076768455
 10
-94.12084630831214
 20
28.28616662388214
 10
-94.22537600124361
 20
28.11770021771196
 10
-94.34099423966927
 20
27.95486732295132
 10
-94.47078383620919
 20
27.81095495458118
 10
-94.61013751943756
 20
27.68351906109689
 10
-94.76062576415007
 20
27.5698137063535
 10
-94.84481040625452
 20
27.51784247490474
 10
-94.84481040625452
 20
26.48937940798447
 10
-94.85237040627863
 20
26.35727057997889
 10
-94.87270419944662
 20
26.22651733818435
 10
-94.90563799265443
 20
26.0983449239846
 10
-94.95125868245441
 20
25.98320699258449
 10
-95.00774144125443
 20
25.87826202673415
 10
-95.07534695871028
 20
25.78011237125003
 10
-95.1532931658544
 20
25.68993112958452
 10
-95.23801730405443
 20
25.61824147418457
 10
-95.23801730405466
 20
27.34576278844321
 10
-95.27065274481264
 20
27.33517832117019
 10
-95.45602669236405
 20
27.2990665132059
 10
-95.64631640631478
 20
27.28702286042409
 10
-95.84106749966986
 20
27.29904453285354
 10
-96.02743687093607
 20
27.3353502545288
 10
-96.07656903085445
 20
27.35194895720366
 10
-96.07656903085445
 20
25.58131043958435
 10
-96.17215523805453
 20
25.65082768118447
 10
-96.25470696245429
 20
25.73337940558446
 10
-96.32457179026232
 20
25.82847030243789
 10
-96.38287937665451
 20
25.93106906138434
 10
-96.42684903196641
 20
26.0497610617611
 10
-96.45891385965434
 20
26.17220699318437
 10
-96.47846558385436
 20
26.30906906258434
 10
-96.48498282525451
 20
26.45244837338447
 97
        0
 92
        7
 72
     0
 73
     1
 93
       72
 10
-96.47038420451849
 20
29.27079900302107
 10
-96.48845868733452
 20
29.39366203789388
 10
-96.49367248045473
 20
29.51772424518441
 10
-96.49367248045473
 20
30.78641390438435
 10
-95.67901730545463
 20
29.93917252238436
 10
-93.96063798965451
 20
31.70534494178452
 10
-93.96063798965451
 20
33.02400011838432
 10
-95.70291385725477
 20
31.30996563018454
 10
-97.33656903485462
 20
32.99141391138443
 10
-97.33656903485462
 20
29.55248286598436
 10
-97.32579386240651
 20
29.34449596877227
 10
-97.30033317267043
 20
29.13777776121952
 10
-97.26053455185457
 20
28.93334493298431
 10
-97.20405179305453
 20
28.74000010478432
 10
-97.13236213765458
 20
28.55317251798425
 10
-97.04633455117438
 20
28.38201237950995
 10
-96.94987937845462
 20
28.21644837898436
 10
-96.84125868845468
 20
28.06437941298447
 10
-96.72194972255852
 20
27.92868175738119
 10
-96.59143110145443
 20
27.8036897569844
 10
-96.45239661825463
 20
27.69506906698422
 10
-96.30467247985462
 20
27.60382768738447
 10
-96.15043110005444
 20
27.53213803198429
 10
-95.98967247885457
 20
27.47782768698431
 10
-95.82239661625454
 20
27.44524147998442
 10
-95.64643109845428
 20
27.43437941098438
 10
-95.47481040825459
 20
27.44524147998442
 10
-95.30753454565456
 20
27.47782768698454
 10
-95.14677592445469
 20
27.52996561818446
 10
-94.99253454465451
 20
27.59948285978436
 10
-94.84376764763055
 20
27.6913238255932
 10
-94.70429868167048
 20
27.7967032742036
 10
-94.57525730195062
 20
27.91470879181981
 10
-94.45594833605445
 20
28.04700010258449
 10
-94.34793592191864
 20
28.19912120651571
 10
-94.24956902505437
 20
28.35765527598443
 10
-94.16484488685455
 20
28.52927596618457
 10
-94.0931552314546
 20
28.71175872538453
 10
-94.03910557611061
 20
28.90598989841493
 10
-93.99539661045446
 20
29.1027932093844
 10
-93.96932764485473
 20
29.31134493418455
 10
-93.96063798965451
 20
29.52206907278452
 10
-93.96063798965451
 20
31.42510356158442
 10
-94.83394833725469
 20
30.53875873118438
 10
-94.83394833725469
 20
29.52206907278452
 10
-94.83769563019405
 20
29.45540203808997
 10
-94.84767799247038
 20
29.35445431363161
 10
-94.86914144081447
 20
29.23431983049165
 10
-94.90346557885459
 20
29.11720065770607
 10
-94.94439385484657
 20
29.01570548497017
 10
-94.97254833769465
 20
28.95957031237805
 10
-95.00513454469455
 20
28.90588562255249
 10
-95.10445730363063
 20
28.77332493247633
 10
-95.1744959245425
 20
28.69972355293254
 10
-95.24236213165432
 20
28.64465720793015
 10
-95.31492075257437
 20
28.59595169053392
 10
-95.39208489075054
 20
28.55658755247788
 10
-95.47350695997465
 20
28.52716437997088
 10
-95.56066420163052
 20
28.50646562128446
 10
-95.64999385708643
 20
28.49894906953642
 10
-95.71229868487035
 20
28.5003046557477
 10
-95.77442971955042
 20
28.50630920749092
 10
-95.83760351285446
 20
28.51846603511564
 10
-95.89930006477471
 20
28.53667955241491
 10
-95.99801454784643
 20
28.58032769048424
 10
-96.06588075495848
 20
28.6218555526853
 10
-96.14391385865452
 20
28.68493375978193
 10
-96.27043659570837
 20
28.81433570014684
 10
-96.3104945488385
 20
28.87360355348443
 10
-96.35481179035833
 20
28.94989872614047
 10
-96.39695661807856
 20
29.03391900226921
 10
-96.43979661821459
 20
29.15045596815645
 97
        0
 92
        7
 72
     0
 73
     1
 93
       57
 10
-96.44831248031096
 20
33.82883598300856
 10
-96.48828489423067
 20
33.96031046618447
 10
-96.51539661845482
 20
34.09500012178438
 10
-96.52408627365458
 20
34.23837943258428
 10
-96.52408627365481
 20
35.47882771238443
 10
-97.34960351765494
 20
35.47882771238443
 10
-97.34960351765472
 20
34.24489667398444
 10
-97.34091386245474
 20
34.03417253538447
 10
-97.31267248305471
 20
33.82779322438438
 10
-97.27139662085484
 20
33.6301035685845
 10
-97.21708627585485
 20
33.44110356798438
 10
-97.1453966204549
 20
33.25644839498437
 10
-97.06275799950255
 20
33.09004149790423
 10
-96.96630282678279
 20
32.93122066981397
 10
-96.85681317126274
 20
32.78114163485481
 10
-96.73759110191873
 20
32.64658232408289
 10
-96.60881041185485
 20
32.52651735818432
 10
-96.46977592865461
 20
32.42224149578448
 10
-96.32422420405465
 20
32.33751735758443
 10
-96.16998282425448
 20
32.26582770218425
 10
-96.0092242030546
 20
32.21586218478439
 10
-95.84194834045479
 20
32.18327597778449
 10
-95.66815523645482
 20
32.17241390878445
 10
-95.49436213245462
 20
32.18327597778449
 10
-95.32708626985458
 20
32.21586218478439
 10
-95.16632764865471
 20
32.26800011598431
 10
-95.00991385505471
 20
32.33968977138449
 10
-94.8621897166547
 20
32.42658632338458
 10
-94.72263385414271
 20
32.53543294441971
 10
-94.59228902614269
 20
32.65528935859317
 10
-94.47098143955054
 20
32.79171694523331
 10
-94.36036212885483
 20
32.93927598018451
 10
-94.26260350785469
 20
33.10003460138438
 10
-94.17787936965487
 20
33.27382770538435
 10
-94.10401730045487
 20
33.45848287838459
 10
-94.04753454165485
 20
33.64965529278453
 10
-94.00408626565468
 20
33.84951736238446
 10
-93.98018971385454
 20
34.05589667338456
 10
-93.97150005865478
 20
34.26879322578458
 10
-93.97150005865478
 20
35.47882771238443
 10
-94.82960350965459
 20
35.47882771238443
 10
-94.82960350965459
 20
34.24489667398444
 10
-94.83994419934266
 20
34.11124977700848
 10
-94.86192902699896
 20
33.97899322486461
 10
-94.89625316503861
 20
33.85838081068852
 10
-94.94422006174273
 20
33.74237391376852
 10
-95.00513454469478
 20
33.63271046514439
 10
-95.07274006215084
 20
33.53564701656052
 10
-95.15251109688689
 20
33.44822908524844
 10
-95.23801730405466
 20
33.37375874018454
 10
-95.23801730405466
 20
35.47882771238443
 10
-96.06570696185464
 20
35.47882771238443
 10
-96.06570696185464
 20
33.33682770558431
 10
-96.16346558285478
 20
33.40634494718444
 10
-96.2525345486547
 20
33.49324149918431
 10
-96.32882972131074
 20
33.59438908571252
 10
-96.39591385945459
 20
33.70179322398445
 97
        0
 92
        7
 72
     0
 73
     1
 93
        6
 10
-97.33656903485485
 20
35.70910357518443
 10
-93.96715523105468
 20
35.70910357518443
 10
-93.96715523105489
 20
37.94668978918463
 10
-94.83394833725492
 20
37.94668978918441
 10
-94.83394833725492
 20
36.73231047498445
 10
-97.33656903485485
 20
36.73231047498445
 97
        0
 92
        7
 72
     0
 73
     1
 93
        8
 10
-97.33656903485485
 20
36.96475875158427
 10
-96.51105179085471
 20
36.96475875158427
 10
-96.51105179085494
 20
38.19868978998449
 10
-93.96063798965498
 20
38.19868978998449
 10
-93.96063798965498
 20
39.22406910358456
 10
-96.51105179085471
 20
39.22406910358433
 10
-96.51105179085494
 20
40.4666897971843
 10
-97.33656903485508
 20
40.4666897971843
 97
        0
 75
     0
 76
     1
 47
0.0142553043587597
 98
        5
 10
-96.89411936526539
 20
26.85199526405956
 10
-96.75156638025965
 20
29.11949247740228
 10
-96.8085875528077
 20
33.61170420960372
 10
-97.05092777749996
 20
36.33555329343546
 10
-96.95114064508652
 20
37.7473912756621
450
        0
451
        0
460
0.0
461
0.0
452
        0
462
0.0
453
        0
470

  0
LWPOLYLINE
  5
7F74
330
7E99
100
AcDbEntity
  8
LW 5016-06-01
 62
     1
100
AcDbPolyline
 90
        8
 70
     1
 43
0.0
 10
-96.51105179085471
 20
39.22406910358433
 10
-93.96063798965498
 20
39.22406910358456
 10
-93.96063798965498
 20
38.19868978998449
 10
-96.51105179085494
 20
38.19868978998449
 10
-96.51105179085471
 20
36.96475875158427
 10
-97.33656903485485
 20
36.96475875158427
 10
-97.33656903485508
 20
40.4666897971843
 10
-96.51105179085494
 20
40.4666897971843
  0
LWPOLYLINE
  5
7F75
330
7E99
100
AcDbEntity
  8
LW 5016-06-01
 62
     1
100
AcDbPolyline
 90
       73
 70
     1
 43
0.0
 10
-94.83394833725469
 20
29.52206907278452
 10
-94.83394833725469
 20
30.53875873118438
 10
-93.96063798965451
 20
31.42510356158442
 10
-93.96063798965451
 20
29.52206907278452
 10
-93.96932764485473
 20
29.31134493418455
 10
-93.99539661045446
 20
29.1027932093844
 10
-94.03910557611061
 20
28.90598989841493
 10
-94.0931552314546
 20
28.71175872538453
 10
-94.16484488685455
 20
28.52927596618457
 10
-94.24956902505437
 20
28.35765527598443
 10
-94.34793592191864
 20
28.19912120651571
 10
-94.45594833605445
 20
28.04700010258449
 10
-94.57525730195039
 20
27.91470879181958
 10
-94.70429868167048
 20
27.7967032742036
 10
-94.84376764763055
 20
27.6913238255932
 10
-94.99253454465451
 20
27.59948285978436
 10
-95.14677592445469
 20
27.52996561818446
 10
-95.30753454565456
 20
27.47782768698454
 10
-95.47481040825459
 20
27.44524147998442
 10
-95.64643109845452
 20
27.43437941098438
 10
-95.82239661625454
 20
27.44524147998442
 10
-95.98967247885457
 20
27.47782768698431
 10
-96.15043110005444
 20
27.53213803198452
 10
-96.30467247985462
 20
27.60382768738447
 10
-96.45239661825463
 20
27.69506906698445
 10
-96.59143110145443
 20
27.8036897569844
 10
-96.72194972255875
 20
27.92868175738119
 10
-96.84125868845468
 20
28.06437941298424
 10
-96.94987937845462
 20
28.21644837898436
 10
-97.04633455117438
 20
28.38201237950995
 10
-97.13236213765458
 20
28.55317251798425
 10
-97.20405179305453
 20
28.74000010478432
 10
-97.26053455185457
 20
28.93334493298431
 10
-97.30033317267043
 20
29.13777776121952
 10
-97.32579386240651
 20
29.34449596877227
 10
-97.33656903485462
 20
29.55248286598436
 10
-97.33656903485462
 20
32.99141391138443
 10
-95.70291385725477
 20
31.30996563018454
 10
-93.96063798965451
 20
33.02400011838432
 10
-93.96063798965451
 20
31.70534494178452
 10
-95.67901730545463
 20
29.93917252238436
 10
-96.49367248045473
 20
30.78641390438435
 10
-96.49367248045473
 20
29.51772424518441
 10
-96.48845868733452
 20
29.39366203789388
 10
-96.47038420451849
 20
29.27079900302107
 10
-96.43979661821459
 20
29.15045596815645
 10
-96.39695661807856
 20
29.03391900226921
 10
-96.35481179035856
 20
28.94989872614025
 10
-96.3104945488385
 20
28.87360355348443
 10
-96.28329592806267
 20
28.83336176025324
 10
-96.2523607555504
 20
28.7958485187549
 10
-96.14391385865452
 20
28.68493375978193
 10
-96.06588075495848
 20
28.6218555526853
 10
-95.99801454784666
 20
28.58032769048447
 10
-95.89930006477471
 20
28.53667955241491
 10
-95.83760351285446
 20
28.51846603511564
 10
-95.77442971955042
 20
28.50630920749092
 10
-95.71229868487057
 20
28.5003046557477
 10
-95.64999385708643
 20
28.49894906953642
 10
-95.56066420163052
 20
28.50646562128446
 10
-95.47350695997465
 20
28.52716437997088
 10
-95.39208489075054
 20
28.55658755247811
 10
-95.31492075257437
 20
28.59595169053392
 10
-95.24236213165455
 20
28.64465720792992
 10
-95.1744959245425
 20
28.69972355293254
 10
-95.10445730363063
 20
28.77332493247633
 10
-95.00513454469455
 20
28.90588562255249
 10
-94.97254833769465
 20
28.95957031237805
 10
-94.94439385484657
 20
29.01570548497017
 10
-94.90346557885459
 20
29.11720065770607
 10
-94.86914144081447
 20
29.23431983049165
 10
-94.84767799247038
 20
29.35445431363161
 10
-94.83769563019405
 20
29.45540203808997
  0
LWPOLYLINE
  5
7F76
330
7E99
100
AcDbEntity
  8
LW 5016-06-01
 62
     1
100
AcDbPolyline
 90
       76
 70
     1
 43
0.0
 10
-97.1756990428255
 20
28.3119058227183
 10
-97.07352116100379
 20
28.13651886935355
 10
-96.9566148780882
 20
27.97285007327156
 10
-96.82823031637463
 20
27.82683016681
 10
-96.68780618611208
 20
27.69235209159734
 10
-96.53656378709639
 20
27.57419396736606
 10
-96.48498282525451
 20
27.54233513799324
 10
-96.48498282525451
 20
26.45244837338447
 10
-96.47846558385436
 20
26.30906906258434
 10
-96.45891385965434
 20
26.17220699318437
 10
-96.42684903196641
 20
26.0497610617611
 10
-96.38287937665451
 20
25.93106906138434
 10
-96.32457179026232
 20
25.82847030243812
 10
-96.25470696245429
 20
25.73337940558446
 10
-96.17215523805453
 20
25.65082768118424
 10
-96.07656903085445
 20
25.58131043958435
 10
-96.07656903085445
 20
27.35194895720366
 10
-96.02743687093607
 20
27.3353502545288
 10
-95.8410674996694
 20
27.29904453285332
 10
-95.64631640631478
 20
27.28702286042409
 10
-95.45602669236405
 20
27.2990665132059
 10
-95.27065274481287
 20
27.33517832117042
 10
-95.23801730405466
 20
27.34576278844321
 10
-95.23801730405443
 20
25.61824147418457
 10
-95.1532931658544
 20
25.68993112958452
 10
-95.07534695871028
 20
25.78011237125003
 10
-95.00774144125443
 20
25.87826202673415
 10
-94.95125868245441
 20
25.98320699258449
 10
-94.90563799265464
 20
26.0983449239846
 10
-94.87270419944662
 20
26.22651733818435
 10
-94.85237040627863
 20
26.35727057997889
 10
-94.84481040625452
 20
26.48937940798447
 10
-94.84481040625452
 20
27.51784247490474
 10
-94.76062576415007
 20
27.5698137063535
 10
-94.61013751943756
 20
27.68351906109689
 10
-94.47078383620919
 20
27.81095495458118
 10
-94.34099423966927
 20
27.95486732295132
 10
-94.22537600124361
 20
28.11770021771196
 10
-94.12084630831214
 20
28.28616662388214
 10
-94.03022603478939
 20
28.46973076768455
 10
-93.96715523105468
 20
28.630274631737
 10
-93.96715523105422
 20
26.51110354598456
 10
-93.97584488625444
 20
26.30037940738436
 10
-94.00191385185463
 20
26.09182768258444
 10
-94.04536212785433
 20
25.89196561298451
 10
-94.10184488665436
 20
25.70079319858456
 10
-94.17553316275052
 20
25.52014395663156
 10
-94.26043109405464
 20
25.34451733538464
 10
-94.35818971505431
 20
25.18375871418454
 10
-94.46863523264642
 20
25.03641431371676
 10
-94.58976902613448
 20
24.90021526500851
 10
-94.72098281965442
 20
24.77751733358451
 10
-94.86218971665449
 20
24.67106905738439
 10
-95.00991385505448
 20
24.58200009158446
 10
-95.16632764865425
 20
24.51248284998456
 10
-95.32708626985437
 20
24.45817250498436
 10
-95.49436213245462
 20
24.42775871178452
 10
-95.66815523645436
 20
24.41689664278448
 10
-95.84194834045433
 20
24.42558629798424
 10
-96.00705178925455
 20
24.45382767738448
 10
-96.16781041045442
 20
24.50379319478435
 10
-96.32205179025437
 20
24.56679319498431
 10
-96.46760351485454
 20
24.64934491938431
 10
-96.60481317046242
 20
24.74936285073642
 10
-96.73307248121455
 20
24.86062780281378
 10
-96.85212075745448
 20
24.98606905838443
 10
-96.95882972331038
 20
25.12877665883735
 10
-97.05415524085447
 20
25.27934492138439
 10
-97.13670696525424
 20
25.44662078398443
 10
-97.20622420685458
 20
25.62258630178445
 10
-97.26053455185457
 20
25.80724147478446
 10
-97.30181041405467
 20
26.00275871678429
 10
-97.3278793796544
 20
26.20479320018427
 10
-97.33656903485462
 20
26.41768975258429
 10
-97.33656903485462
 20
28.67482769078453
 10
-97.26705072240839
 20
28.49365875531868
  0
LWPOLYLINE
  5
7F77
330
7E99
100
AcDbEntity
  8
LW 5016-06-01
 62
     1
100
AcDbPolyline
 90
        6
 70
     1
 43
0.0
 10
-93.96715523105489
 20
37.94668978918463
 10
-93.96715523105468
 20
35.70910357518443
 10
-97.33656903485485
 20
35.70910357518443
 10
-97.33656903485485
 20
36.73231047498445
 10
-94.83394833725492
 20
36.73231047498445
 10
-94.83394833725492
 20
37.94668978918441
  0
LWPOLYLINE
  5
7F78
330
7E99
100
AcDbEntity
  8
LW 5016-06-01
 62
     1
100
AcDbPolyline
 90
       57
 70
     1
 43
0.0
 10
-94.59228902614269
 20
32.65528935859317
 10
-94.72263385414271
 20
32.53543294441971
 10
-94.86218971665449
 20
32.42658632338436
 10
-95.00991385505471
 20
32.33968977138449
 10
-95.16632764865471
 20
32.26800011598431
 10
-95.32708626985458
 20
32.21586218478439
 10
-95.49436213245462
 20
32.18327597778449
 10
-95.66815523645482
 20
32.17241390878445
 10
-95.84194834045456
 20
32.18327597778449
 10
-96.0092242030546
 20
32.21586218478439
 10
-96.16998282425448
 20
32.26582770218425
 10
-96.32422420405465
 20
32.33751735758443
 10
-96.46977592865461
 20
32.42224149578425
 10
-96.60881041185485
 20
32.52651735818432
 10
-96.7375911019185
 20
32.64658232408266
 10
-96.85681317126274
 20
32.78114163485481
 10
-96.96630282678279
 20
32.93122066981397
 10
-97.06275799950276
 20
33.09004149790445
 10
-97.1453966204549
 20
33.25644839498437
 10
-97.21708627585485
 20
33.44110356798438
 10
-97.27139662085484
 20
33.6301035685845
 10
-97.31267248305471
 20
33.82779322438438
 10
-97.34091386245474
 20
34.03417253538447
 10
-97.34960351765472
 20
34.24489667398444
 10
-97.34960351765494
 20
35.47882771238443
 10
-96.52408627365481
 20
35.47882771238443
 10
-96.52408627365458
 20
34.23837943258451
 10
-96.51539661845482
 20
34.09500012178438
 10
-96.48828489423067
 20
33.96031046618447
 10
-96.44831248031074
 20
33.82883598300833
 10
-96.39591385945459
 20
33.70179322398445
 10
-96.32882972131074
 20
33.59438908571252
 10
-96.2525345486547
 20
33.49324149918431
 10
-96.16346558285478
 20
33.40634494718444
 10
-96.06570696185464
 20
33.33682770558431
 10
-96.06570696185464
 20
35.47882771238443
 10
-95.23801730405466
 20
35.47882771238443
 10
-95.23801730405466
 20
33.37375874018454
 10
-95.15251109688689
 20
33.44822908524844
 10
-95.07274006215084
 20
33.53564701656052
 10
-95.00513454469478
 20
33.63271046514439
 10
-94.94422006174273
 20
33.74237391376852
 10
-94.89625316503861
 20
33.85838081068852
 10
-94.86192902699896
 20
33.97899322486461
 10
-94.83994419934266
 20
34.11124977700848
 10
-94.82960350965459
 20
34.24489667398444
 10
-94.82960350965459
 20
35.47882771238443
 10
-93.97150005865478
 20
35.47882771238443
 10
-93.97150005865478
 20
34.26879322578458
 10
-93.98018971385454
 20
34.05589667338456
 10
-94.00408626565468
 20
33.84951736238446
 10
-94.04753454165485
 20
33.64965529278453
 10
-94.10401730045487
 20
33.45848287838459
 10
-94.17787936965487
 20
33.27382770538435
 10
-94.26260350785469
 20
33.10003460138438
 10
-94.36036212885483
 20
32.93927598018451
 10
-94.47098143955054
 20
32.79171694523331
  0
LINE
  5
7F79
330
7E99
100
AcDbEntity
  8
LW 5016-06-01
  6
MITTE2
 62
     3
100
AcDbLine
 10
0.0
 20
37.00000000000006
 30
0.0
 11
0.0
 21
-37.00000000000006
 31
0.0
  0
INSERT
  5
7F7A
330
7E99
100
AcDbEntity
  8
LW 5016-06-01
100
AcDbBlockReference
 66
     1
  2
insertpoint-ECKELT
 10
0.0
 20
0.0
 30
0.0
  0
ATTRIB
  5
7F7B
330
7F7A
100
AcDbEntity
  8
insertpoint_ECKELT
100
AcDbText
 10
-6.93151432469286
 20
0.0
 30
0.0
 40
0.6
  1
LW 5016/06-01
 72
     2
 11
-1.199999999999818
 21
0.0
 31
0.0
100
AcDbAttribute
  2
LINKS
 70
     0
  0
ATTRIB
  5
7F7C
330
7F7A
100
AcDbEntity
  8
insertpoint_ECKELT
100
AcDbText
 10
1.199999999999818
 20
0.0
 30
0.0
 40
0.6
  1

100
AcDbAttribute
  2
RECHTS
 70
     0
  0
SEQEND
  5
7F7D
330
7F7A
100
AcDbEntity
  8
LW 5016-06-01
  0
POLYLINE
  5
7F7E
330
7E99
100
AcDbEntity
  8
LW 5016-06-01
100
AcDb2dPolyline
 66
     1
 10
0.0
 20
0.0
 30
0.0
 70
   128
  0
VERTEX
  5
7F7F
330
7F7E
100
AcDbEntity
  8
LW 5016-06-01
100
AcDbVertex
100
AcDb2dVertex
 10
-74.00000023841835
 20
0.1000022888189846
 30
0.0
  0
VERTEX
  5
7F80
330
7F7E
100
AcDbEntity
  8
LW 5016-06-01
100
AcDbVertex
100
AcDb2dVertex
 10
-73.98383784294106
 20
0.7524204254156644
 30
0.0
  0
VERTEX
  5
7F81
330
7F7E
100
AcDbEntity
  8
LW 5016-06-01
100
AcDbVertex
100
AcDb2dVertex
 10
-73.93569993972755
 20
1.408705711365371
 30
0.0
  0
VERTEX
  5
7F82
330
7F7E
100
AcDbEntity
  8
LW 5016-06-01
100
AcDbVertex
100
AcDb2dVertex
 10
-73.85610747337318
 20
2.063431739807754
 30
0.0
  0
VERTEX
  5
7F83
330
7F7E
100
AcDbEntity
  8
LW 5016-06-01
100
AcDbVertex
100
AcDb2dVertex
 10
-73.74622988700844
 20
2.711348533630996
 30
0.0
  0
VERTEX
  5
7F84
330
7F7E
100
AcDbEntity
  8
LW 5016-06-01
100
AcDbVertex
100
AcDb2dVertex
 10
-73.60924053192116
 20
3.347783088684707
 30
0.0
  0
VERTEX
  5
7F85
330
7F7E
100
AcDbEntity
  8
LW 5016-06-01
100
AcDbVertex
100
AcDb2dVertex
 10
-73.44866681098915
 20
3.968186378479629
 30
0.0
  0
VERTEX
  5
7F86
330
7F7E
100
AcDbEntity
  8
LW 5016-06-01
100
AcDbVertex
100
AcDb2dVertex
 10
-73.26835083961464
 20
4.56830501556459
 30
0.0
  0
VERTEX
  5
7F87
330
7F7E
100
AcDbEntity
  8
LW 5016-06-01
100
AcDbVertex
100
AcDb2dVertex
 10
-73.07279276847816
 20
5.14498710632381
 30
0.0
  0
VERTEX
  5
7F88
330
7F7E
100
AcDbEntity
  8
LW 5016-06-01
100
AcDbVertex
100
AcDb2dVertex
 10
-72.86650586128212
 20
5.695304870606037
 30
0.0
  0
VERTEX
  5
7F89
330
7F7E
100
AcDbEntity
  8
LW 5016-06-01
100
AcDbVertex
100
AcDb2dVertex
 10
-72.65400457382179
 20
6.216325759888263
 30
0.0
  0
VERTEX
  5
7F8A
330
7F7E
100
AcDbEntity
  8
LW 5016-06-01
100
AcDbVertex
100
AcDb2dVertex
 10
-72.43980336189247
 20
6.705121994019123
 30
0.0
  0
VERTEX
  5
7F8B
330
7F7E
100
AcDbEntity
  8
LW 5016-06-01
100
AcDbVertex
100
AcDb2dVertex
 10
-72.22841668128944
 20
7.158765792847248
 30
0.0
  0
VERTEX
  5
7F8C
330
7F7E
100
AcDbEntity
  8
LW 5016-06-01
100
AcDbVertex
100
AcDb2dVertex
 10
-72.01902914047218
 20
7.584662437439533
 30
0.0
  0
VERTEX
  5
7F8D
330
7F7E
100
AcDbEntity
  8
LW 5016-06-01
100
AcDbVertex
100
AcDb2dVertex
 10
-71.81035447120644
 20
7.989382743836017
 30
0.0
  0
VERTEX
  5
7F8E
330
7F7E
100
AcDbEntity
  8
LW 5016-06-01
100
AcDbVertex
100
AcDb2dVertex
 10
-71.60615491867043
 20
8.368849754334064
 30
0.0
  0
VERTEX
  5
7F8F
330
7F7E
100
AcDbEntity
  8
LW 5016-06-01
100
AcDbVertex
100
AcDb2dVertex
 10
-71.41019630432106
 20
8.718976974487816
 30
0.0
  0
VERTEX
  5
7F90
330
7F7E
100
AcDbEntity
  8
LW 5016-06-01
100
AcDbVertex
100
AcDb2dVertex
 10
-71.22623848915077
 20
9.035677909851585
 30
0.0
  0
VERTEX
  5
7F91
330
7F7E
100
AcDbEntity
  8
LW 5016-06-01
100
AcDbVertex
100
AcDb2dVertex
 10
-71.05804610252357
 20
9.314870834351097
 30
0.0
  0
VERTEX
  5
7F92
330
7F7E
100
AcDbEntity
  8
LW 5016-06-01
100
AcDbVertex
100
AcDb2dVertex
 10
-70.90935873985268
 20
9.552946090698753
 30
0.0
  0
VERTEX
  5
7F93
330
7F7E
100
AcDbEntity
  8
LW 5016-06-01
100
AcDbVertex
100
AcDb2dVertex
 10
-70.78207540512062
 20
9.748716354370628
 30
0.0
  0
VERTEX
  5
7F94
330
7F7E
100
AcDbEntity
  8
LW 5016-06-01
100
AcDbVertex
100
AcDb2dVertex
 10
-70.6772058010099
 20
9.901742935181175
 30
0.0
  0
VERTEX
  5
7F95
330
7F7E
100
AcDbEntity
  8
LW 5016-06-01
100
AcDbVertex
100
AcDb2dVertex
 10
-70.59575486183144
 20
10.01159191131643
 30
0.0
  0
VERTEX
  5
7F96
330
7F7E
100
AcDbEntity
  8
LW 5016-06-01
100
AcDbVertex
100
AcDb2dVertex
 10
-70.53873229026772
 20
10.07782459259084
 30
0.0
  0
VERTEX
  5
7F97
330
7F7E
100
AcDbEntity
  8
LW 5016-06-01
100
AcDbVertex
100
AcDb2dVertex
 10
-70.50714421272255
 20
10.10000228881887
 30
0.0
  0
SEQEND
  5
7F98
330
7F7E
100
AcDbEntity
  8
LW 5016-06-01
  0
POLYLINE
  5
7F99
330
7E99
100
AcDbEntity
  8
LW 5016-06-01
100
AcDb2dPolyline
 66
     1
 10
0.0
 20
0.0
 30
0.0
 70
   128
  0
VERTEX
  5
7F9A
330
7F99
100
AcDbEntity
  8
LW 5016-06-01
100
AcDbVertex
100
AcDb2dVertex
 10
-105.4928557872768
 20
10.10000228881887
 30
0.0
  0
VERTEX
  5
7F9B
330
7F99
100
AcDbEntity
  8
LW 5016-06-01
100
AcDbVertex
100
AcDb2dVertex
 10
-105.4612677097317
 20
10.07782459259084
 30
0.0
  0
VERTEX
  5
7F9C
330
7F99
100
AcDbEntity
  8
LW 5016-06-01
100
AcDbVertex
100
AcDb2dVertex
 10
-105.404245138168
 20
10.01159191131643
 30
0.0
  0
VERTEX
  5
7F9D
330
7F99
100
AcDbEntity
  8
LW 5016-06-01
100
AcDbVertex
100
AcDb2dVertex
 10
-105.3227941989895
 20
9.901742935181175
 30
0.0
  0
VERTEX
  5
7F9E
330
7F99
100
AcDbEntity
  8
LW 5016-06-01
100
AcDbVertex
100
AcDb2dVertex
 10
-105.2179245948789
 20
9.748716354370628
 30
0.0
  0
VERTEX
  5
7F9F
330
7F99
100
AcDbEntity
  8
LW 5016-06-01
100
AcDbVertex
100
AcDb2dVertex
 10
-105.0906412601468
 20
9.552946090698753
 30
0.0
  0
VERTEX
  5
7FA0
330
7F99
100
AcDbEntity
  8
LW 5016-06-01
100
AcDbVertex
100
AcDb2dVertex
 10
-104.941953897476
 20
9.314870834351097
 30
0.0
  0
VERTEX
  5
7FA1
330
7F99
100
AcDbEntity
  8
LW 5016-06-01
100
AcDbVertex
100
AcDb2dVertex
 10
-104.7737615108488
 20
9.035677909851585
 30
0.0
  0
VERTEX
  5
7FA2
330
7F99
100
AcDbEntity
  8
LW 5016-06-01
100
AcDbVertex
100
AcDb2dVertex
 10
-104.5898036956785
 20
8.718976974487816
 30
0.0
  0
VERTEX
  5
7FA3
330
7F99
100
AcDbEntity
  8
LW 5016-06-01
100
AcDbVertex
100
AcDb2dVertex
 10
-104.3938450813291
 20
8.368849754334064
 30
0.0
  0
VERTEX
  5
7FA4
330
7F99
100
AcDbEntity
  8
LW 5016-06-01
100
AcDbVertex
100
AcDb2dVertex
 10
-104.1896455287931
 20
7.989382743836017
 30
0.0
  0
VERTEX
  5
7FA5
330
7F99
100
AcDbEntity
  8
LW 5016-06-01
100
AcDbVertex
100
AcDb2dVertex
 10
-103.9809708595273
 20
7.584662437439533
 30
0.0
  0
VERTEX
  5
7FA6
330
7F99
100
AcDbEntity
  8
LW 5016-06-01
100
AcDbVertex
100
AcDb2dVertex
 10
-103.7715833187101
 20
7.158765792847248
 30
0.0
  0
VERTEX
  5
7FA7
330
7F99
100
AcDbEntity
  8
LW 5016-06-01
100
AcDbVertex
100
AcDb2dVertex
 10
-103.560196638107
 20
6.705121994019123
 30
0.0
  0
VERTEX
  5
7FA8
330
7F99
100
AcDbEntity
  8
LW 5016-06-01
100
AcDbVertex
100
AcDb2dVertex
 10
-103.3459954261777
 20
6.216325759888263
 30
0.0
  0
VERTEX
  5
7FA9
330
7F99
100
AcDbEntity
  8
LW 5016-06-01
100
AcDbVertex
100
AcDb2dVertex
 10
-103.1334941387174
 20
5.695304870606037
 30
0.0
  0
VERTEX
  5
7FAA
330
7F99
100
AcDbEntity
  8
LW 5016-06-01
100
AcDbVertex
100
AcDb2dVertex
 10
-102.9272072315214
 20
5.14498710632381
 30
0.0
  0
VERTEX
  5
7FAB
330
7F99
100
AcDbEntity
  8
LW 5016-06-01
100
AcDbVertex
100
AcDb2dVertex
 10
-102.7316491603849
 20
4.56830501556459
 30
0.0
  0
VERTEX
  5
7FAC
330
7F99
100
AcDbEntity
  8
LW 5016-06-01
100
AcDbVertex
100
AcDb2dVertex
 10
-102.5513331890104
 20
3.968186378479629
 30
0.0
  0
VERTEX
  5
7FAD
330
7F99
100
AcDbEntity
  8
LW 5016-06-01
100
AcDbVertex
100
AcDb2dVertex
 10
-102.3907594680784
 20
3.347783088684707
 30
0.0
  0
VERTEX
  5
7FAE
330
7F99
100
AcDbEntity
  8
LW 5016-06-01
100
AcDbVertex
100
AcDb2dVertex
 10
-102.2537701129911
 20
2.711348533630996
 30
0.0
  0
VERTEX
  5
7FAF
330
7F99
100
AcDbEntity
  8
LW 5016-06-01
100
AcDbVertex
100
AcDb2dVertex
 10
-102.1438925266263
 20
2.063431739807754
 30
0.0
  0
VERTEX
  5
7FB0
330
7F99
100
AcDbEntity
  8
LW 5016-06-01
100
AcDbVertex
100
AcDb2dVertex
 10
-102.064300060272
 20
1.408705711365371
 30
0.0
  0
VERTEX
  5
7FB1
330
7F99
100
AcDbEntity
  8
LW 5016-06-01
100
AcDbVertex
100
AcDb2dVertex
 10
-102.0161621570585
 20
0.7524204254156644
 30
0.0
  0
VERTEX
  5
7FB2
330
7F99
100
AcDbEntity
  8
LW 5016-06-01
100
AcDbVertex
100
AcDb2dVertex
 10
-101.9999997615812
 20
0.1000022888189846
 30
0.0
  0
SEQEND
  5
7FB3
330
7F99
100
AcDbEntity
  8
LW 5016-06-01
  0
POLYLINE
  5
7FB4
330
7E99
100
AcDbEntity
  8
LW 5016-06-01
100
AcDb2dPolyline
 66
     1
 10
0.0
 20
0.0
 30
0.0
 70
   128
  0
VERTEX
  5
7FB5
330
7FB4
100
AcDbEntity
  8
LW 5016-06-01
100
AcDbVertex
100
AcDb2dVertex
 10
-70.50714421272255
 20
-10.10000228881756
 30
0.0
  0
VERTEX
  5
7FB6
330
7FB4
100
AcDbEntity
  8
LW 5016-06-01
100
AcDbVertex
100
AcDb2dVertex
 10
-70.53873229026772
 20
-10.07782459258953
 30
0.0
  0
VERTEX
  5
7FB7
330
7FB4
100
AcDbEntity
  8
LW 5016-06-01
100
AcDbVertex
100
AcDb2dVertex
 10
-70.59575486183144
 20
-10.01159191131512
 30
0.0
  0
VERTEX
  5
7FB8
330
7FB4
100
AcDbEntity
  8
LW 5016-06-01
100
AcDbVertex
100
AcDb2dVertex
 10
-70.6772058010099
 20
-9.901742935179868
 30
0.0
  0
VERTEX
  5
7FB9
330
7FB4
100
AcDbEntity
  8
LW 5016-06-01
100
AcDbVertex
100
AcDb2dVertex
 10
-70.78207540512062
 20
-9.748716354369321
 30
0.0
  0
VERTEX
  5
7FBA
330
7FB4
100
AcDbEntity
  8
LW 5016-06-01
100
AcDbVertex
100
AcDb2dVertex
 10
-70.90935873985268
 20
-9.552946090697446
 30
0.0
  0
VERTEX
  5
7FBB
330
7FB4
100
AcDbEntity
  8
LW 5016-06-01
100
AcDbVertex
100
AcDb2dVertex
 10
-71.05804610252357
 20
-9.31487083434979
 30
0.0
  0
VERTEX
  5
7FBC
330
7FB4
100
AcDbEntity
  8
LW 5016-06-01
100
AcDbVertex
100
AcDb2dVertex
 10
-71.22623848915077
 20
-9.035677909850335
 30
0.0
  0
VERTEX
  5
7FBD
330
7FB4
100
AcDbEntity
  8
LW 5016-06-01
100
AcDbVertex
100
AcDb2dVertex
 10
-71.41019630432106
 20
-8.718976974486565
 30
0.0
  0
VERTEX
  5
7FBE
330
7FB4
100
AcDbEntity
  8
LW 5016-06-01
100
AcDbVertex
100
AcDb2dVertex
 10
-71.60615491867043
 20
-8.368849754332757
 30
0.0
  0
VERTEX
  5
7FBF
330
7FB4
100
AcDbEntity
  8
LW 5016-06-01
100
AcDbVertex
100
AcDb2dVertex
 10
-71.81035447120644
 20
-7.98938274383471
 30
0.0
  0
VERTEX
  5
7FC0
330
7FB4
100
AcDbEntity
  8
LW 5016-06-01
100
AcDbVertex
100
AcDb2dVertex
 10
-72.01902914047218
 20
-7.584662437438225
 30
0.0
  0
VERTEX
  5
7FC1
330
7FB4
100
AcDbEntity
  8
LW 5016-06-01
100
AcDbVertex
100
AcDb2dVertex
 10
-72.22841668128944
 20
-7.15876579284594
 30
0.0
  0
VERTEX
  5
7FC2
330
7FB4
100
AcDbEntity
  8
LW 5016-06-01
100
AcDbVertex
100
AcDb2dVertex
 10
-72.43980336189247
 20
-6.705121994017815
 30
0.0
  0
VERTEX
  5
7FC3
330
7FB4
100
AcDbEntity
  8
LW 5016-06-01
100
AcDbVertex
100
AcDb2dVertex
 10
-72.65400457382179
 20
-6.216325759886956
 30
0.0
  0
VERTEX
  5
7FC4
330
7FB4
100
AcDbEntity
  8
LW 5016-06-01
100
AcDbVertex
100
AcDb2dVertex
 10
-72.86650586128212
 20
-5.695304870604729
 30
0.0
  0
VERTEX
  5
7FC5
330
7FB4
100
AcDbEntity
  8
LW 5016-06-01
100
AcDbVertex
100
AcDb2dVertex
 10
-73.07279276847816
 20
-5.144987106322503
 30
0.0
  0
VERTEX
  5
7FC6
330
7FB4
100
AcDbEntity
  8
LW 5016-06-01
100
AcDbVertex
100
AcDb2dVertex
 10
-73.26835083961464
 20
-4.568305015563225
 30
0.0
  0
VERTEX
  5
7FC7
330
7FB4
100
AcDbEntity
  8
LW 5016-06-01
100
AcDbVertex
100
AcDb2dVertex
 10
-73.44866681098915
 20
-3.968186378478264
 30
0.0
  0
VERTEX
  5
7FC8
330
7FB4
100
AcDbEntity
  8
LW 5016-06-01
100
AcDbVertex
100
AcDb2dVertex
 10
-73.60924053192116
 20
-3.347783088683343
 30
0.0
  0
VERTEX
  5
7FC9
330
7FB4
100
AcDbEntity
  8
LW 5016-06-01
100
AcDbVertex
100
AcDb2dVertex
 10
-73.74622988700844
 20
-2.711348533629688
 30
0.0
  0
VERTEX
  5
7FCA
330
7FB4
100
AcDbEntity
  8
LW 5016-06-01
100
AcDbVertex
100
AcDb2dVertex
 10
-73.85610747337318
 20
-2.063431739806446
 30
0.0
  0
VERTEX
  5
7FCB
330
7FB4
100
AcDbEntity
  8
LW 5016-06-01
100
AcDbVertex
100
AcDb2dVertex
 10
-73.93569993972755
 20
-1.408705711364063
 30
0.0
  0
VERTEX
  5
7FCC
330
7FB4
100
AcDbEntity
  8
LW 5016-06-01
100
AcDbVertex
100
AcDb2dVertex
 10
-73.98383784294106
 20
-0.7524204254144138
 30
0.0
  0
VERTEX
  5
7FCD
330
7FB4
100
AcDbEntity
  8
LW 5016-06-01
100
AcDbVertex
100
AcDb2dVertex
 10
-74.00000023841835
 20
-0.1000022888177341
 30
0.0
  0
SEQEND
  5
7FCE
330
7FB4
100
AcDbEntity
  8
LW 5016-06-01
  0
POLYLINE
  5
7FCF
330
7E99
100
AcDbEntity
  8
LW 5016-06-01
100
AcDb2dPolyline
 66
     1
 10
0.0
 20
0.0
 30
0.0
 70
   128
  0
VERTEX
  5
7FD0
330
7FCF
100
AcDbEntity
  8
LW 5016-06-01
100
AcDbVertex
100
AcDb2dVertex
 10
-101.9999997615812
 20
-0.1000022888177341
 30
0.0
  0
VERTEX
  5
7FD1
330
7FCF
100
AcDbEntity
  8
LW 5016-06-01
100
AcDbVertex
100
AcDb2dVertex
 10
-102.0161621570585
 20
-0.7524204254144138
 30
0.0
  0
VERTEX
  5
7FD2
330
7FCF
100
AcDbEntity
  8
LW 5016-06-01
100
AcDbVertex
100
AcDb2dVertex
 10
-102.064300060272
 20
-1.408705711364063
 30
0.0
  0
VERTEX
  5
7FD3
330
7FCF
100
AcDbEntity
  8
LW 5016-06-01
100
AcDbVertex
100
AcDb2dVertex
 10
-102.1438925266263
 20
-2.063431739806446
 30
0.0
  0
VERTEX
  5
7FD4
330
7FCF
100
AcDbEntity
  8
LW 5016-06-01
100
AcDbVertex
100
AcDb2dVertex
 10
-102.2537701129911
 20
-2.711348533629688
 30
0.0
  0
VERTEX
  5
7FD5
330
7FCF
100
AcDbEntity
  8
LW 5016-06-01
100
AcDbVertex
100
AcDb2dVertex
 10
-102.3907594680784
 20
-3.347783088683343
 30
0.0
  0
VERTEX
  5
7FD6
330
7FCF
100
AcDbEntity
  8
LW 5016-06-01
100
AcDbVertex
100
AcDb2dVertex
 10
-102.5513331890104
 20
-3.968186378478264
 30
0.0
  0
VERTEX
  5
7FD7
330
7FCF
100
AcDbEntity
  8
LW 5016-06-01
100
AcDbVertex
100
AcDb2dVertex
 10
-102.7316491603849
 20
-4.568305015563225
 30
0.0
  0
VERTEX
  5
7FD8
330
7FCF
100
AcDbEntity
  8
LW 5016-06-01
100
AcDbVertex
100
AcDb2dVertex
 10
-102.9272072315214
 20
-5.144987106322503
 30
0.0
  0
VERTEX
  5
7FD9
330
7FCF
100
AcDbEntity
  8
LW 5016-06-01
100
AcDbVertex
100
AcDb2dVertex
 10
-103.1334941387174
 20
-5.695304870604729
 30
0.0
  0
VERTEX
  5
7FDA
330
7FCF
100
AcDbEntity
  8
LW 5016-06-01
100
AcDbVertex
100
AcDb2dVertex
 10
-103.3459954261777
 20
-6.216325759886956
 30
0.0
  0
VERTEX
  5
7FDB
330
7FCF
100
AcDbEntity
  8
LW 5016-06-01
100
AcDbVertex
100
AcDb2dVertex
 10
-103.560196638107
 20
-6.705121994017815
 30
0.0
  0
VERTEX
  5
7FDC
330
7FCF
100
AcDbEntity
  8
LW 5016-06-01
100
AcDbVertex
100
AcDb2dVertex
 10
-103.7715833187101
 20
-7.15876579284594
 30
0.0
  0
VERTEX
  5
7FDD
330
7FCF
100
AcDbEntity
  8
LW 5016-06-01
100
AcDbVertex
100
AcDb2dVertex
 10
-103.9809708595273
 20
-7.584662437438225
 30
0.0
  0
VERTEX
  5
7FDE
330
7FCF
100
AcDbEntity
  8
LW 5016-06-01
100
AcDbVertex
100
AcDb2dVertex
 10
-104.1896455287931
 20
-7.98938274383471
 30
0.0
  0
VERTEX
  5
7FDF
330
7FCF
100
AcDbEntity
  8
LW 5016-06-01
100
AcDbVertex
100
AcDb2dVertex
 10
-104.3938450813291
 20
-8.368849754332757
 30
0.0
  0
VERTEX
  5
7FE0
330
7FCF
100
AcDbEntity
  8
LW 5016-06-01
100
AcDbVertex
100
AcDb2dVertex
 10
-104.5898036956785
 20
-8.718976974486565
 30
0.0
  0
VERTEX
  5
7FE1
330
7FCF
100
AcDbEntity
  8
LW 5016-06-01
100
AcDbVertex
100
AcDb2dVertex
 10
-104.7737615108488
 20
-9.035677909850335
 30
0.0
  0
VERTEX
  5
7FE2
330
7FCF
100
AcDbEntity
  8
LW 5016-06-01
100
AcDbVertex
100
AcDb2dVertex
 10
-104.941953897476
 20
-9.31487083434979
 30
0.0
  0
VERTEX
  5
7FE3
330
7FCF
100
AcDbEntity
  8
LW 5016-06-01
100
AcDbVertex
100
AcDb2dVertex
 10
-105.0906412601468
 20
-9.552946090697446
 30
0.0
  0
VERTEX
  5
7FE4
330
7FCF
100
AcDbEntity
  8
LW 5016-06-01
100
AcDbVertex
100
AcDb2dVertex
 10
-105.2179245948789
 20
-9.748716354369321
 30
0.0
  0
VERTEX
  5
7FE5
330
7FCF
100
AcDbEntity
  8
LW 5016-06-01
100
AcDbVertex
100
AcDb2dVertex
 10
-105.3227941989895
 20
-9.901742935179868
 30
0.0
  0
VERTEX
  5
7FE6
330
7FCF
100
AcDbEntity
  8
LW 5016-06-01
100
AcDbVertex
100
AcDb2dVertex
 10
-105.404245138168
 20
-10.01159191131512
 30
0.0
  0
VERTEX
  5
7FE7
330
7FCF
100
AcDbEntity
  8
LW 5016-06-01
100
AcDbVertex
100
AcDb2dVertex
 10
-105.4612677097317
 20
-10.07782459258953
 30
0.0
  0
VERTEX
  5
7FE8
330
7FCF
100
AcDbEntity
  8
LW 5016-06-01
100
AcDbVertex
100
AcDb2dVertex
 10
-105.4928557872768
 20
-10.10000228881756
 30
0.0
  0
SEQEND
  5
7FE9
330
7FCF
100
AcDbEntity
  8
LW 5016-06-01
  0
LINE
  5
7FEA
330
7E99
100
AcDbEntity
  8
LW 5016-06-01
100
AcDbLine
 10
-101.9999997615812
 20
-0.1000022888177341
 30
0.0
 11
-101.9999997615812
 21
0.1000022888189846
 31
0.0
  0
LINE
  5
7FEB
330
7E99
100
AcDbEntity
  8
LW 5016-06-01
100
AcDbLine
 10
-74.00000023841835
 20
-0.1000022888177341
 30
0.0
 11
-74.00000023841835
 21
0.1000022888189846
 31
0.0
  0
LINE
  5
7FEC
330
7E99
100
AcDbEntity
  8
LW 5016-06-01
100
AcDbLine
 10
-105.4928557872768
 20
-10.10000228881756
 30
0.0
 11
-105.4999999999998
 21
-10.10000228881756
 31
0.0
  0
LINE
  5
7FED
330
7E99
100
AcDbEntity
  8
LW 5016-06-01
100
AcDbLine
 10
-105.4928557872768
 20
10.10000228881887
 30
0.0
 11
-105.4999999999997
 21
10.10000000000008
 31
0.0
  0
LINE
  5
7FEE
330
7E99
100
AcDbEntity
  8
LW 5016-06-01
100
AcDbLine
 10
-70.50714421272255
 20
10.10000228881887
 30
0.0
 11
-70.49999999999977
 21
10.10000000000008
 31
0.0
  0
LINE
  5
7FEF
330
7E99
100
AcDbEntity
  8
LW 5016-06-01
100
AcDbLine
 10
-70.50714421272255
 20
-10.10000228881756
 30
0.0
 11
-70.49999999999977
 21
-10.09999999999996
 31
0.0
  0
LINE
  5
7FF0
330
7E99
100
AcDbEntity
  8
LW 5016-06-01
100
AcDbLine
 10
-2.999999999999772
 20
25.00000000000011
 30
0.0
 11
-2.999999999999772
 21
-24.99999999999995
 31
0.0
  0
LINE
  5
7FF1
330
7E99
100
AcDbEntity
  8
LW 5016-06-01
100
AcDbLine
 10
3.000000000000227
 20
-24.99999999999995
 30
0.0
 11
3.000000000000227
 21
25.00000000000011
 31
0.0
  0
ENDBLK
  5
7E9B
330
7E99
100
AcDbEntity
  8
0
100
AcDbBlockEnd
  0
BLOCK
  5
7FF4
330
7FF3
100
AcDbEntity
  8
0
100
AcDbBlockBegin
  2
LW 5016-06-01_b
 70
     0
 10
0.0
 20
0.0
 30
0.0
  3
LW 5016-06-01_b
  1

  0
POLYLINE
  5
7FF6
330
7FF3
100
AcDbEntity
  8
LW 5016-06-01
100
AcDb2dPolyline
 66
     1
 10
0.0
 20
0.0
 30
0.0
 70
   128
  0
VERTEX
  5
7FF7
330
7FF6
100
AcDbEntity
  8
LW 5016-06-01
100
AcDbVertex
100
AcDb2dVertex
 10
20.5
 20
-21.65063619614023
 30
0.0
  0
VERTEX
  5
7FF8
330
7FF6
100
AcDbEntity
  8
LW 5016-06-01
100
AcDbVertex
100
AcDb2dVertex
 10
20.47898697853089
 20
-21.80843830109006
 30
0.0
  0
VERTEX
  5
7FF9
330
7FF6
100
AcDbEntity
  8
LW 5016-06-01
100
AcDbVertex
100
AcDb2dVertex
 10
20.41565704345703
 20
-21.96433782577878
 30
0.0
  0
VERTEX
  5
7FFA
330
7FF6
100
AcDbEntity
  8
LW 5016-06-01
100
AcDbVertex
100
AcDb2dVertex
 10
20.30957746505738
 20
-22.11326599121457
 30
0.0
  0
VERTEX
  5
7FFB
330
7FF6
100
AcDbEntity
  8
LW 5016-06-01
100
AcDbVertex
100
AcDb2dVertex
 10
20.16169476509094
 20
-22.25069761276586
 30
0.0
  0
VERTEX
  5
7FFC
330
7FF6
100
AcDbEntity
  8
LW 5016-06-01
100
AcDbVertex
100
AcDb2dVertex
 10
19.97847723960876
 20
-22.37386226654394
 30
0.0
  0
VERTEX
  5
7FFD
330
7FF6
100
AcDbEntity
  8
LW 5016-06-01
100
AcDbVertex
100
AcDb2dVertex
 10
19.76776528358459
 20
-22.48032569885595
 30
0.0
  0
VERTEX
  5
7FFE
330
7FF6
100
AcDbEntity
  8
LW 5016-06-01
100
AcDbVertex
100
AcDb2dVertex
 10
19.52740001678467
 20
-22.57195234299024
 30
0.0
  0
VERTEX
  5
7FFF
330
7FF6
100
AcDbEntity
  8
LW 5016-06-01
100
AcDbVertex
100
AcDb2dVertex
 10
19.25476121902466
 20
-22.6503801345857
 30
0.0
  0
VERTEX
  5
8000
330
7FF6
100
AcDbEntity
  8
LW 5016-06-01
100
AcDbVertex
100
AcDb2dVertex
 10
18.95699787139892
 20
-22.71283626556715
 30
0.0
  0
VERTEX
  5
8001
330
7FF6
100
AcDbEntity
  8
LW 5016-06-01
100
AcDbVertex
100
AcDb2dVertex
 10
18.64183115959167
 20
-22.75718688965162
 30
0.0
  0
VERTEX
  5
8002
330
7FF6
100
AcDbEntity
  8
LW 5016-06-01
100
AcDbVertex
100
AcDb2dVertex
 10
18.3192925453186
 20
-22.78345584869703
 30
0.0
  0
VERTEX
  5
8003
330
7FF6
100
AcDbEntity
  8
LW 5016-06-01
100
AcDbVertex
100
AcDb2dVertex
 10
18.0
 20
-22.79211044311842
 30
0.0
  0
VERTEX
  5
8004
330
7FF6
100
AcDbEntity
  8
LW 5016-06-01
100
AcDbVertex
100
AcDb2dVertex
 10
17.68070745468139
 20
-22.78345584869703
 30
0.0
  0
VERTEX
  5
8005
330
7FF6
100
AcDbEntity
  8
LW 5016-06-01
100
AcDbVertex
100
AcDb2dVertex
 10
17.35816884040832
 20
-22.75718688965162
 30
0.0
  0
VERTEX
  5
8006
330
7FF6
100
AcDbEntity
  8
LW 5016-06-01
100
AcDbVertex
100
AcDb2dVertex
 10
17.04300212860107
 20
-22.71283626556715
 30
0.0
  0
VERTEX
  5
8007
330
7FF6
100
AcDbEntity
  8
LW 5016-06-01
100
AcDbVertex
100
AcDb2dVertex
 10
16.74523878097534
 20
-22.6503801345857
 30
0.0
  0
VERTEX
  5
8008
330
7FF6
100
AcDbEntity
  8
LW 5016-06-01
100
AcDbVertex
100
AcDb2dVertex
 10
16.47259998321533
 20
-22.57195234299024
 30
0.0
  0
VERTEX
  5
8009
330
7FF6
100
AcDbEntity
  8
LW 5016-06-01
100
AcDbVertex
100
AcDb2dVertex
 10
16.2322347164154
 20
-22.48032569885595
 30
0.0
  0
VERTEX
  5
800A
330
7FF6
100
AcDbEntity
  8
LW 5016-06-01
100
AcDbVertex
100
AcDb2dVertex
 10
16.02152276039123
 20
-22.37386226654394
 30
0.0
  0
VERTEX
  5
800B
330
7FF6
100
AcDbEntity
  8
LW 5016-06-01
100
AcDbVertex
100
AcDb2dVertex
 10
15.83830523490906
 20
-22.25069761276586
 30
0.0
  0
VERTEX
  5
800C
330
7FF6
100
AcDbEntity
  8
LW 5016-06-01
100
AcDbVertex
100
AcDb2dVertex
 10
15.69042253494262
 20
-22.11326599121457
 30
0.0
  0
VERTEX
  5
800D
330
7FF6
100
AcDbEntity
  8
LW 5016-06-01
100
AcDbVertex
100
AcDb2dVertex
 10
15.58434295654297
 20
-21.96433782577878
 30
0.0
  0
VERTEX
  5
800E
330
7FF6
100
AcDbEntity
  8
LW 5016-06-01
100
AcDbVertex
100
AcDb2dVertex
 10
15.52101302146911
 20
-21.80843830109006
 30
0.0
  0
VERTEX
  5
800F
330
7FF6
100
AcDbEntity
  8
LW 5016-06-01
100
AcDbVertex
100
AcDb2dVertex
 10
15.5
 20
-21.65063619614023
 30
0.0
  0
SEQEND
  5
8010
330
7FF6
100
AcDbEntity
  8
LW 5016-06-01
  0
POLYLINE
  5
8011
330
7FF3
100
AcDbEntity
  8
LW 5016-06-01
100
AcDb2dPolyline
 66
     1
 10
0.0
 20
0.0
 30
0.0
 70
   128
  0
VERTEX
  5
8012
330
8011
100
AcDbEntity
  8
LW 5016-06-01
100
AcDbVertex
100
AcDb2dVertex
 10
15.5
 20
-21.65063619614023
 30
0.0
  0
VERTEX
  5
8013
330
8011
100
AcDbEntity
  8
LW 5016-06-01
100
AcDbVertex
100
AcDb2dVertex
 10
15.52101302146911
 20
-21.48914575577169
 30
0.0
  0
VERTEX
  5
8014
330
8011
100
AcDbEntity
  8
LW 5016-06-01
100
AcDbVertex
100
AcDb2dVertex
 10
15.58434295654297
 20
-21.32250547409455
 30
0.0
  0
VERTEX
  5
8015
330
8011
100
AcDbEntity
  8
LW 5016-06-01
100
AcDbVertex
100
AcDb2dVertex
 10
15.69042253494262
 20
-21.15626573563031
 30
0.0
  0
VERTEX
  5
8016
330
8011
100
AcDbEntity
  8
LW 5016-06-01
100
AcDbVertex
100
AcDb2dVertex
 10
15.83830523490906
 20
-20.9959340095561
 30
0.0
  0
VERTEX
  5
8017
330
8011
100
AcDbEntity
  8
LW 5016-06-01
100
AcDbVertex
100
AcDb2dVertex
 10
16.02152276039123
 20
-20.84645748138848
 30
0.0
  0
VERTEX
  5
8018
330
8011
100
AcDbEntity
  8
LW 5016-06-01
100
AcDbVertex
100
AcDb2dVertex
 10
16.2322347164154
 20
-20.71255683899346
 30
0.0
  0
VERTEX
  5
8019
330
8011
100
AcDbEntity
  8
LW 5016-06-01
100
AcDbVertex
100
AcDb2dVertex
 10
16.47259998321533
 20
-20.59347152710393
 30
0.0
  0
VERTEX
  5
801A
330
8011
100
AcDbEntity
  8
LW 5016-06-01
100
AcDbVertex
100
AcDb2dVertex
 10
16.74523878097534
 20
-20.48868179321721
 30
0.0
  0
VERTEX
  5
801B
330
8011
100
AcDbEntity
  8
LW 5016-06-01
100
AcDbVertex
100
AcDb2dVertex
 10
17.04300212860107
 20
-20.40325641632512
 30
0.0
  0
VERTEX
  5
801C
330
8011
100
AcDbEntity
  8
LW 5016-06-01
100
AcDbVertex
100
AcDb2dVertex
 10
17.35816884040832
 20
-20.34152984619573
 30
0.0
  0
VERTEX
  5
801D
330
8011
100
AcDbEntity
  8
LW 5016-06-01
100
AcDbVertex
100
AcDb2dVertex
 10
17.68070745468139
 20
-20.30447006226018
 30
0.0
  0
VERTEX
  5
801E
330
8011
100
AcDbEntity
  8
LW 5016-06-01
100
AcDbVertex
100
AcDb2dVertex
 10
18.0
 20
-20.29211044311955
 30
0.0
  0
VERTEX
  5
801F
330
8011
100
AcDbEntity
  8
LW 5016-06-01
100
AcDbVertex
100
AcDb2dVertex
 10
18.3192925453186
 20
-20.30447006226018
 30
0.0
  0
VERTEX
  5
8020
330
8011
100
AcDbEntity
  8
LW 5016-06-01
100
AcDbVertex
100
AcDb2dVertex
 10
18.64183115959167
 20
-20.34152984619573
 30
0.0
  0
VERTEX
  5
8021
330
8011
100
AcDbEntity
  8
LW 5016-06-01
100
AcDbVertex
100
AcDb2dVertex
 10
18.95699787139892
 20
-20.40325641632512
 30
0.0
  0
VERTEX
  5
8022
330
8011
100
AcDbEntity
  8
LW 5016-06-01
100
AcDbVertex
100
AcDb2dVertex
 10
19.25476121902466
 20
-20.48868179321721
 30
0.0
  0
VERTEX
  5
8023
330
8011
100
AcDbEntity
  8
LW 5016-06-01
100
AcDbVertex
100
AcDb2dVertex
 10
19.52740001678467
 20
-20.59347152710393
 30
0.0
  0
VERTEX
  5
8024
330
8011
100
AcDbEntity
  8
LW 5016-06-01
100
AcDbVertex
100
AcDb2dVertex
 10
19.76776528358459
 20
-20.71255683899346
 30
0.0
  0
VERTEX
  5
8025
330
8011
100
AcDbEntity
  8
LW 5016-06-01
100
AcDbVertex
100
AcDb2dVertex
 10
19.97847723960876
 20
-20.84645748138848
 30
0.0
  0
VERTEX
  5
8026
330
8011
100
AcDbEntity
  8
LW 5016-06-01
100
AcDbVertex
100
AcDb2dVertex
 10
20.16169476509094
 20
-20.9959340095561
 30
0.0
  0
VERTEX
  5
8027
330
8011
100
AcDbEntity
  8
LW 5016-06-01
100
AcDbVertex
100
AcDb2dVertex
 10
20.30957746505738
 20
-21.15626573563031
 30
0.0
  0
VERTEX
  5
8028
330
8011
100
AcDbEntity
  8
LW 5016-06-01
100
AcDbVertex
100
AcDb2dVertex
 10
20.41565704345703
 20
-21.32250547409455
 30
0.0
  0
VERTEX
  5
8029
330
8011
100
AcDbEntity
  8
LW 5016-06-01
100
AcDbVertex
100
AcDb2dVertex
 10
20.47898697853089
 20
-21.48914575577169
 30
0.0
  0
VERTEX
  5
802A
330
8011
100
AcDbEntity
  8
LW 5016-06-01
100
AcDbVertex
100
AcDb2dVertex
 10
20.5
 20
-21.65063619614023
 30
0.0
  0
SEQEND
  5
802B
330
8011
100
AcDbEntity
  8
LW 5016-06-01
  0
POLYLINE
  5
802C
330
7FF3
100
AcDbEntity
  8
LW 5016-06-01
100
AcDb2dPolyline
 66
     1
 10
0.0
 20
0.0
 30
0.0
 70
   128
  0
VERTEX
  5
802D
330
802C
100
AcDbEntity
  8
LW 5016-06-01
100
AcDbVertex
100
AcDb2dVertex
 10
20.5
 20
21.65063619613272
 30
0.0
  0
VERTEX
  5
802E
330
802C
100
AcDbEntity
  8
LW 5016-06-01
100
AcDbVertex
100
AcDb2dVertex
 10
20.47898697853089
 20
21.48914575576396
 30
0.0
  0
VERTEX
  5
802F
330
802C
100
AcDbEntity
  8
LW 5016-06-01
100
AcDbVertex
100
AcDb2dVertex
 10
20.41565704345703
 20
21.3225054740866
 30
0.0
  0
VERTEX
  5
8030
330
802C
100
AcDbEntity
  8
LW 5016-06-01
100
AcDbVertex
100
AcDb2dVertex
 10
20.30957746505738
 20
21.15626573562213
 30
0.0
  0
VERTEX
  5
8031
330
802C
100
AcDbEntity
  8
LW 5016-06-01
100
AcDbVertex
100
AcDb2dVertex
 10
20.16169476509094
 20
20.99593400954791
 30
0.0
  0
VERTEX
  5
8032
330
802C
100
AcDbEntity
  8
LW 5016-06-01
100
AcDbVertex
100
AcDb2dVertex
 10
19.97847723960876
 20
20.84645748138007
 30
0.0
  0
VERTEX
  5
8033
330
802C
100
AcDbEntity
  8
LW 5016-06-01
100
AcDbVertex
100
AcDb2dVertex
 10
19.76776528358459
 20
20.71255683898505
 30
0.0
  0
VERTEX
  5
8034
330
802C
100
AcDbEntity
  8
LW 5016-06-01
100
AcDbVertex
100
AcDb2dVertex
 10
19.52740001678467
 20
20.59347152709529
 30
0.0
  0
VERTEX
  5
8035
330
802C
100
AcDbEntity
  8
LW 5016-06-01
100
AcDbVertex
100
AcDb2dVertex
 10
19.25476121902466
 20
20.48868179320857
 30
0.0
  0
VERTEX
  5
8036
330
802C
100
AcDbEntity
  8
LW 5016-06-01
100
AcDbVertex
100
AcDb2dVertex
 10
18.95699787139892
 20
20.40325641631648
 30
0.0
  0
VERTEX
  5
8037
330
802C
100
AcDbEntity
  8
LW 5016-06-01
100
AcDbVertex
100
AcDb2dVertex
 10
18.64183115959167
 20
20.34152984618708
 30
0.0
  0
VERTEX
  5
8038
330
802C
100
AcDbEntity
  8
LW 5016-06-01
100
AcDbVertex
100
AcDb2dVertex
 10
18.3192925453186
 20
20.30447006225154
 30
0.0
  0
VERTEX
  5
8039
330
802C
100
AcDbEntity
  8
LW 5016-06-01
100
AcDbVertex
100
AcDb2dVertex
 10
18.0
 20
20.29211044311091
 30
0.0
  0
VERTEX
  5
803A
330
802C
100
AcDbEntity
  8
LW 5016-06-01
100
AcDbVertex
100
AcDb2dVertex
 10
17.68070745468139
 20
20.30447006225154
 30
0.0
  0
VERTEX
  5
803B
330
802C
100
AcDbEntity
  8
LW 5016-06-01
100
AcDbVertex
100
AcDb2dVertex
 10
17.35816884040832
 20
20.34152984618708
 30
0.0
  0
VERTEX
  5
803C
330
802C
100
AcDbEntity
  8
LW 5016-06-01
100
AcDbVertex
100
AcDb2dVertex
 10
17.04300212860107
 20
20.40325641631648
 30
0.0
  0
VERTEX
  5
803D
330
802C
100
AcDbEntity
  8
LW 5016-06-01
100
AcDbVertex
100
AcDb2dVertex
 10
16.74523878097534
 20
20.48868179320857
 30
0.0
  0
VERTEX
  5
803E
330
802C
100
AcDbEntity
  8
LW 5016-06-01
100
AcDbVertex
100
AcDb2dVertex
 10
16.47259998321533
 20
20.59347152709529
 30
0.0
  0
VERTEX
  5
803F
330
802C
100
AcDbEntity
  8
LW 5016-06-01
100
AcDbVertex
100
AcDb2dVertex
 10
16.2322347164154
 20
20.71255683898505
 30
0.0
  0
VERTEX
  5
8040
330
802C
100
AcDbEntity
  8
LW 5016-06-01
100
AcDbVertex
100
AcDb2dVertex
 10
16.02152276039123
 20
20.84645748138007
 30
0.0
  0
VERTEX
  5
8041
330
802C
100
AcDbEntity
  8
LW 5016-06-01
100
AcDbVertex
100
AcDb2dVertex
 10
15.83830523490906
 20
20.99593400954791
 30
0.0
  0
VERTEX
  5
8042
330
802C
100
AcDbEntity
  8
LW 5016-06-01
100
AcDbVertex
100
AcDb2dVertex
 10
15.69042253494262
 20
21.15626573562213
 30
0.0
  0
VERTEX
  5
8043
330
802C
100
AcDbEntity
  8
LW 5016-06-01
100
AcDbVertex
100
AcDb2dVertex
 10
15.58434295654297
 20
21.3225054740866
 30
0.0
  0
VERTEX
  5
8044
330
802C
100
AcDbEntity
  8
LW 5016-06-01
100
AcDbVertex
100
AcDb2dVertex
 10
15.52101302146911
 20
21.48914575576396
 30
0.0
  0
VERTEX
  5
8045
330
802C
100
AcDbEntity
  8
LW 5016-06-01
100
AcDbVertex
100
AcDb2dVertex
 10
15.5
 20
21.65063619613272
 30
0.0
  0
SEQEND
  5
8046
330
802C
100
AcDbEntity
  8
LW 5016-06-01
  0
POLYLINE
  5
8047
330
7FF3
100
AcDbEntity
  8
LW 5016-06-01
100
AcDb2dPolyline
 66
     1
 10
0.0
 20
0.0
 30
0.0
 70
   128
  0
VERTEX
  5
8048
330
8047
100
AcDbEntity
  8
LW 5016-06-01
100
AcDbVertex
100
AcDb2dVertex
 10
15.5
 20
21.65063619613272
 30
0.0
  0
VERTEX
  5
8049
330
8047
100
AcDbEntity
  8
LW 5016-06-01
100
AcDbVertex
100
AcDb2dVertex
 10
15.52101302146911
 20
21.80843830108279
 30
0.0
  0
VERTEX
  5
804A
330
8047
100
AcDbEntity
  8
LW 5016-06-01
100
AcDbVertex
100
AcDb2dVertex
 10
15.58434295654297
 20
21.96433782577151
 30
0.0
  0
VERTEX
  5
804B
330
8047
100
AcDbEntity
  8
LW 5016-06-01
100
AcDbVertex
100
AcDb2dVertex
 10
15.69042253494262
 20
22.1132659912073
 30
0.0
  0
VERTEX
  5
804C
330
8047
100
AcDbEntity
  8
LW 5016-06-01
100
AcDbVertex
100
AcDb2dVertex
 10
15.83830523490906
 20
22.25069761275904
 30
0.0
  0
VERTEX
  5
804D
330
8047
100
AcDbEntity
  8
LW 5016-06-01
100
AcDbVertex
100
AcDb2dVertex
 10
16.02152276039123
 20
22.37386226653712
 30
0.0
  0
VERTEX
  5
804E
330
8047
100
AcDbEntity
  8
LW 5016-06-01
100
AcDbVertex
100
AcDb2dVertex
 10
16.2322347164154
 20
22.48032569884913
 30
0.0
  0
VERTEX
  5
804F
330
8047
100
AcDbEntity
  8
LW 5016-06-01
100
AcDbVertex
100
AcDb2dVertex
 10
16.47259998321533
 20
22.57195234298388
 30
0.0
  0
VERTEX
  5
8050
330
8047
100
AcDbEntity
  8
LW 5016-06-01
100
AcDbVertex
100
AcDb2dVertex
 10
16.74523878097534
 20
22.65038013457933
 30
0.0
  0
VERTEX
  5
8051
330
8047
100
AcDbEntity
  8
LW 5016-06-01
100
AcDbVertex
100
AcDb2dVertex
 10
17.04300212860107
 20
22.71283626556078
 30
0.0
  0
VERTEX
  5
8052
330
8047
100
AcDbEntity
  8
LW 5016-06-01
100
AcDbVertex
100
AcDb2dVertex
 10
17.35816884040832
 20
22.75718688964525
 30
0.0
  0
VERTEX
  5
8053
330
8047
100
AcDbEntity
  8
LW 5016-06-01
100
AcDbVertex
100
AcDb2dVertex
 10
17.68070745468139
 20
22.78345584869066
 30
0.0
  0
VERTEX
  5
8054
330
8047
100
AcDbEntity
  8
LW 5016-06-01
100
AcDbVertex
100
AcDb2dVertex
 10
18.0
 20
22.79211044311205
 30
0.0
  0
VERTEX
  5
8055
330
8047
100
AcDbEntity
  8
LW 5016-06-01
100
AcDbVertex
100
AcDb2dVertex
 10
18.3192925453186
 20
22.78345584869066
 30
0.0
  0
VERTEX
  5
8056
330
8047
100
AcDbEntity
  8
LW 5016-06-01
100
AcDbVertex
100
AcDb2dVertex
 10
18.64183115959167
 20
22.75718688964525
 30
0.0
  0
VERTEX
  5
8057
330
8047
100
AcDbEntity
  8
LW 5016-06-01
100
AcDbVertex
100
AcDb2dVertex
 10
18.95699787139892
 20
22.71283626556078
 30
0.0
  0
VERTEX
  5
8058
330
8047
100
AcDbEntity
  8
LW 5016-06-01
100
AcDbVertex
100
AcDb2dVertex
 10
19.25476121902466
 20
22.65038013457933
 30
0.0
  0
VERTEX
  5
8059
330
8047
100
AcDbEntity
  8
LW 5016-06-01
100
AcDbVertex
100
AcDb2dVertex
 10
19.52740001678467
 20
22.57195234298388
 30
0.0
  0
VERTEX
  5
805A
330
8047
100
AcDbEntity
  8
LW 5016-06-01
100
AcDbVertex
100
AcDb2dVertex
 10
19.76776528358459
 20
22.48032569884913
 30
0.0
  0
VERTEX
  5
805B
330
8047
100
AcDbEntity
  8
LW 5016-06-01
100
AcDbVertex
100
AcDb2dVertex
 10
19.97847723960876
 20
22.37386226653712
 30
0.0
  0
VERTEX
  5
805C
330
8047
100
AcDbEntity
  8
LW 5016-06-01
100
AcDbVertex
100
AcDb2dVertex
 10
20.16169476509094
 20
22.25069761275904
 30
0.0
  0
VERTEX
  5
805D
330
8047
100
AcDbEntity
  8
LW 5016-06-01
100
AcDbVertex
100
AcDb2dVertex
 10
20.30957746505738
 20
22.1132659912073
 30
0.0
  0
VERTEX
  5
805E
330
8047
100
AcDbEntity
  8
LW 5016-06-01
100
AcDbVertex
100
AcDb2dVertex
 10
20.41565704345703
 20
21.96433782577151
 30
0.0
  0
VERTEX
  5
805F
330
8047
100
AcDbEntity
  8
LW 5016-06-01
100
AcDbVertex
100
AcDb2dVertex
 10
20.47898697853089
 20
21.80843830108279
 30
0.0
  0
VERTEX
  5
8060
330
8047
100
AcDbEntity
  8
LW 5016-06-01
100
AcDbVertex
100
AcDb2dVertex
 10
20.5
 20
21.65063619613272
 30
0.0
  0
SEQEND
  5
8061
330
8047
100
AcDbEntity
  8
LW 5016-06-01
  0
LINE
  5
8062
330
7FF3
100
AcDbEntity
  8
LW 5016-06-01
100
AcDbLine
 10
22.0
 20
-25.0
 30
0.0
 11
22.0
 21
25.0
 31
0.0
  0
LINE
  5
8063
330
7FF3
100
AcDbEntity
  8
LW 5016-06-01
100
AcDbLine
 10
28.0
 20
-19.0
 30
0.0
 11
28.0
 21
19.0
 31
0.0
  0
LINE
  5
8064
330
7FF3
100
AcDbEntity
  8
LW 5016-06-01
100
AcDbLine
 10
3.0
 20
25.0
 30
0.0
 11
22.0
 21
25.0
 31
0.0
  0
LINE
  5
8065
330
7FF3
100
AcDbEntity
  8
LW 5016-06-01
100
AcDbLine
 10
3.0
 20
-25.0
 30
0.0
 11
22.0
 21
-25.0
 31
0.0
  0
LINE
  5
8066
330
7FF3
100
AcDbEntity
  8
LW 5016-06-01
100
AcDbLine
 10
28.0
 20
-19.0
 30
0.0
 11
22.0
 21
-25.0
 31
0.0
  0
LINE
  5
8067
330
7FF3
100
AcDbEntity
  8
LW 5016-06-01
100
AcDbLine
 10
28.0
 20
19.0
 30
0.0
 11
22.0
 21
25.0
 31
0.0
  0
POLYLINE
  5
8068
330
7FF3
100
AcDbEntity
  8
LW 5016-06-01
100
AcDb2dPolyline
 66
     1
 10
0.0
 20
0.0
 30
0.0
 70
   128
  0
VERTEX
  5
8069
330
8068
100
AcDbEntity
  8
LW 5016-06-01
100
AcDbVertex
100
AcDb2dVertex
 10
-20.5
 20
21.65063619613272
 30
0.0
  0
VERTEX
  5
806A
330
8068
100
AcDbEntity
  8
LW 5016-06-01
100
AcDbVertex
100
AcDb2dVertex
 10
-20.47898697853089
 20
21.80843830108279
 30
0.0
  0
VERTEX
  5
806B
330
8068
100
AcDbEntity
  8
LW 5016-06-01
100
AcDbVertex
100
AcDb2dVertex
 10
-20.41565704345703
 20
21.96433782577151
 30
0.0
  0
VERTEX
  5
806C
330
8068
100
AcDbEntity
  8
LW 5016-06-01
100
AcDbVertex
100
AcDb2dVertex
 10
-20.30957746505738
 20
22.1132659912073
 30
0.0
  0
VERTEX
  5
806D
330
8068
100
AcDbEntity
  8
LW 5016-06-01
100
AcDbVertex
100
AcDb2dVertex
 10
-20.16169476509094
 20
22.25069761275904
 30
0.0
  0
VERTEX
  5
806E
330
8068
100
AcDbEntity
  8
LW 5016-06-01
100
AcDbVertex
100
AcDb2dVertex
 10
-19.97847723960876
 20
22.37386226653712
 30
0.0
  0
VERTEX
  5
806F
330
8068
100
AcDbEntity
  8
LW 5016-06-01
100
AcDbVertex
100
AcDb2dVertex
 10
-19.76776528358459
 20
22.48032569884913
 30
0.0
  0
VERTEX
  5
8070
330
8068
100
AcDbEntity
  8
LW 5016-06-01
100
AcDbVertex
100
AcDb2dVertex
 10
-19.52740001678467
 20
22.57195234298388
 30
0.0
  0
VERTEX
  5
8071
330
8068
100
AcDbEntity
  8
LW 5016-06-01
100
AcDbVertex
100
AcDb2dVertex
 10
-19.25476121902466
 20
22.65038013457933
 30
0.0
  0
VERTEX
  5
8072
330
8068
100
AcDbEntity
  8
LW 5016-06-01
100
AcDbVertex
100
AcDb2dVertex
 10
-18.95699787139892
 20
22.71283626556078
 30
0.0
  0
VERTEX
  5
8073
330
8068
100
AcDbEntity
  8
LW 5016-06-01
100
AcDbVertex
100
AcDb2dVertex
 10
-18.64183115959167
 20
22.75718688964525
 30
0.0
  0
VERTEX
  5
8074
330
8068
100
AcDbEntity
  8
LW 5016-06-01
100
AcDbVertex
100
AcDb2dVertex
 10
-18.3192925453186
 20
22.78345584869066
 30
0.0
  0
VERTEX
  5
8075
330
8068
100
AcDbEntity
  8
LW 5016-06-01
100
AcDbVertex
100
AcDb2dVertex
 10
-18.0
 20
22.79211044311205
 30
0.0
  0
VERTEX
  5
8076
330
8068
100
AcDbEntity
  8
LW 5016-06-01
100
AcDbVertex
100
AcDb2dVertex
 10
-17.68070745468139
 20
22.78345584869066
 30
0.0
  0
VERTEX
  5
8077
330
8068
100
AcDbEntity
  8
LW 5016-06-01
100
AcDbVertex
100
AcDb2dVertex
 10
-17.35816884040832
 20
22.75718688964525
 30
0.0
  0
VERTEX
  5
8078
330
8068
100
AcDbEntity
  8
LW 5016-06-01
100
AcDbVertex
100
AcDb2dVertex
 10
-17.04300212860107
 20
22.71283626556078
 30
0.0
  0
VERTEX
  5
8079
330
8068
100
AcDbEntity
  8
LW 5016-06-01
100
AcDbVertex
100
AcDb2dVertex
 10
-16.74523878097534
 20
22.65038013457933
 30
0.0
  0
VERTEX
  5
807A
330
8068
100
AcDbEntity
  8
LW 5016-06-01
100
AcDbVertex
100
AcDb2dVertex
 10
-16.47259998321533
 20
22.57195234298388
 30
0.0
  0
VERTEX
  5
807B
330
8068
100
AcDbEntity
  8
LW 5016-06-01
100
AcDbVertex
100
AcDb2dVertex
 10
-16.2322347164154
 20
22.48032569884913
 30
0.0
  0
VERTEX
  5
807C
330
8068
100
AcDbEntity
  8
LW 5016-06-01
100
AcDbVertex
100
AcDb2dVertex
 10
-16.02152276039123
 20
22.37386226653712
 30
0.0
  0
VERTEX
  5
807D
330
8068
100
AcDbEntity
  8
LW 5016-06-01
100
AcDbVertex
100
AcDb2dVertex
 10
-15.83830523490906
 20
22.25069761275904
 30
0.0
  0
VERTEX
  5
807E
330
8068
100
AcDbEntity
  8
LW 5016-06-01
100
AcDbVertex
100
AcDb2dVertex
 10
-15.69042253494262
 20
22.1132659912073
 30
0.0
  0
VERTEX
  5
807F
330
8068
100
AcDbEntity
  8
LW 5016-06-01
100
AcDbVertex
100
AcDb2dVertex
 10
-15.58434295654297
 20
21.96433782577151
 30
0.0
  0
VERTEX
  5
8080
330
8068
100
AcDbEntity
  8
LW 5016-06-01
100
AcDbVertex
100
AcDb2dVertex
 10
-15.52101302146911
 20
21.80843830108279
 30
0.0
  0
VERTEX
  5
8081
330
8068
100
AcDbEntity
  8
LW 5016-06-01
100
AcDbVertex
100
AcDb2dVertex
 10
-15.5
 20
21.65063619613272
 30
0.0
  0
SEQEND
  5
8082
330
8068
100
AcDbEntity
  8
LW 5016-06-01
  0
POLYLINE
  5
8083
330
7FF3
100
AcDbEntity
  8
LW 5016-06-01
100
AcDb2dPolyline
 66
     1
 10
0.0
 20
0.0
 30
0.0
 70
   128
  0
VERTEX
  5
8084
330
8083
100
AcDbEntity
  8
LW 5016-06-01
100
AcDbVertex
100
AcDb2dVertex
 10
-15.5
 20
21.65063619613272
 30
0.0
  0
VERTEX
  5
8085
330
8083
100
AcDbEntity
  8
LW 5016-06-01
100
AcDbVertex
100
AcDb2dVertex
 10
-15.52101302146911
 20
21.48914575576396
 30
0.0
  0
VERTEX
  5
8086
330
8083
100
AcDbEntity
  8
LW 5016-06-01
100
AcDbVertex
100
AcDb2dVertex
 10
-15.58434295654297
 20
21.3225054740866
 30
0.0
  0
VERTEX
  5
8087
330
8083
100
AcDbEntity
  8
LW 5016-06-01
100
AcDbVertex
100
AcDb2dVertex
 10
-15.69042253494262
 20
21.15626573562213
 30
0.0
  0
VERTEX
  5
8088
330
8083
100
AcDbEntity
  8
LW 5016-06-01
100
AcDbVertex
100
AcDb2dVertex
 10
-15.83830523490906
 20
20.99593400954791
 30
0.0
  0
VERTEX
  5
8089
330
8083
100
AcDbEntity
  8
LW 5016-06-01
100
AcDbVertex
100
AcDb2dVertex
 10
-16.02152276039123
 20
20.84645748138007
 30
0.0
  0
VERTEX
  5
808A
330
8083
100
AcDbEntity
  8
LW 5016-06-01
100
AcDbVertex
100
AcDb2dVertex
 10
-16.2322347164154
 20
20.71255683898494
 30
0.0
  0
VERTEX
  5
808B
330
8083
100
AcDbEntity
  8
LW 5016-06-01
100
AcDbVertex
100
AcDb2dVertex
 10
-16.47259998321533
 20
20.59347152709529
 30
0.0
  0
VERTEX
  5
808C
330
8083
100
AcDbEntity
  8
LW 5016-06-01
100
AcDbVertex
100
AcDb2dVertex
 10
-16.74523878097534
 20
20.48868179320857
 30
0.0
  0
VERTEX
  5
808D
330
8083
100
AcDbEntity
  8
LW 5016-06-01
100
AcDbVertex
100
AcDb2dVertex
 10
-17.04300212860107
 20
20.40325641631648
 30
0.0
  0
VERTEX
  5
808E
330
8083
100
AcDbEntity
  8
LW 5016-06-01
100
AcDbVertex
100
AcDb2dVertex
 10
-17.35816884040832
 20
20.34152984618708
 30
0.0
  0
VERTEX
  5
808F
330
8083
100
AcDbEntity
  8
LW 5016-06-01
100
AcDbVertex
100
AcDb2dVertex
 10
-17.68070745468139
 20
20.30447006225154
 30
0.0
  0
VERTEX
  5
8090
330
8083
100
AcDbEntity
  8
LW 5016-06-01
100
AcDbVertex
100
AcDb2dVertex
 10
-18.0
 20
20.29211044311091
 30
0.0
  0
VERTEX
  5
8091
330
8083
100
AcDbEntity
  8
LW 5016-06-01
100
AcDbVertex
100
AcDb2dVertex
 10
-18.3192925453186
 20
20.30447006225154
 30
0.0
  0
VERTEX
  5
8092
330
8083
100
AcDbEntity
  8
LW 5016-06-01
100
AcDbVertex
100
AcDb2dVertex
 10
-18.64183115959167
 20
20.34152984618708
 30
0.0
  0
VERTEX
  5
8093
330
8083
100
AcDbEntity
  8
LW 5016-06-01
100
AcDbVertex
100
AcDb2dVertex
 10
-18.95699787139892
 20
20.40325641631648
 30
0.0
  0
VERTEX
  5
8094
330
8083
100
AcDbEntity
  8
LW 5016-06-01
100
AcDbVertex
100
AcDb2dVertex
 10
-19.25476121902466
 20
20.48868179320857
 30
0.0
  0
VERTEX
  5
8095
330
8083
100
AcDbEntity
  8
LW 5016-06-01
100
AcDbVertex
100
AcDb2dVertex
 10
-19.52740001678467
 20
20.59347152709529
 30
0.0
  0
VERTEX
  5
8096
330
8083
100
AcDbEntity
  8
LW 5016-06-01
100
AcDbVertex
100
AcDb2dVertex
 10
-19.76776528358459
 20
20.71255683898494
 30
0.0
  0
VERTEX
  5
8097
330
8083
100
AcDbEntity
  8
LW 5016-06-01
100
AcDbVertex
100
AcDb2dVertex
 10
-19.97847723960876
 20
20.84645748138007
 30
0.0
  0
VERTEX
  5
8098
330
8083
100
AcDbEntity
  8
LW 5016-06-01
100
AcDbVertex
100
AcDb2dVertex
 10
-20.16169476509094
 20
20.99593400954791
 30
0.0
  0
VERTEX
  5
8099
330
8083
100
AcDbEntity
  8
LW 5016-06-01
100
AcDbVertex
100
AcDb2dVertex
 10
-20.30957746505738
 20
21.15626573562213
 30
0.0
  0
VERTEX
  5
809A
330
8083
100
AcDbEntity
  8
LW 5016-06-01
100
AcDbVertex
100
AcDb2dVertex
 10
-20.41565704345703
 20
21.3225054740866
 30
0.0
  0
VERTEX
  5
809B
330
8083
100
AcDbEntity
  8
LW 5016-06-01
100
AcDbVertex
100
AcDb2dVertex
 10
-20.47898697853089
 20
21.48914575576396
 30
0.0
  0
VERTEX
  5
809C
330
8083
100
AcDbEntity
  8
LW 5016-06-01
100
AcDbVertex
100
AcDb2dVertex
 10
-20.5
 20
21.65063619613272
 30
0.0
  0
SEQEND
  5
809D
330
8083
100
AcDbEntity
  8
LW 5016-06-01
  0
POLYLINE
  5
809E
330
7FF3
100
AcDbEntity
  8
LW 5016-06-01
100
AcDb2dPolyline
 66
     1
 10
0.0
 20
0.0
 30
0.0
 70
   128
  0
VERTEX
  5
809F
330
809E
100
AcDbEntity
  8
LW 5016-06-01
100
AcDbVertex
100
AcDb2dVertex
 10
-20.5
 20
-21.65063619614023
 30
0.0
  0
VERTEX
  5
80A0
330
809E
100
AcDbEntity
  8
LW 5016-06-01
100
AcDbVertex
100
AcDb2dVertex
 10
-20.47898697853089
 20
-21.48914575577169
 30
0.0
  0
VERTEX
  5
80A1
330
809E
100
AcDbEntity
  8
LW 5016-06-01
100
AcDbVertex
100
AcDb2dVertex
 10
-20.41565704345703
 20
-21.32250547409455
 30
0.0
  0
VERTEX
  5
80A2
330
809E
100
AcDbEntity
  8
LW 5016-06-01
100
AcDbVertex
100
AcDb2dVertex
 10
-20.30957746505738
 20
-21.15626573563031
 30
0.0
  0
VERTEX
  5
80A3
330
809E
100
AcDbEntity
  8
LW 5016-06-01
100
AcDbVertex
100
AcDb2dVertex
 10
-20.16169476509094
 20
-20.9959340095561
 30
0.0
  0
VERTEX
  5
80A4
330
809E
100
AcDbEntity
  8
LW 5016-06-01
100
AcDbVertex
100
AcDb2dVertex
 10
-19.97847723960876
 20
-20.84645748138848
 30
0.0
  0
VERTEX
  5
80A5
330
809E
100
AcDbEntity
  8
LW 5016-06-01
100
AcDbVertex
100
AcDb2dVertex
 10
-19.76776528358459
 20
-20.71255683899358
 30
0.0
  0
VERTEX
  5
80A6
330
809E
100
AcDbEntity
  8
LW 5016-06-01
100
AcDbVertex
100
AcDb2dVertex
 10
-19.52740001678467
 20
-20.59347152710393
 30
0.0
  0
VERTEX
  5
80A7
330
809E
100
AcDbEntity
  8
LW 5016-06-01
100
AcDbVertex
100
AcDb2dVertex
 10
-19.25476121902466
 20
-20.48868179321721
 30
0.0
  0
VERTEX
  5
80A8
330
809E
100
AcDbEntity
  8
LW 5016-06-01
100
AcDbVertex
100
AcDb2dVertex
 10
-18.95699787139892
 20
-20.40325641632512
 30
0.0
  0
VERTEX
  5
80A9
330
809E
100
AcDbEntity
  8
LW 5016-06-01
100
AcDbVertex
100
AcDb2dVertex
 10
-18.64183115959167
 20
-20.34152984619573
 30
0.0
  0
VERTEX
  5
80AA
330
809E
100
AcDbEntity
  8
LW 5016-06-01
100
AcDbVertex
100
AcDb2dVertex
 10
-18.3192925453186
 20
-20.30447006226018
 30
0.0
  0
VERTEX
  5
80AB
330
809E
100
AcDbEntity
  8
LW 5016-06-01
100
AcDbVertex
100
AcDb2dVertex
 10
-18.0
 20
-20.29211044311955
 30
0.0
  0
VERTEX
  5
80AC
330
809E
100
AcDbEntity
  8
LW 5016-06-01
100
AcDbVertex
100
AcDb2dVertex
 10
-17.68070745468139
 20
-20.30447006226018
 30
0.0
  0
VERTEX
  5
80AD
330
809E
100
AcDbEntity
  8
LW 5016-06-01
100
AcDbVertex
100
AcDb2dVertex
 10
-17.35816884040832
 20
-20.34152984619573
 30
0.0
  0
VERTEX
  5
80AE
330
809E
100
AcDbEntity
  8
LW 5016-06-01
100
AcDbVertex
100
AcDb2dVertex
 10
-17.04300212860107
 20
-20.40325641632512
 30
0.0
  0
VERTEX
  5
80AF
330
809E
100
AcDbEntity
  8
LW 5016-06-01
100
AcDbVertex
100
AcDb2dVertex
 10
-16.74523878097534
 20
-20.48868179321721
 30
0.0
  0
VERTEX
  5
80B0
330
809E
100
AcDbEntity
  8
LW 5016-06-01
100
AcDbVertex
100
AcDb2dVertex
 10
-16.47259998321533
 20
-20.59347152710393
 30
0.0
  0
VERTEX
  5
80B1
330
809E
100
AcDbEntity
  8
LW 5016-06-01
100
AcDbVertex
100
AcDb2dVertex
 10
-16.2322347164154
 20
-20.71255683899358
 30
0.0
  0
VERTEX
  5
80B2
330
809E
100
AcDbEntity
  8
LW 5016-06-01
100
AcDbVertex
100
AcDb2dVertex
 10
-16.02152276039123
 20
-20.84645748138848
 30
0.0
  0
VERTEX
  5
80B3
330
809E
100
AcDbEntity
  8
LW 5016-06-01
100
AcDbVertex
100
AcDb2dVertex
 10
-15.83830523490906
 20
-20.9959340095561
 30
0.0
  0
VERTEX
  5
80B4
330
809E
100
AcDbEntity
  8
LW 5016-06-01
100
AcDbVertex
100
AcDb2dVertex
 10
-15.69042253494262
 20
-21.15626573563031
 30
0.0
  0
VERTEX
  5
80B5
330
809E
100
AcDbEntity
  8
LW 5016-06-01
100
AcDbVertex
100
AcDb2dVertex
 10
-15.58434295654297
 20
-21.32250547409455
 30
0.0
  0
VERTEX
  5
80B6
330
809E
100
AcDbEntity
  8
LW 5016-06-01
100
AcDbVertex
100
AcDb2dVertex
 10
-15.52101302146911
 20
-21.48914575577169
 30
0.0
  0
VERTEX
  5
80B7
330
809E
100
AcDbEntity
  8
LW 5016-06-01
100
AcDbVertex
100
AcDb2dVertex
 10
-15.5
 20
-21.65063619614023
 30
0.0
  0
SEQEND
  5
80B8
330
809E
100
AcDbEntity
  8
LW 5016-06-01
  0
POLYLINE
  5
80B9
330
7FF3
100
AcDbEntity
  8
LW 5016-06-01
100
AcDb2dPolyline
 66
     1
 10
0.0
 20
0.0
 30
0.0
 70
   128
  0
VERTEX
  5
80BA
330
80B9
100
AcDbEntity
  8
LW 5016-06-01
100
AcDbVertex
100
AcDb2dVertex
 10
-15.5
 20
-21.65063619614023
 30
0.0
  0
VERTEX
  5
80BB
330
80B9
100
AcDbEntity
  8
LW 5016-06-01
100
AcDbVertex
100
AcDb2dVertex
 10
-15.52101302146911
 20
-21.80843830109006
 30
0.0
  0
VERTEX
  5
80BC
330
80B9
100
AcDbEntity
  8
LW 5016-06-01
100
AcDbVertex
100
AcDb2dVertex
 10
-15.58434295654297
 20
-21.96433782577878
 30
0.0
  0
VERTEX
  5
80BD
330
80B9
100
AcDbEntity
  8
LW 5016-06-01
100
AcDbVertex
100
AcDb2dVertex
 10
-15.69042253494262
 20
-22.11326599121457
 30
0.0
  0
VERTEX
  5
80BE
330
80B9
100
AcDbEntity
  8
LW 5016-06-01
100
AcDbVertex
100
AcDb2dVertex
 10
-15.83830523490906
 20
-22.25069761276586
 30
0.0
  0
VERTEX
  5
80BF
330
80B9
100
AcDbEntity
  8
LW 5016-06-01
100
AcDbVertex
100
AcDb2dVertex
 10
-16.02152276039123
 20
-22.37386226654394
 30
0.0
  0
VERTEX
  5
80C0
330
80B9
100
AcDbEntity
  8
LW 5016-06-01
100
AcDbVertex
100
AcDb2dVertex
 10
-16.2322347164154
 20
-22.48032569885595
 30
0.0
  0
VERTEX
  5
80C1
330
80B9
100
AcDbEntity
  8
LW 5016-06-01
100
AcDbVertex
100
AcDb2dVertex
 10
-16.47259998321533
 20
-22.57195234299024
 30
0.0
  0
VERTEX
  5
80C2
330
80B9
100
AcDbEntity
  8
LW 5016-06-01
100
AcDbVertex
100
AcDb2dVertex
 10
-16.74523878097534
 20
-22.6503801345857
 30
0.0
  0
VERTEX
  5
80C3
330
80B9
100
AcDbEntity
  8
LW 5016-06-01
100
AcDbVertex
100
AcDb2dVertex
 10
-17.04300212860107
 20
-22.71283626556715
 30
0.0
  0
VERTEX
  5
80C4
330
80B9
100
AcDbEntity
  8
LW 5016-06-01
100
AcDbVertex
100
AcDb2dVertex
 10
-17.35816884040832
 20
-22.75718688965162
 30
0.0
  0
VERTEX
  5
80C5
330
80B9
100
AcDbEntity
  8
LW 5016-06-01
100
AcDbVertex
100
AcDb2dVertex
 10
-17.68070745468139
 20
-22.78345584869703
 30
0.0
  0
VERTEX
  5
80C6
330
80B9
100
AcDbEntity
  8
LW 5016-06-01
100
AcDbVertex
100
AcDb2dVertex
 10
-18.0
 20
-22.79211044311842
 30
0.0
  0
VERTEX
  5
80C7
330
80B9
100
AcDbEntity
  8
LW 5016-06-01
100
AcDbVertex
100
AcDb2dVertex
 10
-18.3192925453186
 20
-22.78345584869703
 30
0.0
  0
VERTEX
  5
80C8
330
80B9
100
AcDbEntity
  8
LW 5016-06-01
100
AcDbVertex
100
AcDb2dVertex
 10
-18.64183115959167
 20
-22.75718688965162
 30
0.0
  0
VERTEX
  5
80C9
330
80B9
100
AcDbEntity
  8
LW 5016-06-01
100
AcDbVertex
100
AcDb2dVertex
 10
-18.95699787139892
 20
-22.71283626556715
 30
0.0
  0
VERTEX
  5
80CA
330
80B9
100
AcDbEntity
  8
LW 5016-06-01
100
AcDbVertex
100
AcDb2dVertex
 10
-19.25476121902466
 20
-22.6503801345857
 30
0.0
  0
VERTEX
  5
80CB
330
80B9
100
AcDbEntity
  8
LW 5016-06-01
100
AcDbVertex
100
AcDb2dVertex
 10
-19.52740001678467
 20
-22.57195234299024
 30
0.0
  0
VERTEX
  5
80CC
330
80B9
100
AcDbEntity
  8
LW 5016-06-01
100
AcDbVertex
100
AcDb2dVertex
 10
-19.76776528358459
 20
-22.48032569885595
 30
0.0
  0
VERTEX
  5
80CD
330
80B9
100
AcDbEntity
  8
LW 5016-06-01
100
AcDbVertex
100
AcDb2dVertex
 10
-19.97847723960876
 20
-22.37386226654394
 30
0.0
  0
VERTEX
  5
80CE
330
80B9
100
AcDbEntity
  8
LW 5016-06-01
100
AcDbVertex
100
AcDb2dVertex
 10
-20.16169476509094
 20
-22.25069761276586
 30
0.0
  0
VERTEX
  5
80CF
330
80B9
100
AcDbEntity
  8
LW 5016-06-01
100
AcDbVertex
100
AcDb2dVertex
 10
-20.30957746505738
 20
-22.11326599121457
 30
0.0
  0
VERTEX
  5
80D0
330
80B9
100
AcDbEntity
  8
LW 5016-06-01
100
AcDbVertex
100
AcDb2dVertex
 10
-20.41565704345703
 20
-21.96433782577878
 30
0.0
  0
VERTEX
  5
80D1
330
80B9
100
AcDbEntity
  8
LW 5016-06-01
100
AcDbVertex
100
AcDb2dVertex
 10
-20.47898697853089
 20
-21.80843830109006
 30
0.0
  0
VERTEX
  5
80D2
330
80B9
100
AcDbEntity
  8
LW 5016-06-01
100
AcDbVertex
100
AcDb2dVertex
 10
-20.5
 20
-21.65063619614023
 30
0.0
  0
SEQEND
  5
80D3
330
80B9
100
AcDbEntity
  8
LW 5016-06-01
  0
LINE
  5
80D4
330
7FF3
100
AcDbEntity
  8
LW 5016-06-01
100
AcDbLine
 10
-22.0
 20
25.0
 30
0.0
 11
-22.0
 21
-25.0
 31
0.0
  0
LINE
  5
80D5
330
7FF3
100
AcDbEntity
  8
LW 5016-06-01
100
AcDbLine
 10
-28.0
 20
19.0
 30
0.0
 11
-28.0
 21
-19.0
 31
0.0
  0
LINE
  5
80D6
330
7FF3
100
AcDbEntity
  8
LW 5016-06-01
100
AcDbLine
 10
-122.0
 20
10.0
 30
0.0
 11
-122.0
 21
-10.0
 31
0.0
  0
LINE
  5
80D7
330
7FF3
100
AcDbEntity
  8
LW 5016-06-01
100
AcDbLine
 10
-123.0
 20
9.0
 30
0.0
 11
-123.0
 21
-9.0
 31
0.0
  0
LINE
  5
80D8
330
7FF3
100
AcDbEntity
  8
LW 5016-06-01
100
AcDbLine
 10
-3.0
 20
-25.0
 30
0.0
 11
-22.0
 21
-25.0
 31
0.0
  0
LINE
  5
80D9
330
7FF3
100
AcDbEntity
  8
LW 5016-06-01
100
AcDbLine
 10
-3.0
 20
25.0
 30
0.0
 11
-22.0
 21
25.0
 31
0.0
  0
LINE
  5
80DA
330
7FF3
100
AcDbEntity
  8
LW 5016-06-01
100
AcDbLine
 10
-28.0
 20
19.0
 30
0.0
 11
-22.0
 21
25.0
 31
0.0
  0
LINE
  5
80DB
330
7FF3
100
AcDbEntity
  8
LW 5016-06-01
100
AcDbLine
 10
-28.0
 20
-19.0
 30
0.0
 11
-22.0
 21
-25.0
 31
0.0
  0
ARC
  5
80DC
330
7FF3
100
AcDbEntity
  8
LW 5016-06-01
100
AcDbCircle
 10
-29.0
 20
11.0
 30
0.0
 40
1.000000000000002
100
AcDbArc
 50
270.0
 51
0.0
  0
ARC
  5
80DD
330
7FF3
100
AcDbEntity
  8
LW 5016-06-01
100
AcDbCircle
 10
-29.0
 20
-11.0
 30
0.0
 40
1.000000000000002
100
AcDbArc
 50
0.0
 51
90.0
  0
LINE
  5
80DE
330
7FF3
100
AcDbEntity
  8
LW 5016-06-01
100
AcDbLine
 10
-29.0
 20
-10.0
 30
0.0
 11
-78.98612181133097
 21
-10.00000000000003
 31
0.0
  0
LINE
  5
80DF
330
7FF3
100
AcDbEntity
  8
LW 5016-06-01
100
AcDbLine
 10
-97.01387818866908
 20
-10.0
 30
0.0
 11
-122.0
 21
-10.0
 31
0.0
  0
LINE
  5
80E0
330
7FF3
100
AcDbEntity
  8
LW 5016-06-01
100
AcDbLine
 10
-29.0
 20
10.0
 30
0.0
 11
-71.22949016875319
 21
9.999999999999971
 31
0.0
  0
LINE
  5
80E1
330
7FF3
100
AcDbEntity
  8
LW 5016-06-01
100
AcDbLine
 10
-104.7705098312468
 20
10.0
 30
0.0
 11
-122.0
 21
10.0
 31
0.0
  0
LINE
  5
80E2
330
7FF3
100
AcDbEntity
  8
LW 5016-06-01
100
AcDbLine
 10
-123.0
 20
9.0
 30
0.0
 11
-122.0
 21
10.0
 31
0.0
  0
LINE
  5
80E3
330
7FF3
100
AcDbEntity
  8
LW 5016-06-01
100
AcDbLine
 10
-123.0
 20
-9.0
 30
0.0
 11
-122.0
 21
-10.0
 31
0.0
  0
CIRCLE
  5
80E4
330
7FF3
100
AcDbEntity
  8
LW 5016-06-01
100
AcDbCircle
 10
-88.0
 20
4.999999999994543
 30
0.0
 40
17.50000000000001
  0
LINE
  5
80E5
330
7FF3
100
AcDbEntity
  8
LW 5016-06-01
100
AcDbLine
 10
3.000000000000001
 20
-7.000000000000113
 30
0.0
 11
-3.000000000000001
 21
-7.000000000000113
 31
0.0
  0
LINE
  5
80E6
330
7FF3
100
AcDbEntity
  8
LW 5016-06-01
100
AcDbLine
 10
3.000000000000001
 20
7.0
 30
0.0
 11
-3.000000000000001
 21
7.000000000000028
 31
0.0
  0
LINE
  5
80E7
330
7FF3
100
AcDbEntity
  8
LW 5016-06-01
 62
     3
100
AcDbLine
 10
-3.000000000000001
 20
-5.794500000000084
 30
0.0
 11
3.000000000000001
 21
-5.794500000000084
 31
0.0
  0
LINE
  5
80E8
330
7FF3
100
AcDbEntity
  8
LW 5016-06-01
 62
     3
100
AcDbLine
 10
3.000000000000001
 20
5.79449999999997
 30
0.0
 11
-3.000000000000001
 21
5.794499999999999
 31
0.0
  0
LINE
  5
80E9
330
7FF3
100
AcDbEntity
  8
LW 5016-06-01
  6
MITTE2
 62
     3
100
AcDbLine
 10
-88.0
 20
27.49999999999455
 30
0.0
 11
-88.0
 21
-17.50000000000546
 31
0.0
  0
LINE
  5
80EA
330
7FF3
100
AcDbEntity
  8
LW 5016-06-01
  6
MITTE2
 62
     3
100
AcDbLine
 10
41.3443034851964
 20
0.0
 30
0.0
 11
-126.3443034851966
 21
0.0
 31
0.0
  0
HATCH
  5
80EB
330
7FF3
100
AcDbEntity
  8
LW 5016-06-01
 62
     1
100
AcDbHatch
 10
0.0
 20
0.0
 30
0.0
210
0.0
220
0.0
230
1.0
  2
SOLID
 70
     1
 71
     0
 91
        5
 92
        7
 72
     0
 73
     1
 93
       76
 10
-50.0011872243615
 20
5.869698514444621
 10
-49.96932839498867
 20
5.921279476286372
 10
-49.85117027075739
 20
6.0725218753023
 10
-49.71669219554474
 20
6.212946005564845
 10
-49.57067228908318
 20
6.341330567278191
 10
-49.40700349300119
 20
6.458236850193998
 10
-49.23161653963643
 20
6.560414732015601
 10
-49.04986360703606
 20
6.651766411598487
 10
-48.86869467157044
 20
6.721284724044608
 10
-51.12583260977044
 20
6.721284724044608
 10
-51.33872916217047
 20
6.71259506884462
 10
-51.54076364557045
 20
6.686526103244659
 10
-51.7362808875705
 20
6.64525024104455
 10
-51.92093606057028
 20
6.590939896044574
 10
-52.09690157837053
 20
6.521422654444563
 10
-52.26417744097034
 20
6.438870930044458
 10
-52.41474570351738
 20
6.343545412500589
 10
-52.5574533039703
 20
6.236836446644474
 10
-52.68289455954096
 20
6.117788170404423
 10
-52.79415951161832
 20
5.989528859652523
 10
-52.89417744297043
 20
5.852319204044533
 10
-52.97672916737042
 20
5.706767479444465
 10
-53.03972916757039
 20
5.55252609964441
 10
-53.08969468497025
 20
5.391767478444535
 10
-53.11793606437027
 20
5.226664029644553
 10
-53.12662571957026
 20
5.052870925644583
 10
-53.11576365057021
 20
4.879077821644386
 10
-53.08534985737037
 20
4.711801959044464
 10
-53.03103951237017
 20
4.551043337844475
 10
-52.96152227077027
 20
4.39462954424448
 10
-52.87245330497012
 20
4.246905405844472
 10
-52.76600502877022
 20
4.105698508844625
 10
-52.64330709734622
 20
3.974484715324479
 10
-52.50710804863797
 20
3.853350921836636
 10
-52.3597636481702
 20
3.742905404244538
 10
-52.1990050269701
 20
3.645146783244626
 10
-52.02337840572295
 20
3.560248851940514
 10
-51.8427291637704
 20
3.486560575844578
 10
-51.65155674937023
 20
3.430077817044548
 10
-51.4516946797703
 20
3.386629541044612
 10
-51.24314295497038
 20
3.360560575444537
 10
-51.03241881637041
 20
3.35187092024455
 10
-48.91324773061774
 20
3.351870920244664
 10
-49.07379159467018
 20
3.414941723979609
 10
-49.25735573847259
 20
3.505561997502354
 10
-49.42582214464278
 20
3.610091690433819
 10
-49.58865503940342
 20
3.725709928859259
 10
-49.73256740777356
 20
3.855499525399181
 10
-49.86000330125785
 20
3.994853208627773
 10
-49.97370865600124
 20
4.145341453340279
 10
-50.02567988744999
 20
4.229526095444612
 10
-51.05414295437026
 20
4.229526095444498
 10
-51.18625178237585
 20
4.237086095468612
 10
-51.31700502417039
 20
4.257419888636604
 10
-51.44517743837013
 20
4.290353681844521
 10
-51.56031536977025
 20
4.335974371644624
 10
-51.66526033562059
 20
4.39245713044454
 10
-51.76340999110471
 20
4.460062647900485
 10
-51.85359123277021
 20
4.538008855044495
 10
-51.92528088817017
 20
4.62273299324454
 10
-50.19775957391153
 20
4.622732993244653
 10
-50.20834404118454
 20
4.655368434002866
 10
-50.24445584914883
 20
4.840742381554036
 10
-50.25649950193065
 20
5.03103209550477
 10
-50.24447782950119
 20
5.22578318885985
 10
-50.20817210782593
 20
5.412152560126287
 10
-50.19157340515107
 20
5.461284720044545
 10
-51.9622119227704
 20
5.461284720044545
 10
-51.89269468117027
 20
5.556870927244517
 10
-51.81014295677027
 20
5.639422651644508
 10
-51.71505205991684
 20
5.709287479452541
 10
-51.6124533009704
 20
5.767595065844602
 10
-51.49376130059363
 20
5.811564721156514
 10
-51.37131536917036
 20
5.843629548844546
 10
-51.23445329977039
 20
5.863181273044574
 10
-51.09107398897027
 20
5.869698514444507
 97
        0
 92
        7
 72
     0
 73
     1
 93
       72
 10
-48.27272335933367
 20
5.855099893708597
 10
-48.14986032446086
 20
5.873174376524616
 10
-48.02579811717032
 20
5.878388169644722
 10
-46.75710845797039
 20
5.878388169644722
 10
-47.60434983997038
 20
5.063732994644851
 10
-45.83817742057021
 20
3.34535367884473
 10
-44.51952224397041
 20
3.34535367884473
 10
-46.2335567321702
 20
5.087629546444759
 10
-44.5521084509703
 20
6.721284724044835
 10
-47.99103949637038
 20
6.721284724044608
 10
-48.19902639358247
 20
6.710509551596715
 10
-48.40574460113521
 20
6.68504886186065
 10
-48.61017742937042
 20
6.645250241044664
 10
-48.80352225757042
 20
6.588767482244634
 10
-48.99034984437048
 20
6.51707782684457
 10
-49.16150998284479
 20
6.431050240364584
 10
-49.32707398337038
 20
6.334595067644613
 10
-49.47914294937027
 20
6.225974377644661
 10
-49.61484060497355
 20
6.106665411748622
 10
-49.73983260537034
 20
5.976146790644634
 10
-49.84845329537051
 20
5.837112307444613
 10
-49.93969467497027
 20
5.689388169044718
 10
-50.01138433037045
 20
5.535146789244663
 10
-50.06569467537042
 20
5.374388168044561
 10
-50.09828088237032
 20
5.207112305444525
 10
-50.10914295137036
 20
5.031146787644502
 10
-50.09828088237032
 20
4.859526097444586
 10
-50.06569467537019
 20
4.692250234844664
 10
-50.01355674417027
 20
4.531491613644675
 10
-49.94403950257037
 20
4.37725023384462
 10
-49.85219853676153
 20
4.228483336820772
 10
-49.74681908815114
 20
4.089014370860581
 10
-49.62881357053493
 20
3.959972991140716
 10
-49.49652225977025
 20
3.840664025244677
 10
-49.34440115583902
 20
3.732651611108622
 10
-49.18586708637031
 20
3.634284714244586
 10
-49.01424639617016
 20
3.549560576044655
 10
-48.83176363697021
 20
3.477870920644591
 10
-48.6375324639398
 20
3.423821265300603
 10
-48.44072915297033
 20
3.380112299644679
 10
-48.23217742817019
 20
3.354043334044717
 10
-48.02145328957021
 20
3.34535367884473
 10
-46.11841880077031
 20
3.34535367884473
 10
-47.00476363117036
 20
4.218664026444685
 10
-48.02145328957021
 20
4.218664026444685
 10
-48.08812032426477
 20
4.222411319384036
 10
-48.18906804872312
 20
4.232393681660596
 10
-48.3092025318631
 20
4.253857130004689
 10
-48.42632170464867
 20
4.288181268044581
 10
-48.52781687738456
 20
4.329109544036668
 10
-48.58395204997669
 20
4.357264026884649
 10
-48.63763673980225
 20
4.389850233884772
 10
-48.7701974298784
 20
4.489172992820613
 10
-48.84379880942219
 20
4.559211613732713
 10
-48.89886515442459
 20
4.627077820844533
 10
-48.94757067182081
 20
4.699636441764596
 10
-48.98693480987685
 20
4.776800579940527
 10
-49.01635798238385
 20
4.858222649164645
 10
-49.03705674107027
 20
4.945379890820731
 10
-49.04457329281831
 20
5.034709546276531
 10
-49.04321770660704
 20
5.097014374060563
 10
-49.03721315486382
 20
5.159145408740528
 10
-49.0250563272391
 20
5.222319202044673
 10
-49.00684280993982
 20
5.284015753964695
 10
-48.9631946718705
 20
5.382730237036525
 10
-48.92166680966943
 20
5.450596444148573
 10
-48.85858860257281
 20
5.528629547844616
 10
-48.72918666220789
 20
5.655152284898349
 10
-48.66991880887031
 20
5.695210238028721
 10
-48.59362363621426
 20
5.739527479548542
 10
-48.50960336008552
 20
5.78167230726865
 10
-48.39306639419828
 20
5.824512307404688
 97
        0
 92
        7
 72
     0
 73
     1
 93
       57
 10
-43.71468637934618
 20
5.833028169500948
 10
-43.58321189617027
 20
5.873000583420889
 10
-43.44852224057035
 20
5.900112307644917
 10
-43.30514292977045
 20
5.90880196284479
 10
-42.0646946499703
 20
5.908801962844904
 10
-42.0646946499703
 20
6.734319206844929
 10
-43.29862568837029
 20
6.734319206844816
 10
-43.50934982697026
 20
6.725629551644829
 10
-43.71572913797035
 20
6.697388172244814
 10
-43.91341879377023
 20
6.656112310044818
 10
-44.10241879437035
 20
6.601801965044842
 10
-44.28707396737036
 20
6.530112309644891
 10
-44.45348086445051
 20
6.447473688692753
 10
-44.61230169254077
 20
6.351018515972782
 10
-44.76238072749993
 20
6.241528860452717
 10
-44.89694003827184
 20
6.122306791108826
 10
-45.01700500417041
 20
5.993526101044835
 10
-45.12128086657026
 20
5.854491617844814
 10
-45.2060050047703
 20
5.708939893244746
 10
-45.27769466017048
 20
5.554698513444691
 10
-45.32766017757035
 20
5.393939892244816
 10
-45.36024638457024
 20
5.226664029644894
 10
-45.37110845357029
 20
5.05287092564481
 10
-45.36024638457024
 20
4.879077821644841
 10
-45.32766017757035
 20
4.711801959044805
 10
-45.27552224637043
 20
4.551043337844703
 10
-45.20383259097025
 20
4.394629544244821
 10
-45.11693603897015
 20
4.246905405844813
 10
-45.00808941793502
 20
4.107349543332816
 10
-44.88823300376156
 20
3.977004715332896
 10
-44.75180541712143
 20
3.855697128740757
 10
-44.60424638217022
 20
3.745077818044819
 10
-44.44348776097036
 20
3.64731919704468
 10
-44.26969465697038
 20
3.562595058844863
 10
-44.08503948397014
 20
3.488732989644859
 10
-43.8938670695702
 20
3.432250230844829
 10
-43.69400499997027
 20
3.388801954844893
 10
-43.48762568897018
 20
3.364905403044758
 10
-43.27472913657016
 20
3.356215747844771
 10
-42.0646946499703
 20
3.356215747844885
 10
-42.0646946499703
 20
4.214319198844805
 10
-43.29862568837029
 20
4.214319198844805
 10
-43.43227258534625
 20
4.224659888532755
 10
-43.56452913749012
 20
4.246644716188939
 10
-43.68514155166622
 20
4.280968854228831
 10
-43.80114844858622
 20
4.328935750932942
 10
-43.91081189721035
 20
4.389850233884885
 10
-44.00787534579421
 20
4.45745575134083
 10
-44.09529327710629
 20
4.537226786076871
 10
-44.16976362217019
 20
4.622732993244881
 10
-42.0646946499703
 20
4.622732993244881
 10
-42.0646946499703
 20
5.450422651044846
 10
-44.20669465677042
 20
5.450422651044846
 10
-44.1371774151703
 20
5.548181272044757
 10
-44.05028086317043
 20
5.637250237844682
 10
-43.94913327664221
 20
5.713545410500842
 10
-43.84172913837028
 20
5.78062954864481
 97
        0
 92
        7
 72
     0
 73
     1
 93
        6
 10
-41.8344187871703
 20
6.721284724044949
 10
-41.8344187871703
 20
3.351870920244891
 10
-39.5968325731701
 20
3.351870920245005
 10
-39.59683257317033
 20
4.218664026445026
 10
-40.81121188737029
 20
4.218664026445026
 10
-40.81121188737029
 20
6.721284724044949
 97
        0
 92
        7
 72
     0
 73
     1
 93
        8
 10
-40.57876361077046
 20
6.721284724044949
 10
-40.57876361077046
 20
5.895767480044924
 10
-39.34483257237025
 20
5.895767480045037
 10
-39.34483257237025
 20
3.345353678844958
 10
-38.31945325877018
 20
3.345353678844958
 10
-38.31945325877041
 20
5.895767480044924
 10
-37.07683256517043
 20
5.895767480045037
 10
-37.07683256517043
 20
6.721284724045062
 97
        0
 75
     0
 76
     1
 47
0.0142553043587597
 98
        5
 10
-50.69152709829518
 20
6.278835054455498
 10
-48.42402988495246
 20
6.136282069449862
 10
-43.93181815275101
 20
6.193303241997682
 10
-41.20796906891928
 20
6.435643466690066
 10
-39.79613108669264
 20
6.335856334276741
450
        0
451
        0
460
0.0
461
0.0
452
        0
462
0.0
453
        0
470

  0
LWPOLYLINE
  5
80EC
330
7FF3
100
AcDbEntity
  8
LW 5016-06-01
 62
     1
100
AcDbPolyline
 90
        8
 70
     1
 43
0.0
 10
-38.31945325877041
 20
5.895767480044924
 10
-38.31945325877018
 20
3.345353678844958
 10
-39.34483257237025
 20
3.345353678844958
 10
-39.34483257237025
 20
5.895767480045037
 10
-40.57876361077046
 20
5.895767480044924
 10
-40.57876361077046
 20
6.721284724044949
 10
-37.07683256517043
 20
6.721284724045062
 10
-37.07683256517043
 20
5.895767480045037
  0
LWPOLYLINE
  5
80ED
330
7FF3
100
AcDbEntity
  8
LW 5016-06-01
 62
     1
100
AcDbPolyline
 90
       73
 70
     1
 43
0.0
 10
-48.02145328957021
 20
4.218664026444685
 10
-47.00476363117036
 20
4.218664026444685
 10
-46.11841880077031
 20
3.34535367884473
 10
-48.02145328957021
 20
3.345353678844617
 10
-48.23217742817019
 20
3.354043334044717
 10
-48.44072915297033
 20
3.380112299644679
 10
-48.6375324639398
 20
3.423821265300603
 10
-48.83176363697021
 20
3.477870920644591
 10
-49.01424639617016
 20
3.549560576044655
 10
-49.18586708637031
 20
3.634284714244586
 10
-49.34440115583902
 20
3.732651611108622
 10
-49.49652225977025
 20
3.840664025244677
 10
-49.62881357053515
 20
3.959972991140602
 10
-49.74681908815114
 20
4.089014370860581
 10
-49.85219853676153
 20
4.228483336820659
 10
-49.94403950257037
 20
4.37725023384462
 10
-50.01355674417027
 20
4.531491613644675
 10
-50.06569467537019
 20
4.692250234844664
 10
-50.09828088237032
 20
4.859526097444586
 10
-50.10914295137036
 20
5.031146787644615
 10
-50.09828088237032
 20
5.207112305444525
 10
-50.06569467537042
 20
5.374388168044561
 10
-50.01138433037022
 20
5.535146789244663
 10
-49.93969467497027
 20
5.689388169044605
 10
-49.84845329537029
 20
5.837112307444613
 10
-49.73983260537034
 20
5.976146790644634
 10
-49.61484060497355
 20
6.106665411748736
 10
-49.47914294937049
 20
6.225974377644661
 10
-49.32707398337038
 20
6.334595067644613
 10
-49.16150998284479
 20
6.431050240364584
 10
-48.99034984437048
 20
6.51707782684457
 10
-48.80352225757042
 20
6.588767482244634
 10
-48.61017742937042
 20
6.645250241044777
 10
-48.40574460113521
 20
6.68504886186065
 10
-48.19902639358247
 20
6.710509551596715
 10
-47.99103949637038
 20
6.721284724044608
 10
-44.5521084509703
 20
6.721284724044835
 10
-46.2335567321702
 20
5.087629546444759
 10
-44.51952224397041
 20
3.34535367884473
 10
-45.83817742057021
 20
3.34535367884473
 10
-47.60434983997038
 20
5.063732994644851
 10
-46.75710845797039
 20
5.878388169644722
 10
-48.02579811717032
 20
5.878388169644722
 10
-48.14986032446086
 20
5.873174376524616
 10
-48.27272335933367
 20
5.855099893708597
 10
-48.39306639419828
 20
5.824512307404688
 10
-48.50960336008552
 20
5.781672307268536
 10
-48.59362363621449
 20
5.739527479548655
 10
-48.66991880887031
 20
5.695210238028721
 10
-48.71016060210149
 20
5.668011617252659
 10
-48.74767384359984
 20
5.637076444740614
 10
-48.85858860257281
 20
5.528629547844616
 10
-48.92166680966943
 20
5.450596444148573
 10
-48.96319467187026
 20
5.382730237036639
 10
-49.00684280993982
 20
5.284015753964695
 10
-49.0250563272391
 20
5.222319202044673
 10
-49.03721315486382
 20
5.159145408740641
 10
-49.04321770660704
 20
5.097014374060677
 10
-49.04457329281831
 20
5.034709546276644
 10
-49.03705674107027
 20
4.945379890820731
 10
-49.01635798238385
 20
4.858222649164645
 10
-48.98693480987663
 20
4.776800579940641
 10
-48.94757067182081
 20
4.699636441764596
 10
-48.89886515442481
 20
4.627077820844647
 10
-48.84379880942219
 20
4.559211613732713
 10
-48.7701974298784
 20
4.489172992820613
 10
-48.63763673980225
 20
4.389850233884772
 10
-48.58395204997669
 20
4.357264026884649
 10
-48.52781687738456
 20
4.329109544036668
 10
-48.42632170464867
 20
4.288181268044581
 10
-48.3092025318631
 20
4.253857130004689
 10
-48.18906804872312
 20
4.232393681660596
 10
-48.08812032426477
 20
4.222411319384036
  0
LWPOLYLINE
  5
80EE
330
7FF3
100
AcDbEntity
  8
LW 5016-06-01
 62
     1
100
AcDbPolyline
 90
       76
 70
     1
 43
0.0
 10
-49.23161653963643
 20
6.560414732015601
 10
-49.40700349300119
 20
6.458236850193884
 10
-49.57067228908318
 20
6.341330567278191
 10
-49.71669219554474
 20
6.212946005564845
 10
-49.85117027075739
 20
6.0725218753023
 10
-49.96932839498867
 20
5.921279476286372
 10
-50.0011872243615
 20
5.869698514444621
 10
-51.09107398897027
 20
5.869698514444621
 10
-51.23445329977039
 20
5.863181273044574
 10
-51.37131536917036
 20
5.843629548844546
 10
-51.49376130059363
 20
5.811564721156514
 10
-51.6124533009704
 20
5.767595065844602
 10
-51.71505205991661
 20
5.709287479452541
 10
-51.81014295677027
 20
5.639422651644508
 10
-51.8926946811705
 20
5.556870927244517
 10
-51.9622119227704
 20
5.461284720044545
 10
-50.19157340515107
 20
5.461284720044545
 10
-50.20817210782593
 20
5.412152560126287
 10
-50.24447782950142
 20
5.225783188859622
 10
-50.25649950193065
 20
5.03103209550477
 10
-50.24445584914883
 20
4.840742381554036
 10
-50.20834404118431
 20
4.65536843400298
 10
-50.19775957391153
 20
4.622732993244653
 10
-51.92528088817017
 20
4.62273299324454
 10
-51.85359123277021
 20
4.538008855044495
 10
-51.76340999110471
 20
4.460062647900485
 10
-51.66526033562059
 20
4.39245713044454
 10
-51.56031536977025
 20
4.335974371644624
 10
-51.44517743837013
 20
4.290353681844635
 10
-51.31700502417039
 20
4.257419888636604
 10
-51.18625178237585
 20
4.237086095468612
 10
-51.05414295437026
 20
4.229526095444498
 10
-50.02567988744999
 20
4.229526095444612
 10
-49.97370865600124
 20
4.145341453340279
 10
-49.86000330125785
 20
3.994853208627773
 10
-49.73256740777356
 20
3.855499525399181
 10
-49.58865503940342
 20
3.725709928859487
 10
-49.42582214464278
 20
3.610091690433819
 10
-49.25735573847259
 20
3.505561997502354
 10
-49.07379159467018
 20
3.414941723979609
 10
-48.91324773061774
 20
3.351870920244664
 10
-51.03241881637018
 20
3.351870920244437
 10
-51.24314295497038
 20
3.360560575444537
 10
-51.4516946797703
 20
3.386629541044612
 10
-51.65155674937023
 20
3.430077817044548
 10
-51.84272916377017
 20
3.486560575844464
 10
-52.02337840572318
 20
3.560248851940514
 10
-52.1990050269701
 20
3.645146783244626
 10
-52.3597636481702
 20
3.742905404244538
 10
-52.50710804863797
 20
3.853350921836522
 10
-52.64330709734622
 20
3.974484715324479
 10
-52.76600502877022
 20
4.105698508844511
 10
-52.87245330497035
 20
4.246905405844472
 10
-52.96152227077027
 20
4.39462954424448
 10
-53.03103951237017
 20
4.551043337844475
 10
-53.08534985737037
 20
4.711801959044464
 10
-53.11576365057021
 20
4.879077821644614
 10
-53.12662571957026
 20
5.052870925644469
 10
-53.11793606437049
 20
5.226664029644439
 10
-53.08969468497025
 20
5.391767478444535
 10
-53.03972916757039
 20
5.55252609964441
 10
-52.97672916737042
 20
5.706767479444465
 10
-52.89417744297043
 20
5.852319204044533
 10
-52.79415951161832
 20
5.989528859652523
 10
-52.68289455954096
 20
6.117788170404537
 10
-52.5574533039703
 20
6.236836446644474
 10
-52.41474570351738
 20
6.343545412500589
 10
-52.26417744097034
 20
6.438870930044572
 10
-52.0969015783703
 20
6.52142265444445
 10
-51.92093606057028
 20
6.590939896044574
 10
-51.73628088757027
 20
6.64525024104455
 10
-51.54076364557045
 20
6.686526103244659
 10
-51.33872916217047
 20
6.71259506884462
 10
-51.12583260977044
 20
6.721284724044608
 10
-48.86869467157021
 20
6.721284724044721
 10
-49.04986360703606
 20
6.651766411598487
  0
LWPOLYLINE
  5
80EF
330
7FF3
100
AcDbEntity
  8
LW 5016-06-01
 62
     1
100
AcDbPolyline
 90
        6
 70
     1
 43
0.0
 10
-39.5968325731701
 20
3.351870920245005
 10
-41.8344187871703
 20
3.351870920244891
 10
-41.8344187871703
 20
6.721284724044949
 10
-40.81121188737029
 20
6.721284724044949
 10
-40.81121188737029
 20
4.218664026445026
 10
-39.59683257317033
 20
4.218664026445026
  0
LWPOLYLINE
  5
80F0
330
7FF3
100
AcDbEntity
  8
LW 5016-06-01
 62
     1
100
AcDbPolyline
 90
       57
 70
     1
 43
0.0
 10
-44.88823300376156
 20
3.977004715332896
 10
-45.00808941793502
 20
4.107349543332702
 10
-45.11693603897038
 20
4.246905405844699
 10
-45.20383259097025
 20
4.394629544244821
 10
-45.27552224637043
 20
4.551043337844703
 10
-45.32766017757035
 20
4.711801959044805
 10
-45.36024638457024
 20
4.879077821644841
 10
-45.37110845357029
 20
5.05287092564481
 10
-45.36024638457024
 20
5.22666402964478
 10
-45.32766017757035
 20
5.393939892244816
 10
-45.27769466017048
 20
5.554698513444691
 10
-45.2060050047703
 20
5.70893989324486
 10
-45.12128086657049
 20
5.854491617844701
 10
-45.01700500417041
 20
5.993526101044835
 10
-44.89694003827207
 20
6.122306791108712
 10
-44.76238072749993
 20
6.241528860452717
 10
-44.61230169254077
 20
6.351018515972782
 10
-44.45348086445028
 20
6.447473688692866
 10
-44.28707396737036
 20
6.530112309644891
 10
-44.10241879437035
 20
6.601801965044842
 10
-43.91341879377023
 20
6.656112310044818
 10
-43.71572913797035
 20
6.697388172244814
 10
-43.50934982697026
 20
6.725629551644829
 10
-43.29862568837029
 20
6.734319206844816
 10
-42.0646946499703
 20
6.734319206844929
 10
-42.0646946499703
 20
5.908801962844904
 10
-43.30514292977023
 20
5.90880196284479
 10
-43.44852224057035
 20
5.900112307644803
 10
-43.58321189617027
 20
5.873000583420889
 10
-43.7146863793464
 20
5.833028169500835
 10
-43.84172913837028
 20
5.78062954864481
 10
-43.94913327664221
 20
5.713545410500842
 10
-44.05028086317043
 20
5.637250237844909
 10
-44.1371774151703
 20
5.548181272044757
 10
-44.20669465677042
 20
5.450422651044846
 10
-42.0646946499703
 20
5.450422651044846
 10
-42.0646946499703
 20
4.622732993244881
 10
-44.16976362217019
 20
4.622732993244881
 10
-44.09529327710629
 20
4.537226786076871
 10
-44.00787534579421
 20
4.45745575134083
 10
-43.91081189721035
 20
4.389850233884885
 10
-43.80114844858622
 20
4.328935750932942
 10
-43.68514155166622
 20
4.280968854228831
 10
-43.56452913749012
 20
4.246644716188939
 10
-43.43227258534625
 20
4.224659888532755
 10
-43.29862568837029
 20
4.214319198844805
 10
-42.0646946499703
 20
4.214319198844805
 10
-42.0646946499703
 20
3.356215747844885
 10
-43.27472913657016
 20
3.356215747844771
 10
-43.48762568897018
 20
3.364905403044758
 10
-43.69400499997027
 20
3.388801954844893
 10
-43.8938670695702
 20
3.432250230844829
 10
-44.08503948397014
 20
3.488732989644859
 10
-44.26969465697038
 20
3.562595058844863
 10
-44.44348776097036
 20
3.647319197044907
 10
-44.60424638217022
 20
3.745077818044819
 10
-44.75180541712143
 20
3.855697128740757
  0
LINE
  5
80F1
330
7FF3
100
AcDbEntity
  8
LW 5016-06-01
  6
MITTE2
 62
     3
100
AcDbLine
 10
0.0
 20
37.0
 30
0.0
 11
0.0
 21
-37.00000000000012
 31
0.0
  0
INSERT
  5
80F2
330
7FF3
100
AcDbEntity
  8
LW 5016-06-01
100
AcDbBlockReference
 66
     1
  2
insertpoint-ECKELT
 10
0.0
 20
0.0
 30
0.0
  0
ATTRIB
  5
80F3
330
80F2
100
AcDbEntity
  8
insertpoint_ECKELT
100
AcDbText
 10
-6.93151432469286
 20
0.0
 30
0.0
 40
0.6
  1
LW 5016/06-01
 72
     2
 11
-1.199999999999818
 21
0.0
 31
0.0
100
AcDbAttribute
  2
LINKS
 70
     0
  0
ATTRIB
  5
80F4
330
80F2
100
AcDbEntity
  8
insertpoint_ECKELT
100
AcDbText
 10
1.199999999999818
 20
0.0
 30
0.0
 40
0.6
  1

100
AcDbAttribute
  2
RECHTS
 70
     0
  0
SEQEND
  5
80F5
330
80F2
100
AcDbEntity
  8
LW 5016-06-01
  0
LINE
  5
80F6
330
7FF3
100
AcDbEntity
  8
LW 5016-06-01
  6
MITTE2
 62
     3
100
AcDbLine
 10
-65.5
 20
4.999999999994543
 30
0.0
 11
-110.5
 21
4.999999999994543
 31
0.0
  0
LINE
  5
80F7
330
7FF3
100
AcDbEntity
  8
LW 5016-06-01
100
AcDbLine
 10
-3.0
 20
25.0
 30
0.0
 11
-3.0
 21
-25.0
 31
0.0
  0
LINE
  5
80F8
330
7FF3
100
AcDbEntity
  8
LW 5016-06-01
100
AcDbLine
 10
3.0
 20
-25.0
 30
0.0
 11
3.0
 21
25.0
 31
0.0
  0
ENDBLK
  5
7FF5
330
7FF3
100
AcDbEntity
  8
0
100
AcDbBlockEnd
  0
BLOCK
  5
80FB
330
80FA
100
AcDbEntity
  8
0
100
AcDbBlockBegin
  2
LW 5016-06-01_c
 70
     0
 10
0.0
 20
0.0
 30
0.0
  3
LW 5016-06-01_c
  1

  0
LINE
  5
80FD
330
80FA
100
AcDbEntity
  8
LW 5016-06-01
  6
VERDECKT
 62
     6
100
AcDbLine
 10
7.334936490575273
 20
17.70448267190204
 30
0.0
 11
11.66506350949703
 21
15.2044826719009
 31
0.0
  0
LINE
  5
80FE
330
80FA
100
AcDbEntity
  8
LW 5016-06-01
  6
VERDECKT
 62
     6
100
AcDbLine
 10
11.66506350948793
 20
-15.20448267190795
 30
0.0
 11
7.334936490564814
 21
-17.70448267190659
 31
0.0
  0
LINE
  5
80FF
330
80FA
100
AcDbEntity
  8
LW 5016-06-01
  6
VERDECKT
 62
     6
100
AcDbLine
 10
8.748924226251347
 20
15.1535812713729
 30
0.0
 11
7.334936490575273
 21
17.70448267190204
 31
0.0
  0
LINE
  5
8100
330
80FA
100
AcDbEntity
  8
LW 5016-06-01
  6
VERDECKT
 62
     6
100
AcDbLine
 10
8.748924226251347
 20
15.1535812713729
 30
0.0
 11
11.66506350949703
 21
15.2044826719009
 31
0.0
  0
LINE
  5
8101
330
80FA
100
AcDbEntity
  8
LW 5016-06-01
  6
VERDECKT
 62
     6
100
AcDbLine
 10
14.60240647333103
 20
20.29210992451317
 30
0.0
 11
11.66506350949703
 21
15.20448267190068
 31
0.0
  0
LINE
  5
8102
330
80FA
100
AcDbEntity
  8
LW 5016-06-01
  6
VERDECKT
 62
     6
100
AcDbLine
 10
10.27227945440972
 20
22.79210992451453
 30
0.0
 11
7.334936490575273
 21
17.70448267190204
 31
0.0
  0
LINE
  5
8103
330
80FA
100
AcDbEntity
  8
LW 5016-06-01
  6
VERDECKT
 62
     6
100
AcDbLine
 10
8.748924226242252
 20
-15.15358127137824
 30
0.0
 11
11.66506350948793
 21
-15.20448267190795
 31
0.0
  0
LINE
  5
8104
330
80FA
100
AcDbEntity
  8
LW 5016-06-01
  6
VERDECKT
 62
     6
100
AcDbLine
 10
8.748924226242252
 20
-15.15358127137824
 30
0.0
 11
7.334936490564814
 21
-17.70448267190659
 31
0.0
  0
LINE
  5
8105
330
80FA
100
AcDbEntity
  8
LW 5016-06-01
  6
VERDECKT
 62
     6
100
AcDbLine
 10
10.27227945439608
 20
-22.79210992452068
 30
0.0
 11
7.334936490564814
 21
-17.70448267190659
 31
0.0
  0
LINE
  5
8106
330
80FA
100
AcDbEntity
  8
LW 5016-06-01
  6
VERDECKT
 62
     6
100
AcDbLine
 10
14.6024064733192
 20
-20.29210992452204
 30
0.0
 11
11.66506350948793
 21
-15.20448267190795
 31
0.0
  0
LINE
  5
8107
330
80FA
100
AcDbEntity
  8
LW 5016-06-01
  6
VERDECKT
 62
     6
100
AcDbLine
 10
-18.99999999996953
 20
-2.499999999994543
 30
0.0
 11
-18.99999999996817
 21
2.500000000005456
 31
0.0
  0
LINE
  5
8108
330
80FA
100
AcDbEntity
  8
LW 5016-06-01
  6
VERDECKT
 62
     6
100
AcDbLine
 10
-17.49784845239992
 20
0.0000000000051159
 30
0.0
 11
-18.99999999996953
 21
-2.499999999994543
 31
0.0
  0
LINE
  5
8109
330
80FA
100
AcDbEntity
  8
LW 5016-06-01
  6
VERDECKT
 62
     6
100
AcDbLine
 10
-17.49784845239992
 20
0.0000000000051159
 30
0.0
 11
-18.99999999996817
 21
2.500000000005456
 31
0.0
  0
LINE
  5
810A
330
80FA
100
AcDbEntity
  8
LW 5016-06-01
  6
VERDECKT
 62
     6
100
AcDbLine
 10
-24.87468592763344
 20
2.500000000007275
 30
0.0
 11
-18.99999999996817
 21
2.500000000005456
 31
0.0
  0
LINE
  5
810B
330
80FA
100
AcDbEntity
  8
LW 5016-06-01
  6
VERDECKT
 62
     6
100
AcDbLine
 10
-24.8746859276348
 20
-2.499999999992724
 30
0.0
 11
-18.99999999996953
 21
-2.499999999994543
 31
0.0
  0
ARC
  5
810C
330
80FA
100
AcDbEntity
  8
LW 5016-06-01
100
AcDbCircle
 10
0.0000000000300133
 20
0.0
 30
0.0
 40
25.0
100
AcDbArc
 50
209.999999999983
 51
36.86989764582579
  0
ARC
  5
810D
330
80FA
100
AcDbEntity
  8
LW 5016-06-01
100
AcDbCircle
 10
0.0000000000300133
 20
0.0
 30
0.0
 40
25.0
100
AcDbArc
 50
64.15806723681654
 51
115.8419327631507
  0
ARC
  5
810E
330
80FA
100
AcDbEntity
  8
LW 5016-06-01
100
AcDbCircle
 10
0.0000000000281375
 20
-0.0000000000000568
 30
0.0
 40
18.99999999999993
100
AcDbArc
 50
221.1395104148819
 51
318.8604895850835
  0
CIRCLE
  5
810F
330
80FA
100
AcDbEntity
  8
LW 5016-06-01
100
AcDbCircle
 10
0.0000000000004547
 20
0.0
 30
0.0
 40
10.00000000000001
  0
CIRCLE
  5
8110
330
80FA
100
AcDbEntity
  8
LW 5016-06-01
100
AcDbCircle
 10
0.0
 20
0.0
 30
0.0
 40
9.000000000000008
  0
ARC
  5
8111
330
80FA
100
AcDbEntity
  8
LW 5016-06-01
  6
VERDECKT
 62
     6
100
AcDbCircle
 10
0.0000000000304681
 20
0.0000000000002274
 30
0.0
 40
24.99999999999958
100
AcDbArc
 50
36.86989764582579
 51
64.15806723681723
  0
ARC
  5
8112
330
80FA
100
AcDbEntity
  8
LW 5016-06-01
  6
VERDECKT
 62
     6
100
AcDbCircle
 10
0.0000000000300133
 20
0.0
 30
0.0
 40
25.00000000000001
100
AcDbArc
 50
115.8419327631507
 51
209.999999999983
  0
ARC
  5
8113
330
80FA
100
AcDbEntity
  8
LW 5016-06-01
  6
VERDECKT
 62
     6
100
AcDbCircle
 10
0.0000000000281943
 20
-0.0000000000000284
 30
0.0
 40
19.00000000000004
100
AcDbArc
 50
318.8604895850835
 51
221.1395104148819
  0
LINE
  5
8114
330
80FA
100
AcDbEntity
  8
LW 5016-06-01
100
AcDbLine
 10
10.10000000000718
 20
-2.000000000003069
 30
0.0
 11
10.10000000000855
 21
1.999999999996816
 31
0.0
  0
LINE
  5
8115
330
80FA
100
AcDbEntity
  8
LW 5016-06-01
100
AcDbLine
 10
-10.09999999999127
 20
2.000000000002955
 30
0.0
 11
-10.09999999999263
 21
-1.999999999997044
 31
0.0
  0
LINE
  5
8116
330
80FA
100
AcDbEntity
  8
LW 5016-06-01
  6
VERDECKT
 62
     6
100
AcDbLine
 10
-59.99999999999136
 20
-9.660108542720195
 30
0.0
 11
-59.99999999998272
 21
19.66010854275578
 31
0.0
  0
ARC
  5
8117
330
80FA
100
AcDbEntity
  8
LW 5016-06-01
  6
VERDECKT
 62
     6
100
AcDbCircle
 10
-61.99999999999135
 20
-9.660108542719626
 30
0.0
 40
2.0
100
AcDbArc
 50
340.7099537807874
 51
0.0
  0
ARC
  5
8118
330
80FA
100
AcDbEntity
  8
LW 5016-06-01
  6
VERDECKT
 62
     6
100
AcDbCircle
 10
-61.99999999998272
 20
19.66010854275623
 30
0.0
 40
2.0
100
AcDbArc
 50
0.0
 51
19.29004621917444
  0
LINE
  5
8119
330
80FA
100
AcDbEntity
  8
LW 5016-06-01
  6
VERDECKT
 62
     6
100
AcDbLine
 10
-60.11228328725974
 20
-10.32080939217644
 30
0.0
 11
-60.87499999999227
 21
-12.49999999998204
 31
0.0
  0
LINE
  5
811A
330
80FA
100
AcDbEntity
  8
LW 5016-06-01
  6
VERDECKT
 62
     6
100
AcDbLine
 10
-60.11228328725064
 20
20.32080939221192
 30
0.0
 11
-60.87499999998181
 21
22.50000000001796
 31
0.0
  0
LINE
  5
811B
330
80FA
100
AcDbEntity
  8
LW 5016-06-01
100
AcDbLine
 10
-60.87499999999227
 20
-12.49999999998204
 30
0.0
 11
-60.87499999998181
 21
22.50000000001796
 31
0.0
  0
LINE
  5
811C
330
80FA
100
AcDbEntity
  8
LW 5016-06-01
100
AcDbLine
 10
20.00000000000818
 20
-11.00000000000591
 30
0.0
 11
20.00000000001774
 21
20.99999999999409
 31
0.0
  0
LINE
  5
811D
330
80FA
100
AcDbEntity
  8
LW 5016-06-01
100
AcDbLine
 10
-60.87499999998181
 20
22.50000000001796
 30
0.0
 11
18.50000000001807
 21
22.49999999999454
 31
0.0
  0
LINE
  5
811E
330
80FA
100
AcDbEntity
  8
LW 5016-06-01
100
AcDbLine
 10
-60.87499999999227
 20
-12.49999999998204
 30
0.0
 11
-10.09999999999201
 21
-12.49999999999701
 31
0.0
  0
LINE
  5
811F
330
80FA
100
AcDbEntity
  8
LW 5016-06-01
100
AcDbLine
 10
10.10000000000752
 20
-12.50000000000298
 30
0.0
 11
18.50000000000773
 21
-12.50000000000546
 31
0.0
  0
ARC
  5
8120
330
80FA
100
AcDbEntity
  8
LW 5016-06-01
100
AcDbCircle
 10
18.50000000000818
 20
-11.00000000000545
 30
0.0
 40
1.500000000000012
100
AcDbArc
 50
269.999999999987
 51
0.0
  0
ARC
  5
8121
330
80FA
100
AcDbEntity
  8
LW 5016-06-01
100
AcDbCircle
 10
18.50000000001773
 20
20.99999999999454
 30
0.0
 40
1.500000000000012
100
AcDbArc
 50
0.0
 51
89.99999999998697
  0
LINE
  5
8122
330
80FA
100
AcDbEntity
  8
LW 5016-06-01
100
AcDbLine
 10
-76.99999999998863
 20
-0.7730999999771484
 30
0.0
 11
-76.99999999998545
 21
10.77310000002285
 31
0.0
  0
LINE
  5
8123
330
80FA
100
AcDbEntity
  8
LW 5016-06-01
100
AcDbLine
 10
-75.77309999998488
 20
12.00000000002251
 30
0.0
 11
-75.77309999998897
 21
-1.99999999997749
 31
0.0
  0
LINE
  5
8124
330
80FA
100
AcDbEntity
  8
LW 5016-06-01
100
AcDbLine
 10
-76.99999999998545
 20
10.77310000002285
 30
0.0
 11
-75.77309999998488
 21
12.00000000002251
 31
0.0
  0
LINE
  5
8125
330
80FA
100
AcDbEntity
  8
LW 5016-06-01
100
AcDbLine
 10
-76.99999999998863
 20
-0.7730999999771484
 30
0.0
 11
-75.77309999998897
 21
-1.99999999997749
 31
0.0
  0
LINE
  5
8126
330
80FA
100
AcDbEntity
  8
LW 5016-06-01
100
AcDbLine
 10
-75.77309999998488
 20
12.00000000002251
 30
0.0
 11
-60.87499999998499
 21
12.00000000001796
 31
0.0
  0
LINE
  5
8127
330
80FA
100
AcDbEntity
  8
LW 5016-06-01
100
AcDbLine
 10
-75.77309999998897
 20
-1.99999999997749
 30
0.0
 11
-60.87499999998908
 21
-1.999999999982037
 31
0.0
  0
LINE
  5
8128
330
80FA
100
AcDbEntity
  8
LW 5016-06-01
 62
     3
100
AcDbLine
 10
-60.87499999998545
 20
10.79450000001805
 30
0.0
 11
-76.97859999998536
 21
10.79450000002282
 31
0.0
  0
LINE
  5
8129
330
80FA
100
AcDbEntity
  8
LW 5016-06-01
 62
     3
100
AcDbLine
 10
-76.97859999998854
 20
-0.7944999999772336
 30
0.0
 11
-60.87499999998863
 21
-0.7944999999820084
 31
0.0
  0
LINE
  5
812A
330
80FA
100
AcDbEntity
  8
LW 5016-06-01
100
AcDbLine
 10
-60.87499999998181
 20
22.50000000001796
 30
0.0
 11
-60.87499999999227
 21
-12.49999999998204
 31
0.0
  0
LINE
  5
812B
330
80FA
100
AcDbEntity
  8
LW 5016-06-01
  6
MITTE2
 62
     3
100
AcDbLine
 10
14.93734296387174
 20
25.87223694343527
 30
0.0
 11
7.000000000035015
 21
12.12435565298006
 31
0.0
  0
LINE
  5
812C
330
80FA
100
AcDbEntity
  8
LW 5016-06-01
  6
MITTE2
 62
     3
100
AcDbLine
 10
14.93734296385628
 20
-25.87223694344425
 30
0.0
 11
7.000000000027739
 21
-12.12435565298426
 31
0.0
  0
LINE
  5
812D
330
80FA
100
AcDbEntity
  8
LW 5016-06-01
  6
MITTE2
 62
     3
100
AcDbLine
 10
-38.9697068954581
 20
0.0000000000173941
 30
0.0
 11
38.9697068954581
 21
-0.0000000000173941
 31
0.0
  0
LINE
  5
812E
330
80FA
100
AcDbEntity
  8
LW 5016-06-01
  6
MITTE2
 62
     3
100
AcDbLine
 10
0.0000000000063665
 20
22.6209724824912
 30
0.0
 11
-0.0000000000068212
 21
-22.6209724824912
 31
0.0
  0
HATCH
  5
812F
330
80FA
100
AcDbEntity
  8
LW 5016-06-01
 62
     1
100
AcDbHatch
 10
0.0
 20
0.0
 30
0.0
210
0.0
220
0.0
230
1.0
  2
SOLID
 70
     1
 71
     0
 91
        5
 92
        7
 72
     0
 73
     1
 93
       76
 10
-47.24928876594231
 20
18.15603796707853
 10
-47.21742993656971
 20
18.20761892892028
 10
-47.09927181233797
 20
18.35886132793621
 10
-46.96479373712555
 20
18.49928545819875
 10
-46.81877383066421
 20
18.6276700199121
 10
-46.65510503458199
 20
18.74457630282791
 10
-46.47971808121747
 20
18.84675418464951
 10
-46.29796514861664
 20
18.9381058642324
 10
-46.11679621315125
 20
19.00762417667852
 10
-48.37393415135102
 20
19.00762417667852
 10
-48.58683070375128
 20
18.99893452147853
 10
-48.78886518715126
 20
18.97286555587857
 10
-48.98438242915108
 20
18.93158969367846
 10
-49.16903760215109
 20
18.87727934867848
 10
-49.34500311995134
 20
18.80776210707847
 10
-49.51227898255092
 20
18.72521038267837
 10
-49.66284724509842
 20
18.6298848651345
 10
-49.80555484555134
 20
18.52317589927838
 10
-49.93099610112176
 20
18.40412762303833
 10
-50.04226105319912
 20
18.27586831228643
 10
-50.14227898455101
 20
18.13865865667844
 10
-50.22483070895123
 20
17.99310693207837
 10
-50.28783070915142
 20
17.83886555227832
 10
-50.33779622655129
 20
17.67810693107844
 10
-50.36603760595108
 20
17.51300348227846
 10
-50.37472726115083
 20
17.33921037827849
 10
-50.36386519215103
 20
17.1654172742783
 10
-50.33345139895118
 20
16.99814141167837
 10
-50.27914105395121
 20
16.83738279047839
 10
-50.20962381235131
 20
16.68096899687839
 10
-50.12055484655093
 20
16.53324485847838
 10
-50.01410657035103
 20
16.39203796147853
 10
-49.8914086389268
 20
16.26082416795839
 10
-49.75520959021878
 20
16.13969037447054
 10
-49.60786518975101
 20
16.02924485687845
 10
-49.44710656855114
 20
15.93148623587854
 10
-49.27147994730376
 20
15.84658830457442
 10
-49.09083070535143
 20
15.77290002847849
 10
-48.89965829095126
 20
15.71641726967846
 10
-48.69979622135088
 20
15.67296899367852
 10
-48.49124449655119
 20
15.64690002807845
 10
-48.28052035795099
 20
15.63821037287846
 10
-46.16134927219855
 20
15.63821037287857
 10
-46.32189313625076
 20
15.70128117661352
 10
-46.50545728005363
 20
15.79190145013626
 10
-46.67392368622358
 20
15.89643114306773
 10
-46.836756580984
 20
16.01204938149317
 10
-46.98066894935436
 20
16.14183897803309
 10
-47.10810484283865
 20
16.28119266126168
 10
-47.22181019758227
 20
16.43168090597419
 10
-47.2737814290308
 20
16.51586554807852
 10
-48.30224449595107
 20
16.51586554807841
 10
-48.43435332395666
 20
16.52342554810252
 10
-48.56510656575119
 20
16.54375934127051
 10
-48.69327897995117
 20
16.57669313447843
 10
-48.80841691135083
 20
16.62231382427853
 10
-48.91336187720117
 20
16.67879658307845
 10
-49.01151153268529
 20
16.74640210053439
 10
-49.10169277435125
 20
16.8243483076784
 10
-49.17338242975074
 20
16.90907244587845
 10
-47.44586111549233
 20
16.90907244587856
 10
-47.45644558276535
 20
16.94170788663678
 10
-47.49255739072942
 20
17.12708183418795
 10
-47.50460104351168
 20
17.31737154813868
 10
-47.49257937108177
 20
17.51212264149376
 10
-47.45627364940673
 20
17.6984920127602
 10
-47.43967494673188
 20
17.74762417267846
 10
-49.2103134643512
 20
17.74762417267846
 10
-49.14079622275131
 20
17.84321037987843
 10
-49.05824449835108
 20
17.92576210427842
 10
-48.96315360149765
 20
17.99562693208645
 10
-48.86055484255121
 20
18.05393451847851
 10
-48.74186284217467
 20
18.09790417379042
 10
-48.61941691075116
 20
18.12996900147846
 10
-48.48255484135098
 20
18.14952072567848
 10
-48.33917553055107
 20
18.15603796707842
 97
        0
 92
        7
 72
     0
 73
     1
 93
       72
 10
-45.5208249009147
 20
18.14143934634251
 10
-45.39796186604144
 20
18.15951382915853
 10
-45.27389965875136
 20
18.16472762227863
 10
-44.00520999955097
 20
18.16472762227863
 10
-44.85245138155096
 20
17.35007244727876
 10
-43.08627896215102
 20
15.63169313147864
 10
-41.76762378555122
 20
15.63169313147864
 10
-43.48165827375123
 20
17.37396899907867
 10
-41.80020999255112
 20
19.00762417667875
 10
-45.23914103795141
 20
19.00762417667852
 10
-45.44712793516327
 20
18.99684900423062
 10
-45.65384614271624
 20
18.97138831449456
 10
-45.85827897095123
 20
18.93158969367857
 10
-46.05162379915145
 20
18.87510693487854
 10
-46.23845138595152
 20
18.80341727947848
 10
-46.40961152442559
 20
18.71738969299849
 10
-46.57517552495119
 20
18.62093452027852
 10
-46.7272444909513
 20
18.51231383027857
 10
-46.86294214655435
 20
18.39300486438253
 10
-46.98793414695138
 20
18.26248624327854
 10
-47.09655483695132
 20
18.12345176007852
 10
-47.18779621655085
 20
17.97572762167863
 10
-47.25948587195126
 20
17.82148624187857
 10
-47.31379621695123
 20
17.66072762067847
 10
-47.34638242395113
 20
17.49345175807843
 10
-47.3572444929514
 20
17.31748624027841
 10
-47.34638242395113
 20
17.1458655500785
 10
-47.31379621695123
 20
16.97858968747857
 10
-47.26165828575085
 20
16.81783106627859
 10
-47.19214104415096
 20
16.66358968647853
 10
-47.10030007834212
 20
16.51482278945468
 10
-46.99492062973194
 20
16.37535382349449
 10
-46.87691511211596
 20
16.24631244377463
 10
-46.74462380135082
 20
16.12700347787859
 10
-46.59250269742005
 20
16.01899106374253
 10
-46.43396862795088
 20
15.9206241668785
 10
-46.26234793775075
 20
15.83590002867856
 10
-46.07986517855079
 20
15.7642103732785
 10
-45.88563400552084
 20
15.71016071793451
 10
-45.68883069455114
 20
15.66645175227859
 10
-45.48027896975099
 20
15.64038278667863
 10
-45.26955483115125
 20
15.63169313147864
 10
-43.36652034235112
 20
15.63169313147864
 10
-44.25286517275117
 20
16.50500347907859
 10
-45.26955483115125
 20
16.50500347907859
 10
-45.3362218658458
 20
16.50875077201795
 10
-45.43716959030371
 20
16.5187331342945
 10
-45.5573040734439
 20
16.5401965826386
 10
-45.6744232462297
 20
16.57452072067849
 10
-45.77591841896537
 20
16.61544899667058
 10
-45.83205359155726
 20
16.64360347951856
 10
-45.88573828138305
 20
16.67618968651868
 10
-46.01829897145944
 20
16.77551244545452
 10
-46.091900351003
 20
16.84555106636662
 10
-46.14696669600562
 20
16.91341727347844
 10
-46.19567221340185
 20
16.98597589439851
 10
-46.23503635145789
 20
17.06314003257444
 10
-46.26445952396443
 20
17.14456210179855
 10
-46.28515828265108
 20
17.23171934345464
 10
-46.29267483439889
 20
17.32104899891044
 10
-46.29131924818785
 20
17.38335382669447
 10
-46.2853146964444
 20
17.44548486137444
 10
-46.2731578688199
 20
17.50865865467858
 10
-46.25494435152086
 20
17.5703552065986
 10
-46.21129621345153
 20
17.66906968967044
 10
-46.16976835125024
 20
17.73693589678248
 10
-46.10669014415361
 20
17.81496900047853
 10
-45.9772882037887
 20
17.94149173753226
 10
-45.91802035045112
 20
17.98154969066263
 10
-45.84172517779506
 20
18.02586693218245
 10
-45.75770490166632
 20
18.06801175990256
 10
-45.64116793577887
 20
18.1108517600386
 97
        0
 92
        7
 72
     0
 73
     1
 93
       57
 10
-40.96278792092698
 20
18.11936762213486
 10
-40.8313134377513
 20
18.1593400360548
 10
-40.69662378215116
 20
18.18645176027883
 10
-40.55324447135126
 20
18.1951414154787
 10
-39.31279619155112
 20
18.19514141547881
 10
-39.31279619155112
 20
19.02065865947884
 10
-40.5467272299511
 20
19.02065865947873
 10
-40.7574513685513
 20
19.01196900427874
 10
-40.96383067955139
 20
18.98372762487872
 10
-41.16152033535127
 20
18.94245176267873
 10
-41.35052033595093
 20
18.88814141767875
 10
-41.5351755089514
 20
18.8164517622788
 10
-41.70158240603131
 20
18.73381314132666
 10
-41.8604032341218
 20
18.63735796860669
 10
-42.01048226908096
 20
18.52786831308663
 10
-42.14504157985266
 20
18.40864624374274
 10
-42.26510654575122
 20
18.27986555367874
 10
-42.36938240815106
 20
18.14083107047872
 10
-42.45410654635088
 20
17.99527934587866
 10
-42.52579620175128
 20
17.8410379660786
 10
-42.57576171915116
 20
17.68027934487873
 10
-42.60834792615106
 20
17.5130034822788
 10
-42.61920999515132
 20
17.33921037827872
 10
-42.60834792615106
 20
17.16541727427875
 10
-42.57576171915116
 20
16.99814141167871
 10
-42.52362378795123
 20
16.83738279047861
 10
-42.45193413255129
 20
16.68096899687873
 10
-42.36503758055095
 20
16.53324485847872
 10
-42.25619095951606
 20
16.39368899596673
 10
-42.13633454534238
 20
16.2633441679668
 10
-41.99990695870201
 20
16.14203658137467
 10
-41.85234792375104
 20
16.03141727067873
 10
-41.69158930255116
 20
15.93365864967859
 10
-41.51779619855097
 20
15.84893451147877
 10
-41.33314102555096
 20
15.77507244227877
 10
-41.14196861115124
 20
15.71858968347874
 10
-40.94210654155086
 20
15.6751414074788
 10
-40.73572723055076
 20
15.65124485567867
 10
-40.52283067815096
 20
15.64255520047868
 10
-39.31279619155112
 20
15.64255520047879
 10
-39.31279619155112
 20
16.50065865147871
 10
-40.5467272299511
 20
16.50065865147871
 10
-40.68037412692683
 20
16.51099934116667
 10
-40.81263067907094
 20
16.53298416882285
 10
-40.93324309324725
 20
16.56730830686274
 10
-41.04924999016702
 20
16.61527520356685
 10
-41.15891343879138
 20
16.67618968651879
 10
-41.25597688737525
 20
16.74379520397474
 10
-41.3433948186871
 20
16.82356623871078
 10
-41.41786516375122
 20
16.90907244587879
 10
-39.31279619155112
 20
16.90907244587879
 10
-39.31279619155112
 20
17.73676210367876
 10
-41.45479619835123
 20
17.73676210367876
 10
-41.38527895675088
 20
17.83452072467867
 10
-41.29838240475146
 20
17.92358969047859
 10
-41.19723481822302
 20
17.99988486313475
 10
-41.08983067995086
 20
18.06696900127872
 97
        0
 92
        7
 72
     0
 73
     1
 93
        6
 10
-39.08252032875135
 20
19.00762417667886
 10
-39.08252032875135
 20
15.6382103728788
 10
-36.84493411475069
 20
15.63821037287892
 10
-36.84493411475114
 20
16.50500347907893
 10
-38.0593134289511
 20
16.50500347907893
 10
-38.0593134289511
 20
19.00762417667886
 97
        0
 92
        7
 72
     0
 73
     1
 93
        8
 10
-37.82686515235127
 20
19.00762417667886
 10
-37.82686515235127
 20
18.18210693267883
 10
-36.59293411395083
 20
18.18210693267895
 10
-36.59293411395083
 20
15.63169313147887
 10
-35.56755480035099
 20
15.63169313147887
 10
-35.56755480035099
 20
18.18210693267883
 10
-34.32493410675125
 20
18.18210693267895
 10
-34.32493410675125
 20
19.00762417667897
 97
        0
 75
     0
 76
     1
 47
0.0142553043587597
 98
        5
 10
-47.93962863987599
 20
18.56517450708941
 10
-45.67213142653327
 20
18.42262152208377
 10
-41.17991969433205
 20
18.47964269463159
 10
-38.45607061050032
 20
18.72198291932398
 10
-37.04423262827368
 20
18.62219578691065
450
        0
451
        0
460
0.0
461
0.0
452
        0
462
0.0
453
        0
470

  0
LWPOLYLINE
  5
8130
330
80FA
100
AcDbEntity
  8
LW 5016-06-01
 62
     1
100
AcDbPolyline
 90
        8
 70
     1
 43
0.0
 10
-35.56755480035099
 20
18.18210693267883
 10
-35.56755480035099
 20
15.63169313147887
 10
-36.59293411395083
 20
15.63169313147887
 10
-36.59293411395083
 20
18.18210693267895
 10
-37.82686515235127
 20
18.18210693267883
 10
-37.82686515235127
 20
19.00762417667886
 10
-34.32493410675125
 20
19.00762417667897
 10
-34.32493410675125
 20
18.18210693267895
  0
LWPOLYLINE
  5
8131
330
80FA
100
AcDbEntity
  8
LW 5016-06-01
 62
     1
100
AcDbPolyline
 90
       73
 70
     1
 43
0.0
 10
-45.26955483115125
 20
16.50500347907859
 10
-44.25286517275117
 20
16.50500347907859
 10
-43.36652034235112
 20
15.63169313147864
 10
-45.26955483115125
 20
15.63169313147853
 10
-45.48027896975099
 20
15.64038278667863
 10
-45.68883069455114
 20
15.66645175227859
 10
-45.88563400552084
 20
15.71016071793451
 10
-46.07986517855079
 20
15.7642103732785
 10
-46.26234793775075
 20
15.83590002867856
 10
-46.43396862795088
 20
15.9206241668785
 10
-46.59250269742005
 20
16.01899106374253
 10
-46.74462380135082
 20
16.12700347787859
 10
-46.87691511211596
 20
16.24631244377451
 10
-46.99492062973194
 20
16.37535382349449
 10
-47.10030007834212
 20
16.51482278945457
 10
-47.19214104415096
 20
16.66358968647853
 10
-47.26165828575085
 20
16.81783106627859
 10
-47.31379621695123
 20
16.97858968747857
 10
-47.34638242395113
 20
17.1458655500785
 10
-47.3572444929514
 20
17.31748624027853
 10
-47.34638242395113
 20
17.49345175807843
 10
-47.31379621695123
 20
17.66072762067847
 10
-47.25948587195126
 20
17.82148624187857
 10
-47.18779621655085
 20
17.97572762167851
 10
-47.09655483695132
 20
18.12345176007852
 10
-46.98793414695138
 20
18.26248624327854
 10
-46.86294214655435
 20
18.39300486438264
 10
-46.7272444909513
 20
18.51231383027857
 10
-46.57517552495119
 20
18.62093452027852
 10
-46.40961152442559
 20
18.71738969299849
 10
-46.23845138595152
 20
18.80341727947848
 10
-46.05162379915145
 20
18.87510693487854
 10
-45.85827897095123
 20
18.93158969367869
 10
-45.65384614271624
 20
18.97138831449456
 10
-45.44712793516327
 20
18.99684900423062
 10
-45.23914103795141
 20
19.00762417667852
 10
-41.80020999255112
 20
19.00762417667875
 10
-43.48165827375123
 20
17.37396899907867
 10
-41.76762378555122
 20
15.63169313147864
 10
-43.08627896215102
 20
15.63169313147864
 10
-44.85245138155096
 20
17.35007244727876
 10
-44.00520999955097
 20
18.16472762227863
 10
-45.27389965875136
 20
18.16472762227863
 10
-45.39796186604144
 20
18.15951382915853
 10
-45.5208249009147
 20
18.14143934634251
 10
-45.64116793577887
 20
18.1108517600386
 10
-45.75770490166632
 20
18.06801175990244
 10
-45.84172517779552
 20
18.02586693218257
 10
-45.91802035045112
 20
17.98154969066263
 10
-45.95826214368208
 20
17.95435106988657
 10
-45.99577538518042
 20
17.92341589737452
 10
-46.10669014415361
 20
17.81496900047853
 10
-46.16976835125024
 20
17.73693589678248
 10
-46.21129621345107
 20
17.66906968967055
 10
-46.25494435152086
 20
17.5703552065986
 10
-46.2731578688199
 20
17.50865865467858
 10
-46.2853146964444
 20
17.44548486137455
 10
-46.29131924818785
 20
17.38335382669459
 10
-46.29267483439889
 20
17.32104899891055
 10
-46.28515828265108
 20
17.23171934345464
 10
-46.26445952396443
 20
17.14456210179855
 10
-46.23503635145744
 20
17.06314003257455
 10
-46.19567221340185
 20
16.98597589439851
 10
-46.14696669600562
 20
16.91341727347856
 10
-46.091900351003
 20
16.84555106636662
 10
-46.01829897145944
 20
16.77551244545452
 10
-45.88573828138305
 20
16.67618968651868
 10
-45.83205359155726
 20
16.64360347951856
 10
-45.77591841896537
 20
16.61544899667058
 10
-45.6744232462297
 20
16.57452072067849
 10
-45.5573040734439
 20
16.5401965826386
 10
-45.43716959030371
 20
16.5187331342945
 10
-45.3362218658458
 20
16.50875077201795
  0
LWPOLYLINE
  5
8132
330
80FA
100
AcDbEntity
  8
LW 5016-06-01
 62
     1
100
AcDbPolyline
 90
       76
 70
     1
 43
0.0
 10
-46.47971808121747
 20
18.84675418464951
 10
-46.65510503458199
 20
18.74457630282779
 10
-46.81877383066421
 20
18.6276700199121
 10
-46.96479373712555
 20
18.49928545819875
 10
-47.09927181233797
 20
18.35886132793621
 10
-47.21742993656971
 20
18.20761892892028
 10
-47.24928876594231
 20
18.15603796707853
 10
-48.33917553055107
 20
18.15603796707853
 10
-48.48255484135098
 20
18.14952072567848
 10
-48.61941691075116
 20
18.12996900147846
 10
-48.74186284217467
 20
18.09790417379042
 10
-48.86055484255121
 20
18.05393451847851
 10
-48.96315360149765
 20
17.99562693208645
 10
-49.05824449835108
 20
17.92576210427842
 10
-49.14079622275131
 20
17.84321037987843
 10
-49.2103134643512
 20
17.74762417267846
 10
-47.43967494673188
 20
17.74762417267846
 10
-47.45627364940673
 20
17.6984920127602
 10
-47.49257937108223
 20
17.51212264149353
 10
-47.50460104351168
 20
17.31737154813868
 10
-47.49255739072942
 20
17.12708183418795
 10
-47.4564455827649
 20
16.94170788663689
 10
-47.44586111549233
 20
16.90907244587856
 10
-49.17338242975074
 20
16.90907244587845
 10
-49.10169277435125
 20
16.8243483076784
 10
-49.01151153268529
 20
16.74640210053439
 10
-48.91336187720117
 20
16.67879658307845
 10
-48.80841691135083
 20
16.62231382427853
 10
-48.69327897995117
 20
16.57669313447854
 10
-48.56510656575119
 20
16.54375934127051
 10
-48.43435332395666
 20
16.52342554810252
 10
-48.30224449595107
 20
16.51586554807841
 10
-47.2737814290308
 20
16.51586554807852
 10
-47.22181019758227
 20
16.43168090597419
 10
-47.10810484283865
 20
16.28119266126168
 10
-46.98066894935436
 20
16.14183897803309
 10
-46.836756580984
 20
16.0120493814934
 10
-46.67392368622358
 20
15.89643114306773
 10
-46.50545728005363
 20
15.79190145013626
 10
-46.32189313625076
 20
15.70128117661352
 10
-46.16134927219855
 20
15.63821037287857
 10
-48.28052035795099
 20
15.63821037287835
 10
-48.49124449655119
 20
15.64690002807845
 10
-48.69979622135088
 20
15.67296899367852
 10
-48.89965829095126
 20
15.71641726967846
 10
-49.09083070535098
 20
15.77290002847837
 10
-49.27147994730422
 20
15.84658830457442
 10
-49.44710656855114
 20
15.93148623587854
 10
-49.60786518975101
 20
16.02924485687845
 10
-49.75520959021878
 20
16.13969037447043
 10
-49.8914086389268
 20
16.26082416795839
 10
-50.01410657035103
 20
16.39203796147842
 10
-50.12055484655139
 20
16.53324485847838
 10
-50.20962381235131
 20
16.68096899687839
 10
-50.27914105395121
 20
16.83738279047839
 10
-50.33345139895118
 20
16.99814141167837
 10
-50.36386519215103
 20
17.16541727427852
 10
-50.37472726115083
 20
17.33921037827838
 10
-50.36603760595153
 20
17.51300348227835
 10
-50.33779622655129
 20
17.67810693107844
 10
-50.28783070915142
 20
17.83886555227832
 10
-50.22483070895123
 20
17.99310693207837
 10
-50.14227898455101
 20
18.13865865667844
 10
-50.04226105319912
 20
18.27586831228643
 10
-49.93099610112176
 20
18.40412762303845
 10
-49.80555484555134
 20
18.52317589927838
 10
-49.66284724509842
 20
18.6298848651345
 10
-49.51227898255092
 20
18.72521038267848
 10
-49.34500311995089
 20
18.80776210707836
 10
-49.16903760215109
 20
18.87727934867848
 10
-48.98438242915108
 20
18.93158969367846
 10
-48.78886518715126
 20
18.97286555587857
 10
-48.58683070375128
 20
18.99893452147853
 10
-48.37393415135102
 20
19.00762417667852
 10
-46.11679621315125
 20
19.00762417667863
 10
-46.29796514861664
 20
18.9381058642324
  0
LWPOLYLINE
  5
8133
330
80FA
100
AcDbEntity
  8
LW 5016-06-01
 62
     1
100
AcDbPolyline
 90
        6
 70
     1
 43
0.0
 10
-36.84493411475069
 20
15.63821037287892
 10
-39.08252032875135
 20
15.6382103728788
 10
-39.08252032875135
 20
19.00762417667886
 10
-38.0593134289511
 20
19.00762417667886
 10
-38.0593134289511
 20
16.50500347907893
 10
-36.84493411475114
 20
16.50500347907893
  0
LWPOLYLINE
  5
8134
330
80FA
100
AcDbEntity
  8
LW 5016-06-01
 62
     1
100
AcDbPolyline
 90
       57
 70
     1
 43
0.0
 10
-42.13633454534238
 20
16.2633441679668
 10
-42.25619095951606
 20
16.39368899596661
 10
-42.36503758055095
 20
16.53324485847861
 10
-42.45193413255129
 20
16.68096899687873
 10
-42.52362378795123
 20
16.83738279047861
 10
-42.57576171915116
 20
16.99814141167871
 10
-42.60834792615106
 20
17.16541727427875
 10
-42.61920999515132
 20
17.33921037827872
 10
-42.60834792615106
 20
17.51300348227869
 10
-42.57576171915116
 20
17.68027934487873
 10
-42.52579620175128
 20
17.8410379660786
 10
-42.45410654635088
 20
17.99527934587877
 10
-42.36938240815106
 20
18.14083107047861
 10
-42.26510654575122
 20
18.27986555367874
 10
-42.14504157985266
 20
18.40864624374262
 10
-42.01048226908096
 20
18.52786831308663
 10
-41.8604032341218
 20
18.63735796860669
 10
-41.70158240603086
 20
18.73381314132678
 10
-41.5351755089514
 20
18.8164517622788
 10
-41.35052033595093
 20
18.88814141767875
 10
-41.16152033535127
 20
18.94245176267873
 10
-40.96383067955139
 20
18.98372762487872
 10
-40.7574513685513
 20
19.01196900427874
 10
-40.5467272299511
 20
19.02065865947873
 10
-39.31279619155112
 20
19.02065865947884
 10
-39.31279619155112
 20
18.19514141547881
 10
-40.5532444713508
 20
18.1951414154787
 10
-40.69662378215116
 20
18.18645176027871
 10
-40.8313134377513
 20
18.1593400360548
 10
-40.96278792092744
 20
18.11936762213474
 10
-41.08983067995086
 20
18.06696900127872
 10
-41.19723481822302
 20
17.99988486313475
 10
-41.29838240475146
 20
17.92358969047882
 10
-41.38527895675088
 20
17.83452072467867
 10
-41.45479619835123
 20
17.73676210367876
 10
-39.31279619155112
 20
17.73676210367876
 10
-39.31279619155112
 20
16.90907244587879
 10
-41.41786516375122
 20
16.90907244587879
 10
-41.3433948186871
 20
16.82356623871078
 10
-41.25597688737525
 20
16.74379520397474
 10
-41.15891343879138
 20
16.67618968651879
 10
-41.04924999016702
 20
16.61527520356685
 10
-40.93324309324725
 20
16.56730830686274
 10
-40.81263067907094
 20
16.53298416882285
 10
-40.68037412692683
 20
16.51099934116667
 10
-40.5467272299511
 20
16.50065865147871
 10
-39.31279619155112
 20
16.50065865147871
 10
-39.31279619155112
 20
15.64255520047879
 10
-40.52283067815096
 20
15.64255520047868
 10
-40.73572723055076
 20
15.65124485567867
 10
-40.94210654155086
 20
15.6751414074788
 10
-41.14196861115124
 20
15.71858968347874
 10
-41.33314102555096
 20
15.77507244227877
 10
-41.51779619855097
 20
15.84893451147877
 10
-41.69158930255116
 20
15.93365864967882
 10
-41.85234792375104
 20
16.03141727067873
 10
-41.99990695870201
 20
16.14203658137467
  0
INSERT
  5
8135
330
80FA
100
AcDbEntity
  8
LW 5016-06-01
100
AcDbBlockReference
 66
     1
  2
insertpoint-ECKELT
 10
0.0
 20
0.0
 30
0.0
  0
ATTRIB
  5
8136
330
8135
100
AcDbEntity
  8
insertpoint_ECKELT
100
AcDbText
 10
-6.93151432469286
 20
0.0
 30
0.0
 40
0.6
  1
LW 5016/06-01
 72
     2
 11
-1.199999999999818
 21
0.0
 31
0.0
100
AcDbAttribute
  2
LINKS
 70
     0
  0
ATTRIB
  5
8137
330
8135
100
AcDbEntity
  8
insertpoint_ECKELT
100
AcDbText
 10
1.199999999999818
 20
0.0
 30
0.0
 40
0.6
  1

100
AcDbAttribute
  2
RECHTS
 70
     0
  0
SEQEND
  5
8138
330
8135
100
AcDbEntity
  8
LW 5016-06-01
  0
LINE
  5
8139
330
80FA
100
AcDbEntity
  8
LW 5016-06-01
100
AcDbLine
 10
-10.09999999999172
 20
5.500000000003012
 30
0.0
 11
-10.09999999999195
 21
-12.49999999999701
 31
0.0
  0
POLYLINE
  5
813A
330
80FA
100
AcDbEntity
  8
LW 5016-06-01
100
AcDb2dPolyline
 66
     1
 10
0.0
 20
0.0
 30
0.0
 70
   128
  0
VERTEX
  5
813B
330
813A
100
AcDbEntity
  8
LW 5016-06-01
100
AcDbVertex
100
AcDb2dVertex
 10
-10.10000228881017
 20
5.500000007453593
 30
0.0
  0
VERTEX
  5
813C
330
813A
100
AcDbEntity
  8
LW 5016-06-01
100
AcDbVertex
100
AcDb2dVertex
 10
-10.07782459258169
 20
6.152630448344325
 30
0.0
  0
VERTEX
  5
813D
330
813A
100
AcDbEntity
  8
LW 5016-06-01
100
AcDbVertex
100
AcDb2dVertex
 10
-10.01159191130728
 20
6.810174882414912
 30
0.0
  0
VERTEX
  5
813E
330
813A
100
AcDbEntity
  8
LW 5016-06-01
100
AcDbVertex
100
AcDb2dVertex
 10
-9.901742935171569
 20
7.467362880709742
 30
0.0
  0
VERTEX
  5
813F
330
813A
100
AcDbEntity
  8
LW 5016-06-01
100
AcDbVertex
100
AcDb2dVertex
 10
-9.748716354361022
 20
8.118924200537719
 30
0.0
  0
VERTEX
  5
8140
330
813A
100
AcDbEntity
  8
LW 5016-06-01
100
AcDbVertex
100
AcDb2dVertex
 10
-9.552946090688692
 20
8.759588897231083
 30
0.0
  0
VERTEX
  5
8141
330
813A
100
AcDbEntity
  8
LW 5016-06-01
100
AcDbVertex
100
AcDb2dVertex
 10
-9.314870834340808
 20
9.384086430075569
 30
0.0
  0
VERTEX
  5
8142
330
813A
100
AcDbEntity
  8
LW 5016-06-01
100
AcDbVertex
100
AcDb2dVertex
 10
-9.035677909841069
 20
9.987690150740434
 30
0.0
  0
VERTEX
  5
8143
330
813A
100
AcDbEntity
  8
LW 5016-06-01
100
AcDbVertex
100
AcDb2dVertex
 10
-8.7189769744773
 20
10.56716978550213
 30
0.0
  0
VERTEX
  5
8144
330
813A
100
AcDbEntity
  8
LW 5016-06-01
100
AcDbVertex
100
AcDb2dVertex
 10
-8.368849754323264
 20
11.11950039863831
 30
0.0
  0
VERTEX
  5
8145
330
813A
100
AcDbEntity
  8
LW 5016-06-01
100
AcDbVertex
100
AcDb2dVertex
 10
-7.98938274382499
 20
11.64165675640339
 30
0.0
  0
VERTEX
  5
8146
330
813A
100
AcDbEntity
  8
LW 5016-06-01
100
AcDbVertex
100
AcDb2dVertex
 10
-7.584662437428278
 20
12.13061451912148
 30
0.0
  0
VERTEX
  5
8147
330
813A
100
AcDbEntity
  8
LW 5016-06-01
100
AcDbVertex
100
AcDb2dVertex
 10
-7.158765792835765
 20
12.58334755897732
 30
0.0
  0
VERTEX
  5
8148
330
813A
100
AcDbEntity
  8
LW 5016-06-01
100
AcDbVertex
100
AcDb2dVertex
 10
-6.705121994007413
 20
13.00724446773728
 30
0.0
  0
VERTEX
  5
8149
330
813A
100
AcDbEntity
  8
LW 5016-06-01
100
AcDbVertex
100
AcDb2dVertex
 10
-6.216325759876326
 20
13.40922176838103
 30
0.0
  0
VERTEX
  5
814A
330
813A
100
AcDbEntity
  8
LW 5016-06-01
100
AcDbVertex
100
AcDb2dVertex
 10
-5.6953048705941
 20
13.78546059131787
 30
0.0
  0
VERTEX
  5
814B
330
813A
100
AcDbEntity
  8
LW 5016-06-01
100
AcDbVertex
100
AcDb2dVertex
 10
-5.144987106311646
 20
14.13214206695704
 30
0.0
  0
VERTEX
  5
814C
330
813A
100
AcDbEntity
  8
LW 5016-06-01
100
AcDbVertex
100
AcDb2dVertex
 10
-4.568305015552141
 20
14.44544792175423
 30
0.0
  0
VERTEX
  5
814D
330
813A
100
AcDbEntity
  8
LW 5016-06-01
100
AcDbVertex
100
AcDb2dVertex
 10
-3.96818637846718
 20
14.72155869007224
 30
0.0
  0
VERTEX
  5
814E
330
813A
100
AcDbEntity
  8
LW 5016-06-01
100
AcDbVertex
100
AcDb2dVertex
 10
-3.347783088672031
 20
14.95777785778136
 30
0.0
  0
VERTEX
  5
814F
330
813A
100
AcDbEntity
  8
LW 5016-06-01
100
AcDbVertex
100
AcDb2dVertex
 10
-2.711348533618092
 20
15.15290260315015
 30
0.0
  0
VERTEX
  5
8150
330
813A
100
AcDbEntity
  8
LW 5016-06-01
100
AcDbVertex
100
AcDb2dVertex
 10
-2.06343173979485
 20
15.3053522109991
 30
0.0
  0
VERTEX
  5
8151
330
813A
100
AcDbEntity
  8
LW 5016-06-01
100
AcDbVertex
100
AcDb2dVertex
 10
-1.408705711352467
 20
15.4138541221622
 30
0.0
  0
VERTEX
  5
8152
330
813A
100
AcDbEntity
  8
LW 5016-06-01
100
AcDbVertex
100
AcDb2dVertex
 10
-0.7524204254027609
 20
15.47855496406572
 30
0.0
  0
VERTEX
  5
8153
330
813A
100
AcDbEntity
  8
LW 5016-06-01
100
AcDbVertex
100
AcDb2dVertex
 10
-0.1000022888060812
 20
15.49999952316284
 30
0.0
  0
SEQEND
  5
8154
330
813A
100
AcDbEntity
  8
LW 5016-06-01
  0
POLYLINE
  5
8155
330
80FA
100
AcDbEntity
  8
LW 5016-06-01
100
AcDb2dPolyline
 66
     1
 10
0.0
 20
0.0
 30
0.0
 70
   128
  0
VERTEX
  5
8156
330
8155
100
AcDbEntity
  8
LW 5016-06-01
100
AcDbVertex
100
AcDb2dVertex
 10
0.1000022888306375
 20
15.49999952316278
 30
0.0
  0
VERTEX
  5
8157
330
8155
100
AcDbEntity
  8
LW 5016-06-01
100
AcDbVertex
100
AcDb2dVertex
 10
0.7524204254273173
 20
15.47855496406526
 30
0.0
  0
VERTEX
  5
8158
330
8155
100
AcDbEntity
  8
LW 5016-06-01
100
AcDbVertex
100
AcDb2dVertex
 10
1.408705711377024
 20
15.41385412216141
 30
0.0
  0
VERTEX
  5
8159
330
8155
100
AcDbEntity
  8
LW 5016-06-01
100
AcDbVertex
100
AcDb2dVertex
 10
2.063431739819407
 20
15.30535221099791
 30
0.0
  0
VERTEX
  5
815A
330
8155
100
AcDbEntity
  8
LW 5016-06-01
100
AcDbVertex
100
AcDb2dVertex
 10
2.711348533642421
 20
15.15290260314856
 30
0.0
  0
VERTEX
  5
815B
330
8155
100
AcDbEntity
  8
LW 5016-06-01
100
AcDbVertex
100
AcDb2dVertex
 10
3.347783088695905
 20
14.95777785777943
 30
0.0
  0
VERTEX
  5
815C
330
8155
100
AcDbEntity
  8
LW 5016-06-01
100
AcDbVertex
100
AcDb2dVertex
 10
3.968186378490827
 20
14.72155869006991
 30
0.0
  0
VERTEX
  5
815D
330
8155
100
AcDbEntity
  8
LW 5016-06-01
100
AcDbVertex
100
AcDb2dVertex
 10
4.568305015575788
 20
14.44544792175151
 30
0.0
  0
VERTEX
  5
815E
330
8155
100
AcDbEntity
  8
LW 5016-06-01
100
AcDbVertex
100
AcDb2dVertex
 10
5.14498710633461
 20
14.13214206695397
 30
0.0
  0
VERTEX
  5
815F
330
8155
100
AcDbEntity
  8
LW 5016-06-01
100
AcDbVertex
100
AcDb2dVertex
 10
5.695304870616837
 20
13.78546059131452
 30
0.0
  0
VERTEX
  5
8160
330
8155
100
AcDbEntity
  8
LW 5016-06-01
100
AcDbVertex
100
AcDb2dVertex
 10
6.216325759898836
 20
13.40922176837733
 30
0.0
  0
VERTEX
  5
8161
330
8155
100
AcDbEntity
  8
LW 5016-06-01
100
AcDbVertex
100
AcDb2dVertex
 10
6.705121994029468
 20
13.0072444677333
 30
0.0
  0
VERTEX
  5
8162
330
8155
100
AcDbEntity
  8
LW 5016-06-01
100
AcDbVertex
100
AcDb2dVertex
 10
7.158765792857366
 20
12.58334755897306
 30
0.0
  0
VERTEX
  5
8163
330
8155
100
AcDbEntity
  8
LW 5016-06-01
100
AcDbVertex
100
AcDb2dVertex
 10
7.584662437449424
 20
12.13061451911699
 30
0.0
  0
VERTEX
  5
8164
330
8155
100
AcDbEntity
  8
LW 5016-06-01
100
AcDbVertex
100
AcDb2dVertex
 10
7.989382743845681
 20
11.64165675639861
 30
0.0
  0
VERTEX
  5
8165
330
8155
100
AcDbEntity
  8
LW 5016-06-01
100
AcDbVertex
100
AcDb2dVertex
 10
8.3688497543435
 20
11.11950039863336
 30
0.0
  0
VERTEX
  5
8166
330
8155
100
AcDbEntity
  8
LW 5016-06-01
100
AcDbVertex
100
AcDb2dVertex
 10
8.718976974497309
 20
10.5671697854969
 30
0.0
  0
VERTEX
  5
8167
330
8155
100
AcDbEntity
  8
LW 5016-06-01
100
AcDbVertex
100
AcDb2dVertex
 10
9.035677909860851
 20
9.987690150735033
 30
0.0
  0
VERTEX
  5
8168
330
8155
100
AcDbEntity
  8
LW 5016-06-01
100
AcDbVertex
100
AcDb2dVertex
 10
9.314870834360135
 20
9.384086430069999
 30
0.0
  0
VERTEX
  5
8169
330
8155
100
AcDbEntity
  8
LW 5016-06-01
100
AcDbVertex
100
AcDb2dVertex
 10
9.552946090707337
 20
8.759588897225398
 30
0.0
  0
VERTEX
  5
816A
330
8155
100
AcDbEntity
  8
LW 5016-06-01
100
AcDbVertex
100
AcDb2dVertex
 10
9.748716354379212
 20
8.118924200531921
 30
0.0
  0
VERTEX
  5
816B
330
8155
100
AcDbEntity
  8
LW 5016-06-01
100
AcDbVertex
100
AcDb2dVertex
 10
9.901742935189304
 20
7.467362880703888
 30
0.0
  0
VERTEX
  5
816C
330
8155
100
AcDbEntity
  8
LW 5016-06-01
100
AcDbVertex
100
AcDb2dVertex
 10
10.01159191132455
 20
6.810174882408944
 30
0.0
  0
VERTEX
  5
816D
330
8155
100
AcDbEntity
  8
LW 5016-06-01
100
AcDbVertex
100
AcDb2dVertex
 10
10.07782459259852
 20
6.152630448338356
 30
0.0
  0
VERTEX
  5
816E
330
8155
100
AcDbEntity
  8
LW 5016-06-01
100
AcDbVertex
100
AcDb2dVertex
 10
10.10000228882654
 20
5.500000007447567
 30
0.0
  0
SEQEND
  5
816F
330
8155
100
AcDbEntity
  8
LW 5016-06-01
  0
LINE
  5
8170
330
80FA
100
AcDbEntity
  8
LW 5016-06-01
100
AcDbLine
 10
10.10000000000752
 20
-12.50000000000298
 30
0.0
 11
10.10000000000809
 21
5.499999999997044
 31
0.0
  0
LINE
  5
8171
330
80FA
100
AcDbEntity
  8
LW 5016-06-01
  6
MITTE2
 62
     3
100
AcDbLine
 10
-80.54152403631816
 20
5.000000000023874
 30
0.0
 11
37.06495985656011
 21
4.999999999989086
 31
0.0
  0
ENDBLK
  5
80FC
330
80FA
100
AcDbEntity
  8
0
100
AcDbBlockEnd
  0
BLOCK
  5
8174
330
8173
100
AcDbEntity
  8
0
100
AcDbBlockBegin
  2
LW 5016-06-01_d
 70
     0
 10
0.0
 20
0.0
 30
0.0
  3
LW 5016-06-01_d
  1

  0
LINE
  5
8176
330
8173
100
AcDbEntity
  8
LW 5016-06-01
  6
VERDECKT
 62
     6
100
AcDbLine
 10
-7.334936490575273
 20
17.70448267190204
 30
0.0
 11
-11.66506350949703
 21
15.2044826719009
 31
0.0
  0
LINE
  5
8177
330
8173
100
AcDbEntity
  8
LW 5016-06-01
  6
VERDECKT
 62
     6
100
AcDbLine
 10
-11.66506350948793
 20
-15.20448267190795
 30
0.0
 11
-7.334936490564814
 21
-17.70448267190659
 31
0.0
  0
LINE
  5
8178
330
8173
100
AcDbEntity
  8
LW 5016-06-01
  6
VERDECKT
 62
     6
100
AcDbLine
 10
-8.748924226251347
 20
15.1535812713729
 30
0.0
 11
-7.334936490575273
 21
17.70448267190204
 31
0.0
  0
LINE
  5
8179
330
8173
100
AcDbEntity
  8
LW 5016-06-01
  6
VERDECKT
 62
     6
100
AcDbLine
 10
-8.748924226251347
 20
15.1535812713729
 30
0.0
 11
-11.66506350949703
 21
15.2044826719009
 31
0.0
  0
LINE
  5
817A
330
8173
100
AcDbEntity
  8
LW 5016-06-01
  6
VERDECKT
 62
     6
100
AcDbLine
 10
-14.60240647333103
 20
20.29210992451317
 30
0.0
 11
-11.66506350949703
 21
15.20448267190068
 31
0.0
  0
LINE
  5
817B
330
8173
100
AcDbEntity
  8
LW 5016-06-01
  6
VERDECKT
 62
     6
100
AcDbLine
 10
-10.27227945440972
 20
22.79210992451453
 30
0.0
 11
-7.334936490575273
 21
17.70448267190204
 31
0.0
  0
LINE
  5
817C
330
8173
100
AcDbEntity
  8
LW 5016-06-01
  6
VERDECKT
 62
     6
100
AcDbLine
 10
-8.748924226242252
 20
-15.15358127137824
 30
0.0
 11
-11.66506350948793
 21
-15.20448267190795
 31
0.0
  0
LINE
  5
817D
330
8173
100
AcDbEntity
  8
LW 5016-06-01
  6
VERDECKT
 62
     6
100
AcDbLine
 10
-8.748924226242252
 20
-15.15358127137824
 30
0.0
 11
-7.334936490564814
 21
-17.70448267190659
 31
0.0
  0
LINE
  5
817E
330
8173
100
AcDbEntity
  8
LW 5016-06-01
  6
VERDECKT
 62
     6
100
AcDbLine
 10
-10.27227945439608
 20
-22.79210992452068
 30
0.0
 11
-7.334936490564814
 21
-17.70448267190659
 31
0.0
  0
LINE
  5
817F
330
8173
100
AcDbEntity
  8
LW 5016-06-01
  6
VERDECKT
 62
     6
100
AcDbLine
 10
-14.6024064733192
 20
-20.29210992452204
 30
0.0
 11
-11.66506350948793
 21
-15.20448267190795
 31
0.0
  0
LINE
  5
8180
330
8173
100
AcDbEntity
  8
LW 5016-06-01
  6
VERDECKT
 62
     6
100
AcDbLine
 10
18.99999999996953
 20
-2.499999999994543
 30
0.0
 11
18.99999999996817
 21
2.500000000005456
 31
0.0
  0
LINE
  5
8181
330
8173
100
AcDbEntity
  8
LW 5016-06-01
  6
VERDECKT
 62
     6
100
AcDbLine
 10
17.49784845239992
 20
0.0000000000051159
 30
0.0
 11
18.99999999996953
 21
-2.499999999994543
 31
0.0
  0
LINE
  5
8182
330
8173
100
AcDbEntity
  8
LW 5016-06-01
  6
VERDECKT
 62
     6
100
AcDbLine
 10
17.49784845239992
 20
0.0000000000051159
 30
0.0
 11
18.99999999996817
 21
2.500000000005456
 31
0.0
  0
LINE
  5
8183
330
8173
100
AcDbEntity
  8
LW 5016-06-01
  6
VERDECKT
 62
     6
100
AcDbLine
 10
24.87468592763344
 20
2.500000000007275
 30
0.0
 11
18.99999999996817
 21
2.500000000005456
 31
0.0
  0
LINE
  5
8184
330
8173
100
AcDbEntity
  8
LW 5016-06-01
  6
VERDECKT
 62
     6
100
AcDbLine
 10
24.8746859276348
 20
-2.499999999992724
 30
0.0
 11
18.99999999996953
 21
-2.499999999994543
 31
0.0
  0
LINE
  5
8185
330
8173
100
AcDbEntity
  8
LW 5016-06-01
  6
MITTE2
 62
     3
100
AcDbLine
 10
-14.93734296387174
 20
25.87223694343527
 30
0.0
 11
-7.000000000035015
 21
12.12435565298006
 31
0.0
  0
LINE
  5
8186
330
8173
100
AcDbEntity
  8
LW 5016-06-01
  6
MITTE2
 62
     3
100
AcDbLine
 10
-14.93734296385628
 20
-25.87223694344425
 30
0.0
 11
-7.000000000027739
 21
-12.12435565298426
 31
0.0
  0
LINE
  5
8187
330
8173
100
AcDbEntity
  8
LW 5016-06-01
  6
MITTE2
 62
     3
100
AcDbLine
 10
37.10268893529315
 20
0.0000000000173941
 30
0.0
 11
-37.10268893529315
 21
-0.0000000000173941
 31
0.0
  0
LINE
  5
8188
330
8173
100
AcDbEntity
  8
LW 5016-06-01
  6
MITTE2
 62
     3
100
AcDbLine
 10
-0.0000000000065938
 20
22.6209724824912
 30
0.0
 11
0.0000000000065938
 21
-22.6209724824912
 31
0.0
  0
HATCH
  5
8189
330
8173
100
AcDbEntity
  8
LW 5016-06-01
 62
     1
100
AcDbHatch
 10
0.0
 20
0.0
 30
0.0
210
0.0
220
0.0
230
1.0
  2
SOLID
 70
     1
 71
     0
 91
        5
 92
        7
 72
     0
 73
     1
 93
       76
 10
-5.057173424229176
 20
8.051816195540595
 10
-5.025314594856581
 20
8.103397157382346
 10
-4.90715647062484
 20
8.254639556398274
 10
-4.772678395412413
 20
8.395063686660819
 10
-4.626658488951079
 20
8.523448248374165
 10
-4.462989692868859
 20
8.640354531289972
 10
-4.287602739504336
 20
8.742532413111575
 10
-4.105849806903506
 20
8.833884092694461
 10
-3.924680871438113
 20
8.903402405140582
 10
-6.181818809637888
 20
8.903402405140582
 10
-6.394715362038141
 20
8.894712749940595
 10
-6.596749845438125
 20
8.868643784340633
 10
-6.792267087437949
 20
8.827367922140524
 10
-6.976922260437959
 20
8.773057577140548
 10
-7.152887778238209
 20
8.703540335540537
 10
-7.32016364083779
 20
8.620988611140433
 10
-7.470731903385285
 20
8.525663093596563
 10
-7.613439503838208
 20
8.418954127740448
 10
-7.73888075940863
 20
8.299905851500398
 10
-7.850145711485993
 20
8.171646540748497
 10
-7.950163642837878
 20
8.034436885140507
 10
-8.032715367238097
 20
7.888885160540439
 10
-8.095715367438288
 20
7.734643780740384
 10
-8.145680884838156
 20
7.573885159540509
 10
-8.173922264237944
 20
7.408781710740527
 10
-8.182611919437704
 20
7.234988606740557
 10
-8.17174985043789
 20
7.061195502740361
 10
-8.141336057238049
 20
6.893919640140438
 10
-8.087025712238073
 20
6.73316101894045
 10
-8.017508470638176
 20
6.576747225340454
 10
-7.928439504837797
 20
6.429023086940446
 10
-7.821991228637898
 20
6.287816189940599
 10
-7.699293297213671
 20
6.156602396420453
 10
-7.563094248505649
 20
6.03546860293261
 10
-7.415749848037876
 20
5.925023085340512
 10
-7.254991226838001
 20
5.827264464340601
 10
-7.079364605590626
 20
5.742366533036488
 10
-6.898715363638302
 20
5.668678256940552
 10
-6.707542949238131
 20
5.612195498140522
 10
-6.507680879637746
 20
5.568747222140586
 10
-6.299129154838055
 20
5.542678256540511
 10
-6.088405016237857
 20
5.533988601340524
 10
-3.969233930485415
 20
5.533988601340638
 10
-4.129777794537631
 20
5.597059405075583
 10
-4.313341938340499
 20
5.687679678598328
 10
-4.481808344510454
 20
5.792209371529793
 10
-4.644641239270868
 20
5.907827609955234
 10
-4.788553607641233
 20
6.037617206495156
 10
-4.915989501125523
 20
6.176970889723747
 10
-5.029694855869138
 20
6.327459134436253
 10
-5.081666087317671
 20
6.411643776540586
 10
-6.110129154237938
 20
6.411643776540472
 10
-6.242237982243523
 20
6.419203776564586
 10
-6.372991224038059
 20
6.439537569732578
 10
-6.50116363823804
 20
6.472471362940495
 10
-6.616301569637698
 20
6.518092052740598
 10
-6.721246535488035
 20
6.574574811540514
 10
-6.819396190972156
 20
6.64218032899646
 10
-6.909577432638116
 20
6.720126536140469
 10
-6.981267088037611
 20
6.804850674340514
 10
-5.253745773779201
 20
6.804850674340627
 10
-5.264330241052221
 20
6.83748611509884
 10
-5.300442049016282
 20
7.022860062650011
 10
-5.31248570179855
 20
7.213149776600744
 10
-5.30046402936864
 20
7.407900869955824
 10
-5.264158307693605
 20
7.594270241222261
 10
-5.24755960501875
 20
7.643402401140519
 10
-7.018198122638068
 20
7.643402401140519
 10
-6.948680881038171
 20
7.738988608340491
 10
-6.866129156637953
 20
7.821540332740482
 10
-6.771038259784518
 20
7.891405160548515
 10
-6.668439500838076
 20
7.949712746940576
 10
-6.549747500461535
 20
7.993682402252488
 10
-6.427301569038036
 20
8.02574722994052
 10
-6.290439499637841
 20
8.045298954140548
 10
-6.14706018883794
 20
8.051816195540482
 97
        0
 92
        7
 72
     0
 73
     1
 93
       72
 10
-3.32870955920157
 20
8.037217574804571
 10
-3.205846524328308
 20
8.05529205762059
 10
-3.081784317038227
 20
8.060505850740696
 10
-1.813094657837837
 20
8.060505850740696
 10
-2.660336039837829
 20
7.245850675740825
 10
-0.8941636204378937
 20
5.527471359940705
 10
0.424491556161911
 20
5.527471359940705
 10
-1.289542932038102
 20
7.269747227540733
 10
0.3919053491620161
 20
8.903402405140809
 10
-3.047025696238279
 20
8.903402405140582
 10
-3.255012593450146
 20
8.892627232692689
 10
-3.461730801003113
 20
8.867166542956624
 10
-3.666163629238099
 20
8.827367922140638
 10
-3.859508457438323
 20
8.770885163340608
 10
-4.046336044238387
 20
8.699195507940544
 10
-4.217496182712466
 20
8.613167921460558
 10
-4.383060183238058
 20
8.516712748740587
 10
-4.535129149238173
 20
8.408092058740635
 10
-4.670826804841226
 20
8.288783092844596
 10
-4.795818805238241
 20
8.158264471740608
 10
-4.904439495238193
 20
8.019229988540587
 10
-4.995680874837717
 20
7.871505850140692
 10
-5.067370530238122
 20
7.717264470340637
 10
-5.121680875238098
 20
7.556505849140535
 10
-5.154267082237993
 20
7.389229986540499
 10
-5.165129151238261
 20
7.213264468740476
 10
-5.154267082237993
 20
7.04164377854056
 10
-5.121680875238098
 20
6.874367915940638
 10
-5.069542944037721
 20
6.713609294740649
 10
-5.000025702437824
 20
6.559367914940594
 10
-4.908184736628982
 20
6.410601017916746
 10
-4.802805288018817
 20
6.271132051956556
 10
-4.684799770402833
 20
6.14209067223669
 10
-4.552508459637692
 20
6.022781706340651
 10
-4.400387355706925
 20
5.914769292204596
 10
-4.241853286237756
 20
5.81640239534056
 10
-4.070232596037612
 20
5.731678257140629
 10
-3.887749836837656
 20
5.659988601740565
 10
-3.693518663807708
 20
5.605938946396577
 10
-3.496715352838009
 20
5.562229980740653
 10
-3.288163628037864
 20
5.536161015140692
 10
-3.07743948943812
 20
5.527471359940705
 10
-1.174405000637989
 20
5.527471359940705
 10
-2.060749831038037
 20
6.400781707540659
 10
-3.07743948943812
 20
6.400781707540659
 10
-3.144106524132666
 20
6.40452900048001
 10
-3.245054248590577
 20
6.41451136275657
 10
-3.365188731730768
 20
6.435974811100663
 10
-3.482307904516574
 20
6.470298949140556
 10
-3.583803077252241
 20
6.511227225132643
 10
-3.639938249844135
 20
6.539381707980624
 10
-3.693622939669921
 20
6.571967914980746
 10
-3.82618362974631
 20
6.671290673916587
 10
-3.899785009289871
 20
6.741329294828688
 10
-3.954851354292486
 20
6.809195501940507
 10
-4.003556871688715
 20
6.88175412286057
 10
-4.042921009744759
 20
6.958918261036501
 10
-4.072344182251299
 20
7.040340330260619
 10
-4.093042940937948
 20
7.127497571916705
 10
-4.100559492685761
 20
7.216827227372505
 10
-4.099203906474713
 20
7.279132055156537
 10
-4.093199354731268
 20
7.341263089836502
 10
-4.081042527106774
 20
7.404436883140647
 10
-4.062829009807728
 20
7.466133435060669
 10
-4.019180871738399
 20
7.5648479181325
 10
-3.977653009537107
 20
7.632714125244547
 10
-3.914574802440483
 20
7.71074722894059
 10
-3.785172862075569
 20
7.837269965994323
 10
-3.725905008737981
 20
7.877327919124695
 10
-3.649609836081936
 20
7.921645160644516
 10
-3.565589559953195
 20
7.963789988364624
 10
-3.449052594065733
 20
8.006629988500662
 97
        0
 92
        7
 72
     0
 73
     1
 93
       57
 10
1.229327420786148
 20
8.015145850596923
 10
1.360801903961828
 20
8.055118264516863
 10
1.495491559561969
 20
8.082229988740891
 10
1.63887087036187
 20
8.090919643940765
 10
2.879319150162018
 20
8.090919643940878
 10
2.879319150162018
 20
8.916436887940903
 10
1.645388111762031
 20
8.91643688794079
 10
1.434663973161832
 20
8.907747232740803
 10
1.22828466216174
 20
8.879505853340788
 10
1.030595006361863
 20
8.838229991140792
 10
0.8415950057622012
 20
8.783919646140816
 10
0.6569398327617364
 20
8.712229990740866
 10
0.4905329356818129
 20
8.629591369788727
 10
0.3317121075913292
 20
8.533136197068756
 10
0.1816330726321667
 20
8.423646541548691
 10
0.0470737618604744
 20
8.3044244722048
 10
-0.0729912040380896
 20
8.175643782140809
 10
-0.1772670664379348
 20
8.036609298940788
 10
-0.2619912046377522
 20
7.89105757434072
 10
-0.3336808600381573
 20
7.736816194540665
 10
-0.3836463774380263
 20
7.57605757334079
 10
-0.4162325844379211
 20
7.408781710740868
 10
-0.4270946534381892
 20
7.234988606740785
 10
-0.4162325844379211
 20
7.061195502740815
 10
-0.3836463774380263
 20
6.893919640140779
 10
-0.3315084462381037
 20
6.733161018940677
 10
-0.2598187908381533
 20
6.576747225340795
 10
-0.1729222388378275
 20
6.429023086940787
 10
-0.0640756178029278
 20
6.28946722442879
 10
0.0557807963707546
 20
6.15912239642887
 10
0.1922083830111205
 20
6.037814809836731
 10
0.3397674179620935
 20
5.927195499140793
 10
0.5005260391619686
 20
5.829436878140654
 10
0.6743191431621654
 20
5.744712739940837
 10
0.8589743161621754
 20
5.670850670740833
 10
1.050146730561891
 20
5.614367911940803
 10
1.250008800162277
 20
5.570919635940867
 10
1.456388111162368
 20
5.547023084140732
 10
1.669284663562166
 20
5.538333428940745
 10
2.879319150162018
 20
5.538333428940859
 10
2.879319150162018
 20
6.396436879940779
 10
1.645388111762031
 20
6.396436879940779
 10
1.511741214786297
 20
6.406777569628729
 10
1.379484662642198
 20
6.428762397284913
 10
1.258872248465877
 20
6.463086535324805
 10
1.142865351546106
 20
6.511053432028916
 10
1.033201902921746
 20
6.571967914980859
 10
0.936138454337879
 20
6.639573432436804
 10
0.8487205230260315
 20
6.719344467172845
 10
0.7742501779619034
 20
6.804850674340855
 10
2.879319150162018
 20
6.804850674340855
 10
2.879319150162018
 20
7.63254033214082
 10
0.7373191433619013
 20
7.63254033214082
 10
0.8068363849622528
 20
7.730298953140732
 10
0.8937329369616691
 20
7.819367918940656
 10
0.9948805234901101
 20
7.895663091596816
 10
1.102284661762269
 20
7.962747229740784
 97
        0
 92
        7
 72
     0
 73
     1
 93
        6
 10
3.10959501296179
 20
8.903402405140923
 10
3.10959501296179
 20
5.533988601340865
 10
5.347181226962447
 20
5.533988601340979
 10
5.347181226961993
 20
6.400781707541
 10
4.132801912762033
 20
6.400781707541
 10
4.132801912762033
 20
8.903402405140923
 97
        0
 92
        7
 72
     0
 73
     1
 93
        8
 10
4.365250189361859
 20
8.903402405140923
 10
4.365250189361859
 20
8.077885161140898
 10
5.599181227762301
 20
8.077885161141011
 10
5.599181227762301
 20
5.527471359940932
 10
6.624560541362143
 20
5.527471359940932
 10
6.624560541362143
 20
8.077885161140898
 10
7.86718123496189
 20
8.077885161141011
 10
7.86718123496189
 20
8.903402405141036
 97
        0
 75
     0
 76
     1
 47
0.0142553043587597
 98
        5
 10
-5.747513298162857
 20
8.460952735551472
 10
-3.480016084820135
 20
8.318399750545836
 10
1.012195647381076
 20
8.375420923093656
 10
3.736044731212814
 20
8.61776114778604
 10
5.147882713439457
 20
8.517974015372715
450
        0
451
        0
460
0.0
461
0.0
452
        0
462
0.0
453
        0
470

  0
LWPOLYLINE
  5
818A
330
8173
100
AcDbEntity
  8
LW 5016-06-01
 62
     1
100
AcDbPolyline
 90
        8
 70
     1
 43
0.0
 10
6.624560541362143
 20
8.077885161140898
 10
6.624560541362143
 20
5.527471359940932
 10
5.599181227762301
 20
5.527471359940932
 10
5.599181227762301
 20
8.077885161141011
 10
4.365250189361859
 20
8.077885161140898
 10
4.365250189361859
 20
8.903402405140923
 10
7.86718123496189
 20
8.903402405141036
 10
7.86718123496189
 20
8.077885161141011
  0
LWPOLYLINE
  5
818B
330
8173
100
AcDbEntity
  8
LW 5016-06-01
 62
     1
100
AcDbPolyline
 90
       73
 70
     1
 43
0.0
 10
-3.07743948943812
 20
6.400781707540659
 10
-2.060749831038037
 20
6.400781707540659
 10
-1.174405000637989
 20
5.527471359940705
 10
-3.07743948943812
 20
5.527471359940591
 10
-3.288163628037864
 20
5.536161015140692
 10
-3.496715352838009
 20
5.562229980740653
 10
-3.693518663807708
 20
5.605938946396577
 10
-3.887749836837656
 20
5.659988601740565
 10
-4.070232596037612
 20
5.731678257140629
 10
-4.241853286237756
 20
5.81640239534056
 10
-4.400387355706925
 20
5.914769292204596
 10
-4.552508459637692
 20
6.022781706340651
 10
-4.684799770402833
 20
6.142090672236577
 10
-4.802805288018817
 20
6.271132051956556
 10
-4.908184736628982
 20
6.410601017916633
 10
-5.000025702437824
 20
6.559367914940594
 10
-5.069542944037721
 20
6.713609294740649
 10
-5.121680875238098
 20
6.874367915940638
 10
-5.154267082237993
 20
7.04164377854056
 10
-5.165129151238261
 20
7.21326446874059
 10
-5.154267082237993
 20
7.389229986540499
 10
-5.121680875238098
 20
7.556505849140535
 10
-5.067370530238122
 20
7.717264470340637
 10
-4.995680874837717
 20
7.871505850140579
 10
-4.904439495238193
 20
8.019229988540587
 10
-4.795818805238241
 20
8.158264471740608
 10
-4.670826804841226
 20
8.28878309284471
 10
-4.535129149238173
 20
8.408092058740635
 10
-4.383060183238058
 20
8.516712748740587
 10
-4.217496182712466
 20
8.613167921460558
 10
-4.046336044238387
 20
8.699195507940544
 10
-3.859508457438323
 20
8.770885163340608
 10
-3.666163629238099
 20
8.827367922140751
 10
-3.461730801003113
 20
8.867166542956624
 10
-3.255012593450146
 20
8.892627232692689
 10
-3.047025696238279
 20
8.903402405140582
 10
0.3919053491620161
 20
8.903402405140809
 10
-1.289542932038102
 20
7.269747227540733
 10
0.424491556161911
 20
5.527471359940705
 10
-0.8941636204378937
 20
5.527471359940705
 10
-2.660336039837829
 20
7.245850675740825
 10
-1.813094657837837
 20
8.060505850740696
 10
-3.081784317038227
 20
8.060505850740696
 10
-3.205846524328308
 20
8.05529205762059
 10
-3.32870955920157
 20
8.037217574804571
 10
-3.449052594065733
 20
8.006629988500662
 10
-3.565589559953195
 20
7.96378998836451
 10
-3.64960983608239
 20
7.921645160644629
 10
-3.725905008737981
 20
7.877327919124695
 10
-3.766146801968943
 20
7.850129298348633
 10
-3.803660043467289
 20
7.819194125836588
 10
-3.914574802440483
 20
7.71074722894059
 10
-3.977653009537107
 20
7.632714125244547
 10
-4.019180871737944
 20
7.564847918132613
 10
-4.062829009807728
 20
7.466133435060669
 10
-4.081042527106774
 20
7.404436883140647
 10
-4.093199354731268
 20
7.341263089836616
 10
-4.099203906474713
 20
7.279132055156651
 10
-4.100559492685761
 20
7.216827227372618
 10
-4.093042940937948
 20
7.127497571916705
 10
-4.072344182251299
 20
7.040340330260619
 10
-4.042921009744304
 20
6.958918261036615
 10
-4.003556871688715
 20
6.88175412286057
 10
-3.954851354292486
 20
6.809195501940621
 10
-3.899785009289871
 20
6.741329294828688
 10
-3.82618362974631
 20
6.671290673916587
 10
-3.693622939669921
 20
6.571967914980746
 10
-3.639938249844135
 20
6.539381707980624
 10
-3.583803077252241
 20
6.511227225132643
 10
-3.482307904516574
 20
6.470298949140556
 10
-3.365188731730768
 20
6.435974811100663
 10
-3.245054248590577
 20
6.41451136275657
 10
-3.144106524132666
 20
6.40452900048001
  0
LWPOLYLINE
  5
818C
330
8173
100
AcDbEntity
  8
LW 5016-06-01
 62
     1
100
AcDbPolyline
 90
       76
 70
     1
 43
0.0
 10
-4.287602739504336
 20
8.742532413111575
 10
-4.462989692868859
 20
8.640354531289858
 10
-4.626658488951079
 20
8.523448248374165
 10
-4.772678395412413
 20
8.395063686660819
 10
-4.90715647062484
 20
8.254639556398274
 10
-5.025314594856581
 20
8.103397157382346
 10
-5.057173424229176
 20
8.051816195540595
 10
-6.14706018883794
 20
8.051816195540595
 10
-6.290439499637841
 20
8.045298954140548
 10
-6.427301569038036
 20
8.02574722994052
 10
-6.549747500461535
 20
7.993682402252488
 10
-6.668439500838076
 20
7.949712746940576
 10
-6.771038259784518
 20
7.891405160548515
 10
-6.866129156637953
 20
7.821540332740482
 10
-6.948680881038171
 20
7.738988608340491
 10
-7.018198122638068
 20
7.643402401140519
 10
-5.24755960501875
 20
7.643402401140519
 10
-5.264158307693605
 20
7.594270241222261
 10
-5.300464029369095
 20
7.407900869955597
 10
-5.31248570179855
 20
7.213149776600744
 10
-5.300442049016282
 20
7.022860062650011
 10
-5.264330241051766
 20
6.837486115098954
 10
-5.253745773779201
 20
6.804850674340627
 10
-6.981267088037611
 20
6.804850674340514
 10
-6.909577432638116
 20
6.720126536140469
 10
-6.819396190972156
 20
6.64218032899646
 10
-6.721246535488035
 20
6.574574811540514
 10
-6.616301569637698
 20
6.518092052740598
 10
-6.50116363823804
 20
6.472471362940609
 10
-6.372991224038059
 20
6.439537569732578
 10
-6.242237982243523
 20
6.419203776564586
 10
-6.110129154237938
 20
6.411643776540472
 10
-5.081666087317671
 20
6.411643776540586
 10
-5.029694855869138
 20
6.327459134436253
 10
-4.915989501125523
 20
6.176970889723747
 10
-4.788553607641233
 20
6.037617206495156
 10
-4.644641239270868
 20
5.907827609955461
 10
-4.481808344510454
 20
5.792209371529793
 10
-4.313341938340499
 20
5.687679678598328
 10
-4.129777794537631
 20
5.597059405075583
 10
-3.969233930485415
 20
5.533988601340638
 10
-6.088405016237857
 20
5.533988601340411
 10
-6.299129154838055
 20
5.542678256540511
 10
-6.507680879637746
 20
5.568747222140586
 10
-6.707542949238131
 20
5.612195498140522
 10
-6.898715363637847
 20
5.668678256940438
 10
-7.079364605591081
 20
5.742366533036488
 10
-7.254991226838001
 20
5.827264464340601
 10
-7.415749848037876
 20
5.925023085340512
 10
-7.563094248505649
 20
6.035468602932496
 10
-7.699293297213671
 20
6.156602396420453
 10
-7.821991228637898
 20
6.287816189940485
 10
-7.928439504838252
 20
6.429023086940446
 10
-8.017508470638176
 20
6.576747225340454
 10
-8.087025712238073
 20
6.73316101894045
 10
-8.141336057238049
 20
6.893919640140438
 10
-8.17174985043789
 20
7.061195502740588
 10
-8.182611919437704
 20
7.234988606740444
 10
-8.173922264238399
 20
7.408781710740413
 10
-8.145680884838156
 20
7.573885159540509
 10
-8.095715367438288
 20
7.734643780740384
 10
-8.032715367238097
 20
7.888885160540439
 10
-7.950163642837878
 20
8.034436885140507
 10
-7.850145711485993
 20
8.171646540748497
 10
-7.73888075940863
 20
8.299905851500511
 10
-7.613439503838208
 20
8.418954127740448
 10
-7.470731903385285
 20
8.525663093596563
 10
-7.32016364083779
 20
8.620988611140546
 10
-7.152887778237754
 20
8.703540335540424
 10
-6.976922260437959
 20
8.773057577140548
 10
-6.792267087437949
 20
8.827367922140524
 10
-6.596749845438125
 20
8.868643784340633
 10
-6.394715362038141
 20
8.894712749940595
 10
-6.181818809637888
 20
8.903402405140582
 10
-3.924680871438113
 20
8.903402405140695
 10
-4.105849806903506
 20
8.833884092694461
  0
LWPOLYLINE
  5
818D
330
8173
100
AcDbEntity
  8
LW 5016-06-01
 62
     1
100
AcDbPolyline
 90
        6
 70
     1
 43
0.0
 10
5.347181226962447
 20
5.533988601340979
 10
3.10959501296179
 20
5.533988601340865
 10
3.10959501296179
 20
8.903402405140923
 10
4.132801912762033
 20
8.903402405140923
 10
4.132801912762033
 20
6.400781707541
 10
5.347181226961993
 20
6.400781707541
  0
LWPOLYLINE
  5
818E
330
8173
100
AcDbEntity
  8
LW 5016-06-01
 62
     1
100
AcDbPolyline
 90
       57
 70
     1
 43
0.0
 10
0.0557807963707546
 20
6.15912239642887
 10
-0.0640756178029278
 20
6.289467224428676
 10
-0.1729222388378275
 20
6.429023086940674
 10
-0.2598187908381533
 20
6.576747225340795
 10
-0.3315084462381037
 20
6.733161018940677
 10
-0.3836463774380263
 20
6.893919640140779
 10
-0.4162325844379211
 20
7.061195502740815
 10
-0.4270946534381892
 20
7.234988606740785
 10
-0.4162325844379211
 20
7.408781710740754
 10
-0.3836463774380263
 20
7.57605757334079
 10
-0.3336808600381573
 20
7.736816194540665
 10
-0.2619912046377522
 20
7.891057574340834
 10
-0.1772670664379348
 20
8.036609298940675
 10
-0.0729912040380896
 20
8.175643782140809
 10
0.0470737618604744
 20
8.304424472204686
 10
0.1816330726321667
 20
8.423646541548691
 10
0.3317121075913292
 20
8.533136197068756
 10
0.4905329356822677
 20
8.62959136978884
 10
0.6569398327617364
 20
8.712229990740866
 10
0.8415950057622012
 20
8.783919646140816
 10
1.030595006361863
 20
8.838229991140792
 10
1.22828466216174
 20
8.879505853340788
 10
1.434663973161832
 20
8.907747232740803
 10
1.645388111762031
 20
8.91643688794079
 10
2.879319150162018
 20
8.916436887940903
 10
2.879319150162018
 20
8.090919643940878
 10
1.638870870362325
 20
8.090919643940765
 10
1.495491559561969
 20
8.082229988740778
 10
1.360801903961828
 20
8.055118264516863
 10
1.229327420785693
 20
8.015145850596809
 10
1.102284661762269
 20
7.962747229740784
 10
0.9948805234901101
 20
7.895663091596816
 10
0.8937329369616691
 20
7.819367918940884
 10
0.8068363849622528
 20
7.730298953140732
 10
0.7373191433619013
 20
7.63254033214082
 10
2.879319150162018
 20
7.63254033214082
 10
2.879319150162018
 20
6.804850674340855
 10
0.7742501779619034
 20
6.804850674340855
 10
0.8487205230260315
 20
6.719344467172845
 10
0.936138454337879
 20
6.639573432436804
 10
1.033201902921746
 20
6.571967914980859
 10
1.142865351546106
 20
6.511053432028916
 10
1.258872248465877
 20
6.463086535324805
 10
1.379484662642198
 20
6.428762397284913
 10
1.511741214786297
 20
6.406777569628729
 10
1.645388111762031
 20
6.396436879940779
 10
2.879319150162018
 20
6.396436879940779
 10
2.879319150162018
 20
5.538333428940859
 10
1.669284663562166
 20
5.538333428940745
 10
1.456388111162368
 20
5.547023084140732
 10
1.250008800162277
 20
5.570919635940867
 10
1.050146730561891
 20
5.614367911940803
 10
0.8589743161621754
 20
5.670850670740833
 10
0.6743191431621654
 20
5.744712739940837
 10
0.5005260391619686
 20
5.829436878140882
 10
0.3397674179620935
 20
5.927195499140793
 10
0.1922083830111205
 20
6.037814809836731
  0
INSERT
  5
818F
330
8173
100
AcDbEntity
  8
LW 5016-06-01
100
AcDbBlockReference
 66
     1
  2
insertpoint-ECKELT
 10
0.0
 20
0.0
 30
0.0
  0
ATTRIB
  5
8190
330
818F
100
AcDbEntity
  8
insertpoint_ECKELT
100
AcDbText
 10
-6.93151432469286
 20
0.0
 30
0.0
 40
0.6
  1
LW 5016/06-01
 72
     2
 11
-1.199999999999818
 21
0.0
 31
0.0
100
AcDbAttribute
  2
LINKS
 70
     0
  0
ATTRIB
  5
8191
330
818F
100
AcDbEntity
  8
insertpoint_ECKELT
100
AcDbText
 10
1.199999999999818
 20
0.0
 30
0.0
 40
0.6
  1

100
AcDbAttribute
  2
RECHTS
 70
     0
  0
SEQEND
  5
8192
330
818F
100
AcDbEntity
  8
LW 5016-06-01
  0
CIRCLE
  5
8193
330
8173
100
AcDbEntity
  8
LW 5016-06-01
100
AcDbCircle
 10
0.0
 20
0.0
 30
0.0
 40
18.99999999998902
  0
CIRCLE
  5
8194
330
8173
100
AcDbEntity
  8
LW 5016-06-01
100
AcDbCircle
 10
0.0
 20
0.0
 30
0.0
 40
24.99999999997855
  0
ENDBLK
  5
8175
330
8173
100
AcDbEntity
  8
0
100
AcDbBlockEnd
  0
ENDSEC
  0
SECTION
  2
ENTITIES
  0
INSERT
  5
7FF2
330
23
100
AcDbEntity
  8
0
100
AcDbBlockReference
  2
LW 5016-06-01_a
 10
0.0
 20
0.0
 30
0.0
  0
INSERT
  5
80F9
330
23
100
AcDbEntity
  8
0
100
AcDbBlockReference
  2
LW 5016-06-01_b
 10
0.000000000165528
 20
207.0345158723449
 30
0.0
  0
INSERT
  5
8172
330
23
100
AcDbEntity
  8
0
100
AcDbBlockReference
  2
LW 5016-06-01_c
 10
303.6796665410889
 20
207.0345158723449
 30
0.0
  0
INSERT
  5
8195
330
23
100
AcDbEntity
  8
0
100
AcDbBlockReference
  2
LW 5016-06-01_d
 10
-303.6796665407578
 20
207.034515872345
 30
0.0
  0
ENDSEC
  0
SECTION
  2
OBJECTS
  0
DICTIONARY
  5
C
330
0
100
AcDbDictionary
281
     1
  3
ACAD_COLOR
350
1C
  3
ACAD_GROUP
350
D
  3
ACAD_LAYOUT
350
1A
  3
ACAD_MATERIAL
350
1B
  3
ACAD_MLINESTYLE
350
17
  3
ACAD_PLOTSETTINGS
350
19
  3
ACAD_PLOTSTYLENAME
350
E
  3
ACAD_TABLESTYLE
350
1D
  3
AcDbVariableDictionary
350
1064
  0
DICTIONARY
  5
16C1
330
2
100
AcDbDictionary
280
     1
281
     1
  3
ACAD_LAYERFILTERS
360
7E96
  3
ACLYDICTIONARY
360
7E95
  0
DICTIONARY
  5
15A2
330
23
100
AcDbDictionary
280
     1
281
     1
  3
ACAD_SORTENTS
360
15A3
  0
DICTIONARY
  5
106F
330
106E
100
AcDbDictionary
280
     1
281
     1
  3
ACAD_SORTENTS
360
7AF6
  0
DICTIONARY
  5
1C
102
{ACAD_REACTORS
330
C
102
}
330
C
100
AcDbDictionary
281
     1
  0
DICTIONARY
  5
D
102
{ACAD_REACTORS
330
C
102
}
330
C
100
AcDbDictionary
281
     1
  0
DICTIONARY
  5
1A
102
{ACAD_REACTORS
330
C
102
}
330
C
100
AcDbDictionary
281
     1
  3
Layout1
350
22
  3
Layout2
350
2A
  3
Model
350
26
  0
DICTIONARY
  5
1B
102
{ACAD_REACTORS
330
C
102
}
330
C
100
AcDbDictionary
281
     1
  0
DICTIONARY
  5
17
102
{ACAD_REACTORS
330
C
102
}
330
C
100
AcDbDictionary
281
     1
  3
Standard
350
18
  0
DICTIONARY
  5
19
102
{ACAD_REACTORS
330
C
102
}
330
C
100
AcDbDictionary
281
     1
  0
ACDBDICTIONARYWDFLT
  5
E
102
{ACAD_REACTORS
330
C
102
}
330
C
100
AcDbDictionary
281
     1
  3
Normal
350
F
100
AcDbDictionaryWithDefault
340
F
  0
DICTIONARY
  5
1D
102
{ACAD_REACTORS
330
C
102
}
330
C
100
AcDbDictionary
281
     1
  3
Standard
350
1E
  0
DICTIONARY
  5
1064
102
{ACAD_REACTORS
330
C
102
}
330
C
100
AcDbDictionary
281
     1
  3
CTABLESTYLE
350
1065
  3
DIMASSOC
350
18F4
  3
HIDETEXT
350
18F3
  3
PROJECTNAME
350
18F5
  0
DICTIONARY
  5
7E96
102
{ACAD_REACTORS
330
16C1
102
}
330
16C1
100
AcDbDictionary
281
     1
  0
DICTIONARY
  5
7E95
102
{ACAD_REACTORS
330
16C1
102
}
330
16C1
100
AcDbDictionary
281
     1
1001
ACAD
1000
<All
  0
SORTENTSTABLE
  5
15A3
102
{ACAD_REACTORS
330
15A2
102
}
330
15A2
100
AcDbSortentsTable
330
23
  0
SORTENTSTABLE
  5
7AF6
102
{ACAD_REACTORS
330
106F
102
}
330
106F
100
AcDbSortentsTable
330
106E
  0
LAYOUT
  5
22
102
{ACAD_REACTORS
330
1A
102
}
330
1A
100
AcDbPlotSettings
  1

  2

  4

  6

 40
0.0
 41
0.0
 42
0.0
 43
0.0
 44
0.0
 45
0.0
 46
0.0
 47
0.0
 48
0.0
 49
0.0
140
0.0
141
0.0
142
1.0
143
1.0
 70
   688
 72
     0
 73
     0
 74
     5
  7

 75
    16
147
1.0
 76
     0
 77
     2
 78
   300
148
0.0
149
0.0
100
AcDbLayout
  1
Layout1
 70
     1
 71
     1
 10
0.0
 20
0.0
 11
2100.0
 21
1485.0
 12
0.0
 22
0.0
 32
0.0
 14
0.0
 24
0.0
 34
0.0
 15
2100.0
 25
1485.0
 35
0.0
146
0.0
 13
0.0
 23
0.0
 33
0.0
 16
1.0
 26
0.0
 36
0.0
 17
0.0
 27
1.0
 37
0.0
 76
     0
330
1F
  0
LAYOUT
  5
2A
102
{ACAD_REACTORS
330
1A
102
}
330
1A
100
AcDbPlotSettings
  1

  2

  4

  6

 40
0.0
 41
0.0
 42
0.0
 43
0.0
 44
0.0
 45
0.0
 46
0.0
 47
0.0
 48
0.0
 49
0.0
140
0.0
141
0.0
142
1.0
143
1.0
 70
   688
 72
     0
 73
     0
 74
     5
  7

 75
    16
147
1.0
 76
     0
 77
     2
 78
   300
148
0.0
149
0.0
100
AcDbLayout
  1
Layout2
 70
     1
 71
     2
 10
0.0
 20
0.0
 11
12.0
 21
9.0
 12
0.0
 22
0.0
 32
0.0
 14
0.0
 24
0.0
 34
0.0
 15
0.0
 25
0.0
 35
0.0
146
0.0
 13
0.0
 23
0.0
 33
0.0
 16
1.0
 26
0.0
 36
0.0
 17
0.0
 27
1.0
 37
0.0
 76
     0
330
27
  0
LAYOUT
  5
26
102
{ACAD_REACTORS
330
1A
102
}
330
1A
100
AcDbPlotSettings
  1

  2

  4

  6

 40
0.0
 41
0.0
 42
0.0
 43
0.0
 44
0.0
 45
0.0
 46
0.0
 47
0.0
 48
0.0
 49
0.0
140
0.0
141
0.0
142
1.0
143
1.0
 70
  1712
 72
     0
 73
     0
 74
     0
  7

 75
     0
147
1.0
 76
     0
 77
     2
 78
   300
148
0.0
149
0.0
100
AcDbLayout
  1
Model
 70
     1
 71
     0
 10
0.0
 20
0.0
 11
12.0
 21
9.0
 12
0.0
 22
0.0
 32
0.0
 14
0.0
 24
0.0
 34
0.0
 15
0.0
 25
0.0
 35
0.0
146
0.0
 13
0.0
 23
0.0
 33
0.0
 16
1.0
 26
0.0
 36
0.0
 17
0.0
 27
1.0
 37
0.0
 76
     0
330
23
  0
MLINESTYLE
  5
18
102
{ACAD_REACTORS
330
17
102
}
330
17
100
AcDbMlineStyle
  2
STANDARD
 70
     0
  3

 62
   256
 51
90.0
 52
90.0
 71
     2
 49
0.5
 62
   256
  6
BYLAYER
 49
-0.5
 62
   256
  6
BYLAYER
  0
ACDBPLACEHOLDER
  5
F
102
{ACAD_REACTORS
330
E
102
}
330
E
  0
TABLESTYLE
  5
1E
102
{ACAD_REACTORS
330
1D
102
}
330
1D
100
AcDbTableStyle
  3
Standard
 70
     0
 71
     0
 40
0.06
 41
0.06
280
     0
281
     0
  7
Standard
140
0.18
170
     2
 62
     0
 63
     7
283
     0
274
    -2
284
     1
 64
     0
275
    -2
285
     1
 65
     0
276
    -2
286
     1
 66
     0
277
    -2
287
     1
 67
     0
278
    -2
288
     1
 68
     0
279
    -2
289
     1
 69
     0
  7
Standard
140
0.25
170
     5
 62
     0
 63
     7
283
     0
274
    -2
284
     1
 64
     0
275
    -2
285
     1
 65
     0
276
    -2
286
     1
 66
     0
277
    -2
287
     1
 67
     0
278
    -2
288
     1
 68
     0
279
    -2
289
     1
 69
     0
  7
Standard
140
0.18
170
     5
 62
     0
 63
     7
283
     0
274
    -2
284
     1
 64
     0
275
    -2
285
     1
 65
     0
276
    -2
286
     1
 66
     0
277
    -2
287
     1
 67
     0
278
    -2
288
     1
 68
     0
279
    -2
289
     1
 69
     0
  0
DICTIONARYVAR
  5
1065
102
{ACAD_REACTORS
330
1064
102
}
330
1064
100
DictionaryVariables
280
     0
  1
STANDARD
  0
DICTIONARYVAR
  5
18F4
102
{ACAD_REACTORS
330
1064
102
}
330
1064
100
DictionaryVariables
280
     0
  1
1
  0
DICTIONARYVAR
  5
18F3
102
{ACAD_REACTORS
330
1064
102
}
330
1064
100
DictionaryVariables
280
     0
  1
1
  0
DICTIONARYVAR
  5
18F5
102
{ACAD_REACTORS
330
1064
102
}
330
1064
100
DictionaryVariables
280
     0
  1

  0
ENDSEC
  0
EOF
