  0
SECTION
  2
HEADER
  9
$ACADVER
  1
AC1018
  9
$ACADMAINTVER
 70
    76
  9
$DWGCODEPAGE
  3
ANSI_1252
  9
$AUTHOR
  1
Grandl
  9
$CUSTOMPROPERTYTAG
  1
Manager
  9
$CUSTOMPROPERTY
  1

  9
$CUSTOMPROPERTYTAG
  1
Firma
  9
$CUSTOMPROPERTY
  1

  9
$CUSTOMPROPERTYTAG
  1
Kategorie
  9
$CUSTOMPROPERTY
  1

  9
$CUSTOMPROPERTYTAG
  1
Bauteilnummer
  9
$CUSTOMPROPERTY
  1
3250-40-00
  9
$CUSTOMPROPERTYTAG
  1
Bezeichnung
  9
$CUSTOMPROPERTY
  1

  9
$CUSTOMPROPERTYTAG
  1
Projekt
  9
$CUSTOMPROPERTY
  1

  9
$CUSTOMPROPERTYTAG
  1
Konstrukteur
  9
$CUSTOMPROPERTY
  1
Grandl
  9
$CUSTOMPROPERTYTAG
  1
Ingenieur
  9
$CUSTOMPROPERTY
  1

  9
$CUSTOMPROPERTYTAG
  1
Bevollmächtigter
  9
$CUSTOMPROPERTY
  1

  9
$CUSTOMPROPERTYTAG
  1
Kostenstelle
  9
$CUSTOMPROPERTY
  1

  9
$CUSTOMPROPERTYTAG
  1
Händler
  9
$CUSTOMPROPERTY
  1

  9
$CUSTOMPROPERTYTAG
  1
Benutzerstatus
  9
$CUSTOMPROPERTY
  1

  9
$CUSTOMPROPERTYTAG
  1
Konstruktionsstatus
  9
$CUSTOMPROPERTY
  1
InBearbeitung
  9
$CUSTOMPROPERTYTAG
  1
Überprüft von
  9
$CUSTOMPROPERTY
  1

  9
$CUSTOMPROPERTYTAG
  1
Konstruktion genehmigt von
  9
$CUSTOMPROPERTY
  1

  9
$CUSTOMPROPERTYTAG
  1
Fertigung genehmigt von
  9
$CUSTOMPROPERTY
  1

  9
$INSBASE
 10
0.0
 20
0.0
 30
0.0
  9
$EXTMIN
 10
-340.7823554760514
 20
-37.00000000000006
 30
0.0
  9
$EXTMAX
 10
342.649373436547
 20
244.0345158723449
 30
0.0
  9
$LIMMIN
 10
0.0
 20
0.0
  9
$LIMMAX
 10
2100.0
 20
1485.0
  9
$ORTHOMODE
 70
     1
  9
$REGENMODE
 70
     1
  9
$FILLMODE
 70
     1
  9
$QTEXTMODE
 70
     0
  9
$MIRRTEXT
 70
     0
  9
$LTSCALE
 40
0.5
  9
$ATTMODE
 70
     1
  9
$TEXTSIZE
 40
0.2
  9
$TRACEWID
 40
0.05
  9
$TEXTSTYLE
  7
Standard
  9
$CLAYER
  8
0
  9
$CELTYPE
  6
ByLayer
  9
$CECOLOR
 62
   256
  9
$CELTSCALE
 40
1.0
  9
$DISPSILH
 70
     0
  9
$DIMSCALE
 40
1.0
  9
$DIMASZ
 40
0.18
  9
$DIMEXO
 40
0.0625
  9
$DIMDLI
 40
0.38
  9
$DIMRND
 40
0.0
  9
$DIMDLE
 40
0.0
  9
$DIMEXE
 40
0.18
  9
$DIMTP
 40
0.0
  9
$DIMTM
 40
0.0
  9
$DIMTXT
 40
0.18
  9
$DIMCEN
 40
0.09
  9
$DIMTSZ
 40
0.0
  9
$DIMTOL
 70
     0
  9
$DIMLIM
 70
     0
  9
$DIMTIH
 70
     1
  9
$DIMTOH
 70
     1
  9
$DIMSE1
 70
     0
  9
$DIMSE2
 70
     0
  9
$DIMTAD
 70
     0
  9
$DIMZIN
 70
     0
  9
$DIMBLK
  1

  9
$DIMASO
 70
     1
  9
$DIMSHO
 70
     1
  9
$DIMPOST
  1

  9
$DIMAPOST
  1

  9
$DIMALT
 70
     0
  9
$DIMALTD
 70
     2
  9
$DIMALTF
 40
25.4
  9
$DIMLFAC
 40
1.0
  9
$DIMTOFL
 70
     0
  9
$DIMTVP
 40
0.0
  9
$DIMTIX
 70
     0
  9
$DIMSOXD
 70
     0
  9
$DIMSAH
 70
     0
  9
$DIMBLK1
  1

  9
$DIMBLK2
  1

  9
$DIMSTYLE
  2
Standard
  9
$DIMCLRD
 70
     0
  9
$DIMCLRE
 70
     0
  9
$DIMCLRT
 70
     0
  9
$DIMTFAC
 40
1.0
  9
$DIMGAP
 40
0.09
  9
$DIMJUST
 70
     0
  9
$DIMSD1
 70
     0
  9
$DIMSD2
 70
     0
  9
$DIMTOLJ
 70
     1
  9
$DIMTZIN
 70
     0
  9
$DIMALTZ
 70
     0
  9
$DIMALTTZ
 70
     0
  9
$DIMUPT
 70
     0
  9
$DIMDEC
 70
     4
  9
$DIMTDEC
 70
     4
  9
$DIMALTU
 70
     2
  9
$DIMALTTD
 70
     2
  9
$DIMTXSTY
  7
Standard
  9
$DIMAUNIT
 70
     0
  9
$DIMADEC
 70
     0
  9
$DIMALTRND
 40
0.0
  9
$DIMAZIN
 70
     0
  9
$DIMDSEP
 70
    46
  9
$DIMATFIT
 70
     3
  9
$DIMFRAC
 70
     0
  9
$DIMLDRBLK
  1

  9
$DIMLUNIT
 70
     2
  9
$DIMLWD
 70
    -2
  9
$DIMLWE
 70
    -2
  9
$DIMTMOVE
 70
     0
  9
$LUNITS
 70
     2
  9
$LUPREC
 70
     4
  9
$SKETCHINC
 40
0.1
  9
$FILLETRAD
 40
0.0
  9
$AUNITS
 70
     0
  9
$AUPREC
 70
     0
  9
$MENU
  1
.
  9
$ELEVATION
 40
0.0
  9
$PELEVATION
 40
0.0
  9
$THICKNESS
 40
0.0
  9
$LIMCHECK
 70
     0
  9
$CHAMFERA
 40
0.0
  9
$CHAMFERB
 40
0.0
  9
$CHAMFERC
 40
0.0
  9
$CHAMFERD
 40
0.0
  9
$SKPOLY
 70
     0
  9
$TDCREATE
 40
2453712.483610903
  9
$TDUCREATE
 40
2453712.441944236
  9
$TDUPDATE
 40
2453717.684245127
  9
$TDUUPDATE
 40
2453717.642578461
  9
$TDINDWG
 40
0.1422749884
  9
$TDUSRTIMER
 40
0.1422749884
  9
$USRTIMER
 70
     1
  9
$ANGBASE
 50
0.0
  9
$ANGDIR
 70
     0
  9
$PDMODE
 70
     0
  9
$PDSIZE
 40
0.0
  9
$PLINEWID
 40
0.0
  9
$SPLFRAME
 70
     0
  9
$SPLINETYPE
 70
     6
  9
$SPLINESEGS
 70
     8
  9
$HANDSEED
  5
857E
  9
$SURFTAB1
 70
     6
  9
$SURFTAB2
 70
     6
  9
$SURFTYPE
 70
     6
  9
$SURFU
 70
     6
  9
$SURFV
 70
     6
  9
$UCSBASE
  2

  9
$UCSNAME
  2

  9
$UCSORG
 10
0.0
 20
0.0
 30
0.0
  9
$UCSXDIR
 10
1.0
 20
0.0
 30
0.0
  9
$UCSYDIR
 10
0.0
 20
1.0
 30
0.0
  9
$UCSORTHOREF
  2

  9
$UCSORTHOVIEW
 70
     0
  9
$UCSORGTOP
 10
0.0
 20
0.0
 30
0.0
  9
$UCSORGBOTTOM
 10
0.0
 20
0.0
 30
0.0
  9
$UCSORGLEFT
 10
0.0
 20
0.0
 30
0.0
  9
$UCSORGRIGHT
 10
0.0
 20
0.0
 30
0.0
  9
$UCSORGFRONT
 10
0.0
 20
0.0
 30
0.0
  9
$UCSORGBACK
 10
0.0
 20
0.0
 30
0.0
  9
$PUCSBASE
  2

  9
$PUCSNAME
  2

  9
$PUCSORG
 10
0.0
 20
0.0
 30
0.0
  9
$PUCSXDIR
 10
1.0
 20
0.0
 30
0.0
  9
$PUCSYDIR
 10
0.0
 20
1.0
 30
0.0
  9
$PUCSORTHOREF
  2

  9
$PUCSORTHOVIEW
 70
     0
  9
$PUCSORGTOP
 10
0.0
 20
0.0
 30
0.0
  9
$PUCSORGBOTTOM
 10
0.0
 20
0.0
 30
0.0
  9
$PUCSORGLEFT
 10
0.0
 20
0.0
 30
0.0
  9
$PUCSORGRIGHT
 10
0.0
 20
0.0
 30
0.0
  9
$PUCSORGFRONT
 10
0.0
 20
0.0
 30
0.0
  9
$PUCSORGBACK
 10
0.0
 20
0.0
 30
0.0
  9
$USERI1
 70
     0
  9
$USERI2
 70
     0
  9
$USERI3
 70
     0
  9
$USERI4
 70
     0
  9
$USERI5
 70
     0
  9
$USERR1
 40
0.0
  9
$USERR2
 40
0.0
  9
$USERR3
 40
0.0
  9
$USERR4
 40
0.0
  9
$USERR5
 40
0.0
  9
$WORLDVIEW
 70
     1
  9
$SHADEDGE
 70
     3
  9
$SHADEDIF
 70
    70
  9
$TILEMODE
 70
     1
  9
$MAXACTVP
 70
    64
  9
$PINSBASE
 10
0.0
 20
0.0
 30
0.0
  9
$PLIMCHECK
 70
     0
  9
$PEXTMIN
 10
0.0
 20
0.0
 30
0.0
  9
$PEXTMAX
 10
2100.0
 20
1485.0
 30
0.0
  9
$PLIMMIN
 10
0.0
 20
0.0
  9
$PLIMMAX
 10
2100.0
 20
1485.0
  9
$UNITMODE
 70
     0
  9
$VISRETAIN
 70
     1
  9
$PLINEGEN
 70
     0
  9
$PSLTSCALE
 70
     1
  9
$TREEDEPTH
 70
  3020
  9
$CMLSTYLE
  2
Standard
  9
$CMLJUST
 70
     0
  9
$CMLSCALE
 40
1.0
  9
$PROXYGRAPHICS
 70
     1
  9
$MEASUREMENT
 70
     1
  9
$CELWEIGHT
370
    -1
  9
$ENDCAPS
280
     0
  9
$JOINSTYLE
280
     0
  9
$LWDISPLAY
290
     0
  9
$INSUNITS
 70
     0
  9
$HYPERLINKBASE
  1

  9
$STYLESHEET
  1

  9
$XEDIT
290
     1
  9
$CEPSNTYPE
380
     0
  9
$PSTYLEMODE
290
     1
  9
$FINGERPRINTGUID
  2
{C0D17482-A639-492A-87FF-6D529B9E67CF}
  9
$VERSIONGUID
  2
{C8C5C7C5-FF7F-4D7E-88CD-C34365E973F0}
  9
$EXTNAMES
290
     1
  9
$PSVPSCALE
 40
0.0
  9
$OLESTARTUP
290
     0
  9
$SORTENTS
280
   127
  9
$INDEXCTL
280
     0
  9
$HIDETEXT
280
     1
  9
$XCLIPFRAME
290
     0
  9
$HALOGAP
280
     0
  9
$OBSCOLOR
 70
   257
  9
$OBSLTYPE
280
     0
  9
$INTERSECTIONDISPLAY
280
     0
  9
$INTERSECTIONCOLOR
 70
   257
  9
$DIMASSOC
280
     1
  9
$PROJECTNAME
  1

  0
ENDSEC
  0
SECTION
  2
CLASSES
  0
CLASS
  1
ACDBDICTIONARYWDFLT
  2
AcDbDictionaryWithDefault
  3
ObjectDBX Classes
 90
        0
 91
        1
280
     0
281
     0
  0
CLASS
  1
TABLESTYLE
  2
AcDbTableStyle
  3
ObjectDBX Classes
 90
     2047
 91
        1
280
     0
281
     0
  0
CLASS
  1
DICTIONARYVAR
  2
AcDbDictionaryVar
  3
ObjectDBX Classes
 90
        0
 91
        4
280
     0
281
     0
  0
CLASS
  1
SORTENTSTABLE
  2
AcDbSortentsTable
  3
ObjectDBX Classes
 90
        0
 91
        2
280
     0
281
     0
  0
ENDSEC
  0
SECTION
  2
TABLES
  0
TABLE
  2
VPORT
  5
8
330
0
100
AcDbSymbolTable
 70
     3
  0
VPORT
  5
857D
330
8
100
AcDbSymbolTableRecord
100
AcDbViewportTableRecord
  2
*Active
 70
     0
 10
0.0
 20
0.0
 11
1.0
 21
1.0
 12
0.9720479359075966
 22
103.4950027772511
 13
0.0
 23
0.0
 14
1.0
 24
1.0
 15
0.0
 25
0.0
 16
0.0
 26
0.0
 36
1.0
 17
0.0
 27
0.0
 37
0.0
 40
387.6697991170997
 41
1.773333333333333
 42
50.0
 43
0.0
 44
0.0
 50
0.0
 51
0.0
 71
     0
 72
   100
 73
     1
 74
     1
 75
     0
 76
     0
 77
     0
 78
     0
281
     0
 65
     1
110
0.0
120
0.0
130
0.0
111
1.0
121
0.0
131
0.0
112
0.0
122
1.0
132
0.0
 79
     0
146
0.0
  0
ENDTAB
  0
TABLE
  2
LTYPE
  5
5
330
0
100
AcDbSymbolTable
 70
     3
  0
LTYPE
  5
14
330
5
100
AcDbSymbolTableRecord
100
AcDbLinetypeTableRecord
  2
ByBlock
 70
     0
  3

 72
    65
 73
     0
 40
0.0
  0
LTYPE
  5
15
330
5
100
AcDbSymbolTableRecord
100
AcDbLinetypeTableRecord
  2
ByLayer
 70
     0
  3

 72
    65
 73
     0
 40
0.0
  0
LTYPE
  5
16
330
5
100
AcDbSymbolTableRecord
100
AcDbLinetypeTableRecord
  2
Continuous
 70
     0
  3
Solid line
 72
    65
 73
     0
 40
0.0
  0
LTYPE
  5
1309
330
5
100
AcDbSymbolTableRecord
100
AcDbLinetypeTableRecord
  2
MITTE2
 70
     0
  3
Mitte (.5x) ___ _ ___ _ ___ _ ___ _ ___ _ ___
 72
    65
 73
     4
 40
28.575
 49
19.05
 74
     0
 49
-3.174999999999999
 74
     0
 49
3.174999999999999
 74
     0
 49
-3.174999999999999
 74
     0
  0
LTYPE
  5
16DC
330
5
100
AcDbSymbolTableRecord
100
AcDbLinetypeTableRecord
  2
VERDECKT
 70
     0
  3
Verdeckt __ __ __ __ __ __ __ __ __ __ __ __ __
 72
    65
 73
     2
 40
9.524999999999998
 49
6.349999999999999
 74
     0
 49
-3.174999999999999
 74
     0
  0
ENDTAB
  0
TABLE
  2
LAYER
  5
2
102
{ACAD_XDICTIONARY
360
16C1
102
}
330
0
100
AcDbSymbolTable
 70
     4
  0
LAYER
  5
10
330
2
100
AcDbSymbolTableRecord
100
AcDbLayerTableRecord
  2
0
 70
     0
 62
     7
  6
Continuous
370
    -3
390
F
  0
LAYER
  5
646
330
2
100
AcDbSymbolTableRecord
100
AcDbLayerTableRecord
  2
Defpoints
 70
     0
 62
     7
  6
Continuous
290
     0
370
    -3
390
F
  0
LAYER
  5
130A
330
2
100
AcDbSymbolTableRecord
100
AcDbLayerTableRecord
  2
LW 5016-32-00
 70
     0
 62
     7
  6
Continuous
370
    -3
390
F
  0
LAYER
  5
130B
330
2
100
AcDbSymbolTableRecord
100
AcDbLayerTableRecord
  2
insertpoint_ECKELT
 70
     0
 62
   141
  6
Continuous
370
    -3
390
F
  0
ENDTAB
  0
TABLE
  2
STYLE
  5
3
330
0
100
AcDbSymbolTable
 70
     1
  0
STYLE
  5
11
330
3
100
AcDbSymbolTableRecord
100
AcDbTextStyleTableRecord
  2
Standard
 70
     0
 40
0.0
 41
1.0
 50
0.0
 71
     0
 42
0.2
  3
ARIAL.TTF
  4

1001
ACAD
1000
Arial
1071
      256
  0
ENDTAB
  0
TABLE
  2
VIEW
  5
6
330
0
100
AcDbSymbolTable
 70
     0
  0
ENDTAB
  0
TABLE
  2
UCS
  5
7
330
0
100
AcDbSymbolTable
 70
     0
  0
ENDTAB
  0
TABLE
  2
APPID
  5
9
330
0
100
AcDbSymbolTable
 70
     2
  0
APPID
  5
12
330
9
100
AcDbSymbolTableRecord
100
AcDbRegAppTableRecord
  2
ACAD
 70
     0
  0
APPID
  5
15AA
330
9
100
AcDbSymbolTableRecord
100
AcDbRegAppTableRecord
  2
ACAD_EXEMPT_FROM_CAD_STANDARDS
 70
     0
  0
ENDTAB
  0
TABLE
  2
DIMSTYLE
  5
A
330
0
100
AcDbSymbolTable
 70
     1
100
AcDbDimStyleTable
 71
     1
340
2B
  0
DIMSTYLE
105
2B
330
A
100
AcDbSymbolTableRecord
100
AcDbDimStyleTableRecord
  2
Standard
 70
     0
340
11
  0
ENDTAB
  0
TABLE
  2
BLOCK_RECORD
  5
1
330
0
100
AcDbSymbolTable
 70
     6
  0
BLOCK_RECORD
  5
23
102
{ACAD_XDICTIONARY
360
15A2
102
}
330
1
100
AcDbSymbolTableRecord
100
AcDbBlockTableRecord
  2
*Model_Space
340
26
  0
BLOCK_RECORD
  5
1F
330
1
100
AcDbSymbolTableRecord
100
AcDbBlockTableRecord
  2
*Paper_Space
340
22
  0
BLOCK_RECORD
  5
27
330
1
100
AcDbSymbolTableRecord
100
AcDbBlockTableRecord
  2
*Paper_Space0
340
2A
  0
BLOCK_RECORD
  5
106E
102
{ACAD_XDICTIONARY
360
106F
102
}
330
1
100
AcDbSymbolTableRecord
100
AcDbBlockTableRecord
  2
insertpoint-ECKELT
340
0
102
{BLKREFS
331
7F53
331
7FAD
331
83DC
331
8568
102
}
  0
BLOCK_RECORD
  5
7F16
330
1
100
AcDbSymbolTableRecord
100
AcDbBlockTableRecord
  2
LW 5016-32-00_c
340
0
310
2800000020000000200000000100080000000000000400000000000000000000000000000000000000000000000080000080000000808000800000008000800080800000C0C0C000C0DCC000F0CAA6000020400000206000002080000020A0000020C0000020E00000400000004020000040400000406000004080000040A0
310
000040C0000040E00000600000006020000060400000606000006080000060A0000060C0000060E00000800000008020000080400000806000008080000080A0000080C0000080E00000A0000000A0200000A0400000A0600000A0800000A0A00000A0C00000A0E00000C0000000C0200000C0400000C0600000C0800000C0
310
A00000C0C00000C0E00000E0000000E0200000E0400000E0600000E0800000E0A00000E0C00000E0E00040000000400020004000400040006000400080004000A0004000C0004000E00040200000402020004020400040206000402080004020A0004020C0004020E000404000004040200040404000404060004040800040
310
40A0004040C0004040E00040600000406020004060400040606000406080004060A0004060C0004060E00040800000408020004080400040806000408080004080A0004080C0004080E00040A0000040A0200040A0400040A0600040A0800040A0A00040A0C00040A0E00040C0000040C0200040C0400040C0600040C08000
310
40C0A00040C0C00040C0E00040E0000040E0200040E0400040E0600040E0800040E0A00040E0C00040E0E00080000000800020008000400080006000800080008000A0008000C0008000E00080200000802020008020400080206000802080008020A0008020C0008020E00080400000804020008040400080406000804080
310
008040A0008040C0008040E00080600000806020008060400080606000806080008060A0008060C0008060E00080800000808020008080400080806000808080008080A0008080C0008080E00080A0000080A0200080A0400080A0600080A0800080A0A00080A0C00080A0E00080C0000080C0200080C0400080C0600080C0
310
800080C0A00080C0C00080C0E00080E0000080E0200080E0400080E0600080E0800080E0A00080E0C00080E0E000C0000000C0002000C0004000C0006000C0008000C000A000C000C000C000E000C0200000C0202000C0204000C0206000C0208000C020A000C020C000C020E000C0400000C0402000C0404000C0406000C0
310
408000C040A000C040C000C040E000C0600000C0602000C0604000C0606000C0608000C060A000C060C000C060E000C0800000C0802000C0804000C0806000C0808000C080A000C080C000C080E000C0A00000C0A02000C0A04000C0A06000C0A08000C0A0A000C0A0C000C0A0E000C0C00000C0C02000C0C04000C0C06000
310
C0C08000C0C0A000F0FBFF00A4A0A000808080000000FF0000FF000000FFFF00FF000000FF00FF00FFFF0000FFFFFF0000000000000000000000000000000000000000000000000000000000000000000000000000000000000000000000000000000000000000000000000000000000000000000000000000000000000000
310
00000000000000000000000000000000000000000000000000000000000000000000000000000000000000000000000000000000000000000000000000000000000000000000000000000000000000000000000000000000000000000000000000000000000000000000000000000000000000000000000000000000000000
310
000000000000000000000000000000000000000000000000000000000000000000000000000000000000000000000000000000000000000000000000000000000000000000FFFFFFFF0000000000000000000000000000000000000000000000000000FFFF00000000FFFA0000000000000000000000000000000000000000
310
0000FFFF00FFFFFAFFFFFDFAFF0000000000000000000000000000000000000000FF0000FF0000FA00FDFAFF00FF00000000000000000000000000000000000000FF00FF000000FA00FDFA00FF00FF00000000000000000000FFFFFFFFFFFFFFFFFFFFFFFFFFFFFAFFFAFFFFFFFFFF00000000000000000000FF0000000000
310
00FD00FD00FDFFFFFAFFFFFFFDFFFF00FF0000000000FAFAFAFAFF00000000000000FDFDFD00FF090909FAFFFAFAFAFAFAFAFA000000FFFF0000FF00000000FAFAFAFAFAFAFAFF090900FFFF00FFFF00FF00000000FAFAFAFAFAFAFAFAFAFAFAFAFAFAFAFAFAFAFAFAFAFAFAFAFAFAFAFAFA00000000FAFAFAFAFF00000000
310
000000FD00FDFDFFFFFAFFFFFFFDFF00FF00000000000000000000FF0000F9F9F9F90000FD00FDFDFFFFFFFFFA00FF00FF00000000000000000000FF0000F9F9F9F90000FD00FD00FDFAFDFDFAFDFFFF0000000000000000000000FFFFFFFFFFFFFFFFFFFFFFFFFFFFFAFFFFFFFAFFFF000000000000000000000000000000
310
000000000000FFFF000000000000FAFF000000000000000000000000000000000000000000000000FFFFFFFFFFFF000000000000000000000000000000000000000000000000000000000000000000000000000000000000000000000000000000000000000000000000000000000000000000000000000000000000000000
310
00000000000000000000000000000000000000000000000000000000000000000000000000000000000000000000000000000000000000000000000000000000000000000000000000000000000000000000000000000000000000000000000000000000000000000000000000000000000000000000000000000000000000
310
0000000000000000000000000000000000000000000000000000000000000000000000000000000000000000000000000000000000000000
102
{BLKREFS
331
7F90
102
}
  0
BLOCK_RECORD
  5
7F91
330
1
100
AcDbSymbolTableRecord
100
AcDbBlockTableRecord
  2
LW 5016-32-00_d
340
0
310
2800000020000000200000000100080000000000000400000000000000000000000000000000000000000000000080000080000000808000800000008000800080800000C0C0C000C0DCC000F0CAA6000020400000206000002080000020A0000020C0000020E00000400000004020000040400000406000004080000040A0
310
000040C0000040E00000600000006020000060400000606000006080000060A0000060C0000060E00000800000008020000080400000806000008080000080A0000080C0000080E00000A0000000A0200000A0400000A0600000A0800000A0A00000A0C00000A0E00000C0000000C0200000C0400000C0600000C0800000C0
310
A00000C0C00000C0E00000E0000000E0200000E0400000E0600000E0800000E0A00000E0C00000E0E00040000000400020004000400040006000400080004000A0004000C0004000E00040200000402020004020400040206000402080004020A0004020C0004020E000404000004040200040404000404060004040800040
310
40A0004040C0004040E00040600000406020004060400040606000406080004060A0004060C0004060E00040800000408020004080400040806000408080004080A0004080C0004080E00040A0000040A0200040A0400040A0600040A0800040A0A00040A0C00040A0E00040C0000040C0200040C0400040C0600040C08000
310
40C0A00040C0C00040C0E00040E0000040E0200040E0400040E0600040E0800040E0A00040E0C00040E0E00080000000800020008000400080006000800080008000A0008000C0008000E00080200000802020008020400080206000802080008020A0008020C0008020E00080400000804020008040400080406000804080
310
008040A0008040C0008040E00080600000806020008060400080606000806080008060A0008060C0008060E00080800000808020008080400080806000808080008080A0008080C0008080E00080A0000080A0200080A0400080A0600080A0800080A0A00080A0C00080A0E00080C0000080C0200080C0400080C0600080C0
310
800080C0A00080C0C00080C0E00080E0000080E0200080E0400080E0600080E0800080E0A00080E0C00080E0E000C0000000C0002000C0004000C0006000C0008000C000A000C000C000C000E000C0200000C0202000C0204000C0206000C0208000C020A000C020C000C020E000C0400000C0402000C0404000C0406000C0
310
408000C040A000C040C000C040E000C0600000C0602000C0604000C0606000C0608000C060A000C060C000C060E000C0800000C0802000C0804000C0806000C0808000C080A000C080C000C080E000C0A00000C0A02000C0A04000C0A06000C0A08000C0A0A000C0A0C000C0A0E000C0C00000C0C02000C0C04000C0C06000
310
C0C08000C0C0A000F0FBFF00A4A0A000808080000000FF0000FF000000FFFF00FF000000FF00FF00FFFF0000FFFFFF0000000000000000000000000000000000000000000000000000000000000000000000000000000000000000000000000000000000000000000000000000000000000000000000000000000000000000
310
000000000000000000000000000000000000000000000000000000000000FFFFFFFFFFFF000000000000000000000000000000000000000000000000FFFF000000000000FFFF0000000000000000000000000000000000000000FFFF00000000000000000000FFFF0000000000000000000000000000000000FF00FA000000
310
00FFFFFF0000000000FF000000000000000000000000000000FF000000FAFFFFFF00FA00FFFF00000000FF00000000000000000000000000FF000000FFFF00FDFFFFFA000000FFFF000000FF0000000000000000000000FF0000FFFF00FDFFFF0000FFFFFF000000FF000000FF000000000000000000FF000000FF0000FFFA
310
000000FA0000FF000000FF000000FF0000000000000000FF0000FF0000FF0000FA0000FA000000FFFF0000FF0000FF0000000000000000FF0000FF0000FF0000000000FA0000000000FF00FF0000FF00000000000000FF0000FF0000FF000000000000FA0000000000FF00FF0000FF00000000000000FF0000FF0000FF0000
310
00000000FA000000000000FF00FF0000FF00000000FAFAFFFAFAFFFAFAFFFAFAFAFAFA0909000000000000FFFDFF0000FF000000000000FF0000FF0000FF00000009090909FAFAFAFAFAFAFFFAFFFAFAFFFAFA00000000FF0000FF0000FF0000000000FA00000000000000FF00FF0000FF000000000000FF0000FF0000FF00
310
00F9F9F9F9F9F9F9000000FF0000FF0000FF00000000000000FF0000FF0000FF00F9F9F9F9F9F9F9000000FF00FF0000FF0000000000000000FF0000FF0000FF0000FA00FA0000000000FF0000FF0000FF0000000000000000FF000000FF0000FFFA0000FA000000FFFF0000FF000000FF000000000000000000FF0000FF00
310
00FDFFFF00FA00FFFF000000FF000000FF0000000000000000000000FF0000FFFFFA00FDFFFFFF00000000FF000000FF00000000000000000000000000FF000000FFFFFFFFFA000000FFFF000000FF000000000000000000000000000000FF00FA00000000FFFFFFFF00000000FF0000000000000000000000000000000000
310
FFFF00000000000000000000FFFF0000000000000000000000000000000000000000FFFF000000000000FFFF000000000000000000000000000000000000000000000000FFFFFFFFFFFF0000000000000000000000000000000000000000000000000000000000000000000000000000000000000000000000000000000000
310
0000000000000000000000000000000000000000000000000000000000000000000000000000000000000000000000000000000000000000
102
{BLKREFS
331
7FB4
102
}
  0
BLOCK_RECORD
  5
82E5
330
1
100
AcDbSymbolTableRecord
100
AcDbBlockTableRecord
  2
LW 5016-32-00_a
340
0
310
2800000020000000200000000100080000000000000400000000000000000000000000000000000000000000000080000080000000808000800000008000800080800000C0C0C000C0DCC000F0CAA6000020400000206000002080000020A0000020C0000020E00000400000004020000040400000406000004080000040A0
310
000040C0000040E00000600000006020000060400000606000006080000060A0000060C0000060E00000800000008020000080400000806000008080000080A0000080C0000080E00000A0000000A0200000A0400000A0600000A0800000A0A00000A0C00000A0E00000C0000000C0200000C0400000C0600000C0800000C0
310
A00000C0C00000C0E00000E0000000E0200000E0400000E0600000E0800000E0A00000E0C00000E0E00040000000400020004000400040006000400080004000A0004000C0004000E00040200000402020004020400040206000402080004020A0004020C0004020E000404000004040200040404000404060004040800040
310
40A0004040C0004040E00040600000406020004060400040606000406080004060A0004060C0004060E00040800000408020004080400040806000408080004080A0004080C0004080E00040A0000040A0200040A0400040A0600040A0800040A0A00040A0C00040A0E00040C0000040C0200040C0400040C0600040C08000
310
40C0A00040C0C00040C0E00040E0000040E0200040E0400040E0600040E0800040E0A00040E0C00040E0E00080000000800020008000400080006000800080008000A0008000C0008000E00080200000802020008020400080206000802080008020A0008020C0008020E00080400000804020008040400080406000804080
310
008040A0008040C0008040E00080600000806020008060400080606000806080008060A0008060C0008060E00080800000808020008080400080806000808080008080A0008080C0008080E00080A0000080A0200080A0400080A0600080A0800080A0A00080A0C00080A0E00080C0000080C0200080C0400080C0600080C0
310
800080C0A00080C0C00080C0E00080E0000080E0200080E0400080E0600080E0800080E0A00080E0C00080E0E000C0000000C0002000C0004000C0006000C0008000C000A000C000C000C000E000C0200000C0202000C0204000C0206000C0208000C020A000C020C000C020E000C0400000C0402000C0404000C0406000C0
310
408000C040A000C040C000C040E000C0600000C0602000C0604000C0606000C0608000C060A000C060C000C060E000C0800000C0802000C0804000C0806000C0808000C080A000C080C000C080E000C0A00000C0A02000C0A04000C0A06000C0A08000C0A0A000C0A0C000C0A0E000C0C00000C0C02000C0C04000C0C06000
310
C0C08000C0C0A000F0FBFF00A4A0A000808080000000FF0000FF000000FFFF00FF000000FF00FF00FFFF0000FFFFFF0000000000000000000000000000000000000000000000000000000000000000000000000000000000000000000000000000000000000000000000000000000000000000000000000000000000000000
310
00000000000000000000000000000000000000000000000000000000000000000000000000000000000000000000000000000000000000000000000000000000000000000000000000000000000000000000000000000000000000000000000000000000000000000000000000000000000000000000000000000000000000
310
00000000000000FA00000000000000000000000000000000000000000000000000000000FFFF00FA0000FF0000000000000000000000000000FA0000000000000000FFFFFFFF00FA0000FFFFFFFF0000000000000000FFFFFFFAFFFF0000000000FFFF00FFFF00FA0000FF00FFFFFF0000000000FFFFFFFF00FA00FFFFFFFF
310
FFFFFFFFFFFFFFFFFAFFFFFF00FFFFFF00000000FAFAFAFAFFFAFAFAFFFAFAFAFAFAFAFAFAFAFA090909FAFAFAFAFAFAFAFA000000FF0000FF00FA00FF0000000000FFFF00FFFA090900FAFA0000FFFF0000000000FFFFFF0000FA00FFFFFFFFFFFFFFFF00FFFFFFFAFFFFFF0000FFFF00000000000000FF0000FA00FF0000
310
000000FFFF00FFFF00FA0000FF0000FFFF00000000000000FFF9F9FA00FF000000000000FFFFFFFF00FA0000FFFFFFFF0000000000000000FFF9F9FA00FF0000000000000000FFFF00FA0000FF0000000000000000000000FFF9F9FA00FF0000000000000000000000000000000000000000000000000000FF0000FA00FF00
310
00000000000000000000000000000000000000000000000000FF0000FA00FF0000000000000000000000000000000000000000000000000000FDFDFDFDFDFD00000000000000000000000000000000000000000000000000000000FAFAFF0000000000000000000000000000000000000000000000000000000000FAFAFF00
310
0000000000000000000000000000000000000000000000000000000000FA00000000000000000000000000000000000000000000000000000000000000FA00000000000000000000000000000000000000000000000000000000000000FA000000000000000000000000000000000000000000000000000000000000000000
310
00000000000000000000000000000000000000000000000000000000000000000000000000000000000000000000000000000000000000000000000000000000000000000000000000000000000000000000000000000000000000000000000000000000000000000000000000000000000000000000000000000000000000
310
0000000000000000000000000000000000000000000000000000000000000000000000000000000000000000000000000000000000000000
102
{BLKREFS
331
8452
102
}
  0
BLOCK_RECORD
  5
8453
330
1
100
AcDbSymbolTableRecord
100
AcDbBlockTableRecord
  2
LW 5016-32-00_b
340
0
310
2800000020000000200000000100080000000000000400000000000000000000000000000000000000000000000080000080000000808000800000008000800080800000C0C0C000C0DCC000F0CAA6000020400000206000002080000020A0000020C0000020E00000400000004020000040400000406000004080000040A0
310
000040C0000040E00000600000006020000060400000606000006080000060A0000060C0000060E00000800000008020000080400000806000008080000080A0000080C0000080E00000A0000000A0200000A0400000A0600000A0800000A0A00000A0C00000A0E00000C0000000C0200000C0400000C0600000C0800000C0
310
A00000C0C00000C0E00000E0000000E0200000E0400000E0600000E0800000E0A00000E0C00000E0E00040000000400020004000400040006000400080004000A0004000C0004000E00040200000402020004020400040206000402080004020A0004020C0004020E000404000004040200040404000404060004040800040
310
40A0004040C0004040E00040600000406020004060400040606000406080004060A0004060C0004060E00040800000408020004080400040806000408080004080A0004080C0004080E00040A0000040A0200040A0400040A0600040A0800040A0A00040A0C00040A0E00040C0000040C0200040C0400040C0600040C08000
310
40C0A00040C0C00040C0E00040E0000040E0200040E0400040E0600040E0800040E0A00040E0C00040E0E00080000000800020008000400080006000800080008000A0008000C0008000E00080200000802020008020400080206000802080008020A0008020C0008020E00080400000804020008040400080406000804080
310
008040A0008040C0008040E00080600000806020008060400080606000806080008060A0008060C0008060E00080800000808020008080400080806000808080008080A0008080C0008080E00080A0000080A0200080A0400080A0600080A0800080A0A00080A0C00080A0E00080C0000080C0200080C0400080C0600080C0
310
800080C0A00080C0C00080C0E00080E0000080E0200080E0400080E0600080E0800080E0A00080E0C00080E0E000C0000000C0002000C0004000C0006000C0008000C000A000C000C000C000E000C0200000C0202000C0204000C0206000C0208000C020A000C020C000C020E000C0400000C0402000C0404000C0406000C0
310
408000C040A000C040C000C040E000C0600000C0602000C0604000C0606000C0608000C060A000C060C000C060E000C0800000C0802000C0804000C0806000C0808000C080A000C080C000C080E000C0A00000C0A02000C0A04000C0A06000C0A08000C0A0A000C0A0C000C0A0E000C0C00000C0C02000C0C04000C0C06000
310
C0C08000C0C0A000F0FBFF00A4A0A000808080000000FF0000FF000000FFFF00FF000000FF00FF00FFFF0000FFFFFF0000000000000000000000000000000000000000000000000000000000000000000000000000000000000000000000000000000000000000000000000000000000000000000000000000000000000000
310
00000000000000000000000000000000000000000000000000000000000000000000000000000000000000000000000000000000000000000000000000000000000000000000000000000000000000000000000000000000000000000000000000000000000000000000000000000000000000000000000000000000000000
310
00000000000000000000000000000000000000000000000000000000000000000000000000000000000000000000000000000000000000000000000000000000000000000000000000000000000000000000000000000000000000000000000000000000000000000000000000000000000000000000000000000000000000
310
0000000000000000FA00000000000000000000000000000000000000000000000000000000FFFF00FA0000FF0000000000000000000000000000000000000000000000FFFFFFFF00FA0000FFFFFFFF0000000000000000000000FA00000000000000FFFFFFFFFF00FA0000FF00FFFFFF0000000000FFFFFFFFFFFAFFFFFFFF
310
FFFFFFFFFF00FFFFFFFAFFFFFF0000FFFF0000000000FF0000FF00FA00FF0000000000FFFF00FFFA000900FAFA0000FFFF00000000FAFAFAFAFAFAFAFAFAFAF9F9F9FAFAFAFAFAFA090909FAFAFAFAFAFAFAFA000000FFFFFFFF00FA00FFFFFFFFFFFFFFFF00FFFFFFFAFFFFFF0000FFFF0000000000000000FF00FAFF0000
310
00000000FFFFFFFFFF00FA0000FF00FFFFFF000000000000000000FFFA0000000000000000FFFFFFFF00FA0000FFFFFFFF00000000000000000000000000000000000000000000FFFF00FA0000FF00000000000000000000000000000000000000000000000000000000FA0000000000000000000000000000000000000000
310
00000000000000000000000000000000000000000000000000000000000000000000000000000000000000000000000000000000000000000000000000000000000000000000000000000000000000000000000000000000000000000000000000000000000000000000000000000000000000000000000000000000000000
310
00000000000000000000000000000000000000000000000000000000000000000000000000000000000000000000000000000000000000000000000000000000000000000000000000000000000000000000000000000000000000000000000000000000000000000000000000000000000000000000000000000000000000
310
0000000000000000000000000000000000000000000000000000000000000000000000000000000000000000000000000000000000000000
102
{BLKREFS
331
856D
102
}
  0
ENDTAB
  0
ENDSEC
  0
SECTION
  2
BLOCKS
  0
BLOCK
  5
24
330
23
100
AcDbEntity
  8
0
100
AcDbBlockBegin
  2
*Model_Space
 70
     0
 10
0.0
 20
0.0
 30
0.0
  3
*Model_Space
  1

  0
ENDBLK
  5
25
330
23
100
AcDbEntity
  8
0
100
AcDbBlockEnd
  0
BLOCK
  5
20
330
1F
100
AcDbEntity
 67
     1
  8
0
100
AcDbBlockBegin
  2
*Paper_Space
 70
     0
 10
0.0
 20
0.0
 30
0.0
  3
*Paper_Space
  1

  0
ENDBLK
  5
21
330
1F
100
AcDbEntity
 67
     1
  8
0
100
AcDbBlockEnd
  0
BLOCK
  5
28
330
27
100
AcDbEntity
 67
     1
  8
0
100
AcDbBlockBegin
  2
*Paper_Space0
 70
     0
 10
0.0
 20
0.0
 30
0.0
  3
*Paper_Space0
  1

  0
ENDBLK
  5
29
330
27
100
AcDbEntity
 67
     1
  8
0
100
AcDbBlockEnd
  0
BLOCK
  5
1071
330
106E
100
AcDbEntity
  8
0
100
AcDbBlockBegin
  2
insertpoint-ECKELT
 70
     2
 10
0.0
 20
0.0
 30
0.0
  3
insertpoint-ECKELT
  1

  0
ATTDEF
  5
1072
330
106E
100
AcDbEntity
  8
insertpoint_ECKELT
100
AcDbText
 10
-2.457298772169167
 20
-0.0000000000000284
 30
0.0
 40
0.6
  1
LW
 72
     2
 11
-1.199999999999999
 21
-0.0000000000000284
 31
0.0
100
AcDbAttributeDefinition
  3
Nr. links
  2
LINKS
 70
     0
  0
ATTDEF
  5
1073
330
106E
100
AcDbEntity
  8
insertpoint_ECKELT
100
AcDbText
 10
1.199999999999999
 20
-0.0000000000000284
 30
0.0
 40
0.6
  1
LW
100
AcDbAttributeDefinition
  3
Nr. rechts
  2
RECHTS
 70
     0
  0
LINE
  5
1074
102
{ACAD_REACTORS
330
1077
102
}
330
106E
100
AcDbEntity
  8
insertpoint_ECKELT
100
AcDbLine
 10
0.0
 20
1.799999999999997
 30
0.0
 11
0.0
 21
-1.799999999999997
 31
0.0
  0
LINE
  5
1075
102
{ACAD_REACTORS
330
1077
102
}
330
106E
100
AcDbEntity
  8
insertpoint_ECKELT
100
AcDbLine
 10
-1.8
 20
-0.0000000000000284
 30
0.0
 11
1.8
 21
-0.0000000000000284
 31
0.0
  0
CIRCLE
  5
1076
102
{ACAD_REACTORS
330
1077
102
}
330
106E
100
AcDbEntity
  8
insertpoint_ECKELT
100
AcDbCircle
 10
0.0
 20
0.0
 30
0.0
 40
1.199999999999999
  0
HATCH
  5
1077
330
106E
100
AcDbEntity
  8
insertpoint_ECKELT
100
AcDbHatch
 10
0.0
 20
0.0
 30
0.0
210
0.0
220
0.0
230
1.0
  2
SOLID
 70
     1
 71
     1
 91
        2
 92
        7
 72
     1
 73
     1
 93
        3
 10
0.0
 20
-0.0000000000000284
 42
0.0
 10
0.0
 20
1.200000000000002
 42
0.4142135623731013
 10
-1.199999999999999
 20
-0.0000000000000284
 42
0.0
 97
        3
330
1076
330
1075
330
1074
 92
        7
 72
     1
 73
     1
 93
        3
 10
1.199999999999999
 20
-0.0000000000000284
 42
0.0
 10
0.0
 20
-0.0000000000000284
 42
0.0
 10
0.0
 20
-1.200000000000002
 42
0.4142135623730888
 97
        3
330
1075
330
1074
330
1076
 75
     0
 76
     1
 47
0.0223086566480813
 98
        2
 10
-0.3163651093721391
 20
0.271413292077348
 10
0.7415965996738798
 20
-0.4513871917946233
450
        0
451
        0
460
0.0
461
0.0
452
        0
462
0.0
453
        0
470

  0
ENDBLK
  5
1078
330
106E
100
AcDbEntity
  8
0
100
AcDbBlockEnd
  0
BLOCK
  5
7F17
330
7F16
100
AcDbEntity
  8
0
100
AcDbBlockBegin
  2
LW 5016-32-00_c
 70
     0
 10
0.0
 20
0.0
 30
0.0
  3
LW 5016-32-00_c
  1

  0
LINE
  5
7F19
330
7F16
100
AcDbEntity
  8
LW 5016-32-00
  6
VERDECKT
 62
     6
100
AcDbLine
 10
7.334936490574818
 20
17.70448267190204
 30
0.0
 11
11.66506350949657
 21
15.2044826719009
 31
0.0
  0
LINE
  5
7F1A
330
7F16
100
AcDbEntity
  8
LW 5016-32-00
  6
VERDECKT
 62
     6
100
AcDbLine
 10
11.66506350948748
 20
-15.20448267190795
 30
0.0
 11
7.334936490564359
 21
-17.70448267190659
 31
0.0
  0
LINE
  5
7F1B
330
7F16
100
AcDbEntity
  8
LW 5016-32-00
  6
VERDECKT
 62
     6
100
AcDbLine
 10
8.748924226250892
 20
15.1535812713729
 30
0.0
 11
7.334936490574818
 21
17.70448267190204
 31
0.0
  0
LINE
  5
7F1C
330
7F16
100
AcDbEntity
  8
LW 5016-32-00
  6
VERDECKT
 62
     6
100
AcDbLine
 10
8.748924226250892
 20
15.1535812713729
 30
0.0
 11
11.66506350949657
 21
15.2044826719009
 31
0.0
  0
LINE
  5
7F1D
330
7F16
100
AcDbEntity
  8
LW 5016-32-00
  6
VERDECKT
 62
     6
100
AcDbLine
 10
14.60240647333057
 20
20.29210992451317
 30
0.0
 11
11.66506350949657
 21
15.20448267190068
 31
0.0
  0
LINE
  5
7F1E
330
7F16
100
AcDbEntity
  8
LW 5016-32-00
  6
VERDECKT
 62
     6
100
AcDbLine
 10
10.27227945440927
 20
22.79210992451453
 30
0.0
 11
7.334936490574818
 21
17.70448267190204
 31
0.0
  0
LINE
  5
7F1F
330
7F16
100
AcDbEntity
  8
LW 5016-32-00
  6
VERDECKT
 62
     6
100
AcDbLine
 10
8.748924226241797
 20
-15.15358127137824
 30
0.0
 11
11.66506350948748
 21
-15.20448267190795
 31
0.0
  0
LINE
  5
7F20
330
7F16
100
AcDbEntity
  8
LW 5016-32-00
  6
VERDECKT
 62
     6
100
AcDbLine
 10
8.748924226241797
 20
-15.15358127137824
 30
0.0
 11
7.334936490564359
 21
-17.70448267190659
 31
0.0
  0
LINE
  5
7F21
330
7F16
100
AcDbEntity
  8
LW 5016-32-00
  6
VERDECKT
 62
     6
100
AcDbLine
 10
10.27227945439563
 20
-22.79210992452068
 30
0.0
 11
7.334936490564359
 21
-17.70448267190659
 31
0.0
  0
LINE
  5
7F22
330
7F16
100
AcDbEntity
  8
LW 5016-32-00
  6
VERDECKT
 62
     6
100
AcDbLine
 10
14.60240647331875
 20
-20.29210992452204
 30
0.0
 11
11.66506350948748
 21
-15.20448267190795
 31
0.0
  0
LINE
  5
7F23
330
7F16
100
AcDbEntity
  8
LW 5016-32-00
  6
VERDECKT
 62
     6
100
AcDbLine
 10
-18.99999999996998
 20
-2.499999999994543
 30
0.0
 11
-18.99999999996862
 21
2.500000000005456
 31
0.0
  0
LINE
  5
7F24
330
7F16
100
AcDbEntity
  8
LW 5016-32-00
  6
VERDECKT
 62
     6
100
AcDbLine
 10
-17.49784845240037
 20
0.0000000000051159
 30
0.0
 11
-18.99999999996998
 21
-2.499999999994543
 31
0.0
  0
LINE
  5
7F25
330
7F16
100
AcDbEntity
  8
LW 5016-32-00
  6
VERDECKT
 62
     6
100
AcDbLine
 10
-17.49784845240037
 20
0.0000000000051159
 30
0.0
 11
-18.99999999996862
 21
2.500000000005456
 31
0.0
  0
LINE
  5
7F26
330
7F16
100
AcDbEntity
  8
LW 5016-32-00
  6
VERDECKT
 62
     6
100
AcDbLine
 10
-24.87468592763389
 20
2.500000000007275
 30
0.0
 11
-18.99999999996862
 21
2.500000000005456
 31
0.0
  0
LINE
  5
7F27
330
7F16
100
AcDbEntity
  8
LW 5016-32-00
  6
VERDECKT
 62
     6
100
AcDbLine
 10
-24.87468592763526
 20
-2.499999999992724
 30
0.0
 11
-18.99999999996998
 21
-2.499999999994543
 31
0.0
  0
ARC
  5
7F28
330
7F16
100
AcDbEntity
  8
LW 5016-32-00
100
AcDbCircle
 10
0.0000000000295586
 20
0.0
 30
0.0
 40
25.0
100
AcDbArc
 50
209.999999999983
 51
36.86989764582579
  0
ARC
  5
7F29
330
7F16
100
AcDbEntity
  8
LW 5016-32-00
100
AcDbCircle
 10
0.0000000000295586
 20
0.0
 30
0.0
 40
25.0
100
AcDbArc
 50
64.15806723681654
 51
115.8419327631507
  0
ARC
  5
7F2A
330
7F16
100
AcDbEntity
  8
LW 5016-32-00
100
AcDbCircle
 10
0.0000000000276827
 20
-0.0000000000000568
 30
0.0
 40
18.99999999999993
100
AcDbArc
 50
221.1395104148819
 51
318.8604895850835
  0
CIRCLE
  5
7F2B
330
7F16
100
AcDbEntity
  8
LW 5016-32-00
100
AcDbCircle
 10
0.0
 20
0.0
 30
0.0
 40
10.00000000000001
  0
CIRCLE
  5
7F2C
330
7F16
100
AcDbEntity
  8
LW 5016-32-00
100
AcDbCircle
 10
-0.0000000000004547
 20
0.0
 30
0.0
 40
9.000000000000008
  0
ARC
  5
7F2D
330
7F16
100
AcDbEntity
  8
LW 5016-32-00
  6
VERDECKT
 62
     6
100
AcDbCircle
 10
0.0000000000300133
 20
0.0000000000002274
 30
0.0
 40
24.99999999999958
100
AcDbArc
 50
36.86989764582579
 51
64.15806723681723
  0
ARC
  5
7F2E
330
7F16
100
AcDbEntity
  8
LW 5016-32-00
  6
VERDECKT
 62
     6
100
AcDbCircle
 10
0.0000000000295586
 20
0.0
 30
0.0
 40
25.00000000000001
100
AcDbArc
 50
115.8419327631507
 51
209.999999999983
  0
ARC
  5
7F2F
330
7F16
100
AcDbEntity
  8
LW 5016-32-00
  6
VERDECKT
 62
     6
100
AcDbCircle
 10
0.0000000000277396
 20
-0.0000000000000284
 30
0.0
 40
19.00000000000004
100
AcDbArc
 50
318.8604895850835
 51
221.1395104148819
  0
LINE
  5
7F30
330
7F16
100
AcDbEntity
  8
LW 5016-32-00
100
AcDbLine
 10
10.10000000000673
 20
-2.000000000003069
 30
0.0
 11
10.10000000000809
 21
1.999999999996816
 31
0.0
  0
LINE
  5
7F31
330
7F16
100
AcDbEntity
  8
LW 5016-32-00
100
AcDbLine
 10
-10.09999999999172
 20
2.000000000002955
 30
0.0
 11
-10.09999999999309
 21
-1.999999999997044
 31
0.0
  0
LINE
  5
7F32
330
7F16
100
AcDbEntity
  8
LW 5016-32-00
  6
VERDECKT
 62
     6
100
AcDbLine
 10
-59.99999999999181
 20
-9.660108542720195
 30
0.0
 11
-59.99999999998317
 21
19.66010854275578
 31
0.0
  0
ARC
  5
7F33
330
7F16
100
AcDbEntity
  8
LW 5016-32-00
  6
VERDECKT
 62
     6
100
AcDbCircle
 10
-61.99999999999182
 20
-9.660108542719626
 30
0.0
 40
2.0
100
AcDbArc
 50
340.7099537807874
 51
0.0
  0
ARC
  5
7F34
330
7F16
100
AcDbEntity
  8
LW 5016-32-00
  6
VERDECKT
 62
     6
100
AcDbCircle
 10
-61.99999999998317
 20
19.66010854275623
 30
0.0
 40
2.0
100
AcDbArc
 50
0.0
 51
19.29004621917444
  0
LINE
  5
7F35
330
7F16
100
AcDbEntity
  8
LW 5016-32-00
  6
VERDECKT
 62
     6
100
AcDbLine
 10
-60.11228328726019
 20
-10.32080939217644
 30
0.0
 11
-60.87499999999272
 21
-12.49999999998204
 31
0.0
  0
LINE
  5
7F36
330
7F16
100
AcDbEntity
  8
LW 5016-32-00
  6
VERDECKT
 62
     6
100
AcDbLine
 10
-60.1122832872511
 20
20.32080939221192
 30
0.0
 11
-60.87499999998226
 21
22.50000000001796
 31
0.0
  0
LINE
  5
7F37
330
7F16
100
AcDbEntity
  8
LW 5016-32-00
100
AcDbLine
 10
-60.87499999999272
 20
-12.49999999998204
 30
0.0
 11
-60.87499999998226
 21
22.50000000001796
 31
0.0
  0
LINE
  5
7F38
330
7F16
100
AcDbEntity
  8
LW 5016-32-00
100
AcDbLine
 10
20.00000000000773
 20
-11.00000000000591
 30
0.0
 11
20.00000000001728
 21
20.99999999999409
 31
0.0
  0
LINE
  5
7F39
330
7F16
100
AcDbEntity
  8
LW 5016-32-00
100
AcDbLine
 10
-60.87499999998226
 20
22.50000000001796
 30
0.0
 11
18.50000000001762
 21
22.49999999999454
 31
0.0
  0
LINE
  5
7F3A
330
7F16
100
AcDbEntity
  8
LW 5016-32-00
100
AcDbLine
 10
-60.87499999999272
 20
-12.49999999998204
 30
0.0
 11
-10.09999999999246
 21
-12.49999999999701
 31
0.0
  0
LINE
  5
7F3B
330
7F16
100
AcDbEntity
  8
LW 5016-32-00
100
AcDbLine
 10
10.10000000000707
 20
-12.50000000000298
 30
0.0
 11
18.50000000000727
 21
-12.50000000000546
 31
0.0
  0
ARC
  5
7F3C
330
7F16
100
AcDbEntity
  8
LW 5016-32-00
100
AcDbCircle
 10
18.50000000000773
 20
-11.00000000000545
 30
0.0
 40
1.500000000000012
100
AcDbArc
 50
269.999999999987
 51
0.0
  0
ARC
  5
7F3D
330
7F16
100
AcDbEntity
  8
LW 5016-32-00
100
AcDbCircle
 10
18.50000000001728
 20
20.99999999999454
 30
0.0
 40
1.500000000000012
100
AcDbArc
 50
0.0
 51
89.99999999998697
  0
LINE
  5
7F3E
330
7F16
100
AcDbEntity
  8
LW 5016-32-00
100
AcDbLine
 10
-76.99999999998908
 20
-0.7730999999771484
 30
0.0
 11
-76.9999999999859
 21
10.77310000002285
 31
0.0
  0
LINE
  5
7F3F
330
7F16
100
AcDbEntity
  8
LW 5016-32-00
100
AcDbLine
 10
-75.77309999998533
 20
12.00000000002251
 30
0.0
 11
-75.77309999998942
 21
-1.99999999997749
 31
0.0
  0
LINE
  5
7F40
330
7F16
100
AcDbEntity
  8
LW 5016-32-00
100
AcDbLine
 10
-76.9999999999859
 20
10.77310000002285
 30
0.0
 11
-75.77309999998533
 21
12.00000000002251
 31
0.0
  0
LINE
  5
7F41
330
7F16
100
AcDbEntity
  8
LW 5016-32-00
100
AcDbLine
 10
-76.99999999998908
 20
-0.7730999999771484
 30
0.0
 11
-75.77309999998942
 21
-1.99999999997749
 31
0.0
  0
LINE
  5
7F42
330
7F16
100
AcDbEntity
  8
LW 5016-32-00
100
AcDbLine
 10
-75.77309999998533
 20
12.00000000002251
 30
0.0
 11
-60.87499999998545
 21
12.00000000001796
 31
0.0
  0
LINE
  5
7F43
330
7F16
100
AcDbEntity
  8
LW 5016-32-00
100
AcDbLine
 10
-75.77309999998942
 20
-1.99999999997749
 30
0.0
 11
-60.87499999998954
 21
-1.999999999982037
 31
0.0
  0
LINE
  5
7F44
330
7F16
100
AcDbEntity
  8
LW 5016-32-00
 62
     3
100
AcDbLine
 10
-60.8749999999859
 20
10.79450000001805
 30
0.0
 11
-76.97859999998581
 21
10.79450000002282
 31
0.0
  0
LINE
  5
7F45
330
7F16
100
AcDbEntity
  8
LW 5016-32-00
 62
     3
100
AcDbLine
 10
-76.978599999989
 20
-0.7944999999772336
 30
0.0
 11
-60.87499999998908
 21
-0.7944999999820084
 31
0.0
  0
ARC
  5
7F46
330
7F16
100
AcDbEntity
  8
LW 5016-32-00
  6
VERDECKT
 62
     6
100
AcDbCircle
 10
0.0000000000354703
 20
0.0
 30
0.0
 40
32.50000000000001
100
AcDbArc
 50
136.1869385395798
 51
202.6198649480234
  0
ARC
  5
7F47
330
7F16
100
AcDbEntity
  8
LW 5016-32-00
100
AcDbCircle
 10
0.0000000000354703
 20
0.0
 30
0.0
 40
32.5
100
AcDbArc
 50
202.6198649480234
 51
136.1869385395798
  0
LINE
  5
7F48
330
7F16
100
AcDbEntity
  8
LW 5016-32-00
100
AcDbLine
 10
-60.87499999998226
 20
22.50000000001796
 30
0.0
 11
-60.87499999999272
 21
-12.49999999998204
 31
0.0
  0
LINE
  5
7F49
330
7F16
100
AcDbEntity
  8
LW 5016-32-00
  6
MITTE2
 62
     3
100
AcDbLine
 10
14.93734296387129
 20
25.87223694343527
 30
0.0
 11
7.00000000003456
 21
12.12435565298006
 31
0.0
  0
LINE
  5
7F4A
330
7F16
100
AcDbEntity
  8
LW 5016-32-00
  6
MITTE2
 62
     3
100
AcDbLine
 10
14.93734296385582
 20
-25.87223694344425
 30
0.0
 11
7.000000000027284
 21
-12.12435565298426
 31
0.0
  0
LINE
  5
7F4B
330
7F16
100
AcDbEntity
  8
LW 5016-32-00
  6
MITTE2
 62
     3
100
AcDbLine
 10
-38.96970689545856
 20
0.0000000000173941
 30
0.0
 11
38.96970689545765
 21
-0.0000000000173941
 31
0.0
  0
LINE
  5
7F4C
330
7F16
100
AcDbEntity
  8
LW 5016-32-00
  6
MITTE2
 62
     3
100
AcDbLine
 10
0.0000000000059117
 20
22.6209724824912
 30
0.0
 11
-0.000000000007276
 21
-22.6209724824912
 31
0.0
  0
HATCH
  5
7F4D
330
7F16
100
AcDbEntity
  8
LW 5016-32-00
 62
     1
100
AcDbHatch
 10
0.0
 20
0.0
 30
0.0
210
0.0
220
0.0
230
1.0
  2
SOLID
 70
     1
 71
     0
 91
        5
 92
        7
 72
     0
 73
     1
 93
       76
 10
-47.24928876594276
 20
18.15603796707853
 10
-47.21742993657016
 20
18.20761892892028
 10
-47.09927181233843
 20
18.35886132793621
 10
-46.964793737126
 20
18.49928545819875
 10
-46.81877383066466
 20
18.6276700199121
 10
-46.65510503458245
 20
18.74457630282791
 10
-46.47971808121792
 20
18.84675418464951
 10
-46.29796514861709
 20
18.9381058642324
 10
-46.1167962131517
 20
19.00762417667852
 10
-48.37393415135148
 20
19.00762417667852
 10
-48.58683070375173
 20
18.99893452147853
 10
-48.78886518715171
 20
18.97286555587857
 10
-48.98438242915154
 20
18.93158969367846
 10
-49.16903760215155
 20
18.87727934867848
 10
-49.34500311995179
 20
18.80776210707847
 10
-49.51227898255138
 20
18.72521038267837
 10
-49.66284724509887
 20
18.6298848651345
 10
-49.80555484555179
 20
18.52317589927838
 10
-49.93099610112222
 20
18.40412762303833
 10
-50.04226105319958
 20
18.27586831228643
 10
-50.14227898455146
 20
18.13865865667844
 10
-50.22483070895169
 20
17.99310693207837
 10
-50.28783070915188
 20
17.83886555227832
 10
-50.33779622655174
 20
17.67810693107844
 10
-50.36603760595153
 20
17.51300348227846
 10
-50.37472726115129
 20
17.33921037827849
 10
-50.36386519215148
 20
17.1654172742783
 10
-50.33345139895164
 20
16.99814141167837
 10
-50.27914105395166
 20
16.83738279047839
 10
-50.20962381235176
 20
16.68096899687839
 10
-50.12055484655139
 20
16.53324485847838
 10
-50.01410657035148
 20
16.39203796147853
 10
-49.89140863892726
 20
16.26082416795839
 10
-49.75520959021924
 20
16.13969037447054
 10
-49.60786518975146
 20
16.02924485687845
 10
-49.44710656855159
 20
15.93148623587854
 10
-49.27147994730422
 20
15.84658830457442
 10
-49.09083070535189
 20
15.77290002847849
 10
-48.89965829095172
 20
15.71641726967846
 10
-48.69979622135133
 20
15.67296899367852
 10
-48.49124449655164
 20
15.64690002807845
 10
-48.28052035795145
 20
15.63821037287846
 10
-46.161349272199
 20
15.63821037287857
 10
-46.32189313625121
 20
15.70128117661352
 10
-46.50545728005408
 20
15.79190145013626
 10
-46.67392368622404
 20
15.89643114306773
 10
-46.83675658098445
 20
16.01204938149317
 10
-46.98066894935482
 20
16.14183897803309
 10
-47.10810484283911
 20
16.28119266126168
 10
-47.22181019758273
 20
16.43168090597419
 10
-47.27378142903126
 20
16.51586554807852
 10
-48.30224449595153
 20
16.51586554807841
 10
-48.43435332395711
 20
16.52342554810252
 10
-48.56510656575165
 20
16.54375934127051
 10
-48.69327897995162
 20
16.57669313447843
 10
-48.80841691135128
 20
16.62231382427853
 10
-48.91336187720162
 20
16.67879658307845
 10
-49.01151153268575
 20
16.74640210053439
 10
-49.1016927743517
 20
16.8243483076784
 10
-49.1733824297512
 20
16.90907244587845
 10
-47.44586111549279
 20
16.90907244587856
 10
-47.4564455827658
 20
16.94170788663678
 10
-47.49255739072987
 20
17.12708183418795
 10
-47.50460104351214
 20
17.31737154813868
 10
-47.49257937108223
 20
17.51212264149376
 10
-47.45627364940719
 20
17.6984920127602
 10
-47.43967494673234
 20
17.74762417267846
 10
-49.21031346435166
 20
17.74762417267846
 10
-49.14079622275176
 20
17.84321037987843
 10
-49.05824449835154
 20
17.92576210427842
 10
-48.9631536014981
 20
17.99562693208645
 10
-48.86055484255166
 20
18.05393451847851
 10
-48.74186284217512
 20
18.09790417379042
 10
-48.61941691075163
 20
18.12996900147846
 10
-48.48255484135143
 20
18.14952072567848
 10
-48.33917553055153
 20
18.15603796707842
 97
        0
 92
        7
 72
     0
 73
     1
 93
       72
 10
-45.52082490091516
 20
18.14143934634251
 10
-45.39796186604189
 20
18.15951382915853
 10
-45.27389965875181
 20
18.16472762227863
 10
-44.00520999955142
 20
18.16472762227863
 10
-44.85245138155142
 20
17.35007244727876
 10
-43.08627896215148
 20
15.63169313147864
 10
-41.76762378555167
 20
15.63169313147864
 10
-43.48165827375169
 20
17.37396899907867
 10
-41.80020999255157
 20
19.00762417667875
 10
-45.23914103795187
 20
19.00762417667852
 10
-45.44712793516374
 20
18.99684900423062
 10
-45.6538461427167
 20
18.97138831449456
 10
-45.85827897095168
 20
18.93158969367857
 10
-46.05162379915191
 20
18.87510693487854
 10
-46.23845138595197
 20
18.80341727947848
 10
-46.40961152442605
 20
18.71738969299849
 10
-46.57517552495164
 20
18.62093452027852
 10
-46.72724449095176
 20
18.51231383027857
 10
-46.86294214655482
 20
18.39300486438253
 10
-46.98793414695183
 20
18.26248624327854
 10
-47.09655483695178
 20
18.12345176007852
 10
-47.1877962165513
 20
17.97572762167863
 10
-47.25948587195171
 20
17.82148624187857
 10
-47.31379621695168
 20
17.66072762067847
 10
-47.34638242395158
 20
17.49345175807843
 10
-47.35724449295185
 20
17.31748624027841
 10
-47.34638242395158
 20
17.1458655500785
 10
-47.31379621695168
 20
16.97858968747857
 10
-47.26165828575131
 20
16.81783106627859
 10
-47.19214104415141
 20
16.66358968647853
 10
-47.10030007834257
 20
16.51482278945468
 10
-46.99492062973241
 20
16.37535382349449
 10
-46.87691511211641
 20
16.24631244377463
 10
-46.74462380135127
 20
16.12700347787859
 10
-46.59250269742051
 20
16.01899106374253
 10
-46.43396862795134
 20
15.9206241668785
 10
-46.2623479377512
 20
15.83590002867856
 10
-46.07986517855124
 20
15.7642103732785
 10
-45.88563400552129
 20
15.71016071793451
 10
-45.6888306945516
 20
15.66645175227859
 10
-45.48027896975145
 20
15.64038278667863
 10
-45.26955483115171
 20
15.63169313147864
 10
-43.36652034235157
 20
15.63169313147864
 10
-44.25286517275162
 20
16.50500347907859
 10
-45.26955483115171
 20
16.50500347907859
 10
-45.33622186584625
 20
16.50875077201795
 10
-45.43716959030416
 20
16.5187331342945
 10
-45.55730407344436
 20
16.5401965826386
 10
-45.67442324623016
 20
16.57452072067849
 10
-45.77591841896583
 20
16.61544899667058
 10
-45.83205359155772
 20
16.64360347951856
 10
-45.88573828138351
 20
16.67618968651868
 10
-46.01829897145989
 20
16.77551244545452
 10
-46.09190035100346
 20
16.84555106636662
 10
-46.14696669600607
 20
16.91341727347844
 10
-46.1956722134023
 20
16.98597589439851
 10
-46.23503635145834
 20
17.06314003257444
 10
-46.26445952396489
 20
17.14456210179855
 10
-46.28515828265153
 20
17.23171934345464
 10
-46.29267483439934
 20
17.32104899891044
 10
-46.2913192481883
 20
17.38335382669447
 10
-46.28531469644485
 20
17.44548486137444
 10
-46.27315786882036
 20
17.50865865467858
 10
-46.25494435152131
 20
17.5703552065986
 10
-46.21129621345199
 20
17.66906968967044
 10
-46.16976835125069
 20
17.73693589678248
 10
-46.10669014415407
 20
17.81496900047853
 10
-45.97728820378915
 20
17.94149173753226
 10
-45.91802035045157
 20
17.98154969066263
 10
-45.84172517779552
 20
18.02586693218245
 10
-45.75770490166678
 20
18.06801175990256
 10
-45.64116793577932
 20
18.1108517600386
 97
        0
 92
        7
 72
     0
 73
     1
 93
       57
 10
-40.96278792092744
 20
18.11936762213486
 10
-40.83131343775176
 20
18.1593400360548
 10
-40.69662378215162
 20
18.18645176027883
 10
-40.55324447135172
 20
18.1951414154787
 10
-39.31279619155157
 20
18.19514141547881
 10
-39.31279619155157
 20
19.02065865947884
 10
-40.54672722995156
 20
19.02065865947873
 10
-40.75745136855175
 20
19.01196900427874
 10
-40.96383067955184
 20
18.98372762487872
 10
-41.16152033535172
 20
18.94245176267873
 10
-41.35052033595139
 20
18.88814141767875
 10
-41.53517550895185
 20
18.8164517622788
 10
-41.70158240603178
 20
18.73381314132666
 10
-41.86040323412226
 20
18.63735796860669
 10
-42.01048226908142
 20
18.52786831308663
 10
-42.14504157985311
 20
18.40864624374274
 10
-42.26510654575167
 20
18.27986555367874
 10
-42.36938240815152
 20
18.14083107047872
 10
-42.45410654635134
 20
17.99527934587866
 10
-42.52579620175175
 20
17.8410379660786
 10
-42.57576171915161
 20
17.68027934487873
 10
-42.60834792615151
 20
17.5130034822788
 10
-42.61920999515178
 20
17.33921037827872
 10
-42.60834792615151
 20
17.16541727427875
 10
-42.57576171915161
 20
16.99814141167871
 10
-42.52362378795169
 20
16.83738279047861
 10
-42.45193413255174
 20
16.68096899687873
 10
-42.36503758055142
 20
16.53324485847872
 10
-42.25619095951651
 20
16.39368899596673
 10
-42.13633454534283
 20
16.2633441679668
 10
-41.99990695870247
 20
16.14203658137467
 10
-41.85234792375149
 20
16.03141727067873
 10
-41.69158930255162
 20
15.93365864967859
 10
-41.51779619855142
 20
15.84893451147877
 10
-41.33314102555141
 20
15.77507244227877
 10
-41.1419686111517
 20
15.71858968347874
 10
-40.94210654155131
 20
15.6751414074788
 10
-40.73572723055121
 20
15.65124485567867
 10
-40.52283067815142
 20
15.64255520047868
 10
-39.31279619155157
 20
15.64255520047879
 10
-39.31279619155157
 20
16.50065865147871
 10
-40.54672722995156
 20
16.50065865147871
 10
-40.68037412692729
 20
16.51099934116667
 10
-40.81263067907139
 20
16.53298416882285
 10
-40.93324309324771
 20
16.56730830686274
 10
-41.04924999016748
 20
16.61527520356685
 10
-41.15891343879184
 20
16.67618968651879
 10
-41.2559768873757
 20
16.74379520397474
 10
-41.34339481868756
 20
16.82356623871078
 10
-41.41786516375169
 20
16.90907244587879
 10
-39.31279619155157
 20
16.90907244587879
 10
-39.31279619155157
 20
17.73676210367876
 10
-41.45479619835168
 20
17.73676210367876
 10
-41.38527895675133
 20
17.83452072467867
 10
-41.29838240475192
 20
17.92358969047859
 10
-41.19723481822347
 20
17.99988486313475
 10
-41.08983067995132
 20
18.06696900127872
 97
        0
 92
        7
 72
     0
 73
     1
 93
        6
 10
-39.0825203287518
 20
19.00762417667886
 10
-39.0825203287518
 20
15.6382103728788
 10
-36.84493411475114
 20
15.63821037287892
 10
-36.84493411475159
 20
16.50500347907893
 10
-38.05931342895155
 20
16.50500347907893
 10
-38.05931342895155
 20
19.00762417667886
 97
        0
 92
        7
 72
     0
 73
     1
 93
        8
 10
-37.82686515235173
 20
19.00762417667886
 10
-37.82686515235173
 20
18.18210693267883
 10
-36.59293411395129
 20
18.18210693267895
 10
-36.59293411395129
 20
15.63169313147887
 10
-35.56755480035145
 20
15.63169313147887
 10
-35.56755480035145
 20
18.18210693267883
 10
-34.3249341067517
 20
18.18210693267895
 10
-34.3249341067517
 20
19.00762417667897
 97
        0
 75
     0
 76
     1
 47
0.0142553043587597
 98
        5
 10
-47.93962863987644
 20
18.56517450708941
 10
-45.67213142653372
 20
18.42262152208377
 10
-41.1799196943325
 20
18.47964269463159
 10
-38.45607061050078
 20
18.72198291932398
 10
-37.04423262827413
 20
18.62219578691065
450
        0
451
        0
460
0.0
461
0.0
452
        0
462
0.0
453
        0
470

  0
LWPOLYLINE
  5
7F4E
330
7F16
100
AcDbEntity
  8
LW 5016-32-00
 62
     1
100
AcDbPolyline
 90
        8
 70
     1
 43
0.0
 10
-35.56755480035145
 20
18.18210693267883
 10
-35.56755480035145
 20
15.63169313147887
 10
-36.59293411395129
 20
15.63169313147887
 10
-36.59293411395129
 20
18.18210693267895
 10
-37.82686515235173
 20
18.18210693267883
 10
-37.82686515235173
 20
19.00762417667886
 10
-34.3249341067517
 20
19.00762417667897
 10
-34.3249341067517
 20
18.18210693267895
  0
LWPOLYLINE
  5
7F4F
330
7F16
100
AcDbEntity
  8
LW 5016-32-00
 62
     1
100
AcDbPolyline
 90
       73
 70
     1
 43
0.0
 10
-45.26955483115171
 20
16.50500347907859
 10
-44.25286517275162
 20
16.50500347907859
 10
-43.36652034235157
 20
15.63169313147864
 10
-45.26955483115171
 20
15.63169313147853
 10
-45.48027896975145
 20
15.64038278667863
 10
-45.6888306945516
 20
15.66645175227859
 10
-45.88563400552129
 20
15.71016071793451
 10
-46.07986517855124
 20
15.7642103732785
 10
-46.2623479377512
 20
15.83590002867856
 10
-46.43396862795134
 20
15.9206241668785
 10
-46.59250269742051
 20
16.01899106374253
 10
-46.74462380135127
 20
16.12700347787859
 10
-46.87691511211641
 20
16.24631244377451
 10
-46.99492062973241
 20
16.37535382349449
 10
-47.10030007834257
 20
16.51482278945457
 10
-47.19214104415141
 20
16.66358968647853
 10
-47.26165828575131
 20
16.81783106627859
 10
-47.31379621695168
 20
16.97858968747857
 10
-47.34638242395158
 20
17.1458655500785
 10
-47.35724449295185
 20
17.31748624027853
 10
-47.34638242395158
 20
17.49345175807843
 10
-47.31379621695168
 20
17.66072762067847
 10
-47.25948587195171
 20
17.82148624187857
 10
-47.1877962165513
 20
17.97572762167851
 10
-47.09655483695178
 20
18.12345176007852
 10
-46.98793414695183
 20
18.26248624327854
 10
-46.86294214655482
 20
18.39300486438264
 10
-46.72724449095176
 20
18.51231383027857
 10
-46.57517552495164
 20
18.62093452027852
 10
-46.40961152442605
 20
18.71738969299849
 10
-46.23845138595197
 20
18.80341727947848
 10
-46.05162379915191
 20
18.87510693487854
 10
-45.85827897095168
 20
18.93158969367869
 10
-45.6538461427167
 20
18.97138831449456
 10
-45.44712793516374
 20
18.99684900423062
 10
-45.23914103795187
 20
19.00762417667852
 10
-41.80020999255157
 20
19.00762417667875
 10
-43.48165827375169
 20
17.37396899907867
 10
-41.76762378555167
 20
15.63169313147864
 10
-43.08627896215148
 20
15.63169313147864
 10
-44.85245138155142
 20
17.35007244727876
 10
-44.00520999955142
 20
18.16472762227863
 10
-45.27389965875181
 20
18.16472762227863
 10
-45.39796186604189
 20
18.15951382915853
 10
-45.52082490091516
 20
18.14143934634251
 10
-45.64116793577932
 20
18.1108517600386
 10
-45.75770490166678
 20
18.06801175990244
 10
-45.84172517779598
 20
18.02586693218257
 10
-45.91802035045157
 20
17.98154969066263
 10
-45.95826214368253
 20
17.95435106988657
 10
-45.99577538518087
 20
17.92341589737452
 10
-46.10669014415407
 20
17.81496900047853
 10
-46.16976835125069
 20
17.73693589678248
 10
-46.21129621345153
 20
17.66906968967055
 10
-46.25494435152131
 20
17.5703552065986
 10
-46.27315786882036
 20
17.50865865467858
 10
-46.28531469644485
 20
17.44548486137455
 10
-46.2913192481883
 20
17.38335382669459
 10
-46.29267483439934
 20
17.32104899891055
 10
-46.28515828265153
 20
17.23171934345464
 10
-46.26445952396489
 20
17.14456210179855
 10
-46.23503635145789
 20
17.06314003257455
 10
-46.1956722134023
 20
16.98597589439851
 10
-46.14696669600607
 20
16.91341727347856
 10
-46.09190035100346
 20
16.84555106636662
 10
-46.01829897145989
 20
16.77551244545452
 10
-45.88573828138351
 20
16.67618968651868
 10
-45.83205359155772
 20
16.64360347951856
 10
-45.77591841896583
 20
16.61544899667058
 10
-45.67442324623016
 20
16.57452072067849
 10
-45.55730407344436
 20
16.5401965826386
 10
-45.43716959030416
 20
16.5187331342945
 10
-45.33622186584625
 20
16.50875077201795
  0
LWPOLYLINE
  5
7F50
330
7F16
100
AcDbEntity
  8
LW 5016-32-00
 62
     1
100
AcDbPolyline
 90
       76
 70
     1
 43
0.0
 10
-46.47971808121792
 20
18.84675418464951
 10
-46.65510503458245
 20
18.74457630282779
 10
-46.81877383066466
 20
18.6276700199121
 10
-46.964793737126
 20
18.49928545819875
 10
-47.09927181233843
 20
18.35886132793621
 10
-47.21742993657016
 20
18.20761892892028
 10
-47.24928876594276
 20
18.15603796707853
 10
-48.33917553055153
 20
18.15603796707853
 10
-48.48255484135143
 20
18.14952072567848
 10
-48.61941691075163
 20
18.12996900147846
 10
-48.74186284217512
 20
18.09790417379042
 10
-48.86055484255166
 20
18.05393451847851
 10
-48.9631536014981
 20
17.99562693208645
 10
-49.05824449835154
 20
17.92576210427842
 10
-49.14079622275176
 20
17.84321037987843
 10
-49.21031346435166
 20
17.74762417267846
 10
-47.43967494673234
 20
17.74762417267846
 10
-47.45627364940719
 20
17.6984920127602
 10
-47.49257937108268
 20
17.51212264149353
 10
-47.50460104351214
 20
17.31737154813868
 10
-47.49255739072987
 20
17.12708183418795
 10
-47.45644558276535
 20
16.94170788663689
 10
-47.44586111549279
 20
16.90907244587856
 10
-49.1733824297512
 20
16.90907244587845
 10
-49.1016927743517
 20
16.8243483076784
 10
-49.01151153268575
 20
16.74640210053439
 10
-48.91336187720162
 20
16.67879658307845
 10
-48.80841691135128
 20
16.62231382427853
 10
-48.69327897995162
 20
16.57669313447854
 10
-48.56510656575165
 20
16.54375934127051
 10
-48.43435332395711
 20
16.52342554810252
 10
-48.30224449595153
 20
16.51586554807841
 10
-47.27378142903126
 20
16.51586554807852
 10
-47.22181019758273
 20
16.43168090597419
 10
-47.10810484283911
 20
16.28119266126168
 10
-46.98066894935482
 20
16.14183897803309
 10
-46.83675658098445
 20
16.0120493814934
 10
-46.67392368622404
 20
15.89643114306773
 10
-46.50545728005408
 20
15.79190145013626
 10
-46.32189313625121
 20
15.70128117661352
 10
-46.161349272199
 20
15.63821037287857
 10
-48.28052035795145
 20
15.63821037287835
 10
-48.49124449655164
 20
15.64690002807845
 10
-48.69979622135133
 20
15.67296899367852
 10
-48.89965829095172
 20
15.71641726967846
 10
-49.09083070535143
 20
15.77290002847837
 10
-49.27147994730467
 20
15.84658830457442
 10
-49.44710656855159
 20
15.93148623587854
 10
-49.60786518975146
 20
16.02924485687845
 10
-49.75520959021924
 20
16.13969037447043
 10
-49.89140863892726
 20
16.26082416795839
 10
-50.01410657035148
 20
16.39203796147842
 10
-50.12055484655184
 20
16.53324485847838
 10
-50.20962381235176
 20
16.68096899687839
 10
-50.27914105395166
 20
16.83738279047839
 10
-50.33345139895164
 20
16.99814141167837
 10
-50.36386519215148
 20
17.16541727427852
 10
-50.37472726115129
 20
17.33921037827838
 10
-50.36603760595198
 20
17.51300348227835
 10
-50.33779622655174
 20
17.67810693107844
 10
-50.28783070915188
 20
17.83886555227832
 10
-50.22483070895169
 20
17.99310693207837
 10
-50.14227898455146
 20
18.13865865667844
 10
-50.04226105319958
 20
18.27586831228643
 10
-49.93099610112222
 20
18.40412762303845
 10
-49.80555484555179
 20
18.52317589927838
 10
-49.66284724509887
 20
18.6298848651345
 10
-49.51227898255138
 20
18.72521038267848
 10
-49.34500311995134
 20
18.80776210707836
 10
-49.16903760215155
 20
18.87727934867848
 10
-48.98438242915154
 20
18.93158969367846
 10
-48.78886518715171
 20
18.97286555587857
 10
-48.58683070375173
 20
18.99893452147853
 10
-48.37393415135148
 20
19.00762417667852
 10
-46.1167962131517
 20
19.00762417667863
 10
-46.29796514861709
 20
18.9381058642324
  0
LWPOLYLINE
  5
7F51
330
7F16
100
AcDbEntity
  8
LW 5016-32-00
 62
     1
100
AcDbPolyline
 90
        6
 70
     1
 43
0.0
 10
-36.84493411475114
 20
15.63821037287892
 10
-39.0825203287518
 20
15.6382103728788
 10
-39.0825203287518
 20
19.00762417667886
 10
-38.05931342895155
 20
19.00762417667886
 10
-38.05931342895155
 20
16.50500347907893
 10
-36.84493411475159
 20
16.50500347907893
  0
LWPOLYLINE
  5
7F52
330
7F16
100
AcDbEntity
  8
LW 5016-32-00
 62
     1
100
AcDbPolyline
 90
       57
 70
     1
 43
0.0
 10
-42.13633454534283
 20
16.2633441679668
 10
-42.25619095951651
 20
16.39368899596661
 10
-42.36503758055142
 20
16.53324485847861
 10
-42.45193413255174
 20
16.68096899687873
 10
-42.52362378795169
 20
16.83738279047861
 10
-42.57576171915161
 20
16.99814141167871
 10
-42.60834792615151
 20
17.16541727427875
 10
-42.61920999515178
 20
17.33921037827872
 10
-42.60834792615151
 20
17.51300348227869
 10
-42.57576171915161
 20
17.68027934487873
 10
-42.52579620175175
 20
17.8410379660786
 10
-42.45410654635134
 20
17.99527934587877
 10
-42.36938240815152
 20
18.14083107047861
 10
-42.26510654575167
 20
18.27986555367874
 10
-42.14504157985311
 20
18.40864624374262
 10
-42.01048226908142
 20
18.52786831308663
 10
-41.86040323412226
 20
18.63735796860669
 10
-41.70158240603131
 20
18.73381314132678
 10
-41.53517550895185
 20
18.8164517622788
 10
-41.35052033595139
 20
18.88814141767875
 10
-41.16152033535172
 20
18.94245176267873
 10
-40.96383067955184
 20
18.98372762487872
 10
-40.75745136855175
 20
19.01196900427874
 10
-40.54672722995156
 20
19.02065865947873
 10
-39.31279619155157
 20
19.02065865947884
 10
-39.31279619155157
 20
18.19514141547881
 10
-40.55324447135126
 20
18.1951414154787
 10
-40.69662378215162
 20
18.18645176027871
 10
-40.83131343775176
 20
18.1593400360548
 10
-40.96278792092789
 20
18.11936762213474
 10
-41.08983067995132
 20
18.06696900127872
 10
-41.19723481822347
 20
17.99988486313475
 10
-41.29838240475192
 20
17.92358969047882
 10
-41.38527895675133
 20
17.83452072467867
 10
-41.45479619835168
 20
17.73676210367876
 10
-39.31279619155157
 20
17.73676210367876
 10
-39.31279619155157
 20
16.90907244587879
 10
-41.41786516375169
 20
16.90907244587879
 10
-41.34339481868756
 20
16.82356623871078
 10
-41.2559768873757
 20
16.74379520397474
 10
-41.15891343879184
 20
16.67618968651879
 10
-41.04924999016748
 20
16.61527520356685
 10
-40.93324309324771
 20
16.56730830686274
 10
-40.81263067907139
 20
16.53298416882285
 10
-40.68037412692729
 20
16.51099934116667
 10
-40.54672722995156
 20
16.50065865147871
 10
-39.31279619155157
 20
16.50065865147871
 10
-39.31279619155157
 20
15.64255520047879
 10
-40.52283067815142
 20
15.64255520047868
 10
-40.73572723055121
 20
15.65124485567867
 10
-40.94210654155131
 20
15.6751414074788
 10
-41.1419686111517
 20
15.71858968347874
 10
-41.33314102555141
 20
15.77507244227877
 10
-41.51779619855142
 20
15.84893451147877
 10
-41.69158930255162
 20
15.93365864967882
 10
-41.85234792375149
 20
16.03141727067873
 10
-41.99990695870247
 20
16.14203658137467
  0
INSERT
  5
7F53
330
7F16
100
AcDbEntity
  8
LW 5016-32-00
100
AcDbBlockReference
 66
     1
  2
insertpoint-ECKELT
 10
-0.0000000000004547
 20
0.0
 30
0.0
  0
ATTRIB
  5
7F54
330
7F53
100
AcDbEntity
  8
insertpoint_ECKELT
100
AcDbText
 10
-6.931514324693314
 20
0.0
 30
0.0
 40
0.6
  1
LW 5016/32-00
 72
     2
 11
-1.200000000000272
 21
0.0
 31
0.0
100
AcDbAttribute
  2
LINKS
 70
     0
  0
ATTRIB
  5
7F55
330
7F53
100
AcDbEntity
  8
insertpoint_ECKELT
100
AcDbText
 10
1.199999999999363
 20
0.0
 30
0.0
 40
0.6
  1

100
AcDbAttribute
  2
RECHTS
 70
     0
  0
SEQEND
  5
7F56
330
7F53
100
AcDbEntity
  8
LW 5016-32-00
  0
LINE
  5
7F57
330
7F16
100
AcDbEntity
  8
LW 5016-32-00
100
AcDbLine
 10
-10.09999999999218
 20
5.500000000003012
 30
0.0
 11
-10.0999999999924
 21
-12.49999999999701
 31
0.0
  0
POLYLINE
  5
7F58
330
7F16
100
AcDbEntity
  8
LW 5016-32-00
100
AcDb2dPolyline
 66
     1
 10
0.0
 20
0.0
 30
0.0
 70
   128
  0
VERTEX
  5
7F59
330
7F58
100
AcDbEntity
  8
LW 5016-32-00
100
AcDbVertex
100
AcDb2dVertex
 10
-10.10000228881063
 20
5.500000007453593
 30
0.0
  0
VERTEX
  5
7F5A
330
7F58
100
AcDbEntity
  8
LW 5016-32-00
100
AcDbVertex
100
AcDb2dVertex
 10
-10.07782459258214
 20
6.152630448344325
 30
0.0
  0
VERTEX
  5
7F5B
330
7F58
100
AcDbEntity
  8
LW 5016-32-00
100
AcDbVertex
100
AcDb2dVertex
 10
-10.01159191130773
 20
6.810174882414912
 30
0.0
  0
VERTEX
  5
7F5C
330
7F58
100
AcDbEntity
  8
LW 5016-32-00
100
AcDbVertex
100
AcDb2dVertex
 10
-9.901742935172023
 20
7.467362880709742
 30
0.0
  0
VERTEX
  5
7F5D
330
7F58
100
AcDbEntity
  8
LW 5016-32-00
100
AcDbVertex
100
AcDb2dVertex
 10
-9.748716354361476
 20
8.118924200537719
 30
0.0
  0
VERTEX
  5
7F5E
330
7F58
100
AcDbEntity
  8
LW 5016-32-00
100
AcDbVertex
100
AcDb2dVertex
 10
-9.552946090689147
 20
8.759588897231083
 30
0.0
  0
VERTEX
  5
7F5F
330
7F58
100
AcDbEntity
  8
LW 5016-32-00
100
AcDbVertex
100
AcDb2dVertex
 10
-9.314870834341263
 20
9.384086430075569
 30
0.0
  0
VERTEX
  5
7F60
330
7F58
100
AcDbEntity
  8
LW 5016-32-00
100
AcDbVertex
100
AcDb2dVertex
 10
-9.035677909841524
 20
9.987690150740434
 30
0.0
  0
VERTEX
  5
7F61
330
7F58
100
AcDbEntity
  8
LW 5016-32-00
100
AcDbVertex
100
AcDb2dVertex
 10
-8.718976974477754
 20
10.56716978550213
 30
0.0
  0
VERTEX
  5
7F62
330
7F58
100
AcDbEntity
  8
LW 5016-32-00
100
AcDbVertex
100
AcDb2dVertex
 10
-8.368849754323719
 20
11.11950039863831
 30
0.0
  0
VERTEX
  5
7F63
330
7F58
100
AcDbEntity
  8
LW 5016-32-00
100
AcDbVertex
100
AcDb2dVertex
 10
-7.989382743825444
 20
11.64165675640339
 30
0.0
  0
VERTEX
  5
7F64
330
7F58
100
AcDbEntity
  8
LW 5016-32-00
100
AcDbVertex
100
AcDb2dVertex
 10
-7.584662437428733
 20
12.13061451912148
 30
0.0
  0
VERTEX
  5
7F65
330
7F58
100
AcDbEntity
  8
LW 5016-32-00
100
AcDbVertex
100
AcDb2dVertex
 10
-7.15876579283622
 20
12.58334755897732
 30
0.0
  0
VERTEX
  5
7F66
330
7F58
100
AcDbEntity
  8
LW 5016-32-00
100
AcDbVertex
100
AcDb2dVertex
 10
-6.705121994007868
 20
13.00724446773728
 30
0.0
  0
VERTEX
  5
7F67
330
7F58
100
AcDbEntity
  8
LW 5016-32-00
100
AcDbVertex
100
AcDb2dVertex
 10
-6.216325759876781
 20
13.40922176838103
 30
0.0
  0
VERTEX
  5
7F68
330
7F58
100
AcDbEntity
  8
LW 5016-32-00
100
AcDbVertex
100
AcDb2dVertex
 10
-5.695304870594554
 20
13.78546059131787
 30
0.0
  0
VERTEX
  5
7F69
330
7F58
100
AcDbEntity
  8
LW 5016-32-00
100
AcDbVertex
100
AcDb2dVertex
 10
-5.1449871063121
 20
14.13214206695704
 30
0.0
  0
VERTEX
  5
7F6A
330
7F58
100
AcDbEntity
  8
LW 5016-32-00
100
AcDbVertex
100
AcDb2dVertex
 10
-4.568305015552596
 20
14.44544792175423
 30
0.0
  0
VERTEX
  5
7F6B
330
7F58
100
AcDbEntity
  8
LW 5016-32-00
100
AcDbVertex
100
AcDb2dVertex
 10
-3.968186378467635
 20
14.72155869007224
 30
0.0
  0
VERTEX
  5
7F6C
330
7F58
100
AcDbEntity
  8
LW 5016-32-00
100
AcDbVertex
100
AcDb2dVertex
 10
-3.347783088672485
 20
14.95777785778136
 30
0.0
  0
VERTEX
  5
7F6D
330
7F58
100
AcDbEntity
  8
LW 5016-32-00
100
AcDbVertex
100
AcDb2dVertex
 10
-2.711348533618547
 20
15.15290260315015
 30
0.0
  0
VERTEX
  5
7F6E
330
7F58
100
AcDbEntity
  8
LW 5016-32-00
100
AcDbVertex
100
AcDb2dVertex
 10
-2.063431739795305
 20
15.3053522109991
 30
0.0
  0
VERTEX
  5
7F6F
330
7F58
100
AcDbEntity
  8
LW 5016-32-00
100
AcDbVertex
100
AcDb2dVertex
 10
-1.408705711352922
 20
15.4138541221622
 30
0.0
  0
VERTEX
  5
7F70
330
7F58
100
AcDbEntity
  8
LW 5016-32-00
100
AcDbVertex
100
AcDb2dVertex
 10
-0.7524204254032157
 20
15.47855496406572
 30
0.0
  0
VERTEX
  5
7F71
330
7F58
100
AcDbEntity
  8
LW 5016-32-00
100
AcDbVertex
100
AcDb2dVertex
 10
-0.1000022888065359
 20
15.49999952316284
 30
0.0
  0
SEQEND
  5
7F72
330
7F58
100
AcDbEntity
  8
LW 5016-32-00
  0
POLYLINE
  5
7F73
330
7F16
100
AcDbEntity
  8
LW 5016-32-00
100
AcDb2dPolyline
 66
     1
 10
0.0
 20
0.0
 30
0.0
 70
   128
  0
VERTEX
  5
7F74
330
7F73
100
AcDbEntity
  8
LW 5016-32-00
100
AcDbVertex
100
AcDb2dVertex
 10
0.1000022888301828
 20
15.49999952316278
 30
0.0
  0
VERTEX
  5
7F75
330
7F73
100
AcDbEntity
  8
LW 5016-32-00
100
AcDbVertex
100
AcDb2dVertex
 10
0.7524204254268625
 20
15.47855496406526
 30
0.0
  0
VERTEX
  5
7F76
330
7F73
100
AcDbEntity
  8
LW 5016-32-00
100
AcDbVertex
100
AcDb2dVertex
 10
1.408705711376569
 20
15.41385412216141
 30
0.0
  0
VERTEX
  5
7F77
330
7F73
100
AcDbEntity
  8
LW 5016-32-00
100
AcDbVertex
100
AcDb2dVertex
 10
2.063431739818952
 20
15.30535221099791
 30
0.0
  0
VERTEX
  5
7F78
330
7F73
100
AcDbEntity
  8
LW 5016-32-00
100
AcDbVertex
100
AcDb2dVertex
 10
2.711348533641967
 20
15.15290260314856
 30
0.0
  0
VERTEX
  5
7F79
330
7F73
100
AcDbEntity
  8
LW 5016-32-00
100
AcDbVertex
100
AcDb2dVertex
 10
3.34778308869545
 20
14.95777785777943
 30
0.0
  0
VERTEX
  5
7F7A
330
7F73
100
AcDbEntity
  8
LW 5016-32-00
100
AcDbVertex
100
AcDb2dVertex
 10
3.968186378490372
 20
14.72155869006991
 30
0.0
  0
VERTEX
  5
7F7B
330
7F73
100
AcDbEntity
  8
LW 5016-32-00
100
AcDbVertex
100
AcDb2dVertex
 10
4.568305015575333
 20
14.44544792175151
 30
0.0
  0
VERTEX
  5
7F7C
330
7F73
100
AcDbEntity
  8
LW 5016-32-00
100
AcDbVertex
100
AcDb2dVertex
 10
5.144987106334156
 20
14.13214206695397
 30
0.0
  0
VERTEX
  5
7F7D
330
7F73
100
AcDbEntity
  8
LW 5016-32-00
100
AcDbVertex
100
AcDb2dVertex
 10
5.695304870616382
 20
13.78546059131452
 30
0.0
  0
VERTEX
  5
7F7E
330
7F73
100
AcDbEntity
  8
LW 5016-32-00
100
AcDbVertex
100
AcDb2dVertex
 10
6.216325759898381
 20
13.40922176837733
 30
0.0
  0
VERTEX
  5
7F7F
330
7F73
100
AcDbEntity
  8
LW 5016-32-00
100
AcDbVertex
100
AcDb2dVertex
 10
6.705121994029013
 20
13.0072444677333
 30
0.0
  0
VERTEX
  5
7F80
330
7F73
100
AcDbEntity
  8
LW 5016-32-00
100
AcDbVertex
100
AcDb2dVertex
 10
7.158765792856911
 20
12.58334755897306
 30
0.0
  0
VERTEX
  5
7F81
330
7F73
100
AcDbEntity
  8
LW 5016-32-00
100
AcDbVertex
100
AcDb2dVertex
 10
7.584662437448969
 20
12.13061451911699
 30
0.0
  0
VERTEX
  5
7F82
330
7F73
100
AcDbEntity
  8
LW 5016-32-00
100
AcDbVertex
100
AcDb2dVertex
 10
7.989382743845226
 20
11.64165675639861
 30
0.0
  0
VERTEX
  5
7F83
330
7F73
100
AcDbEntity
  8
LW 5016-32-00
100
AcDbVertex
100
AcDb2dVertex
 10
8.368849754343045
 20
11.11950039863336
 30
0.0
  0
VERTEX
  5
7F84
330
7F73
100
AcDbEntity
  8
LW 5016-32-00
100
AcDbVertex
100
AcDb2dVertex
 10
8.718976974496854
 20
10.5671697854969
 30
0.0
  0
VERTEX
  5
7F85
330
7F73
100
AcDbEntity
  8
LW 5016-32-00
100
AcDbVertex
100
AcDb2dVertex
 10
9.035677909860396
 20
9.987690150735033
 30
0.0
  0
VERTEX
  5
7F86
330
7F73
100
AcDbEntity
  8
LW 5016-32-00
100
AcDbVertex
100
AcDb2dVertex
 10
9.31487083435968
 20
9.384086430069999
 30
0.0
  0
VERTEX
  5
7F87
330
7F73
100
AcDbEntity
  8
LW 5016-32-00
100
AcDbVertex
100
AcDb2dVertex
 10
9.552946090706882
 20
8.759588897225398
 30
0.0
  0
VERTEX
  5
7F88
330
7F73
100
AcDbEntity
  8
LW 5016-32-00
100
AcDbVertex
100
AcDb2dVertex
 10
9.748716354378757
 20
8.118924200531921
 30
0.0
  0
VERTEX
  5
7F89
330
7F73
100
AcDbEntity
  8
LW 5016-32-00
100
AcDbVertex
100
AcDb2dVertex
 10
9.901742935188849
 20
7.467362880703888
 30
0.0
  0
VERTEX
  5
7F8A
330
7F73
100
AcDbEntity
  8
LW 5016-32-00
100
AcDbVertex
100
AcDb2dVertex
 10
10.0115919113241
 20
6.810174882408944
 30
0.0
  0
VERTEX
  5
7F8B
330
7F73
100
AcDbEntity
  8
LW 5016-32-00
100
AcDbVertex
100
AcDb2dVertex
 10
10.07782459259806
 20
6.152630448338356
 30
0.0
  0
VERTEX
  5
7F8C
330
7F73
100
AcDbEntity
  8
LW 5016-32-00
100
AcDbVertex
100
AcDb2dVertex
 10
10.10000228882609
 20
5.500000007447567
 30
0.0
  0
SEQEND
  5
7F8D
330
7F73
100
AcDbEntity
  8
LW 5016-32-00
  0
LINE
  5
7F8E
330
7F16
100
AcDbEntity
  8
LW 5016-32-00
100
AcDbLine
 10
10.10000000000707
 20
-12.50000000000298
 30
0.0
 11
10.10000000000764
 21
5.499999999997044
 31
0.0
  0
LINE
  5
7F8F
330
7F16
100
AcDbEntity
  8
LW 5016-32-00
  6
MITTE2
 62
     3
100
AcDbLine
 10
-80.5415240363186
 20
5.000000000023874
 30
0.0
 11
37.06495985655966
 21
4.999999999989086
 31
0.0
  0
ENDBLK
  5
7F18
330
7F16
100
AcDbEntity
  8
0
100
AcDbBlockEnd
  0
BLOCK
  5
7F92
330
7F91
100
AcDbEntity
  8
0
100
AcDbBlockBegin
  2
LW 5016-32-00_d
 70
     0
 10
0.0
 20
0.0
 30
0.0
  3
LW 5016-32-00_d
  1

  0
LINE
  5
7F94
330
7F91
100
AcDbEntity
  8
LW 5016-32-00
  6
VERDECKT
 62
     6
100
AcDbLine
 10
-7.334936490575273
 20
17.70448267190204
 30
0.0
 11
-11.66506350949703
 21
15.2044826719009
 31
0.0
  0
LINE
  5
7F95
330
7F91
100
AcDbEntity
  8
LW 5016-32-00
  6
VERDECKT
 62
     6
100
AcDbLine
 10
-11.66506350948793
 20
-15.20448267190795
 30
0.0
 11
-7.334936490564814
 21
-17.70448267190659
 31
0.0
  0
LINE
  5
7F96
330
7F91
100
AcDbEntity
  8
LW 5016-32-00
  6
VERDECKT
 62
     6
100
AcDbLine
 10
-8.748924226251347
 20
15.1535812713729
 30
0.0
 11
-7.334936490575273
 21
17.70448267190204
 31
0.0
  0
LINE
  5
7F97
330
7F91
100
AcDbEntity
  8
LW 5016-32-00
  6
VERDECKT
 62
     6
100
AcDbLine
 10
-8.748924226251347
 20
15.1535812713729
 30
0.0
 11
-11.66506350949703
 21
15.2044826719009
 31
0.0
  0
LINE
  5
7F98
330
7F91
100
AcDbEntity
  8
LW 5016-32-00
  6
VERDECKT
 62
     6
100
AcDbLine
 10
-14.60240647333103
 20
20.29210992451317
 30
0.0
 11
-11.66506350949703
 21
15.20448267190068
 31
0.0
  0
LINE
  5
7F99
330
7F91
100
AcDbEntity
  8
LW 5016-32-00
  6
VERDECKT
 62
     6
100
AcDbLine
 10
-10.27227945440972
 20
22.79210992451453
 30
0.0
 11
-7.334936490575273
 21
17.70448267190204
 31
0.0
  0
LINE
  5
7F9A
330
7F91
100
AcDbEntity
  8
LW 5016-32-00
  6
VERDECKT
 62
     6
100
AcDbLine
 10
-8.748924226242252
 20
-15.15358127137824
 30
0.0
 11
-11.66506350948793
 21
-15.20448267190795
 31
0.0
  0
LINE
  5
7F9B
330
7F91
100
AcDbEntity
  8
LW 5016-32-00
  6
VERDECKT
 62
     6
100
AcDbLine
 10
-8.748924226242252
 20
-15.15358127137824
 30
0.0
 11
-7.334936490564814
 21
-17.70448267190659
 31
0.0
  0
LINE
  5
7F9C
330
7F91
100
AcDbEntity
  8
LW 5016-32-00
  6
VERDECKT
 62
     6
100
AcDbLine
 10
-10.27227945439608
 20
-22.79210992452068
 30
0.0
 11
-7.334936490564814
 21
-17.70448267190659
 31
0.0
  0
LINE
  5
7F9D
330
7F91
100
AcDbEntity
  8
LW 5016-32-00
  6
VERDECKT
 62
     6
100
AcDbLine
 10
-14.6024064733192
 20
-20.29210992452204
 30
0.0
 11
-11.66506350948793
 21
-15.20448267190795
 31
0.0
  0
LINE
  5
7F9E
330
7F91
100
AcDbEntity
  8
LW 5016-32-00
  6
VERDECKT
 62
     6
100
AcDbLine
 10
18.99999999996953
 20
-2.499999999994543
 30
0.0
 11
18.99999999996817
 21
2.500000000005456
 31
0.0
  0
LINE
  5
7F9F
330
7F91
100
AcDbEntity
  8
LW 5016-32-00
  6
VERDECKT
 62
     6
100
AcDbLine
 10
17.49784845239992
 20
0.0000000000051159
 30
0.0
 11
18.99999999996953
 21
-2.499999999994543
 31
0.0
  0
LINE
  5
7FA0
330
7F91
100
AcDbEntity
  8
LW 5016-32-00
  6
VERDECKT
 62
     6
100
AcDbLine
 10
17.49784845239992
 20
0.0000000000051159
 30
0.0
 11
18.99999999996817
 21
2.500000000005456
 31
0.0
  0
LINE
  5
7FA1
330
7F91
100
AcDbEntity
  8
LW 5016-32-00
  6
VERDECKT
 62
     6
100
AcDbLine
 10
24.87468592763344
 20
2.500000000007275
 30
0.0
 11
18.99999999996817
 21
2.500000000005456
 31
0.0
  0
LINE
  5
7FA2
330
7F91
100
AcDbEntity
  8
LW 5016-32-00
  6
VERDECKT
 62
     6
100
AcDbLine
 10
24.8746859276348
 20
-2.499999999992724
 30
0.0
 11
18.99999999996953
 21
-2.499999999994543
 31
0.0
  0
LINE
  5
7FA3
330
7F91
100
AcDbEntity
  8
LW 5016-32-00
  6
MITTE2
 62
     3
100
AcDbLine
 10
-14.93734296387174
 20
25.87223694343527
 30
0.0
 11
-7.000000000035015
 21
12.12435565298006
 31
0.0
  0
LINE
  5
7FA4
330
7F91
100
AcDbEntity
  8
LW 5016-32-00
  6
MITTE2
 62
     3
100
AcDbLine
 10
-14.93734296385628
 20
-25.87223694344425
 30
0.0
 11
-7.000000000027739
 21
-12.12435565298426
 31
0.0
  0
LINE
  5
7FA5
330
7F91
100
AcDbEntity
  8
LW 5016-32-00
  6
MITTE2
 62
     3
100
AcDbLine
 10
37.10268893529315
 20
0.0000000000173941
 30
0.0
 11
-37.10268893529315
 21
-0.0000000000173941
 31
0.0
  0
LINE
  5
7FA6
330
7F91
100
AcDbEntity
  8
LW 5016-32-00
  6
MITTE2
 62
     3
100
AcDbLine
 10
-0.0000000000065938
 20
22.6209724824912
 30
0.0
 11
0.0000000000065938
 21
-22.6209724824912
 31
0.0
  0
HATCH
  5
7FA7
330
7F91
100
AcDbEntity
  8
LW 5016-32-00
 62
     1
100
AcDbHatch
 10
0.0
 20
0.0
 30
0.0
210
0.0
220
0.0
230
1.0
  2
SOLID
 70
     1
 71
     0
 91
        5
 92
        7
 72
     0
 73
     1
 93
       76
 10
-5.057173424229176
 20
8.051816195540595
 10
-5.025314594856581
 20
8.103397157382346
 10
-4.90715647062484
 20
8.254639556398274
 10
-4.772678395412413
 20
8.395063686660819
 10
-4.626658488951079
 20
8.523448248374165
 10
-4.462989692868859
 20
8.640354531289972
 10
-4.287602739504336
 20
8.742532413111575
 10
-4.105849806903506
 20
8.833884092694461
 10
-3.924680871438113
 20
8.903402405140582
 10
-6.181818809637888
 20
8.903402405140582
 10
-6.394715362038141
 20
8.894712749940595
 10
-6.596749845438125
 20
8.868643784340633
 10
-6.792267087437949
 20
8.827367922140524
 10
-6.976922260437959
 20
8.773057577140548
 10
-7.152887778238209
 20
8.703540335540537
 10
-7.32016364083779
 20
8.620988611140433
 10
-7.470731903385285
 20
8.525663093596563
 10
-7.613439503838208
 20
8.418954127740448
 10
-7.73888075940863
 20
8.299905851500398
 10
-7.850145711485993
 20
8.171646540748497
 10
-7.950163642837878
 20
8.034436885140507
 10
-8.032715367238097
 20
7.888885160540439
 10
-8.095715367438288
 20
7.734643780740384
 10
-8.145680884838156
 20
7.573885159540509
 10
-8.173922264237944
 20
7.408781710740527
 10
-8.182611919437704
 20
7.234988606740557
 10
-8.17174985043789
 20
7.061195502740361
 10
-8.141336057238049
 20
6.893919640140438
 10
-8.087025712238073
 20
6.73316101894045
 10
-8.017508470638176
 20
6.576747225340454
 10
-7.928439504837797
 20
6.429023086940446
 10
-7.821991228637898
 20
6.287816189940599
 10
-7.699293297213671
 20
6.156602396420453
 10
-7.563094248505649
 20
6.03546860293261
 10
-7.415749848037876
 20
5.925023085340512
 10
-7.254991226838001
 20
5.827264464340601
 10
-7.079364605590626
 20
5.742366533036488
 10
-6.898715363638302
 20
5.668678256940552
 10
-6.707542949238131
 20
5.612195498140522
 10
-6.507680879637746
 20
5.568747222140586
 10
-6.299129154838055
 20
5.542678256540511
 10
-6.088405016237857
 20
5.533988601340524
 10
-3.969233930485415
 20
5.533988601340638
 10
-4.129777794537631
 20
5.597059405075583
 10
-4.313341938340499
 20
5.687679678598328
 10
-4.481808344510454
 20
5.792209371529793
 10
-4.644641239270868
 20
5.907827609955234
 10
-4.788553607641233
 20
6.037617206495156
 10
-4.915989501125523
 20
6.176970889723747
 10
-5.029694855869138
 20
6.327459134436253
 10
-5.081666087317671
 20
6.411643776540586
 10
-6.110129154237938
 20
6.411643776540472
 10
-6.242237982243523
 20
6.419203776564586
 10
-6.372991224038059
 20
6.439537569732578
 10
-6.50116363823804
 20
6.472471362940495
 10
-6.616301569637698
 20
6.518092052740598
 10
-6.721246535488035
 20
6.574574811540514
 10
-6.819396190972156
 20
6.64218032899646
 10
-6.909577432638116
 20
6.720126536140469
 10
-6.981267088037611
 20
6.804850674340514
 10
-5.253745773779201
 20
6.804850674340627
 10
-5.264330241052221
 20
6.83748611509884
 10
-5.300442049016282
 20
7.022860062650011
 10
-5.31248570179855
 20
7.213149776600744
 10
-5.30046402936864
 20
7.407900869955824
 10
-5.264158307693605
 20
7.594270241222261
 10
-5.24755960501875
 20
7.643402401140519
 10
-7.018198122638068
 20
7.643402401140519
 10
-6.948680881038171
 20
7.738988608340491
 10
-6.866129156637953
 20
7.821540332740482
 10
-6.771038259784518
 20
7.891405160548515
 10
-6.668439500838076
 20
7.949712746940576
 10
-6.549747500461535
 20
7.993682402252488
 10
-6.427301569038036
 20
8.02574722994052
 10
-6.290439499637841
 20
8.045298954140548
 10
-6.14706018883794
 20
8.051816195540482
 97
        0
 92
        7
 72
     0
 73
     1
 93
       72
 10
-3.32870955920157
 20
8.037217574804571
 10
-3.205846524328308
 20
8.05529205762059
 10
-3.081784317038227
 20
8.060505850740696
 10
-1.813094657837837
 20
8.060505850740696
 10
-2.660336039837829
 20
7.245850675740825
 10
-0.8941636204378937
 20
5.527471359940705
 10
0.424491556161911
 20
5.527471359940705
 10
-1.289542932038102
 20
7.269747227540733
 10
0.3919053491620161
 20
8.903402405140809
 10
-3.047025696238279
 20
8.903402405140582
 10
-3.255012593450146
 20
8.892627232692689
 10
-3.461730801003113
 20
8.867166542956624
 10
-3.666163629238099
 20
8.827367922140638
 10
-3.859508457438323
 20
8.770885163340608
 10
-4.046336044238387
 20
8.699195507940544
 10
-4.217496182712466
 20
8.613167921460558
 10
-4.383060183238058
 20
8.516712748740587
 10
-4.535129149238173
 20
8.408092058740635
 10
-4.670826804841226
 20
8.288783092844596
 10
-4.795818805238241
 20
8.158264471740608
 10
-4.904439495238193
 20
8.019229988540587
 10
-4.995680874837717
 20
7.871505850140692
 10
-5.067370530238122
 20
7.717264470340637
 10
-5.121680875238098
 20
7.556505849140535
 10
-5.154267082237993
 20
7.389229986540499
 10
-5.165129151238261
 20
7.213264468740476
 10
-5.154267082237993
 20
7.04164377854056
 10
-5.121680875238098
 20
6.874367915940638
 10
-5.069542944037721
 20
6.713609294740649
 10
-5.000025702437824
 20
6.559367914940594
 10
-4.908184736628982
 20
6.410601017916746
 10
-4.802805288018817
 20
6.271132051956556
 10
-4.684799770402833
 20
6.14209067223669
 10
-4.552508459637692
 20
6.022781706340651
 10
-4.400387355706925
 20
5.914769292204596
 10
-4.241853286237756
 20
5.81640239534056
 10
-4.070232596037612
 20
5.731678257140629
 10
-3.887749836837656
 20
5.659988601740565
 10
-3.693518663807708
 20
5.605938946396577
 10
-3.496715352838009
 20
5.562229980740653
 10
-3.288163628037864
 20
5.536161015140692
 10
-3.07743948943812
 20
5.527471359940705
 10
-1.174405000637989
 20
5.527471359940705
 10
-2.060749831038037
 20
6.400781707540659
 10
-3.07743948943812
 20
6.400781707540659
 10
-3.144106524132666
 20
6.40452900048001
 10
-3.245054248590577
 20
6.41451136275657
 10
-3.365188731730768
 20
6.435974811100663
 10
-3.482307904516574
 20
6.470298949140556
 10
-3.583803077252241
 20
6.511227225132643
 10
-3.639938249844135
 20
6.539381707980624
 10
-3.693622939669921
 20
6.571967914980746
 10
-3.82618362974631
 20
6.671290673916587
 10
-3.899785009289871
 20
6.741329294828688
 10
-3.954851354292486
 20
6.809195501940507
 10
-4.003556871688715
 20
6.88175412286057
 10
-4.042921009744759
 20
6.958918261036501
 10
-4.072344182251299
 20
7.040340330260619
 10
-4.093042940937948
 20
7.127497571916705
 10
-4.100559492685761
 20
7.216827227372505
 10
-4.099203906474713
 20
7.279132055156537
 10
-4.093199354731268
 20
7.341263089836502
 10
-4.081042527106774
 20
7.404436883140647
 10
-4.062829009807728
 20
7.466133435060669
 10
-4.019180871738399
 20
7.5648479181325
 10
-3.977653009537107
 20
7.632714125244547
 10
-3.914574802440483
 20
7.71074722894059
 10
-3.785172862075569
 20
7.837269965994323
 10
-3.725905008737981
 20
7.877327919124695
 10
-3.649609836081936
 20
7.921645160644516
 10
-3.565589559953195
 20
7.963789988364624
 10
-3.449052594065733
 20
8.006629988500662
 97
        0
 92
        7
 72
     0
 73
     1
 93
       57
 10
1.229327420786148
 20
8.015145850596923
 10
1.360801903961828
 20
8.055118264516863
 10
1.495491559561969
 20
8.082229988740891
 10
1.63887087036187
 20
8.090919643940765
 10
2.879319150162018
 20
8.090919643940878
 10
2.879319150162018
 20
8.916436887940903
 10
1.645388111762031
 20
8.91643688794079
 10
1.434663973161832
 20
8.907747232740803
 10
1.22828466216174
 20
8.879505853340788
 10
1.030595006361863
 20
8.838229991140792
 10
0.8415950057622012
 20
8.783919646140816
 10
0.6569398327617364
 20
8.712229990740866
 10
0.4905329356818129
 20
8.629591369788727
 10
0.3317121075913292
 20
8.533136197068756
 10
0.1816330726321667
 20
8.423646541548691
 10
0.0470737618604744
 20
8.3044244722048
 10
-0.0729912040380896
 20
8.175643782140809
 10
-0.1772670664379348
 20
8.036609298940788
 10
-0.2619912046377522
 20
7.89105757434072
 10
-0.3336808600381573
 20
7.736816194540665
 10
-0.3836463774380263
 20
7.57605757334079
 10
-0.4162325844379211
 20
7.408781710740868
 10
-0.4270946534381892
 20
7.234988606740785
 10
-0.4162325844379211
 20
7.061195502740815
 10
-0.3836463774380263
 20
6.893919640140779
 10
-0.3315084462381037
 20
6.733161018940677
 10
-0.2598187908381533
 20
6.576747225340795
 10
-0.1729222388378275
 20
6.429023086940787
 10
-0.0640756178029278
 20
6.28946722442879
 10
0.0557807963707546
 20
6.15912239642887
 10
0.1922083830111205
 20
6.037814809836731
 10
0.3397674179620935
 20
5.927195499140793
 10
0.5005260391619686
 20
5.829436878140654
 10
0.6743191431621654
 20
5.744712739940837
 10
0.8589743161621754
 20
5.670850670740833
 10
1.050146730561891
 20
5.614367911940803
 10
1.250008800162277
 20
5.570919635940867
 10
1.456388111162368
 20
5.547023084140732
 10
1.669284663562166
 20
5.538333428940745
 10
2.879319150162018
 20
5.538333428940859
 10
2.879319150162018
 20
6.396436879940779
 10
1.645388111762031
 20
6.396436879940779
 10
1.511741214786297
 20
6.406777569628729
 10
1.379484662642198
 20
6.428762397284913
 10
1.258872248465877
 20
6.463086535324805
 10
1.142865351546106
 20
6.511053432028916
 10
1.033201902921746
 20
6.571967914980859
 10
0.936138454337879
 20
6.639573432436804
 10
0.8487205230260315
 20
6.719344467172845
 10
0.7742501779619034
 20
6.804850674340855
 10
2.879319150162018
 20
6.804850674340855
 10
2.879319150162018
 20
7.63254033214082
 10
0.7373191433619013
 20
7.63254033214082
 10
0.8068363849622528
 20
7.730298953140732
 10
0.8937329369616691
 20
7.819367918940656
 10
0.9948805234901101
 20
7.895663091596816
 10
1.102284661762269
 20
7.962747229740784
 97
        0
 92
        7
 72
     0
 73
     1
 93
        6
 10
3.10959501296179
 20
8.903402405140923
 10
3.10959501296179
 20
5.533988601340865
 10
5.347181226962447
 20
5.533988601340979
 10
5.347181226961993
 20
6.400781707541
 10
4.132801912762033
 20
6.400781707541
 10
4.132801912762033
 20
8.903402405140923
 97
        0
 92
        7
 72
     0
 73
     1
 93
        8
 10
4.365250189361859
 20
8.903402405140923
 10
4.365250189361859
 20
8.077885161140898
 10
5.599181227762301
 20
8.077885161141011
 10
5.599181227762301
 20
5.527471359940932
 10
6.624560541362143
 20
5.527471359940932
 10
6.624560541362143
 20
8.077885161140898
 10
7.86718123496189
 20
8.077885161141011
 10
7.86718123496189
 20
8.903402405141036
 97
        0
 75
     0
 76
     1
 47
0.0142553043587597
 98
        5
 10
-5.747513298162857
 20
8.460952735551472
 10
-3.480016084820135
 20
8.318399750545836
 10
1.012195647381076
 20
8.375420923093656
 10
3.736044731212814
 20
8.61776114778604
 10
5.147882713439457
 20
8.517974015372715
450
        0
451
        0
460
0.0
461
0.0
452
        0
462
0.0
453
        0
470

  0
LWPOLYLINE
  5
7FA8
330
7F91
100
AcDbEntity
  8
LW 5016-32-00
 62
     1
100
AcDbPolyline
 90
        8
 70
     1
 43
0.0
 10
6.624560541362143
 20
8.077885161140898
 10
6.624560541362143
 20
5.527471359940932
 10
5.599181227762301
 20
5.527471359940932
 10
5.599181227762301
 20
8.077885161141011
 10
4.365250189361859
 20
8.077885161140898
 10
4.365250189361859
 20
8.903402405140923
 10
7.86718123496189
 20
8.903402405141036
 10
7.86718123496189
 20
8.077885161141011
  0
LWPOLYLINE
  5
7FA9
330
7F91
100
AcDbEntity
  8
LW 5016-32-00
 62
     1
100
AcDbPolyline
 90
       73
 70
     1
 43
0.0
 10
-3.07743948943812
 20
6.400781707540659
 10
-2.060749831038037
 20
6.400781707540659
 10
-1.174405000637989
 20
5.527471359940705
 10
-3.07743948943812
 20
5.527471359940591
 10
-3.288163628037864
 20
5.536161015140692
 10
-3.496715352838009
 20
5.562229980740653
 10
-3.693518663807708
 20
5.605938946396577
 10
-3.887749836837656
 20
5.659988601740565
 10
-4.070232596037612
 20
5.731678257140629
 10
-4.241853286237756
 20
5.81640239534056
 10
-4.400387355706925
 20
5.914769292204596
 10
-4.552508459637692
 20
6.022781706340651
 10
-4.684799770402833
 20
6.142090672236577
 10
-4.802805288018817
 20
6.271132051956556
 10
-4.908184736628982
 20
6.410601017916633
 10
-5.000025702437824
 20
6.559367914940594
 10
-5.069542944037721
 20
6.713609294740649
 10
-5.121680875238098
 20
6.874367915940638
 10
-5.154267082237993
 20
7.04164377854056
 10
-5.165129151238261
 20
7.21326446874059
 10
-5.154267082237993
 20
7.389229986540499
 10
-5.121680875238098
 20
7.556505849140535
 10
-5.067370530238122
 20
7.717264470340637
 10
-4.995680874837717
 20
7.871505850140579
 10
-4.904439495238193
 20
8.019229988540587
 10
-4.795818805238241
 20
8.158264471740608
 10
-4.670826804841226
 20
8.28878309284471
 10
-4.535129149238173
 20
8.408092058740635
 10
-4.383060183238058
 20
8.516712748740587
 10
-4.217496182712466
 20
8.613167921460558
 10
-4.046336044238387
 20
8.699195507940544
 10
-3.859508457438323
 20
8.770885163340608
 10
-3.666163629238099
 20
8.827367922140751
 10
-3.461730801003113
 20
8.867166542956624
 10
-3.255012593450146
 20
8.892627232692689
 10
-3.047025696238279
 20
8.903402405140582
 10
0.3919053491620161
 20
8.903402405140809
 10
-1.289542932038102
 20
7.269747227540733
 10
0.424491556161911
 20
5.527471359940705
 10
-0.8941636204378937
 20
5.527471359940705
 10
-2.660336039837829
 20
7.245850675740825
 10
-1.813094657837837
 20
8.060505850740696
 10
-3.081784317038227
 20
8.060505850740696
 10
-3.205846524328308
 20
8.05529205762059
 10
-3.32870955920157
 20
8.037217574804571
 10
-3.449052594065733
 20
8.006629988500662
 10
-3.565589559953195
 20
7.96378998836451
 10
-3.64960983608239
 20
7.921645160644629
 10
-3.725905008737981
 20
7.877327919124695
 10
-3.766146801968943
 20
7.850129298348633
 10
-3.803660043467289
 20
7.819194125836588
 10
-3.914574802440483
 20
7.71074722894059
 10
-3.977653009537107
 20
7.632714125244547
 10
-4.019180871737944
 20
7.564847918132613
 10
-4.062829009807728
 20
7.466133435060669
 10
-4.081042527106774
 20
7.404436883140647
 10
-4.093199354731268
 20
7.341263089836616
 10
-4.099203906474713
 20
7.279132055156651
 10
-4.100559492685761
 20
7.216827227372618
 10
-4.093042940937948
 20
7.127497571916705
 10
-4.072344182251299
 20
7.040340330260619
 10
-4.042921009744304
 20
6.958918261036615
 10
-4.003556871688715
 20
6.88175412286057
 10
-3.954851354292486
 20
6.809195501940621
 10
-3.899785009289871
 20
6.741329294828688
 10
-3.82618362974631
 20
6.671290673916587
 10
-3.693622939669921
 20
6.571967914980746
 10
-3.639938249844135
 20
6.539381707980624
 10
-3.583803077252241
 20
6.511227225132643
 10
-3.482307904516574
 20
6.470298949140556
 10
-3.365188731730768
 20
6.435974811100663
 10
-3.245054248590577
 20
6.41451136275657
 10
-3.144106524132666
 20
6.40452900048001
  0
LWPOLYLINE
  5
7FAA
330
7F91
100
AcDbEntity
  8
LW 5016-32-00
 62
     1
100
AcDbPolyline
 90
       76
 70
     1
 43
0.0
 10
-4.287602739504336
 20
8.742532413111575
 10
-4.462989692868859
 20
8.640354531289858
 10
-4.626658488951079
 20
8.523448248374165
 10
-4.772678395412413
 20
8.395063686660819
 10
-4.90715647062484
 20
8.254639556398274
 10
-5.025314594856581
 20
8.103397157382346
 10
-5.057173424229176
 20
8.051816195540595
 10
-6.14706018883794
 20
8.051816195540595
 10
-6.290439499637841
 20
8.045298954140548
 10
-6.427301569038036
 20
8.02574722994052
 10
-6.549747500461535
 20
7.993682402252488
 10
-6.668439500838076
 20
7.949712746940576
 10
-6.771038259784518
 20
7.891405160548515
 10
-6.866129156637953
 20
7.821540332740482
 10
-6.948680881038171
 20
7.738988608340491
 10
-7.018198122638068
 20
7.643402401140519
 10
-5.24755960501875
 20
7.643402401140519
 10
-5.264158307693605
 20
7.594270241222261
 10
-5.300464029369095
 20
7.407900869955597
 10
-5.31248570179855
 20
7.213149776600744
 10
-5.300442049016282
 20
7.022860062650011
 10
-5.264330241051766
 20
6.837486115098954
 10
-5.253745773779201
 20
6.804850674340627
 10
-6.981267088037611
 20
6.804850674340514
 10
-6.909577432638116
 20
6.720126536140469
 10
-6.819396190972156
 20
6.64218032899646
 10
-6.721246535488035
 20
6.574574811540514
 10
-6.616301569637698
 20
6.518092052740598
 10
-6.50116363823804
 20
6.472471362940609
 10
-6.372991224038059
 20
6.439537569732578
 10
-6.242237982243523
 20
6.419203776564586
 10
-6.110129154237938
 20
6.411643776540472
 10
-5.081666087317671
 20
6.411643776540586
 10
-5.029694855869138
 20
6.327459134436253
 10
-4.915989501125523
 20
6.176970889723747
 10
-4.788553607641233
 20
6.037617206495156
 10
-4.644641239270868
 20
5.907827609955461
 10
-4.481808344510454
 20
5.792209371529793
 10
-4.313341938340499
 20
5.687679678598328
 10
-4.129777794537631
 20
5.597059405075583
 10
-3.969233930485415
 20
5.533988601340638
 10
-6.088405016237857
 20
5.533988601340411
 10
-6.299129154838055
 20
5.542678256540511
 10
-6.507680879637746
 20
5.568747222140586
 10
-6.707542949238131
 20
5.612195498140522
 10
-6.898715363637847
 20
5.668678256940438
 10
-7.079364605591081
 20
5.742366533036488
 10
-7.254991226838001
 20
5.827264464340601
 10
-7.415749848037876
 20
5.925023085340512
 10
-7.563094248505649
 20
6.035468602932496
 10
-7.699293297213671
 20
6.156602396420453
 10
-7.821991228637898
 20
6.287816189940485
 10
-7.928439504838252
 20
6.429023086940446
 10
-8.017508470638176
 20
6.576747225340454
 10
-8.087025712238073
 20
6.73316101894045
 10
-8.141336057238049
 20
6.893919640140438
 10
-8.17174985043789
 20
7.061195502740588
 10
-8.182611919437704
 20
7.234988606740444
 10
-8.173922264238399
 20
7.408781710740413
 10
-8.145680884838156
 20
7.573885159540509
 10
-8.095715367438288
 20
7.734643780740384
 10
-8.032715367238097
 20
7.888885160540439
 10
-7.950163642837878
 20
8.034436885140507
 10
-7.850145711485993
 20
8.171646540748497
 10
-7.73888075940863
 20
8.299905851500511
 10
-7.613439503838208
 20
8.418954127740448
 10
-7.470731903385285
 20
8.525663093596563
 10
-7.32016364083779
 20
8.620988611140546
 10
-7.152887778237754
 20
8.703540335540424
 10
-6.976922260437959
 20
8.773057577140548
 10
-6.792267087437949
 20
8.827367922140524
 10
-6.596749845438125
 20
8.868643784340633
 10
-6.394715362038141
 20
8.894712749940595
 10
-6.181818809637888
 20
8.903402405140582
 10
-3.924680871438113
 20
8.903402405140695
 10
-4.105849806903506
 20
8.833884092694461
  0
LWPOLYLINE
  5
7FAB
330
7F91
100
AcDbEntity
  8
LW 5016-32-00
 62
     1
100
AcDbPolyline
 90
        6
 70
     1
 43
0.0
 10
5.347181226962447
 20
5.533988601340979
 10
3.10959501296179
 20
5.533988601340865
 10
3.10959501296179
 20
8.903402405140923
 10
4.132801912762033
 20
8.903402405140923
 10
4.132801912762033
 20
6.400781707541
 10
5.347181226961993
 20
6.400781707541
  0
LWPOLYLINE
  5
7FAC
330
7F91
100
AcDbEntity
  8
LW 5016-32-00
 62
     1
100
AcDbPolyline
 90
       57
 70
     1
 43
0.0
 10
0.0557807963707546
 20
6.15912239642887
 10
-0.0640756178029278
 20
6.289467224428676
 10
-0.1729222388378275
 20
6.429023086940674
 10
-0.2598187908381533
 20
6.576747225340795
 10
-0.3315084462381037
 20
6.733161018940677
 10
-0.3836463774380263
 20
6.893919640140779
 10
-0.4162325844379211
 20
7.061195502740815
 10
-0.4270946534381892
 20
7.234988606740785
 10
-0.4162325844379211
 20
7.408781710740754
 10
-0.3836463774380263
 20
7.57605757334079
 10
-0.3336808600381573
 20
7.736816194540665
 10
-0.2619912046377522
 20
7.891057574340834
 10
-0.1772670664379348
 20
8.036609298940675
 10
-0.0729912040380896
 20
8.175643782140809
 10
0.0470737618604744
 20
8.304424472204686
 10
0.1816330726321667
 20
8.423646541548691
 10
0.3317121075913292
 20
8.533136197068756
 10
0.4905329356822677
 20
8.62959136978884
 10
0.6569398327617364
 20
8.712229990740866
 10
0.8415950057622012
 20
8.783919646140816
 10
1.030595006361863
 20
8.838229991140792
 10
1.22828466216174
 20
8.879505853340788
 10
1.434663973161832
 20
8.907747232740803
 10
1.645388111762031
 20
8.91643688794079
 10
2.879319150162018
 20
8.916436887940903
 10
2.879319150162018
 20
8.090919643940878
 10
1.638870870362325
 20
8.090919643940765
 10
1.495491559561969
 20
8.082229988740778
 10
1.360801903961828
 20
8.055118264516863
 10
1.229327420785693
 20
8.015145850596809
 10
1.102284661762269
 20
7.962747229740784
 10
0.9948805234901101
 20
7.895663091596816
 10
0.8937329369616691
 20
7.819367918940884
 10
0.8068363849622528
 20
7.730298953140732
 10
0.7373191433619013
 20
7.63254033214082
 10
2.879319150162018
 20
7.63254033214082
 10
2.879319150162018
 20
6.804850674340855
 10
0.7742501779619034
 20
6.804850674340855
 10
0.8487205230260315
 20
6.719344467172845
 10
0.936138454337879
 20
6.639573432436804
 10
1.033201902921746
 20
6.571967914980859
 10
1.142865351546106
 20
6.511053432028916
 10
1.258872248465877
 20
6.463086535324805
 10
1.379484662642198
 20
6.428762397284913
 10
1.511741214786297
 20
6.406777569628729
 10
1.645388111762031
 20
6.396436879940779
 10
2.879319150162018
 20
6.396436879940779
 10
2.879319150162018
 20
5.538333428940859
 10
1.669284663562166
 20
5.538333428940745
 10
1.456388111162368
 20
5.547023084140732
 10
1.250008800162277
 20
5.570919635940867
 10
1.050146730561891
 20
5.614367911940803
 10
0.8589743161621754
 20
5.670850670740833
 10
0.6743191431621654
 20
5.744712739940837
 10
0.5005260391619686
 20
5.829436878140882
 10
0.3397674179620935
 20
5.927195499140793
 10
0.1922083830111205
 20
6.037814809836731
  0
INSERT
  5
7FAD
330
7F91
100
AcDbEntity
  8
LW 5016-32-00
100
AcDbBlockReference
 66
     1
  2
insertpoint-ECKELT
 10
0.0
 20
0.0
 30
0.0
  0
ATTRIB
  5
7FAE
330
7FAD
100
AcDbEntity
  8
insertpoint_ECKELT
100
AcDbText
 10
-6.93151432469286
 20
0.0
 30
0.0
 40
0.6
  1
LW 5016/32-00
 72
     2
 11
-1.199999999999818
 21
0.0
 31
0.0
100
AcDbAttribute
  2
LINKS
 70
     0
  0
ATTRIB
  5
7FAF
330
7FAD
100
AcDbEntity
  8
insertpoint_ECKELT
100
AcDbText
 10
1.199999999999818
 20
0.0
 30
0.0
 40
0.6
  1

100
AcDbAttribute
  2
RECHTS
 70
     0
  0
SEQEND
  5
7FB0
330
7FAD
100
AcDbEntity
  8
LW 5016-32-00
  0
CIRCLE
  5
7FB1
330
7F91
100
AcDbEntity
  8
LW 5016-32-00
100
AcDbCircle
 10
0.0
 20
0.0
 30
0.0
 40
18.99999999998902
  0
CIRCLE
  5
7FB2
330
7F91
100
AcDbEntity
  8
LW 5016-32-00
100
AcDbCircle
 10
0.0
 20
0.0
 30
0.0
 40
24.99999999997855
  0
CIRCLE
  5
7FB3
330
7F91
100
AcDbEntity
  8
LW 5016-32-00
100
AcDbCircle
 10
0.0
 20
0.0
 30
0.0
 40
32.49999999996969
  0
ENDBLK
  5
7F93
330
7F91
100
AcDbEntity
  8
0
100
AcDbBlockEnd
  0
BLOCK
  5
82E6
330
82E5
100
AcDbEntity
  8
0
100
AcDbBlockBegin
  2
LW 5016-32-00_a
 70
     0
 10
0.0
 20
0.0
 30
0.0
  3
LW 5016-32-00_a
  1

  0
ELLIPSE
  5
82E8
330
82E5
100
AcDbEntity
  8
LW 5016-32-00
100
AcDbEllipse
 10
37.52000000000022
 20
-9.499999999999943
 30
0.0
 11
-2.499999999999997
 21
0.0000000000002078
 31
0.0
210
0.0
220
0.0
230
1.0
 40
0.866025403784439
 41
0.7560039322268049
 42
2.385588721363189
  0
POLYLINE
  5
82E9
330
82E5
100
AcDbEntity
  8
LW 5016-32-00
100
AcDb2dPolyline
 66
     1
 10
0.0
 20
0.0
 30
0.0
 70
   128
  0
VERTEX
  5
82EA
330
82E9
100
AcDbEntity
  8
LW 5016-32-00
100
AcDbVertex
100
AcDb2dVertex
 10
40.02000000000022
 20
-12.49999999999994
 30
0.0
  0
VERTEX
  5
82EB
330
82E9
100
AcDbEntity
  8
LW 5016-32-00
100
AcDbVertex
100
AcDb2dVertex
 10
39.99898697853111
 20
-12.77545213699335
 30
0.0
  0
VERTEX
  5
82EC
330
82E9
100
AcDbEntity
  8
LW 5016-32-00
100
AcDbVertex
100
AcDb2dVertex
 10
39.93565704345725
 20
-13.05167794227594
 30
0.0
  0
VERTEX
  5
82ED
330
82E9
100
AcDbEntity
  8
LW 5016-32-00
100
AcDbVertex
100
AcDb2dVertex
 10
39.8295774650576
 20
-13.31962585449213
 30
0.0
  0
VERTEX
  5
82EE
330
82E9
100
AcDbEntity
  8
LW 5016-32-00
100
AcDbVertex
100
AcDb2dVertex
 10
39.68169476509117
 20
-13.5708856582641
 30
0.0
  0
VERTEX
  5
82EF
330
82E9
100
AcDbEntity
  8
LW 5016-32-00
100
AcDbVertex
100
AcDb2dVertex
 10
39.49847723960899
 20
-13.79940271377558
 30
0.0
  0
VERTEX
  5
82F0
330
82E9
100
AcDbEntity
  8
LW 5016-32-00
100
AcDbVertex
100
AcDb2dVertex
 10
39.28776528358482
 20
-13.99964332580561
 30
0.0
  0
VERTEX
  5
82F1
330
82E9
100
AcDbEntity
  8
LW 5016-32-00
100
AcDbVertex
100
AcDb2dVertex
 10
39.04740001678489
 20
-14.17419910430902
 30
0.0
  0
VERTEX
  5
82F2
330
82E9
100
AcDbEntity
  8
LW 5016-32-00
100
AcDbVertex
100
AcDb2dVertex
 10
38.77476121902488
 20
-14.32525992393488
 30
0.0
  0
VERTEX
  5
82F3
330
82E9
100
AcDbEntity
  8
LW 5016-32-00
100
AcDbVertex
100
AcDb2dVertex
 10
38.47699787139915
 20
-14.44669842720026
 30
0.0
  0
VERTEX
  5
82F4
330
82E9
100
AcDbEntity
  8
LW 5016-32-00
100
AcDbVertex
100
AcDb2dVertex
 10
38.1618311595919
 20
-14.53354954719538
 30
0.0
  0
VERTEX
  5
82F5
330
82E9
100
AcDbEntity
  8
LW 5016-32-00
100
AcDbVertex
100
AcDb2dVertex
 10
37.83929254531883
 20
-14.58527922630304
 30
0.0
  0
VERTEX
  5
82F6
330
82E9
100
AcDbEntity
  8
LW 5016-32-00
100
AcDbVertex
100
AcDb2dVertex
 10
37.52000000000022
 20
-14.6024060249328
 30
0.0
  0
VERTEX
  5
82F7
330
82E9
100
AcDbEntity
  8
LW 5016-32-00
100
AcDbVertex
100
AcDb2dVertex
 10
37.20070745468162
 20
-14.58527922630304
 30
0.0
  0
VERTEX
  5
82F8
330
82E9
100
AcDbEntity
  8
LW 5016-32-00
100
AcDbVertex
100
AcDb2dVertex
 10
36.87816884040855
 20
-14.53354954719538
 30
0.0
  0
VERTEX
  5
82F9
330
82E9
100
AcDbEntity
  8
LW 5016-32-00
100
AcDbVertex
100
AcDb2dVertex
 10
36.5630021286013
 20
-14.44669842720026
 30
0.0
  0
VERTEX
  5
82FA
330
82E9
100
AcDbEntity
  8
LW 5016-32-00
100
AcDbVertex
100
AcDb2dVertex
 10
36.26523878097557
 20
-14.32525992393488
 30
0.0
  0
VERTEX
  5
82FB
330
82E9
100
AcDbEntity
  8
LW 5016-32-00
100
AcDbVertex
100
AcDb2dVertex
 10
35.99259998321556
 20
-14.17419910430902
 30
0.0
  0
VERTEX
  5
82FC
330
82E9
100
AcDbEntity
  8
LW 5016-32-00
100
AcDbVertex
100
AcDb2dVertex
 10
35.75223471641563
 20
-13.99964332580561
 30
0.0
  0
VERTEX
  5
82FD
330
82E9
100
AcDbEntity
  8
LW 5016-32-00
100
AcDbVertex
100
AcDb2dVertex
 10
35.54152276039146
 20
-13.79940271377558
 30
0.0
  0
VERTEX
  5
82FE
330
82E9
100
AcDbEntity
  8
LW 5016-32-00
100
AcDbVertex
100
AcDb2dVertex
 10
35.35830523490928
 20
-13.5708856582641
 30
0.0
  0
VERTEX
  5
82FF
330
82E9
100
AcDbEntity
  8
LW 5016-32-00
100
AcDbVertex
100
AcDb2dVertex
 10
35.21042253494285
 20
-13.31962585449213
 30
0.0
  0
VERTEX
  5
8300
330
82E9
100
AcDbEntity
  8
LW 5016-32-00
100
AcDbVertex
100
AcDb2dVertex
 10
35.10434295654319
 20
-13.05167794227594
 30
0.0
  0
VERTEX
  5
8301
330
82E9
100
AcDbEntity
  8
LW 5016-32-00
100
AcDbVertex
100
AcDb2dVertex
 10
35.04101302146934
 20
-12.77545213699335
 30
0.0
  0
VERTEX
  5
8302
330
82E9
100
AcDbEntity
  8
LW 5016-32-00
100
AcDbVertex
100
AcDb2dVertex
 10
35.02000000000022
 20
-12.49999999999994
 30
0.0
  0
SEQEND
  5
8303
330
82E9
100
AcDbEntity
  8
LW 5016-32-00
  0
POLYLINE
  5
8304
330
82E5
100
AcDbEntity
  8
LW 5016-32-00
100
AcDb2dPolyline
 66
     1
 10
0.0
 20
0.0
 30
0.0
 70
   128
  0
VERTEX
  5
8305
330
8304
100
AcDbEntity
  8
LW 5016-32-00
100
AcDbVertex
100
AcDb2dVertex
 10
35.02000000000022
 20
-12.49999999999994
 30
0.0
  0
VERTEX
  5
8306
330
8304
100
AcDbEntity
  8
LW 5016-32-00
100
AcDbVertex
100
AcDb2dVertex
 10
35.04101302146934
 20
-12.22241878509516
 30
0.0
  0
VERTEX
  5
8307
330
8304
100
AcDbEntity
  8
LW 5016-32-00
100
AcDbVertex
100
AcDb2dVertex
 10
35.10434295654319
 20
-11.93999171257013
 30
0.0
  0
VERTEX
  5
8308
330
8304
100
AcDbEntity
  8
LW 5016-32-00
100
AcDbVertex
100
AcDb2dVertex
 10
35.21042253494285
 20
-11.6620504856109
 30
0.0
  0
VERTEX
  5
8309
330
8304
100
AcDbEntity
  8
LW 5016-32-00
100
AcDbVertex
100
AcDb2dVertex
 10
35.35830523490928
 20
-11.39756798744196
 30
0.0
  0
VERTEX
  5
830A
330
8304
100
AcDbEntity
  8
LW 5016-32-00
100
AcDbVertex
100
AcDb2dVertex
 10
35.54152276039146
 20
-11.15386009216303
 30
0.0
  0
VERTEX
  5
830B
330
8304
100
AcDbEntity
  8
LW 5016-32-00
100
AcDbVertex
100
AcDb2dVertex
 10
35.75223471641563
 20
-10.9377777576446
 30
0.0
  0
VERTEX
  5
830C
330
8304
100
AcDbEntity
  8
LW 5016-32-00
100
AcDbVertex
100
AcDb2dVertex
 10
35.99259998321556
 20
-10.74736952781671
 30
0.0
  0
VERTEX
  5
830D
330
8304
100
AcDbEntity
  8
LW 5016-32-00
100
AcDbVertex
100
AcDb2dVertex
 10
36.26523878097557
 20
-10.58108925819391
 30
0.0
  0
VERTEX
  5
830E
330
8304
100
AcDbEntity
  8
LW 5016-32-00
100
AcDbVertex
100
AcDb2dVertex
 10
36.5630021286013
 20
-10.4463899135589
 30
0.0
  0
VERTEX
  5
830F
330
8304
100
AcDbEntity
  8
LW 5016-32-00
100
AcDbVertex
100
AcDb2dVertex
 10
36.87816884040855
 20
-10.34950613975519
 30
0.0
  0
VERTEX
  5
8310
330
8304
100
AcDbEntity
  8
LW 5016-32-00
100
AcDbVertex
100
AcDb2dVertex
 10
37.20070745468162
 20
-10.2915477752685
 30
0.0
  0
VERTEX
  5
8311
330
8304
100
AcDbEntity
  8
LW 5016-32-00
100
AcDbVertex
100
AcDb2dVertex
 10
37.52000000000022
 20
-10.2722799777984
 30
0.0
  0
VERTEX
  5
8312
330
8304
100
AcDbEntity
  8
LW 5016-32-00
100
AcDbVertex
100
AcDb2dVertex
 10
37.83929254531883
 20
-10.2915477752685
 30
0.0
  0
VERTEX
  5
8313
330
8304
100
AcDbEntity
  8
LW 5016-32-00
100
AcDbVertex
100
AcDb2dVertex
 10
38.1618311595919
 20
-10.34950613975519
 30
0.0
  0
VERTEX
  5
8314
330
8304
100
AcDbEntity
  8
LW 5016-32-00
100
AcDbVertex
100
AcDb2dVertex
 10
38.47699787139915
 20
-10.4463899135589
 30
0.0
  0
VERTEX
  5
8315
330
8304
100
AcDbEntity
  8
LW 5016-32-00
100
AcDbVertex
100
AcDb2dVertex
 10
38.77476121902488
 20
-10.58108925819391
 30
0.0
  0
VERTEX
  5
8316
330
8304
100
AcDbEntity
  8
LW 5016-32-00
100
AcDbVertex
100
AcDb2dVertex
 10
39.04740001678489
 20
-10.74736952781671
 30
0.0
  0
VERTEX
  5
8317
330
8304
100
AcDbEntity
  8
LW 5016-32-00
100
AcDbVertex
100
AcDb2dVertex
 10
39.28776528358482
 20
-10.9377777576446
 30
0.0
  0
VERTEX
  5
8318
330
8304
100
AcDbEntity
  8
LW 5016-32-00
100
AcDbVertex
100
AcDb2dVertex
 10
39.49847723960899
 20
-11.15386009216303
 30
0.0
  0
VERTEX
  5
8319
330
8304
100
AcDbEntity
  8
LW 5016-32-00
100
AcDbVertex
100
AcDb2dVertex
 10
39.68169476509117
 20
-11.39756798744196
 30
0.0
  0
VERTEX
  5
831A
330
8304
100
AcDbEntity
  8
LW 5016-32-00
100
AcDbVertex
100
AcDb2dVertex
 10
39.8295774650576
 20
-11.6620504856109
 30
0.0
  0
VERTEX
  5
831B
330
8304
100
AcDbEntity
  8
LW 5016-32-00
100
AcDbVertex
100
AcDb2dVertex
 10
39.93565704345725
 20
-11.93999171257013
 30
0.0
  0
VERTEX
  5
831C
330
8304
100
AcDbEntity
  8
LW 5016-32-00
100
AcDbVertex
100
AcDb2dVertex
 10
39.99898697853111
 20
-12.22241878509516
 30
0.0
  0
VERTEX
  5
831D
330
8304
100
AcDbEntity
  8
LW 5016-32-00
100
AcDbVertex
100
AcDb2dVertex
 10
40.02000000000022
 20
-12.49999999999994
 30
0.0
  0
SEQEND
  5
831E
330
8304
100
AcDbEntity
  8
LW 5016-32-00
  0
POLYLINE
  5
831F
330
82E5
100
AcDbEntity
  8
LW 5016-32-00
100
AcDb2dPolyline
 66
     1
 10
0.0
 20
0.0
 30
0.0
 70
   128
  0
VERTEX
  5
8320
330
831F
100
AcDbEntity
  8
LW 5016-32-00
100
AcDbVertex
100
AcDb2dVertex
 10
40.02000000000022
 20
25.00000000000011
 30
0.0
  0
VERTEX
  5
8321
330
831F
100
AcDbEntity
  8
LW 5016-32-00
100
AcDbVertex
100
AcDb2dVertex
 10
39.99898697853111
 20
24.99787092208874
 30
0.0
  0
VERTEX
  5
8322
330
831F
100
AcDbEntity
  8
LW 5016-32-00
100
AcDbVertex
100
AcDb2dVertex
 10
39.93565704345725
 20
24.99166965484631
 30
0.0
  0
VERTEX
  5
8323
330
831F
100
AcDbEntity
  8
LW 5016-32-00
100
AcDbVertex
100
AcDb2dVertex
 10
39.8295774650576
 20
24.98167514801037
 30
0.0
  0
VERTEX
  5
8324
330
831F
100
AcDbEntity
  8
LW 5016-32-00
100
AcDbVertex
100
AcDb2dVertex
 10
39.68169476509117
 20
24.96845483779919
 30
0.0
  0
VERTEX
  5
8325
330
831F
100
AcDbEntity
  8
LW 5016-32-00
100
AcDbVertex
100
AcDb2dVertex
 10
39.49847723960899
 20
24.95326280593884
 30
0.0
  0
VERTEX
  5
8326
330
831F
100
AcDbEntity
  8
LW 5016-32-00
100
AcDbVertex
100
AcDb2dVertex
 10
39.28776528358482
 20
24.93742227554333
 30
0.0
  0
VERTEX
  5
8327
330
831F
100
AcDbEntity
  8
LW 5016-32-00
100
AcDbVertex
100
AcDb2dVertex
 10
39.04740001678489
 20
24.92156982421886
 30
0.0
  0
VERTEX
  5
8328
330
831F
100
AcDbEntity
  8
LW 5016-32-00
100
AcDbVertex
100
AcDb2dVertex
 10
38.77476121902488
 20
24.90634918212902
 30
0.0
  0
VERTEX
  5
8329
330
831F
100
AcDbEntity
  8
LW 5016-32-00
100
AcDbVertex
100
AcDb2dVertex
 10
38.47699787139915
 20
24.89308834075939
 30
0.0
  0
VERTEX
  5
832A
330
831F
100
AcDbEntity
  8
LW 5016-32-00
100
AcDbVertex
100
AcDb2dVertex
 10
38.1618311595919
 20
24.8830556869508
 30
0.0
  0
VERTEX
  5
832B
330
831F
100
AcDbEntity
  8
LW 5016-32-00
100
AcDbVertex
100
AcDb2dVertex
 10
37.83929254531883
 20
24.87682580947887
 30
0.0
  0
VERTEX
  5
832C
330
831F
100
AcDbEntity
  8
LW 5016-32-00
100
AcDbVertex
100
AcDb2dVertex
 10
37.52000000000022
 20
24.87468481063854
 30
0.0
  0
VERTEX
  5
832D
330
831F
100
AcDbEntity
  8
LW 5016-32-00
100
AcDbVertex
100
AcDb2dVertex
 10
37.20070745468162
 20
24.87682580947887
 30
0.0
  0
VERTEX
  5
832E
330
831F
100
AcDbEntity
  8
LW 5016-32-00
100
AcDbVertex
100
AcDb2dVertex
 10
36.87816884040855
 20
24.8830556869508
 30
0.0
  0
VERTEX
  5
832F
330
831F
100
AcDbEntity
  8
LW 5016-32-00
100
AcDbVertex
100
AcDb2dVertex
 10
36.5630021286013
 20
24.89308834075939
 30
0.0
  0
VERTEX
  5
8330
330
831F
100
AcDbEntity
  8
LW 5016-32-00
100
AcDbVertex
100
AcDb2dVertex
 10
36.26523878097557
 20
24.90634918212902
 30
0.0
  0
VERTEX
  5
8331
330
831F
100
AcDbEntity
  8
LW 5016-32-00
100
AcDbVertex
100
AcDb2dVertex
 10
35.99259998321556
 20
24.92156982421886
 30
0.0
  0
VERTEX
  5
8332
330
831F
100
AcDbEntity
  8
LW 5016-32-00
100
AcDbVertex
100
AcDb2dVertex
 10
35.75223471641563
 20
24.93742227554333
 30
0.0
  0
VERTEX
  5
8333
330
831F
100
AcDbEntity
  8
LW 5016-32-00
100
AcDbVertex
100
AcDb2dVertex
 10
35.54152276039146
 20
24.95326280593884
 30
0.0
  0
VERTEX
  5
8334
330
831F
100
AcDbEntity
  8
LW 5016-32-00
100
AcDbVertex
100
AcDb2dVertex
 10
35.35830523490928
 20
24.96845483779919
 30
0.0
  0
VERTEX
  5
8335
330
831F
100
AcDbEntity
  8
LW 5016-32-00
100
AcDbVertex
100
AcDb2dVertex
 10
35.21042253494285
 20
24.98167514801037
 30
0.0
  0
VERTEX
  5
8336
330
831F
100
AcDbEntity
  8
LW 5016-32-00
100
AcDbVertex
100
AcDb2dVertex
 10
35.10434295654319
 20
24.99166965484631
 30
0.0
  0
VERTEX
  5
8337
330
831F
100
AcDbEntity
  8
LW 5016-32-00
100
AcDbVertex
100
AcDb2dVertex
 10
35.04101302146934
 20
24.99787092208874
 30
0.0
  0
VERTEX
  5
8338
330
831F
100
AcDbEntity
  8
LW 5016-32-00
100
AcDbVertex
100
AcDb2dVertex
 10
35.02000000000022
 20
25.00000000000011
 30
0.0
  0
SEQEND
  5
8339
330
831F
100
AcDbEntity
  8
LW 5016-32-00
  0
LINE
  5
833A
330
82E5
100
AcDbEntity
  8
LW 5016-32-00
100
AcDbLine
 10
41.52000000000022
 20
-24.99999999999995
 30
0.0
 11
41.52000000000022
 21
25.00000000000011
 31
0.0
  0
LINE
  5
833B
330
82E5
100
AcDbEntity
  8
LW 5016-32-00
100
AcDbLine
 10
47.52000000000022
 20
-18.99999999999989
 30
0.0
 11
47.52000000000022
 21
19.00000000000005
 31
0.0
  0
LINE
  5
833C
330
82E5
100
AcDbEntity
  8
LW 5016-32-00
100
AcDbLine
 10
22.52000000000022
 20
25.00000000000011
 30
0.0
 11
35.02000000000022
 21
25.00000000000011
 31
0.0
  0
LINE
  5
833D
330
82E5
100
AcDbEntity
  8
LW 5016-32-00
100
AcDbLine
 10
40.02000000000022
 20
25.00000000000011
 30
0.0
 11
41.52000000000022
 21
25.00000000000011
 31
0.0
  0
LINE
  5
833E
330
82E5
100
AcDbEntity
  8
LW 5016-32-00
100
AcDbLine
 10
22.52000000000022
 20
-24.99999999999995
 30
0.0
 11
41.52000000000022
 21
-24.99999999999995
 31
0.0
  0
LINE
  5
833F
330
82E5
100
AcDbEntity
  8
LW 5016-32-00
100
AcDbLine
 10
47.52000000000022
 20
-18.99999999999989
 30
0.0
 11
41.52000000000022
 21
-24.99999999999995
 31
0.0
  0
LINE
  5
8340
330
82E5
100
AcDbEntity
  8
LW 5016-32-00
100
AcDbLine
 10
47.52000000000022
 20
19.00000000000005
 30
0.0
 11
41.52000000000022
 21
25.00000000000011
 31
0.0
  0
ELLIPSE
  5
8341
330
82E5
100
AcDbEntity
  8
LW 5016-32-00
100
AcDbEllipse
 10
-37.51999999999977
 20
-9.499999999999943
 30
0.0
 11
-2.499999999999997
 21
0.0000000000002
 31
0.0
210
0.0
220
0.0
230
1.0
 40
0.866025403784439
 41
0.7560039322268107
 42
2.385588721363187
  0
POLYLINE
  5
8342
330
82E5
100
AcDbEntity
  8
LW 5016-32-00
100
AcDb2dPolyline
 66
     1
 10
0.0
 20
0.0
 30
0.0
 70
   128
  0
VERTEX
  5
8343
330
8342
100
AcDbEntity
  8
LW 5016-32-00
100
AcDbVertex
100
AcDb2dVertex
 10
-40.01999999999976
 20
-12.49999999999994
 30
0.0
  0
VERTEX
  5
8344
330
8342
100
AcDbEntity
  8
LW 5016-32-00
100
AcDbVertex
100
AcDb2dVertex
 10
-39.99898697853065
 20
-12.22241878509516
 30
0.0
  0
VERTEX
  5
8345
330
8342
100
AcDbEntity
  8
LW 5016-32-00
100
AcDbVertex
100
AcDb2dVertex
 10
-39.9356570434568
 20
-11.93999171257013
 30
0.0
  0
VERTEX
  5
8346
330
8342
100
AcDbEntity
  8
LW 5016-32-00
100
AcDbVertex
100
AcDb2dVertex
 10
-39.82957746505714
 20
-11.6620504856109
 30
0.0
  0
VERTEX
  5
8347
330
8342
100
AcDbEntity
  8
LW 5016-32-00
100
AcDbVertex
100
AcDb2dVertex
 10
-39.68169476509071
 20
-11.39756798744196
 30
0.0
  0
VERTEX
  5
8348
330
8342
100
AcDbEntity
  8
LW 5016-32-00
100
AcDbVertex
100
AcDb2dVertex
 10
-39.49847723960854
 20
-11.15386009216303
 30
0.0
  0
VERTEX
  5
8349
330
8342
100
AcDbEntity
  8
LW 5016-32-00
100
AcDbVertex
100
AcDb2dVertex
 10
-39.28776528358437
 20
-10.9377777576446
 30
0.0
  0
VERTEX
  5
834A
330
8342
100
AcDbEntity
  8
LW 5016-32-00
100
AcDbVertex
100
AcDb2dVertex
 10
-39.04740001678444
 20
-10.74736952781671
 30
0.0
  0
VERTEX
  5
834B
330
8342
100
AcDbEntity
  8
LW 5016-32-00
100
AcDbVertex
100
AcDb2dVertex
 10
-38.77476121902443
 20
-10.58108925819391
 30
0.0
  0
VERTEX
  5
834C
330
8342
100
AcDbEntity
  8
LW 5016-32-00
100
AcDbVertex
100
AcDb2dVertex
 10
-38.4769978713987
 20
-10.4463899135589
 30
0.0
  0
VERTEX
  5
834D
330
8342
100
AcDbEntity
  8
LW 5016-32-00
100
AcDbVertex
100
AcDb2dVertex
 10
-38.16183115959145
 20
-10.34950613975519
 30
0.0
  0
VERTEX
  5
834E
330
8342
100
AcDbEntity
  8
LW 5016-32-00
100
AcDbVertex
100
AcDb2dVertex
 10
-37.83929254531837
 20
-10.2915477752685
 30
0.0
  0
VERTEX
  5
834F
330
8342
100
AcDbEntity
  8
LW 5016-32-00
100
AcDbVertex
100
AcDb2dVertex
 10
-37.51999999999977
 20
-10.2722799777984
 30
0.0
  0
VERTEX
  5
8350
330
8342
100
AcDbEntity
  8
LW 5016-32-00
100
AcDbVertex
100
AcDb2dVertex
 10
-37.20070745468117
 20
-10.2915477752685
 30
0.0
  0
VERTEX
  5
8351
330
8342
100
AcDbEntity
  8
LW 5016-32-00
100
AcDbVertex
100
AcDb2dVertex
 10
-36.8781688404081
 20
-10.34950613975519
 30
0.0
  0
VERTEX
  5
8352
330
8342
100
AcDbEntity
  8
LW 5016-32-00
100
AcDbVertex
100
AcDb2dVertex
 10
-36.56300212860084
 20
-10.4463899135589
 30
0.0
  0
VERTEX
  5
8353
330
8342
100
AcDbEntity
  8
LW 5016-32-00
100
AcDbVertex
100
AcDb2dVertex
 10
-36.26523878097511
 20
-10.58108925819391
 30
0.0
  0
VERTEX
  5
8354
330
8342
100
AcDbEntity
  8
LW 5016-32-00
100
AcDbVertex
100
AcDb2dVertex
 10
-35.9925999832151
 20
-10.74736952781671
 30
0.0
  0
VERTEX
  5
8355
330
8342
100
AcDbEntity
  8
LW 5016-32-00
100
AcDbVertex
100
AcDb2dVertex
 10
-35.75223471641518
 20
-10.9377777576446
 30
0.0
  0
VERTEX
  5
8356
330
8342
100
AcDbEntity
  8
LW 5016-32-00
100
AcDbVertex
100
AcDb2dVertex
 10
-35.54152276039101
 20
-11.15386009216303
 30
0.0
  0
VERTEX
  5
8357
330
8342
100
AcDbEntity
  8
LW 5016-32-00
100
AcDbVertex
100
AcDb2dVertex
 10
-35.35830523490883
 20
-11.39756798744196
 30
0.0
  0
VERTEX
  5
8358
330
8342
100
AcDbEntity
  8
LW 5016-32-00
100
AcDbVertex
100
AcDb2dVertex
 10
-35.2104225349424
 20
-11.6620504856109
 30
0.0
  0
VERTEX
  5
8359
330
8342
100
AcDbEntity
  8
LW 5016-32-00
100
AcDbVertex
100
AcDb2dVertex
 10
-35.10434295654274
 20
-11.93999171257013
 30
0.0
  0
VERTEX
  5
835A
330
8342
100
AcDbEntity
  8
LW 5016-32-00
100
AcDbVertex
100
AcDb2dVertex
 10
-35.04101302146889
 20
-12.22241878509516
 30
0.0
  0
VERTEX
  5
835B
330
8342
100
AcDbEntity
  8
LW 5016-32-00
100
AcDbVertex
100
AcDb2dVertex
 10
-35.01999999999977
 20
-12.49999999999994
 30
0.0
  0
SEQEND
  5
835C
330
8342
100
AcDbEntity
  8
LW 5016-32-00
  0
POLYLINE
  5
835D
330
82E5
100
AcDbEntity
  8
LW 5016-32-00
100
AcDb2dPolyline
 66
     1
 10
0.0
 20
0.0
 30
0.0
 70
   128
  0
VERTEX
  5
835E
330
835D
100
AcDbEntity
  8
LW 5016-32-00
100
AcDbVertex
100
AcDb2dVertex
 10
-35.01999999999977
 20
-12.49999999999994
 30
0.0
  0
VERTEX
  5
835F
330
835D
100
AcDbEntity
  8
LW 5016-32-00
100
AcDbVertex
100
AcDb2dVertex
 10
-35.04101302146889
 20
-12.77545213699335
 30
0.0
  0
VERTEX
  5
8360
330
835D
100
AcDbEntity
  8
LW 5016-32-00
100
AcDbVertex
100
AcDb2dVertex
 10
-35.10434295654274
 20
-13.05167794227594
 30
0.0
  0
VERTEX
  5
8361
330
835D
100
AcDbEntity
  8
LW 5016-32-00
100
AcDbVertex
100
AcDb2dVertex
 10
-35.2104225349424
 20
-13.31962585449213
 30
0.0
  0
VERTEX
  5
8362
330
835D
100
AcDbEntity
  8
LW 5016-32-00
100
AcDbVertex
100
AcDb2dVertex
 10
-35.35830523490883
 20
-13.5708856582641
 30
0.0
  0
VERTEX
  5
8363
330
835D
100
AcDbEntity
  8
LW 5016-32-00
100
AcDbVertex
100
AcDb2dVertex
 10
-35.54152276039101
 20
-13.79940271377558
 30
0.0
  0
VERTEX
  5
8364
330
835D
100
AcDbEntity
  8
LW 5016-32-00
100
AcDbVertex
100
AcDb2dVertex
 10
-35.75223471641518
 20
-13.99964332580561
 30
0.0
  0
VERTEX
  5
8365
330
835D
100
AcDbEntity
  8
LW 5016-32-00
100
AcDbVertex
100
AcDb2dVertex
 10
-35.9925999832151
 20
-14.17419910430902
 30
0.0
  0
VERTEX
  5
8366
330
835D
100
AcDbEntity
  8
LW 5016-32-00
100
AcDbVertex
100
AcDb2dVertex
 10
-36.26523878097511
 20
-14.32525992393488
 30
0.0
  0
VERTEX
  5
8367
330
835D
100
AcDbEntity
  8
LW 5016-32-00
100
AcDbVertex
100
AcDb2dVertex
 10
-36.56300212860084
 20
-14.44669842720026
 30
0.0
  0
VERTEX
  5
8368
330
835D
100
AcDbEntity
  8
LW 5016-32-00
100
AcDbVertex
100
AcDb2dVertex
 10
-36.8781688404081
 20
-14.53354954719538
 30
0.0
  0
VERTEX
  5
8369
330
835D
100
AcDbEntity
  8
LW 5016-32-00
100
AcDbVertex
100
AcDb2dVertex
 10
-37.20070745468117
 20
-14.58527922630304
 30
0.0
  0
VERTEX
  5
836A
330
835D
100
AcDbEntity
  8
LW 5016-32-00
100
AcDbVertex
100
AcDb2dVertex
 10
-37.51999999999977
 20
-14.6024060249328
 30
0.0
  0
VERTEX
  5
836B
330
835D
100
AcDbEntity
  8
LW 5016-32-00
100
AcDbVertex
100
AcDb2dVertex
 10
-37.83929254531837
 20
-14.58527922630304
 30
0.0
  0
VERTEX
  5
836C
330
835D
100
AcDbEntity
  8
LW 5016-32-00
100
AcDbVertex
100
AcDb2dVertex
 10
-38.16183115959145
 20
-14.53354954719538
 30
0.0
  0
VERTEX
  5
836D
330
835D
100
AcDbEntity
  8
LW 5016-32-00
100
AcDbVertex
100
AcDb2dVertex
 10
-38.4769978713987
 20
-14.44669842720026
 30
0.0
  0
VERTEX
  5
836E
330
835D
100
AcDbEntity
  8
LW 5016-32-00
100
AcDbVertex
100
AcDb2dVertex
 10
-38.77476121902443
 20
-14.32525992393488
 30
0.0
  0
VERTEX
  5
836F
330
835D
100
AcDbEntity
  8
LW 5016-32-00
100
AcDbVertex
100
AcDb2dVertex
 10
-39.04740001678444
 20
-14.17419910430902
 30
0.0
  0
VERTEX
  5
8370
330
835D
100
AcDbEntity
  8
LW 5016-32-00
100
AcDbVertex
100
AcDb2dVertex
 10
-39.28776528358437
 20
-13.99964332580561
 30
0.0
  0
VERTEX
  5
8371
330
835D
100
AcDbEntity
  8
LW 5016-32-00
100
AcDbVertex
100
AcDb2dVertex
 10
-39.49847723960854
 20
-13.79940271377558
 30
0.0
  0
VERTEX
  5
8372
330
835D
100
AcDbEntity
  8
LW 5016-32-00
100
AcDbVertex
100
AcDb2dVertex
 10
-39.68169476509071
 20
-13.5708856582641
 30
0.0
  0
VERTEX
  5
8373
330
835D
100
AcDbEntity
  8
LW 5016-32-00
100
AcDbVertex
100
AcDb2dVertex
 10
-39.82957746505714
 20
-13.31962585449213
 30
0.0
  0
VERTEX
  5
8374
330
835D
100
AcDbEntity
  8
LW 5016-32-00
100
AcDbVertex
100
AcDb2dVertex
 10
-39.9356570434568
 20
-13.05167794227594
 30
0.0
  0
VERTEX
  5
8375
330
835D
100
AcDbEntity
  8
LW 5016-32-00
100
AcDbVertex
100
AcDb2dVertex
 10
-39.99898697853065
 20
-12.77545213699335
 30
0.0
  0
VERTEX
  5
8376
330
835D
100
AcDbEntity
  8
LW 5016-32-00
100
AcDbVertex
100
AcDb2dVertex
 10
-40.01999999999976
 20
-12.49999999999994
 30
0.0
  0
SEQEND
  5
8377
330
835D
100
AcDbEntity
  8
LW 5016-32-00
  0
POLYLINE
  5
8378
330
82E5
100
AcDbEntity
  8
LW 5016-32-00
100
AcDb2dPolyline
 66
     1
 10
0.0
 20
0.0
 30
0.0
 70
   128
  0
VERTEX
  5
8379
330
8378
100
AcDbEntity
  8
LW 5016-32-00
100
AcDbVertex
100
AcDb2dVertex
 10
-35.01999999999977
 20
25.00000000000011
 30
0.0
  0
VERTEX
  5
837A
330
8378
100
AcDbEntity
  8
LW 5016-32-00
100
AcDbVertex
100
AcDb2dVertex
 10
-35.04101302146889
 20
24.99787092208874
 30
0.0
  0
VERTEX
  5
837B
330
8378
100
AcDbEntity
  8
LW 5016-32-00
100
AcDbVertex
100
AcDb2dVertex
 10
-35.10434295654274
 20
24.99166965484631
 30
0.0
  0
VERTEX
  5
837C
330
8378
100
AcDbEntity
  8
LW 5016-32-00
100
AcDbVertex
100
AcDb2dVertex
 10
-35.2104225349424
 20
24.98167514801037
 30
0.0
  0
VERTEX
  5
837D
330
8378
100
AcDbEntity
  8
LW 5016-32-00
100
AcDbVertex
100
AcDb2dVertex
 10
-35.35830523490883
 20
24.96845483779919
 30
0.0
  0
VERTEX
  5
837E
330
8378
100
AcDbEntity
  8
LW 5016-32-00
100
AcDbVertex
100
AcDb2dVertex
 10
-35.54152276039101
 20
24.95326280593884
 30
0.0
  0
VERTEX
  5
837F
330
8378
100
AcDbEntity
  8
LW 5016-32-00
100
AcDbVertex
100
AcDb2dVertex
 10
-35.75223471641518
 20
24.93742227554333
 30
0.0
  0
VERTEX
  5
8380
330
8378
100
AcDbEntity
  8
LW 5016-32-00
100
AcDbVertex
100
AcDb2dVertex
 10
-35.9925999832151
 20
24.92156982421886
 30
0.0
  0
VERTEX
  5
8381
330
8378
100
AcDbEntity
  8
LW 5016-32-00
100
AcDbVertex
100
AcDb2dVertex
 10
-36.26523878097511
 20
24.90634918212902
 30
0.0
  0
VERTEX
  5
8382
330
8378
100
AcDbEntity
  8
LW 5016-32-00
100
AcDbVertex
100
AcDb2dVertex
 10
-36.56300212860084
 20
24.89308834075939
 30
0.0
  0
VERTEX
  5
8383
330
8378
100
AcDbEntity
  8
LW 5016-32-00
100
AcDbVertex
100
AcDb2dVertex
 10
-36.8781688404081
 20
24.8830556869508
 30
0.0
  0
VERTEX
  5
8384
330
8378
100
AcDbEntity
  8
LW 5016-32-00
100
AcDbVertex
100
AcDb2dVertex
 10
-37.20070745468117
 20
24.87682580947887
 30
0.0
  0
VERTEX
  5
8385
330
8378
100
AcDbEntity
  8
LW 5016-32-00
100
AcDbVertex
100
AcDb2dVertex
 10
-37.51999999999977
 20
24.87468481063854
 30
0.0
  0
VERTEX
  5
8386
330
8378
100
AcDbEntity
  8
LW 5016-32-00
100
AcDbVertex
100
AcDb2dVertex
 10
-37.83929254531837
 20
24.87682580947887
 30
0.0
  0
VERTEX
  5
8387
330
8378
100
AcDbEntity
  8
LW 5016-32-00
100
AcDbVertex
100
AcDb2dVertex
 10
-38.16183115959145
 20
24.8830556869508
 30
0.0
  0
VERTEX
  5
8388
330
8378
100
AcDbEntity
  8
LW 5016-32-00
100
AcDbVertex
100
AcDb2dVertex
 10
-38.4769978713987
 20
24.89308834075939
 30
0.0
  0
VERTEX
  5
8389
330
8378
100
AcDbEntity
  8
LW 5016-32-00
100
AcDbVertex
100
AcDb2dVertex
 10
-38.77476121902443
 20
24.90634918212902
 30
0.0
  0
VERTEX
  5
838A
330
8378
100
AcDbEntity
  8
LW 5016-32-00
100
AcDbVertex
100
AcDb2dVertex
 10
-39.04740001678444
 20
24.92156982421886
 30
0.0
  0
VERTEX
  5
838B
330
8378
100
AcDbEntity
  8
LW 5016-32-00
100
AcDbVertex
100
AcDb2dVertex
 10
-39.28776528358437
 20
24.93742227554333
 30
0.0
  0
VERTEX
  5
838C
330
8378
100
AcDbEntity
  8
LW 5016-32-00
100
AcDbVertex
100
AcDb2dVertex
 10
-39.49847723960854
 20
24.95326280593884
 30
0.0
  0
VERTEX
  5
838D
330
8378
100
AcDbEntity
  8
LW 5016-32-00
100
AcDbVertex
100
AcDb2dVertex
 10
-39.68169476509071
 20
24.96845483779919
 30
0.0
  0
VERTEX
  5
838E
330
8378
100
AcDbEntity
  8
LW 5016-32-00
100
AcDbVertex
100
AcDb2dVertex
 10
-39.82957746505714
 20
24.98167514801037
 30
0.0
  0
VERTEX
  5
838F
330
8378
100
AcDbEntity
  8
LW 5016-32-00
100
AcDbVertex
100
AcDb2dVertex
 10
-39.9356570434568
 20
24.99166965484631
 30
0.0
  0
VERTEX
  5
8390
330
8378
100
AcDbEntity
  8
LW 5016-32-00
100
AcDbVertex
100
AcDb2dVertex
 10
-39.99898697853065
 20
24.99787092208874
 30
0.0
  0
VERTEX
  5
8391
330
8378
100
AcDbEntity
  8
LW 5016-32-00
100
AcDbVertex
100
AcDb2dVertex
 10
-40.01999999999976
 20
25.00000000000011
 30
0.0
  0
SEQEND
  5
8392
330
8378
100
AcDbEntity
  8
LW 5016-32-00
  0
LINE
  5
8393
330
82E5
100
AcDbEntity
  8
LW 5016-32-00
100
AcDbLine
 10
-41.51999999999977
 20
25.00000000000011
 30
0.0
 11
-41.51999999999977
 21
-24.99999999999995
 31
0.0
  0
LINE
  5
8394
330
82E5
100
AcDbEntity
  8
LW 5016-32-00
100
AcDbLine
 10
-47.51999999999976
 20
19.00000000000005
 30
0.0
 11
-47.51999999999976
 21
-18.99999999999989
 31
0.0
  0
LINE
  5
8395
330
82E5
100
AcDbEntity
  8
LW 5016-32-00
100
AcDbLine
 10
-141.52
 20
10.00000000000011
 30
0.0
 11
-141.52
 21
-9.999999999999943
 31
0.0
  0
LINE
  5
8396
330
82E5
100
AcDbEntity
  8
LW 5016-32-00
100
AcDbLine
 10
-142.52
 20
9.000000000000113
 30
0.0
 11
-142.52
 21
-8.999999999999943
 31
0.0
  0
LINE
  5
8397
330
82E5
100
AcDbEntity
  8
LW 5016-32-00
100
AcDbLine
 10
-22.51999999999977
 20
-24.99999999999995
 30
0.0
 11
-41.51999999999977
 21
-24.99999999999995
 31
0.0
  0
LINE
  5
8398
330
82E5
100
AcDbEntity
  8
LW 5016-32-00
100
AcDbLine
 10
-22.51999999999977
 20
25.00000000000011
 30
0.0
 11
-35.01999999999977
 21
25.00000000000011
 31
0.0
  0
LINE
  5
8399
330
82E5
100
AcDbEntity
  8
LW 5016-32-00
100
AcDbLine
 10
-40.01999999999976
 20
25.00000000000011
 30
0.0
 11
-41.51999999999977
 21
25.00000000000011
 31
0.0
  0
LINE
  5
839A
330
82E5
100
AcDbEntity
  8
LW 5016-32-00
100
AcDbLine
 10
-47.51999999999976
 20
19.00000000000005
 30
0.0
 11
-41.51999999999977
 21
25.00000000000011
 31
0.0
  0
LINE
  5
839B
330
82E5
100
AcDbEntity
  8
LW 5016-32-00
100
AcDbLine
 10
-47.51999999999976
 20
-18.99999999999989
 30
0.0
 11
-41.51999999999977
 21
-24.99999999999995
 31
0.0
  0
ARC
  5
839C
330
82E5
100
AcDbEntity
  8
LW 5016-32-00
100
AcDbCircle
 10
-48.52
 20
11.00000000000011
 30
0.0
 40
1.000000000000002
100
AcDbArc
 50
270.0
 51
0.0
  0
ARC
  5
839D
330
82E5
100
AcDbEntity
  8
LW 5016-32-00
100
AcDbCircle
 10
-48.52
 20
-10.99999999999994
 30
0.0
 40
1.000000000000002
100
AcDbArc
 50
0.0
 51
90.0
  0
LINE
  5
839E
330
82E5
100
AcDbEntity
  8
LW 5016-32-00
100
AcDbLine
 10
-48.52
 20
-9.999999999999943
 30
0.0
 11
-90.10435004493384
 21
-9.999999999999943
 31
0.0
  0
LINE
  5
839F
330
82E5
100
AcDbEntity
  8
LW 5016-32-00
100
AcDbLine
 10
-124.8956499550655
 20
-9.999999999999943
 30
0.0
 11
-141.52
 21
-9.999999999999943
 31
0.0
  0
LINE
  5
83A0
330
82E5
100
AcDbEntity
  8
LW 5016-32-00
100
AcDbLine
 10
-48.52
 20
10.00000000000011
 30
0.0
 11
-90.10435004493468
 21
10.00000000000011
 31
0.0
  0
LINE
  5
83A1
330
82E5
100
AcDbEntity
  8
LW 5016-32-00
100
AcDbLine
 10
-124.8956499550647
 20
10.00000000000011
 30
0.0
 11
-141.52
 21
10.00000000000011
 31
0.0
  0
LINE
  5
83A2
330
82E5
100
AcDbEntity
  8
LW 5016-32-00
100
AcDbLine
 10
-142.52
 20
9.000000000000056
 30
0.0
 11
-141.52
 21
10.00000000000011
 31
0.0
  0
LINE
  5
83A3
330
82E5
100
AcDbEntity
  8
LW 5016-32-00
100
AcDbLine
 10
-142.52
 20
-8.999999999999943
 30
0.0
 11
-141.52
 21
-9.999999999999943
 31
0.0
  0
LINE
  5
83A4
330
82E5
100
AcDbEntity
  8
LW 5016-32-00
100
AcDbLine
 10
-124.9999999999997
 20
60.87500000000005
 30
0.0
 11
-89.99999999999976
 21
60.87500000000005
 31
0.0
  0
LINE
  5
83A5
330
82E5
100
AcDbEntity
  8
LW 5016-32-00
100
AcDbLine
 10
-123.4999999999997
 20
-19.99999999999994
 30
0.0
 11
-91.49999999999975
 21
-19.99999999999994
 31
0.0
  0
LINE
  5
83A6
330
82E5
100
AcDbEntity
  8
LW 5016-32-00
100
AcDbLine
 10
-89.99999999999976
 20
60.87500000000005
 30
0.0
 11
-89.99999999999976
 21
10.10000000000008
 31
0.0
  0
LINE
  5
83A7
330
82E5
100
AcDbEntity
  8
LW 5016-32-00
100
AcDbLine
 10
-89.99999999999976
 20
-10.09999999999996
 30
0.0
 11
-89.99999999999976
 21
-18.49999999999994
 31
0.0
  0
LINE
  5
83A8
330
82E5
100
AcDbEntity
  8
LW 5016-32-00
100
AcDbLine
 10
-124.9999999999997
 20
60.87500000000005
 30
0.0
 11
-124.9999999999997
 21
10.10000000000008
 31
0.0
  0
LINE
  5
83A9
330
82E5
100
AcDbEntity
  8
LW 5016-32-00
100
AcDbLine
 10
-124.9999999999997
 20
-10.09999999999996
 30
0.0
 11
-124.9999999999997
 21
-18.49999999999994
 31
0.0
  0
ARC
  5
83AA
330
82E5
100
AcDbEntity
  8
LW 5016-32-00
100
AcDbCircle
 10
-123.4999999999997
 20
-18.49999999999994
 30
0.0
 40
1.500000000000012
100
AcDbArc
 50
180.0
 51
270.0
  0
ARC
  5
83AB
330
82E5
100
AcDbEntity
  8
LW 5016-32-00
100
AcDbCircle
 10
-91.49999999999975
 20
-18.49999999999994
 30
0.0
 40
1.500000000000012
100
AcDbArc
 50
270.0
 51
0.0
  0
LINE
  5
83AC
330
82E5
100
AcDbEntity
  8
LW 5016-32-00
100
AcDbLine
 10
-113.2730999999999
 20
77.00000000000006
 30
0.0
 11
-101.7268999999998
 21
77.00000000000006
 31
0.0
  0
LINE
  5
83AD
330
82E5
100
AcDbEntity
  8
LW 5016-32-00
100
AcDbLine
 10
-100.4999999999997
 20
75.77310000000017
 30
0.0
 11
-114.4999999999997
 21
75.77310000000017
 31
0.0
  0
LINE
  5
83AE
330
82E5
100
AcDbEntity
  8
LW 5016-32-00
100
AcDbLine
 10
-101.7268999999998
 20
77.00000000000006
 30
0.0
 11
-100.4999999999997
 21
75.77310000000017
 31
0.0
  0
LINE
  5
83AF
330
82E5
100
AcDbEntity
  8
LW 5016-32-00
100
AcDbLine
 10
-113.2730999999999
 20
77.00000000000006
 30
0.0
 11
-114.4999999999997
 21
75.77310000000017
 31
0.0
  0
LINE
  5
83B0
330
82E5
100
AcDbEntity
  8
LW 5016-32-00
100
AcDbLine
 10
-100.4999999999997
 20
75.77310000000017
 30
0.0
 11
-100.4999999999997
 21
60.87500000000005
 31
0.0
  0
LINE
  5
83B1
330
82E5
100
AcDbEntity
  8
LW 5016-32-00
100
AcDbLine
 10
-114.4999999999997
 20
75.77310000000017
 30
0.0
 11
-114.4999999999997
 21
60.87500000000005
 31
0.0
  0
LINE
  5
83B2
330
82E5
100
AcDbEntity
  8
LW 5016-32-00
 62
     3
100
AcDbLine
 10
-101.7054999999998
 20
60.87500000000005
 30
0.0
 11
-101.7054999999998
 21
76.97860000000009
 31
0.0
  0
LINE
  5
83B3
330
82E5
100
AcDbEntity
  8
LW 5016-32-00
 62
     3
100
AcDbLine
 10
-113.2944999999997
 20
76.97860000000009
 30
0.0
 11
-113.2944999999997
 21
60.87500000000005
 31
0.0
  0
LINE
  5
83B4
330
82E5
100
AcDbEntity
  8
LW 5016-32-00
100
AcDbLine
 10
16.0
 20
12.00000000000005
 30
0.0
 11
16.0
 21
-11.99999999999994
 31
0.0
  0
LINE
  5
83B5
330
82E5
100
AcDbEntity
  8
LW 5016-32-00
100
AcDbLine
 10
-16.0
 20
12.00000000000005
 30
0.0
 11
-16.0
 21
-11.99999999999994
 31
0.0
  0
LINE
  5
83B6
330
82E5
100
AcDbEntity
  8
LW 5016-32-00
100
AcDbLine
 10
-16.0
 20
12.00000000000005
 30
0.0
 11
16.0
 21
12.00000000000005
 31
0.0
  0
LINE
  5
83B7
330
82E5
100
AcDbEntity
  8
LW 5016-32-00
100
AcDbLine
 10
-16.0
 20
-11.99999999999994
 30
0.0
 11
16.0
 21
-11.99999999999994
 31
0.0
  0
LINE
  5
83B8
330
82E5
100
AcDbEntity
  8
LW 5016-32-00
100
AcDbLine
 10
-19.51999999999977
 20
32.50000000000006
 30
0.0
 11
-19.51999999999977
 21
-32.49999999999995
 31
0.0
  0
LINE
  5
83B9
330
82E5
100
AcDbEntity
  8
LW 5016-32-00
100
AcDbLine
 10
-22.51999999999977
 20
32.50000000000006
 30
0.0
 11
-22.51999999999977
 21
-32.49999999999995
 31
0.0
  0
LINE
  5
83BA
330
82E5
100
AcDbEntity
  8
LW 5016-32-00
100
AcDbLine
 10
-22.51999999999977
 20
32.50000000000006
 30
0.0
 11
-19.51999999999977
 21
32.50000000000006
 31
0.0
  0
LINE
  5
83BB
330
82E5
100
AcDbEntity
  8
LW 5016-32-00
100
AcDbLine
 10
-22.51999999999977
 20
-32.49999999999995
 30
0.0
 11
-19.51999999999977
 21
-32.49999999999995
 31
0.0
  0
LINE
  5
83BC
330
82E5
100
AcDbEntity
  8
LW 5016-32-00
100
AcDbLine
 10
19.52000000000022
 20
-32.49999999999995
 30
0.0
 11
19.52000000000022
 21
32.50000000000006
 31
0.0
  0
LINE
  5
83BD
330
82E5
100
AcDbEntity
  8
LW 5016-32-00
100
AcDbLine
 10
22.52000000000022
 20
-32.49999999999995
 30
0.0
 11
22.52000000000022
 21
32.50000000000006
 31
0.0
  0
LINE
  5
83BE
330
82E5
100
AcDbEntity
  8
LW 5016-32-00
100
AcDbLine
 10
22.52000000000022
 20
-32.49999999999995
 30
0.0
 11
19.52000000000022
 21
-32.49999999999995
 31
0.0
  0
LINE
  5
83BF
330
82E5
100
AcDbEntity
  8
LW 5016-32-00
100
AcDbLine
 10
22.52000000000022
 20
32.50000000000006
 30
0.0
 11
19.52000000000022
 21
32.50000000000006
 31
0.0
  0
LINE
  5
83C0
330
82E5
100
AcDbEntity
  8
LW 5016-32-00
100
AcDbLine
 10
-17.51999999999977
 20
32.00000000000006
 30
0.0
 11
-17.51999999999977
 21
-31.99999999999994
 31
0.0
  0
LINE
  5
83C1
330
82E5
100
AcDbEntity
  8
LW 5016-32-00
100
AcDbLine
 10
-19.51999999999977
 20
32.00000000000006
 30
0.0
 11
-17.51999999999977
 21
32.00000000000006
 31
0.0
  0
LINE
  5
83C2
330
82E5
100
AcDbEntity
  8
LW 5016-32-00
100
AcDbLine
 10
-19.51999999999977
 20
-31.99999999999994
 30
0.0
 11
-17.51999999999977
 21
-31.99999999999994
 31
0.0
  0
LINE
  5
83C3
330
82E5
100
AcDbEntity
  8
LW 5016-32-00
100
AcDbLine
 10
17.52000000000022
 20
-31.99999999999994
 30
0.0
 11
17.52000000000022
 21
32.00000000000006
 31
0.0
  0
LINE
  5
83C4
330
82E5
100
AcDbEntity
  8
LW 5016-32-00
100
AcDbLine
 10
19.52000000000022
 20
-31.99999999999994
 30
0.0
 11
17.52000000000022
 21
-31.99999999999994
 31
0.0
  0
LINE
  5
83C5
330
82E5
100
AcDbEntity
  8
LW 5016-32-00
100
AcDbLine
 10
19.52000000000022
 20
32.00000000000006
 30
0.0
 11
17.52000000000022
 21
32.00000000000006
 31
0.0
  0
LINE
  5
83C6
330
82E5
100
AcDbEntity
  8
LW 5016-32-00
100
AcDbLine
 10
17.52000000000022
 20
-6.999999999999943
 30
0.0
 11
16.0
 21
-6.999999999999943
 31
0.0
  0
LINE
  5
83C7
330
82E5
100
AcDbEntity
  8
LW 5016-32-00
100
AcDbLine
 10
-15.99999999999977
 20
-6.999999999999943
 30
0.0
 11
-17.51999999999977
 21
-6.999999999999943
 31
0.0
  0
LINE
  5
83C8
330
82E5
100
AcDbEntity
  8
LW 5016-32-00
100
AcDbLine
 10
17.52000000000022
 20
7.000000000000056
 30
0.0
 11
16.0
 21
7.000000000000056
 31
0.0
  0
LINE
  5
83C9
330
82E5
100
AcDbEntity
  8
LW 5016-32-00
100
AcDbLine
 10
-15.99999999999977
 20
7.000000000000056
 30
0.0
 11
-17.51999999999977
 21
7.000000000000056
 31
0.0
  0
LINE
  5
83CA
330
82E5
100
AcDbEntity
  8
LW 5016-32-00
 62
     3
100
AcDbLine
 10
-17.51999999999977
 20
-5.794499999999914
 30
0.0
 11
-15.99999999999977
 21
-5.794499999999914
 31
0.0
  0
LINE
  5
83CB
330
82E5
100
AcDbEntity
  8
LW 5016-32-00
 62
     3
100
AcDbLine
 10
16.0
 20
-5.794499999999914
 30
0.0
 11
17.52000000000022
 21
-5.794499999999914
 31
0.0
  0
LINE
  5
83CC
330
82E5
100
AcDbEntity
  8
LW 5016-32-00
 62
     3
100
AcDbLine
 10
17.52000000000022
 20
5.794500000000084
 30
0.0
 11
16.0
 21
5.794500000000084
 31
0.0
  0
LINE
  5
83CD
330
82E5
100
AcDbEntity
  8
LW 5016-32-00
 62
     3
100
AcDbLine
 10
-16.0
 20
5.794500000000084
 30
0.0
 11
-17.51999999999977
 21
5.794500000000084
 31
0.0
  0
LINE
  5
83CE
330
82E5
100
AcDbEntity
  8
LW 5016-32-00
  6
MITTE2
 62
     3
100
AcDbLine
 10
-107.4999999999997
 20
96.48528480478473
 30
0.0
 11
-107.4999999999997
 21
-28.08786257571905
 31
0.0
  0
LINE
  5
83CF
330
82E5
100
AcDbEntity
  8
LW 5016-32-00
  6
MITTE2
 62
     3
100
AcDbLine
 10
61.44128632737488
 20
0.0
 30
0.0
 11
-146.4412863273749
 21
0.0
 31
0.0
  0
LINE
  5
83D0
330
82E5
100
AcDbEntity
  8
LW 5016-32-00
  6
VERDECKT
 62
     6
100
AcDbLine
 10
-122.160108542738
 20
60.00000000000437
 30
0.0
 11
-92.83989145726193
 21
59.99999999999573
 31
0.0
  0
ARC
  5
83D1
330
82E5
100
AcDbEntity
  8
LW 5016-32-00
  6
VERDECKT
 62
     6
100
AcDbCircle
 10
-122.1601085427375
 20
62.00000000000438
 30
0.0
 40
2.0
100
AcDbArc
 50
250.7099537807859
 51
270.0
  0
ARC
  5
83D2
330
82E5
100
AcDbEntity
  8
LW 5016-32-00
  6
VERDECKT
 62
     6
100
AcDbCircle
 10
-92.83989145726149
 20
61.99999999999573
 30
0.0
 40
2.0
100
AcDbArc
 50
270.0
 51
289.2900462191729
  0
LINE
  5
83D3
330
82E5
100
AcDbEntity
  8
LW 5016-32-00
  6
VERDECKT
 62
     6
100
AcDbLine
 10
-122.8208093921941
 20
60.11228328727276
 30
0.0
 11
-124.9999999999997
 21
60.87500000000528
 31
0.0
  0
LINE
  5
83D4
330
82E5
100
AcDbEntity
  8
LW 5016-32-00
  6
VERDECKT
 62
     6
100
AcDbLine
 10
-92.1791906078058
 20
60.11228328726367
 30
0.0
 11
-89.99999999999976
 21
60.87499999999483
 31
0.0
  0
HATCH
  5
83D5
330
82E5
100
AcDbEntity
  8
LW 5016-32-00
 62
     1
100
AcDbHatch
 10
0.0
 20
0.0
 30
0.0
210
0.0
220
0.0
230
1.0
  2
SOLID
 70
     1
 71
     0
 91
        5
 92
        7
 72
     0
 73
     1
 93
       76
 10
-115.9849828252545
 20
27.54233513799324
 10
-116.0365637870963
 20
27.57419396736606
 10
-116.187806186112
 20
27.69235209159734
 10
-116.3282303163746
 20
27.82683016681
 10
-116.4566148780882
 20
27.97285007327156
 10
-116.573521161004
 20
28.13651886935355
 10
-116.6756990428255
 20
28.3119058227183
 10
-116.7670507224084
 20
28.49365875531868
 10
-116.8365690348546
 20
28.6748276907843
 10
-116.8365690348546
 20
26.41768975258429
 10
-116.8278793796544
 20
26.20479320018427
 10
-116.8018104140546
 20
26.00275871678429
 10
-116.7605345518545
 20
25.80724147478424
 10
-116.7062242068545
 20
25.62258630178445
 10
-116.6367069652544
 20
25.4466207839842
 10
-116.5541552408544
 20
25.27934492138439
 10
-116.4588297233103
 20
25.12877665883735
 10
-116.3521207574544
 20
24.98606905838443
 10
-116.2330724812143
 20
24.86062780281378
 10
-116.1048131704624
 20
24.74936285073642
 10
-115.9676035148545
 20
24.64934491938431
 10
-115.8220517902543
 20
24.56679319498431
 10
-115.6678104104544
 20
24.50379319478435
 10
-115.5070517892545
 20
24.45382767738448
 10
-115.3419483404545
 20
24.42558629798447
 10
-115.1681552364543
 20
24.41689664278448
 10
-114.9943621324541
 20
24.42775871178452
 10
-114.8270862698543
 20
24.45817250498436
 10
-114.6663276486542
 20
24.51248284998456
 10
-114.5099138550545
 20
24.58200009158446
 10
-114.3621897166545
 20
24.67106905738461
 10
-114.2209828196546
 20
24.77751733358451
 10
-114.0897690261345
 20
24.90021526500851
 10
-113.9686352326466
 20
25.03641431371676
 10
-113.8581897150543
 20
25.18375871418454
 10
-113.7604310940546
 20
25.34451733538464
 10
-113.6755331627505
 20
25.52014395663178
 10
-113.6018448866543
 20
25.70079319858434
 10
-113.5453621278543
 20
25.89196561298451
 10
-113.5019138518546
 20
26.09182768258444
 10
-113.4758448862544
 20
26.30037940738436
 10
-113.4671552310544
 20
26.51110354598433
 10
-113.4671552310546
 20
28.630274631737
 10
-113.5302260347893
 20
28.46973076768455
 10
-113.6208463083121
 20
28.28616662388214
 10
-113.7253760012436
 20
28.11770021771196
 10
-113.8409942396692
 20
27.95486732295132
 10
-113.9707838362091
 20
27.81095495458118
 10
-114.1101375194375
 20
27.68351906109689
 10
-114.26062576415
 20
27.5698137063535
 10
-114.3448104062545
 20
27.51784247490474
 10
-114.3448104062545
 20
26.48937940798447
 10
-114.3523704062786
 20
26.35727057997889
 10
-114.3727041994466
 20
26.22651733818435
 10
-114.4056379926544
 20
26.0983449239846
 10
-114.4512586824544
 20
25.98320699258449
 10
-114.5077414412544
 20
25.87826202673415
 10
-114.5753469587102
 20
25.78011237125003
 10
-114.6532931658543
 20
25.68993112958452
 10
-114.7380173040544
 20
25.61824147418457
 10
-114.7380173040546
 20
27.34576278844321
 10
-114.7706527448126
 20
27.33517832117019
 10
-114.956026692364
 20
27.2990665132059
 10
-115.1463164063147
 20
27.28702286042409
 10
-115.3410674996698
 20
27.29904453285354
 10
-115.527436870936
 20
27.3353502545288
 10
-115.5765690308544
 20
27.35194895720366
 10
-115.5765690308544
 20
25.58131043958435
 10
-115.6721552380545
 20
25.65082768118447
 10
-115.7547069624543
 20
25.73337940558446
 10
-115.8245717902623
 20
25.82847030243789
 10
-115.8828793766545
 20
25.93106906138434
 10
-115.9268490319664
 20
26.0497610617611
 10
-115.9589138596543
 20
26.17220699318437
 10
-115.9784655838543
 20
26.30906906258434
 10
-115.9849828252545
 20
26.45244837338447
 97
        0
 92
        7
 72
     0
 73
     1
 93
       72
 10
-115.9703842045185
 20
29.27079900302107
 10
-115.9884586873345
 20
29.39366203789388
 10
-115.9936724804547
 20
29.51772424518441
 10
-115.9936724804547
 20
30.78641390438435
 10
-115.1790173054546
 20
29.93917252238436
 10
-113.4606379896545
 20
31.70534494178452
 10
-113.4606379896545
 20
33.02400011838432
 10
-115.2029138572547
 20
31.30996563018454
 10
-116.8365690348546
 20
32.99141391138443
 10
-116.8365690348546
 20
29.55248286598436
 10
-116.8257938624065
 20
29.34449596877227
 10
-116.8003331726704
 20
29.13777776121952
 10
-116.7605345518545
 20
28.93334493298431
 10
-116.7040517930545
 20
28.74000010478432
 10
-116.6323621376545
 20
28.55317251798425
 10
-116.5463345511743
 20
28.38201237950995
 10
-116.4498793784546
 20
28.21644837898436
 10
-116.3412586884546
 20
28.06437941298447
 10
-116.2219497225585
 20
27.92868175738119
 10
-116.0914311014544
 20
27.8036897569844
 10
-115.9523966182546
 20
27.69506906698422
 10
-115.8046724798546
 20
27.60382768738447
 10
-115.6504311000544
 20
27.53213803198429
 10
-115.4896724788545
 20
27.47782768698431
 10
-115.3223966162545
 20
27.44524147998442
 10
-115.1464310984543
 20
27.43437941098438
 10
-114.9748104082546
 20
27.44524147998442
 10
-114.8075345456545
 20
27.47782768698454
 10
-114.6467759244546
 20
27.52996561818446
 10
-114.4925345446545
 20
27.59948285978436
 10
-114.3437676476305
 20
27.6913238255932
 10
-114.2042986816704
 20
27.7967032742036
 10
-114.0752573019506
 20
27.91470879181981
 10
-113.9559483360544
 20
28.04700010258449
 10
-113.8479359219186
 20
28.19912120651571
 10
-113.7495690250543
 20
28.35765527598443
 10
-113.6648448868545
 20
28.52927596618457
 10
-113.5931552314546
 20
28.71175872538453
 10
-113.5391055761106
 20
28.90598989841493
 10
-113.4953966104544
 20
29.1027932093844
 10
-113.4693276448547
 20
29.31134493418455
 10
-113.4606379896545
 20
29.52206907278452
 10
-113.4606379896545
 20
31.42510356158442
 10
-114.3339483372546
 20
30.53875873118438
 10
-114.3339483372546
 20
29.52206907278452
 10
-114.337695630194
 20
29.45540203808997
 10
-114.3476779924703
 20
29.35445431363161
 10
-114.3691414408144
 20
29.23431983049165
 10
-114.4034655788546
 20
29.11720065770607
 10
-114.4443938548465
 20
29.01570548497017
 10
-114.4725483376946
 20
28.95957031237805
 10
-114.5051345446945
 20
28.90588562255249
 10
-114.6044573036306
 20
28.77332493247633
 10
-114.6744959245425
 20
28.69972355293254
 10
-114.7423621316543
 20
28.64465720793015
 10
-114.8149207525744
 20
28.59595169053392
 10
-114.8920848907505
 20
28.55658755247788
 10
-114.9735069599746
 20
28.52716437997088
 10
-115.0606642016305
 20
28.50646562128446
 10
-115.1499938570864
 20
28.49894906953642
 10
-115.2122986848703
 20
28.5003046557477
 10
-115.2744297195504
 20
28.50630920749092
 10
-115.3376035128544
 20
28.51846603511564
 10
-115.3993000647747
 20
28.53667955241491
 10
-115.4980145478464
 20
28.58032769048424
 10
-115.5658807549584
 20
28.6218555526853
 10
-115.6439138586545
 20
28.68493375978193
 10
-115.7704365957083
 20
28.81433570014684
 10
-115.8104945488385
 20
28.87360355348443
 10
-115.8548117903583
 20
28.94989872614047
 10
-115.8969566180785
 20
29.03391900226921
 10
-115.9397966182146
 20
29.15045596815645
 97
        0
 92
        7
 72
     0
 73
     1
 93
       57
 10
-115.9483124803109
 20
33.82883598300856
 10
-115.9882848942306
 20
33.96031046618447
 10
-116.0153966184548
 20
34.09500012178438
 10
-116.0240862736545
 20
34.23837943258428
 10
-116.0240862736548
 20
35.47882771238443
 10
-116.8496035176549
 20
35.47882771238443
 10
-116.8496035176547
 20
34.24489667398444
 10
-116.8409138624547
 20
34.03417253538447
 10
-116.8126724830547
 20
33.82779322438438
 10
-116.7713966208548
 20
33.6301035685845
 10
-116.7170862758548
 20
33.44110356798438
 10
-116.6453966204549
 20
33.25644839498437
 10
-116.5627579995025
 20
33.09004149790423
 10
-116.4663028267828
 20
32.93122066981397
 10
-116.3568131712627
 20
32.78114163485481
 10
-116.2375911019187
 20
32.64658232408289
 10
-116.1088104118548
 20
32.52651735818432
 10
-115.9697759286546
 20
32.42224149578448
 10
-115.8242242040546
 20
32.33751735758443
 10
-115.6699828242544
 20
32.26582770218425
 10
-115.5092242030546
 20
32.21586218478439
 10
-115.3419483404547
 20
32.18327597778449
 10
-115.1681552364548
 20
32.17241390878445
 10
-114.9943621324546
 20
32.18327597778449
 10
-114.8270862698546
 20
32.21586218478439
 10
-114.6663276486547
 20
32.26800011598431
 10
-114.5099138550547
 20
32.33968977138449
 10
-114.3621897166547
 20
32.42658632338458
 10
-114.2226338541427
 20
32.53543294441971
 10
-114.0922890261427
 20
32.65528935859317
 10
-113.9709814395505
 20
32.79171694523331
 10
-113.8603621288548
 20
32.93927598018451
 10
-113.7626035078546
 20
33.10003460138438
 10
-113.6778793696548
 20
33.27382770538435
 10
-113.6040173004548
 20
33.45848287838459
 10
-113.5475345416548
 20
33.64965529278453
 10
-113.5040862656546
 20
33.84951736238446
 10
-113.4801897138545
 20
34.05589667338456
 10
-113.4715000586547
 20
34.26879322578458
 10
-113.4715000586547
 20
35.47882771238443
 10
-114.3296035096545
 20
35.47882771238443
 10
-114.3296035096545
 20
34.24489667398444
 10
-114.3399441993426
 20
34.11124977700848
 10
-114.3619290269989
 20
33.97899322486461
 10
-114.3962531650386
 20
33.85838081068852
 10
-114.4442200617427
 20
33.74237391376852
 10
-114.5051345446947
 20
33.63271046514439
 10
-114.5727400621508
 20
33.53564701656052
 10
-114.6525110968868
 20
33.44822908524844
 10
-114.7380173040546
 20
33.37375874018454
 10
-114.7380173040546
 20
35.47882771238443
 10
-115.5657069618546
 20
35.47882771238443
 10
-115.5657069618546
 20
33.33682770558431
 10
-115.6634655828547
 20
33.40634494718444
 10
-115.7525345486547
 20
33.49324149918431
 10
-115.8288297213107
 20
33.59438908571252
 10
-115.8959138594546
 20
33.70179322398445
 97
        0
 92
        7
 72
     0
 73
     1
 93
        6
 10
-116.8365690348548
 20
35.70910357518443
 10
-113.4671552310546
 20
35.70910357518443
 10
-113.4671552310549
 20
37.94668978918463
 10
-114.3339483372549
 20
37.94668978918441
 10
-114.3339483372549
 20
36.73231047498445
 10
-116.8365690348548
 20
36.73231047498445
 97
        0
 92
        7
 72
     0
 73
     1
 93
        8
 10
-116.8365690348548
 20
36.96475875158427
 10
-116.0110517908547
 20
36.96475875158427
 10
-116.0110517908549
 20
38.19868978998449
 10
-113.4606379896549
 20
38.19868978998449
 10
-113.4606379896549
 20
39.22406910358456
 10
-116.0110517908547
 20
39.22406910358433
 10
-116.0110517908549
 20
40.4666897971843
 10
-116.836569034855
 20
40.4666897971843
 97
        0
 75
     0
 76
     1
 47
0.0142553043587597
 98
        5
 10
-116.3941193652654
 20
26.85199526405956
 10
-116.2515663802596
 20
29.11949247740228
 10
-116.3085875528077
 20
33.61170420960372
 10
-116.5509277774999
 20
36.33555329343546
 10
-116.4511406450865
 20
37.7473912756621
450
        0
451
        0
460
0.0
461
0.0
452
        0
462
0.0
453
        0
470

  0
LWPOLYLINE
  5
83D6
330
82E5
100
AcDbEntity
  8
LW 5016-32-00
 62
     1
100
AcDbPolyline
 90
        8
 70
     1
 43
0.0
 10
-116.0110517908547
 20
39.22406910358433
 10
-113.4606379896549
 20
39.22406910358456
 10
-113.4606379896549
 20
38.19868978998449
 10
-116.0110517908549
 20
38.19868978998449
 10
-116.0110517908547
 20
36.96475875158427
 10
-116.8365690348548
 20
36.96475875158427
 10
-116.836569034855
 20
40.4666897971843
 10
-116.0110517908549
 20
40.4666897971843
  0
LWPOLYLINE
  5
83D7
330
82E5
100
AcDbEntity
  8
LW 5016-32-00
 62
     1
100
AcDbPolyline
 90
       73
 70
     1
 43
0.0
 10
-114.3339483372546
 20
29.52206907278452
 10
-114.3339483372546
 20
30.53875873118438
 10
-113.4606379896545
 20
31.42510356158442
 10
-113.4606379896545
 20
29.52206907278452
 10
-113.4693276448547
 20
29.31134493418455
 10
-113.4953966104544
 20
29.1027932093844
 10
-113.5391055761106
 20
28.90598989841493
 10
-113.5931552314546
 20
28.71175872538453
 10
-113.6648448868545
 20
28.52927596618457
 10
-113.7495690250543
 20
28.35765527598443
 10
-113.8479359219186
 20
28.19912120651571
 10
-113.9559483360544
 20
28.04700010258449
 10
-114.0752573019504
 20
27.91470879181958
 10
-114.2042986816704
 20
27.7967032742036
 10
-114.3437676476305
 20
27.6913238255932
 10
-114.4925345446545
 20
27.59948285978436
 10
-114.6467759244546
 20
27.52996561818446
 10
-114.8075345456545
 20
27.47782768698454
 10
-114.9748104082546
 20
27.44524147998442
 10
-115.1464310984545
 20
27.43437941098438
 10
-115.3223966162545
 20
27.44524147998442
 10
-115.4896724788545
 20
27.47782768698431
 10
-115.6504311000544
 20
27.53213803198452
 10
-115.8046724798546
 20
27.60382768738447
 10
-115.9523966182546
 20
27.69506906698445
 10
-116.0914311014544
 20
27.8036897569844
 10
-116.2219497225587
 20
27.92868175738119
 10
-116.3412586884546
 20
28.06437941298424
 10
-116.4498793784546
 20
28.21644837898436
 10
-116.5463345511743
 20
28.38201237950995
 10
-116.6323621376545
 20
28.55317251798425
 10
-116.7040517930545
 20
28.74000010478432
 10
-116.7605345518545
 20
28.93334493298431
 10
-116.8003331726704
 20
29.13777776121952
 10
-116.8257938624065
 20
29.34449596877227
 10
-116.8365690348546
 20
29.55248286598436
 10
-116.8365690348546
 20
32.99141391138443
 10
-115.2029138572547
 20
31.30996563018454
 10
-113.4606379896545
 20
33.02400011838432
 10
-113.4606379896545
 20
31.70534494178452
 10
-115.1790173054546
 20
29.93917252238436
 10
-115.9936724804547
 20
30.78641390438435
 10
-115.9936724804547
 20
29.51772424518441
 10
-115.9884586873345
 20
29.39366203789388
 10
-115.9703842045185
 20
29.27079900302107
 10
-115.9397966182146
 20
29.15045596815645
 10
-115.8969566180785
 20
29.03391900226921
 10
-115.8548117903585
 20
28.94989872614025
 10
-115.8104945488385
 20
28.87360355348443
 10
-115.7832959280626
 20
28.83336176025324
 10
-115.7523607555503
 20
28.7958485187549
 10
-115.6439138586545
 20
28.68493375978193
 10
-115.5658807549584
 20
28.6218555526853
 10
-115.4980145478466
 20
28.58032769048447
 10
-115.3993000647747
 20
28.53667955241491
 10
-115.3376035128544
 20
28.51846603511564
 10
-115.2744297195504
 20
28.50630920749092
 10
-115.2122986848705
 20
28.5003046557477
 10
-115.1499938570864
 20
28.49894906953642
 10
-115.0606642016305
 20
28.50646562128446
 10
-114.9735069599746
 20
28.52716437997088
 10
-114.8920848907505
 20
28.55658755247811
 10
-114.8149207525744
 20
28.59595169053392
 10
-114.7423621316545
 20
28.64465720792992
 10
-114.6744959245425
 20
28.69972355293254
 10
-114.6044573036306
 20
28.77332493247633
 10
-114.5051345446945
 20
28.90588562255249
 10
-114.4725483376946
 20
28.95957031237805
 10
-114.4443938548465
 20
29.01570548497017
 10
-114.4034655788546
 20
29.11720065770607
 10
-114.3691414408144
 20
29.23431983049165
 10
-114.3476779924703
 20
29.35445431363161
 10
-114.337695630194
 20
29.45540203808997
  0
LWPOLYLINE
  5
83D8
330
82E5
100
AcDbEntity
  8
LW 5016-32-00
 62
     1
100
AcDbPolyline
 90
       76
 70
     1
 43
0.0
 10
-116.6756990428255
 20
28.3119058227183
 10
-116.5735211610037
 20
28.13651886935355
 10
-116.4566148780882
 20
27.97285007327156
 10
-116.3282303163746
 20
27.82683016681
 10
-116.187806186112
 20
27.69235209159734
 10
-116.0365637870963
 20
27.57419396736606
 10
-115.9849828252545
 20
27.54233513799324
 10
-115.9849828252545
 20
26.45244837338447
 10
-115.9784655838543
 20
26.30906906258434
 10
-115.9589138596543
 20
26.17220699318437
 10
-115.9268490319664
 20
26.0497610617611
 10
-115.8828793766545
 20
25.93106906138434
 10
-115.8245717902623
 20
25.82847030243812
 10
-115.7547069624543
 20
25.73337940558446
 10
-115.6721552380545
 20
25.65082768118424
 10
-115.5765690308544
 20
25.58131043958435
 10
-115.5765690308544
 20
27.35194895720366
 10
-115.527436870936
 20
27.3353502545288
 10
-115.3410674996694
 20
27.29904453285332
 10
-115.1463164063147
 20
27.28702286042409
 10
-114.956026692364
 20
27.2990665132059
 10
-114.7706527448128
 20
27.33517832117042
 10
-114.7380173040546
 20
27.34576278844321
 10
-114.7380173040544
 20
25.61824147418457
 10
-114.6532931658543
 20
25.68993112958452
 10
-114.5753469587102
 20
25.78011237125003
 10
-114.5077414412544
 20
25.87826202673415
 10
-114.4512586824544
 20
25.98320699258449
 10
-114.4056379926546
 20
26.0983449239846
 10
-114.3727041994466
 20
26.22651733818435
 10
-114.3523704062786
 20
26.35727057997889
 10
-114.3448104062545
 20
26.48937940798447
 10
-114.3448104062545
 20
27.51784247490474
 10
-114.26062576415
 20
27.5698137063535
 10
-114.1101375194375
 20
27.68351906109689
 10
-113.9707838362091
 20
27.81095495458118
 10
-113.8409942396692
 20
27.95486732295132
 10
-113.7253760012436
 20
28.11770021771196
 10
-113.6208463083121
 20
28.28616662388214
 10
-113.5302260347893
 20
28.46973076768455
 10
-113.4671552310546
 20
28.630274631737
 10
-113.4671552310542
 20
26.51110354598456
 10
-113.4758448862544
 20
26.30037940738436
 10
-113.5019138518546
 20
26.09182768258444
 10
-113.5453621278543
 20
25.89196561298451
 10
-113.6018448866543
 20
25.70079319858456
 10
-113.6755331627505
 20
25.52014395663156
 10
-113.7604310940546
 20
25.34451733538464
 10
-113.8581897150543
 20
25.18375871418454
 10
-113.9686352326464
 20
25.03641431371676
 10
-114.0897690261345
 20
24.90021526500851
 10
-114.2209828196544
 20
24.77751733358451
 10
-114.3621897166545
 20
24.67106905738439
 10
-114.5099138550545
 20
24.58200009158446
 10
-114.6663276486542
 20
24.51248284998456
 10
-114.8270862698543
 20
24.45817250498436
 10
-114.9943621324546
 20
24.42775871178452
 10
-115.1681552364543
 20
24.41689664278448
 10
-115.3419483404543
 20
24.42558629798424
 10
-115.5070517892545
 20
24.45382767738448
 10
-115.6678104104544
 20
24.50379319478435
 10
-115.8220517902543
 20
24.56679319498431
 10
-115.9676035148545
 20
24.64934491938431
 10
-116.1048131704624
 20
24.74936285073642
 10
-116.2330724812145
 20
24.86062780281378
 10
-116.3521207574544
 20
24.98606905838443
 10
-116.4588297233103
 20
25.12877665883735
 10
-116.5541552408544
 20
25.27934492138439
 10
-116.6367069652542
 20
25.44662078398443
 10
-116.7062242068545
 20
25.62258630178445
 10
-116.7605345518545
 20
25.80724147478446
 10
-116.8018104140546
 20
26.00275871678429
 10
-116.8278793796544
 20
26.20479320018427
 10
-116.8365690348546
 20
26.41768975258429
 10
-116.8365690348546
 20
28.67482769078453
 10
-116.7670507224084
 20
28.49365875531868
  0
LWPOLYLINE
  5
83D9
330
82E5
100
AcDbEntity
  8
LW 5016-32-00
 62
     1
100
AcDbPolyline
 90
        6
 70
     1
 43
0.0
 10
-113.4671552310549
 20
37.94668978918463
 10
-113.4671552310546
 20
35.70910357518443
 10
-116.8365690348548
 20
35.70910357518443
 10
-116.8365690348548
 20
36.73231047498445
 10
-114.3339483372549
 20
36.73231047498445
 10
-114.3339483372549
 20
37.94668978918441
  0
LWPOLYLINE
  5
83DA
330
82E5
100
AcDbEntity
  8
LW 5016-32-00
 62
     1
100
AcDbPolyline
 90
       57
 70
     1
 43
0.0
 10
-114.0922890261427
 20
32.65528935859317
 10
-114.2226338541427
 20
32.53543294441971
 10
-114.3621897166545
 20
32.42658632338436
 10
-114.5099138550547
 20
32.33968977138449
 10
-114.6663276486547
 20
32.26800011598431
 10
-114.8270862698546
 20
32.21586218478439
 10
-114.9943621324546
 20
32.18327597778449
 10
-115.1681552364548
 20
32.17241390878445
 10
-115.3419483404545
 20
32.18327597778449
 10
-115.5092242030546
 20
32.21586218478439
 10
-115.6699828242544
 20
32.26582770218425
 10
-115.8242242040546
 20
32.33751735758443
 10
-115.9697759286546
 20
32.42224149578425
 10
-116.1088104118548
 20
32.52651735818432
 10
-116.2375911019185
 20
32.64658232408266
 10
-116.3568131712627
 20
32.78114163485481
 10
-116.4663028267828
 20
32.93122066981397
 10
-116.5627579995027
 20
33.09004149790445
 10
-116.6453966204549
 20
33.25644839498437
 10
-116.7170862758548
 20
33.44110356798438
 10
-116.7713966208548
 20
33.6301035685845
 10
-116.8126724830547
 20
33.82779322438438
 10
-116.8409138624547
 20
34.03417253538447
 10
-116.8496035176547
 20
34.24489667398444
 10
-116.8496035176549
 20
35.47882771238443
 10
-116.0240862736548
 20
35.47882771238443
 10
-116.0240862736545
 20
34.23837943258451
 10
-116.0153966184548
 20
34.09500012178438
 10
-115.9882848942306
 20
33.96031046618447
 10
-115.9483124803107
 20
33.82883598300833
 10
-115.8959138594546
 20
33.70179322398445
 10
-115.8288297213107
 20
33.59438908571252
 10
-115.7525345486547
 20
33.49324149918431
 10
-115.6634655828547
 20
33.40634494718444
 10
-115.5657069618546
 20
33.33682770558431
 10
-115.5657069618546
 20
35.47882771238443
 10
-114.7380173040546
 20
35.47882771238443
 10
-114.7380173040546
 20
33.37375874018454
 10
-114.6525110968868
 20
33.44822908524844
 10
-114.5727400621508
 20
33.53564701656052
 10
-114.5051345446947
 20
33.63271046514439
 10
-114.4442200617427
 20
33.74237391376852
 10
-114.3962531650386
 20
33.85838081068852
 10
-114.3619290269989
 20
33.97899322486461
 10
-114.3399441993426
 20
34.11124977700848
 10
-114.3296035096545
 20
34.24489667398444
 10
-114.3296035096545
 20
35.47882771238443
 10
-113.4715000586547
 20
35.47882771238443
 10
-113.4715000586547
 20
34.26879322578458
 10
-113.4801897138545
 20
34.05589667338456
 10
-113.5040862656546
 20
33.84951736238446
 10
-113.5475345416548
 20
33.64965529278453
 10
-113.6040173004548
 20
33.45848287838459
 10
-113.6778793696548
 20
33.27382770538435
 10
-113.7626035078546
 20
33.10003460138438
 10
-113.8603621288548
 20
32.93927598018451
 10
-113.9709814395505
 20
32.79171694523331
  0
LINE
  5
83DB
330
82E5
100
AcDbEntity
  8
LW 5016-32-00
  6
MITTE2
 62
     3
100
AcDbLine
 10
0.0
 20
37.00000000000006
 30
0.0
 11
0.0
 21
-37.00000000000006
 31
0.0
  0
INSERT
  5
83DC
330
82E5
100
AcDbEntity
  8
LW 5016-32-00
100
AcDbBlockReference
 66
     1
  2
insertpoint-ECKELT
 10
0.0
 20
0.0
 30
0.0
  0
ATTRIB
  5
83DD
330
83DC
100
AcDbEntity
  8
insertpoint_ECKELT
100
AcDbText
 10
-6.93151432469286
 20
0.0
 30
0.0
 40
0.6
  1
LW 5016/32-00
 72
     2
 11
-1.199999999999818
 21
0.0
 31
0.0
100
AcDbAttribute
  2
LINKS
 70
     0
  0
ATTRIB
  5
83DE
330
83DC
100
AcDbEntity
  8
insertpoint_ECKELT
100
AcDbText
 10
1.199999999999818
 20
0.0
 30
0.0
 40
0.6
  1

100
AcDbAttribute
  2
RECHTS
 70
     0
  0
SEQEND
  5
83DF
330
83DC
100
AcDbEntity
  8
LW 5016-32-00
  0
POLYLINE
  5
83E0
330
82E5
100
AcDbEntity
  8
LW 5016-32-00
100
AcDb2dPolyline
 66
     1
 10
0.0
 20
0.0
 30
0.0
 70
   128
  0
VERTEX
  5
83E1
330
83E0
100
AcDbEntity
  8
LW 5016-32-00
100
AcDbVertex
100
AcDb2dVertex
 10
-93.50000023841834
 20
0.1000022888189846
 30
0.0
  0
VERTEX
  5
83E2
330
83E0
100
AcDbEntity
  8
LW 5016-32-00
100
AcDbVertex
100
AcDb2dVertex
 10
-93.48383784294105
 20
0.7524204254156644
 30
0.0
  0
VERTEX
  5
83E3
330
83E0
100
AcDbEntity
  8
LW 5016-32-00
100
AcDbVertex
100
AcDb2dVertex
 10
-93.43569993972755
 20
1.408705711365371
 30
0.0
  0
VERTEX
  5
83E4
330
83E0
100
AcDbEntity
  8
LW 5016-32-00
100
AcDbVertex
100
AcDb2dVertex
 10
-93.35610747337318
 20
2.063431739807754
 30
0.0
  0
VERTEX
  5
83E5
330
83E0
100
AcDbEntity
  8
LW 5016-32-00
100
AcDbVertex
100
AcDb2dVertex
 10
-93.24622988700843
 20
2.711348533630996
 30
0.0
  0
VERTEX
  5
83E6
330
83E0
100
AcDbEntity
  8
LW 5016-32-00
100
AcDbVertex
100
AcDb2dVertex
 10
-93.10924053192115
 20
3.347783088684707
 30
0.0
  0
VERTEX
  5
83E7
330
83E0
100
AcDbEntity
  8
LW 5016-32-00
100
AcDbVertex
100
AcDb2dVertex
 10
-92.94866681098914
 20
3.968186378479629
 30
0.0
  0
VERTEX
  5
83E8
330
83E0
100
AcDbEntity
  8
LW 5016-32-00
100
AcDbVertex
100
AcDb2dVertex
 10
-92.76835083961463
 20
4.56830501556459
 30
0.0
  0
VERTEX
  5
83E9
330
83E0
100
AcDbEntity
  8
LW 5016-32-00
100
AcDbVertex
100
AcDb2dVertex
 10
-92.57279276847816
 20
5.14498710632381
 30
0.0
  0
VERTEX
  5
83EA
330
83E0
100
AcDbEntity
  8
LW 5016-32-00
100
AcDbVertex
100
AcDb2dVertex
 10
-92.36650586128211
 20
5.695304870606037
 30
0.0
  0
VERTEX
  5
83EB
330
83E0
100
AcDbEntity
  8
LW 5016-32-00
100
AcDbVertex
100
AcDb2dVertex
 10
-92.15400457382179
 20
6.216325759888263
 30
0.0
  0
VERTEX
  5
83EC
330
83E0
100
AcDbEntity
  8
LW 5016-32-00
100
AcDbVertex
100
AcDb2dVertex
 10
-91.93980336189246
 20
6.705121994019123
 30
0.0
  0
VERTEX
  5
83ED
330
83E0
100
AcDbEntity
  8
LW 5016-32-00
100
AcDbVertex
100
AcDb2dVertex
 10
-91.72841668128944
 20
7.158765792847248
 30
0.0
  0
VERTEX
  5
83EE
330
83E0
100
AcDbEntity
  8
LW 5016-32-00
100
AcDbVertex
100
AcDb2dVertex
 10
-91.51902914047218
 20
7.584662437439533
 30
0.0
  0
VERTEX
  5
83EF
330
83E0
100
AcDbEntity
  8
LW 5016-32-00
100
AcDbVertex
100
AcDb2dVertex
 10
-91.31035447120643
 20
7.989382743836017
 30
0.0
  0
VERTEX
  5
83F0
330
83E0
100
AcDbEntity
  8
LW 5016-32-00
100
AcDbVertex
100
AcDb2dVertex
 10
-91.10615491867042
 20
8.368849754334064
 30
0.0
  0
VERTEX
  5
83F1
330
83E0
100
AcDbEntity
  8
LW 5016-32-00
100
AcDbVertex
100
AcDb2dVertex
 10
-90.91019630432105
 20
8.718976974487816
 30
0.0
  0
VERTEX
  5
83F2
330
83E0
100
AcDbEntity
  8
LW 5016-32-00
100
AcDbVertex
100
AcDb2dVertex
 10
-90.72623848915077
 20
9.035677909851585
 30
0.0
  0
VERTEX
  5
83F3
330
83E0
100
AcDbEntity
  8
LW 5016-32-00
100
AcDbVertex
100
AcDb2dVertex
 10
-90.55804610252357
 20
9.314870834351097
 30
0.0
  0
VERTEX
  5
83F4
330
83E0
100
AcDbEntity
  8
LW 5016-32-00
100
AcDbVertex
100
AcDb2dVertex
 10
-90.40935873985267
 20
9.552946090698753
 30
0.0
  0
VERTEX
  5
83F5
330
83E0
100
AcDbEntity
  8
LW 5016-32-00
100
AcDbVertex
100
AcDb2dVertex
 10
-90.28207540512061
 20
9.748716354370628
 30
0.0
  0
VERTEX
  5
83F6
330
83E0
100
AcDbEntity
  8
LW 5016-32-00
100
AcDbVertex
100
AcDb2dVertex
 10
-90.1772058010099
 20
9.901742935181175
 30
0.0
  0
VERTEX
  5
83F7
330
83E0
100
AcDbEntity
  8
LW 5016-32-00
100
AcDbVertex
100
AcDb2dVertex
 10
-90.09575486183143
 20
10.01159191131643
 30
0.0
  0
VERTEX
  5
83F8
330
83E0
100
AcDbEntity
  8
LW 5016-32-00
100
AcDbVertex
100
AcDb2dVertex
 10
-90.03873229026771
 20
10.07782459259084
 30
0.0
  0
VERTEX
  5
83F9
330
83E0
100
AcDbEntity
  8
LW 5016-32-00
100
AcDbVertex
100
AcDb2dVertex
 10
-90.00714421272254
 20
10.10000228881887
 30
0.0
  0
SEQEND
  5
83FA
330
83E0
100
AcDbEntity
  8
LW 5016-32-00
  0
POLYLINE
  5
83FB
330
82E5
100
AcDbEntity
  8
LW 5016-32-00
100
AcDb2dPolyline
 66
     1
 10
0.0
 20
0.0
 30
0.0
 70
   128
  0
VERTEX
  5
83FC
330
83FB
100
AcDbEntity
  8
LW 5016-32-00
100
AcDbVertex
100
AcDb2dVertex
 10
-124.9928557872769
 20
10.10000228881887
 30
0.0
  0
VERTEX
  5
83FD
330
83FB
100
AcDbEntity
  8
LW 5016-32-00
100
AcDbVertex
100
AcDb2dVertex
 10
-124.9612677097317
 20
10.07782459259084
 30
0.0
  0
VERTEX
  5
83FE
330
83FB
100
AcDbEntity
  8
LW 5016-32-00
100
AcDbVertex
100
AcDb2dVertex
 10
-124.904245138168
 20
10.01159191131643
 30
0.0
  0
VERTEX
  5
83FF
330
83FB
100
AcDbEntity
  8
LW 5016-32-00
100
AcDbVertex
100
AcDb2dVertex
 10
-124.8227941989895
 20
9.901742935181175
 30
0.0
  0
VERTEX
  5
8400
330
83FB
100
AcDbEntity
  8
LW 5016-32-00
100
AcDbVertex
100
AcDb2dVertex
 10
-124.7179245948789
 20
9.748716354370628
 30
0.0
  0
VERTEX
  5
8401
330
83FB
100
AcDbEntity
  8
LW 5016-32-00
100
AcDbVertex
100
AcDb2dVertex
 10
-124.5906412601468
 20
9.552946090698753
 30
0.0
  0
VERTEX
  5
8402
330
83FB
100
AcDbEntity
  8
LW 5016-32-00
100
AcDbVertex
100
AcDb2dVertex
 10
-124.4419538974759
 20
9.314870834351097
 30
0.0
  0
VERTEX
  5
8403
330
83FB
100
AcDbEntity
  8
LW 5016-32-00
100
AcDbVertex
100
AcDb2dVertex
 10
-124.2737615108487
 20
9.035677909851585
 30
0.0
  0
VERTEX
  5
8404
330
83FB
100
AcDbEntity
  8
LW 5016-32-00
100
AcDbVertex
100
AcDb2dVertex
 10
-124.0898036956785
 20
8.718976974487816
 30
0.0
  0
VERTEX
  5
8405
330
83FB
100
AcDbEntity
  8
LW 5016-32-00
100
AcDbVertex
100
AcDb2dVertex
 10
-123.8938450813291
 20
8.368849754334064
 30
0.0
  0
VERTEX
  5
8406
330
83FB
100
AcDbEntity
  8
LW 5016-32-00
100
AcDbVertex
100
AcDb2dVertex
 10
-123.6896455287931
 20
7.989382743836017
 30
0.0
  0
VERTEX
  5
8407
330
83FB
100
AcDbEntity
  8
LW 5016-32-00
100
AcDbVertex
100
AcDb2dVertex
 10
-123.4809708595273
 20
7.584662437439533
 30
0.0
  0
VERTEX
  5
8408
330
83FB
100
AcDbEntity
  8
LW 5016-32-00
100
AcDbVertex
100
AcDb2dVertex
 10
-123.2715833187101
 20
7.158765792847248
 30
0.0
  0
VERTEX
  5
8409
330
83FB
100
AcDbEntity
  8
LW 5016-32-00
100
AcDbVertex
100
AcDb2dVertex
 10
-123.060196638107
 20
6.705121994019123
 30
0.0
  0
VERTEX
  5
840A
330
83FB
100
AcDbEntity
  8
LW 5016-32-00
100
AcDbVertex
100
AcDb2dVertex
 10
-122.8459954261777
 20
6.216325759888263
 30
0.0
  0
VERTEX
  5
840B
330
83FB
100
AcDbEntity
  8
LW 5016-32-00
100
AcDbVertex
100
AcDb2dVertex
 10
-122.6334941387174
 20
5.695304870606037
 30
0.0
  0
VERTEX
  5
840C
330
83FB
100
AcDbEntity
  8
LW 5016-32-00
100
AcDbVertex
100
AcDb2dVertex
 10
-122.4272072315213
 20
5.14498710632381
 30
0.0
  0
VERTEX
  5
840D
330
83FB
100
AcDbEntity
  8
LW 5016-32-00
100
AcDbVertex
100
AcDb2dVertex
 10
-122.2316491603849
 20
4.56830501556459
 30
0.0
  0
VERTEX
  5
840E
330
83FB
100
AcDbEntity
  8
LW 5016-32-00
100
AcDbVertex
100
AcDb2dVertex
 10
-122.0513331890104
 20
3.968186378479629
 30
0.0
  0
VERTEX
  5
840F
330
83FB
100
AcDbEntity
  8
LW 5016-32-00
100
AcDbVertex
100
AcDb2dVertex
 10
-121.8907594680783
 20
3.347783088684707
 30
0.0
  0
VERTEX
  5
8410
330
83FB
100
AcDbEntity
  8
LW 5016-32-00
100
AcDbVertex
100
AcDb2dVertex
 10
-121.7537701129911
 20
2.711348533630996
 30
0.0
  0
VERTEX
  5
8411
330
83FB
100
AcDbEntity
  8
LW 5016-32-00
100
AcDbVertex
100
AcDb2dVertex
 10
-121.6438925266263
 20
2.063431739807754
 30
0.0
  0
VERTEX
  5
8412
330
83FB
100
AcDbEntity
  8
LW 5016-32-00
100
AcDbVertex
100
AcDb2dVertex
 10
-121.5643000602719
 20
1.408705711365371
 30
0.0
  0
VERTEX
  5
8413
330
83FB
100
AcDbEntity
  8
LW 5016-32-00
100
AcDbVertex
100
AcDb2dVertex
 10
-121.5161621570584
 20
0.7524204254156644
 30
0.0
  0
VERTEX
  5
8414
330
83FB
100
AcDbEntity
  8
LW 5016-32-00
100
AcDbVertex
100
AcDb2dVertex
 10
-121.4999997615812
 20
0.1000022888189846
 30
0.0
  0
SEQEND
  5
8415
330
83FB
100
AcDbEntity
  8
LW 5016-32-00
  0
POLYLINE
  5
8416
330
82E5
100
AcDbEntity
  8
LW 5016-32-00
100
AcDb2dPolyline
 66
     1
 10
0.0
 20
0.0
 30
0.0
 70
   128
  0
VERTEX
  5
8417
330
8416
100
AcDbEntity
  8
LW 5016-32-00
100
AcDbVertex
100
AcDb2dVertex
 10
-90.00714421272254
 20
-10.10000228881756
 30
0.0
  0
VERTEX
  5
8418
330
8416
100
AcDbEntity
  8
LW 5016-32-00
100
AcDbVertex
100
AcDb2dVertex
 10
-90.03873229026771
 20
-10.07782459258953
 30
0.0
  0
VERTEX
  5
8419
330
8416
100
AcDbEntity
  8
LW 5016-32-00
100
AcDbVertex
100
AcDb2dVertex
 10
-90.09575486183143
 20
-10.01159191131512
 30
0.0
  0
VERTEX
  5
841A
330
8416
100
AcDbEntity
  8
LW 5016-32-00
100
AcDbVertex
100
AcDb2dVertex
 10
-90.1772058010099
 20
-9.901742935179868
 30
0.0
  0
VERTEX
  5
841B
330
8416
100
AcDbEntity
  8
LW 5016-32-00
100
AcDbVertex
100
AcDb2dVertex
 10
-90.28207540512061
 20
-9.748716354369321
 30
0.0
  0
VERTEX
  5
841C
330
8416
100
AcDbEntity
  8
LW 5016-32-00
100
AcDbVertex
100
AcDb2dVertex
 10
-90.40935873985267
 20
-9.552946090697446
 30
0.0
  0
VERTEX
  5
841D
330
8416
100
AcDbEntity
  8
LW 5016-32-00
100
AcDbVertex
100
AcDb2dVertex
 10
-90.55804610252357
 20
-9.31487083434979
 30
0.0
  0
VERTEX
  5
841E
330
8416
100
AcDbEntity
  8
LW 5016-32-00
100
AcDbVertex
100
AcDb2dVertex
 10
-90.72623848915077
 20
-9.035677909850335
 30
0.0
  0
VERTEX
  5
841F
330
8416
100
AcDbEntity
  8
LW 5016-32-00
100
AcDbVertex
100
AcDb2dVertex
 10
-90.91019630432105
 20
-8.718976974486565
 30
0.0
  0
VERTEX
  5
8420
330
8416
100
AcDbEntity
  8
LW 5016-32-00
100
AcDbVertex
100
AcDb2dVertex
 10
-91.10615491867042
 20
-8.368849754332757
 30
0.0
  0
VERTEX
  5
8421
330
8416
100
AcDbEntity
  8
LW 5016-32-00
100
AcDbVertex
100
AcDb2dVertex
 10
-91.31035447120643
 20
-7.98938274383471
 30
0.0
  0
VERTEX
  5
8422
330
8416
100
AcDbEntity
  8
LW 5016-32-00
100
AcDbVertex
100
AcDb2dVertex
 10
-91.51902914047218
 20
-7.584662437438225
 30
0.0
  0
VERTEX
  5
8423
330
8416
100
AcDbEntity
  8
LW 5016-32-00
100
AcDbVertex
100
AcDb2dVertex
 10
-91.72841668128944
 20
-7.15876579284594
 30
0.0
  0
VERTEX
  5
8424
330
8416
100
AcDbEntity
  8
LW 5016-32-00
100
AcDbVertex
100
AcDb2dVertex
 10
-91.93980336189246
 20
-6.705121994017815
 30
0.0
  0
VERTEX
  5
8425
330
8416
100
AcDbEntity
  8
LW 5016-32-00
100
AcDbVertex
100
AcDb2dVertex
 10
-92.15400457382179
 20
-6.216325759886956
 30
0.0
  0
VERTEX
  5
8426
330
8416
100
AcDbEntity
  8
LW 5016-32-00
100
AcDbVertex
100
AcDb2dVertex
 10
-92.36650586128211
 20
-5.695304870604729
 30
0.0
  0
VERTEX
  5
8427
330
8416
100
AcDbEntity
  8
LW 5016-32-00
100
AcDbVertex
100
AcDb2dVertex
 10
-92.57279276847816
 20
-5.144987106322503
 30
0.0
  0
VERTEX
  5
8428
330
8416
100
AcDbEntity
  8
LW 5016-32-00
100
AcDbVertex
100
AcDb2dVertex
 10
-92.76835083961463
 20
-4.568305015563225
 30
0.0
  0
VERTEX
  5
8429
330
8416
100
AcDbEntity
  8
LW 5016-32-00
100
AcDbVertex
100
AcDb2dVertex
 10
-92.94866681098914
 20
-3.968186378478264
 30
0.0
  0
VERTEX
  5
842A
330
8416
100
AcDbEntity
  8
LW 5016-32-00
100
AcDbVertex
100
AcDb2dVertex
 10
-93.10924053192115
 20
-3.347783088683343
 30
0.0
  0
VERTEX
  5
842B
330
8416
100
AcDbEntity
  8
LW 5016-32-00
100
AcDbVertex
100
AcDb2dVertex
 10
-93.24622988700843
 20
-2.711348533629688
 30
0.0
  0
VERTEX
  5
842C
330
8416
100
AcDbEntity
  8
LW 5016-32-00
100
AcDbVertex
100
AcDb2dVertex
 10
-93.35610747337318
 20
-2.063431739806446
 30
0.0
  0
VERTEX
  5
842D
330
8416
100
AcDbEntity
  8
LW 5016-32-00
100
AcDbVertex
100
AcDb2dVertex
 10
-93.43569993972755
 20
-1.408705711364063
 30
0.0
  0
VERTEX
  5
842E
330
8416
100
AcDbEntity
  8
LW 5016-32-00
100
AcDbVertex
100
AcDb2dVertex
 10
-93.48383784294105
 20
-0.7524204254144138
 30
0.0
  0
VERTEX
  5
842F
330
8416
100
AcDbEntity
  8
LW 5016-32-00
100
AcDbVertex
100
AcDb2dVertex
 10
-93.50000023841834
 20
-0.1000022888177341
 30
0.0
  0
SEQEND
  5
8430
330
8416
100
AcDbEntity
  8
LW 5016-32-00
  0
POLYLINE
  5
8431
330
82E5
100
AcDbEntity
  8
LW 5016-32-00
100
AcDb2dPolyline
 66
     1
 10
0.0
 20
0.0
 30
0.0
 70
   128
  0
VERTEX
  5
8432
330
8431
100
AcDbEntity
  8
LW 5016-32-00
100
AcDbVertex
100
AcDb2dVertex
 10
-121.4999997615812
 20
-0.1000022888177341
 30
0.0
  0
VERTEX
  5
8433
330
8431
100
AcDbEntity
  8
LW 5016-32-00
100
AcDbVertex
100
AcDb2dVertex
 10
-121.5161621570584
 20
-0.7524204254144138
 30
0.0
  0
VERTEX
  5
8434
330
8431
100
AcDbEntity
  8
LW 5016-32-00
100
AcDbVertex
100
AcDb2dVertex
 10
-121.5643000602719
 20
-1.408705711364063
 30
0.0
  0
VERTEX
  5
8435
330
8431
100
AcDbEntity
  8
LW 5016-32-00
100
AcDbVertex
100
AcDb2dVertex
 10
-121.6438925266263
 20
-2.063431739806446
 30
0.0
  0
VERTEX
  5
8436
330
8431
100
AcDbEntity
  8
LW 5016-32-00
100
AcDbVertex
100
AcDb2dVertex
 10
-121.7537701129911
 20
-2.711348533629688
 30
0.0
  0
VERTEX
  5
8437
330
8431
100
AcDbEntity
  8
LW 5016-32-00
100
AcDbVertex
100
AcDb2dVertex
 10
-121.8907594680783
 20
-3.347783088683343
 30
0.0
  0
VERTEX
  5
8438
330
8431
100
AcDbEntity
  8
LW 5016-32-00
100
AcDbVertex
100
AcDb2dVertex
 10
-122.0513331890104
 20
-3.968186378478264
 30
0.0
  0
VERTEX
  5
8439
330
8431
100
AcDbEntity
  8
LW 5016-32-00
100
AcDbVertex
100
AcDb2dVertex
 10
-122.2316491603849
 20
-4.568305015563225
 30
0.0
  0
VERTEX
  5
843A
330
8431
100
AcDbEntity
  8
LW 5016-32-00
100
AcDbVertex
100
AcDb2dVertex
 10
-122.4272072315213
 20
-5.144987106322503
 30
0.0
  0
VERTEX
  5
843B
330
8431
100
AcDbEntity
  8
LW 5016-32-00
100
AcDbVertex
100
AcDb2dVertex
 10
-122.6334941387174
 20
-5.695304870604729
 30
0.0
  0
VERTEX
  5
843C
330
8431
100
AcDbEntity
  8
LW 5016-32-00
100
AcDbVertex
100
AcDb2dVertex
 10
-122.8459954261777
 20
-6.216325759886956
 30
0.0
  0
VERTEX
  5
843D
330
8431
100
AcDbEntity
  8
LW 5016-32-00
100
AcDbVertex
100
AcDb2dVertex
 10
-123.060196638107
 20
-6.705121994017815
 30
0.0
  0
VERTEX
  5
843E
330
8431
100
AcDbEntity
  8
LW 5016-32-00
100
AcDbVertex
100
AcDb2dVertex
 10
-123.2715833187101
 20
-7.15876579284594
 30
0.0
  0
VERTEX
  5
843F
330
8431
100
AcDbEntity
  8
LW 5016-32-00
100
AcDbVertex
100
AcDb2dVertex
 10
-123.4809708595273
 20
-7.584662437438225
 30
0.0
  0
VERTEX
  5
8440
330
8431
100
AcDbEntity
  8
LW 5016-32-00
100
AcDbVertex
100
AcDb2dVertex
 10
-123.6896455287931
 20
-7.98938274383471
 30
0.0
  0
VERTEX
  5
8441
330
8431
100
AcDbEntity
  8
LW 5016-32-00
100
AcDbVertex
100
AcDb2dVertex
 10
-123.8938450813291
 20
-8.368849754332757
 30
0.0
  0
VERTEX
  5
8442
330
8431
100
AcDbEntity
  8
LW 5016-32-00
100
AcDbVertex
100
AcDb2dVertex
 10
-124.0898036956785
 20
-8.718976974486565
 30
0.0
  0
VERTEX
  5
8443
330
8431
100
AcDbEntity
  8
LW 5016-32-00
100
AcDbVertex
100
AcDb2dVertex
 10
-124.2737615108487
 20
-9.035677909850335
 30
0.0
  0
VERTEX
  5
8444
330
8431
100
AcDbEntity
  8
LW 5016-32-00
100
AcDbVertex
100
AcDb2dVertex
 10
-124.4419538974759
 20
-9.31487083434979
 30
0.0
  0
VERTEX
  5
8445
330
8431
100
AcDbEntity
  8
LW 5016-32-00
100
AcDbVertex
100
AcDb2dVertex
 10
-124.5906412601468
 20
-9.552946090697446
 30
0.0
  0
VERTEX
  5
8446
330
8431
100
AcDbEntity
  8
LW 5016-32-00
100
AcDbVertex
100
AcDb2dVertex
 10
-124.7179245948789
 20
-9.748716354369321
 30
0.0
  0
VERTEX
  5
8447
330
8431
100
AcDbEntity
  8
LW 5016-32-00
100
AcDbVertex
100
AcDb2dVertex
 10
-124.8227941989895
 20
-9.901742935179868
 30
0.0
  0
VERTEX
  5
8448
330
8431
100
AcDbEntity
  8
LW 5016-32-00
100
AcDbVertex
100
AcDb2dVertex
 10
-124.904245138168
 20
-10.01159191131512
 30
0.0
  0
VERTEX
  5
8449
330
8431
100
AcDbEntity
  8
LW 5016-32-00
100
AcDbVertex
100
AcDb2dVertex
 10
-124.9612677097317
 20
-10.07782459258953
 30
0.0
  0
VERTEX
  5
844A
330
8431
100
AcDbEntity
  8
LW 5016-32-00
100
AcDbVertex
100
AcDb2dVertex
 10
-124.9928557872769
 20
-10.10000228881756
 30
0.0
  0
SEQEND
  5
844B
330
8431
100
AcDbEntity
  8
LW 5016-32-00
  0
LINE
  5
844C
330
82E5
100
AcDbEntity
  8
LW 5016-32-00
100
AcDbLine
 10
-121.4999997615812
 20
-0.1000022888177341
 30
0.0
 11
-121.4999997615812
 21
0.1000022888189846
 31
0.0
  0
LINE
  5
844D
330
82E5
100
AcDbEntity
  8
LW 5016-32-00
100
AcDbLine
 10
-93.50000023841834
 20
-0.1000022888177341
 30
0.0
 11
-93.50000023841834
 21
0.1000022888189846
 31
0.0
  0
LINE
  5
844E
330
82E5
100
AcDbEntity
  8
LW 5016-32-00
100
AcDbLine
 10
-124.9928557872769
 20
-10.10000228881756
 30
0.0
 11
-124.9999999999998
 21
-10.10000228881756
 31
0.0
  0
LINE
  5
844F
330
82E5
100
AcDbEntity
  8
LW 5016-32-00
100
AcDbLine
 10
-124.9928557872769
 20
10.10000228881887
 30
0.0
 11
-124.9999999999997
 21
10.10000000000008
 31
0.0
  0
LINE
  5
8450
330
82E5
100
AcDbEntity
  8
LW 5016-32-00
100
AcDbLine
 10
-90.00714421272254
 20
10.10000228881887
 30
0.0
 11
-89.99999999999976
 21
10.10000000000008
 31
0.0
  0
LINE
  5
8451
330
82E5
100
AcDbEntity
  8
LW 5016-32-00
100
AcDbLine
 10
-90.00714421272254
 20
-10.10000228881756
 30
0.0
 11
-89.99999999999976
 21
-10.09999999999996
 31
0.0
  0
ENDBLK
  5
82E7
330
82E5
100
AcDbEntity
  8
0
100
AcDbBlockEnd
  0
BLOCK
  5
8454
330
8453
100
AcDbEntity
  8
0
100
AcDbBlockBegin
  2
LW 5016-32-00_b
 70
     0
 10
0.0
 20
0.0
 30
0.0
  3
LW 5016-32-00_b
  1

  0
POLYLINE
  5
8456
330
8453
100
AcDbEntity
  8
LW 5016-32-00
100
AcDb2dPolyline
 66
     1
 10
0.0
 20
0.0
 30
0.0
 70
   128
  0
VERTEX
  5
8457
330
8456
100
AcDbEntity
  8
LW 5016-32-00
100
AcDbVertex
100
AcDb2dVertex
 10
40.01999999999999
 20
-21.65063619614023
 30
0.0
  0
VERTEX
  5
8458
330
8456
100
AcDbEntity
  8
LW 5016-32-00
100
AcDbVertex
100
AcDb2dVertex
 10
39.99898697853088
 20
-21.80843830109006
 30
0.0
  0
VERTEX
  5
8459
330
8456
100
AcDbEntity
  8
LW 5016-32-00
100
AcDbVertex
100
AcDb2dVertex
 10
39.93565704345703
 20
-21.96433782577878
 30
0.0
  0
VERTEX
  5
845A
330
8456
100
AcDbEntity
  8
LW 5016-32-00
100
AcDbVertex
100
AcDb2dVertex
 10
39.82957746505737
 20
-22.11326599121457
 30
0.0
  0
VERTEX
  5
845B
330
8456
100
AcDbEntity
  8
LW 5016-32-00
100
AcDbVertex
100
AcDb2dVertex
 10
39.68169476509094
 20
-22.25069761276586
 30
0.0
  0
VERTEX
  5
845C
330
8456
100
AcDbEntity
  8
LW 5016-32-00
100
AcDbVertex
100
AcDb2dVertex
 10
39.49847723960876
 20
-22.37386226654394
 30
0.0
  0
VERTEX
  5
845D
330
8456
100
AcDbEntity
  8
LW 5016-32-00
100
AcDbVertex
100
AcDb2dVertex
 10
39.28776528358459
 20
-22.48032569885595
 30
0.0
  0
VERTEX
  5
845E
330
8456
100
AcDbEntity
  8
LW 5016-32-00
100
AcDbVertex
100
AcDb2dVertex
 10
39.04740001678467
 20
-22.57195234299024
 30
0.0
  0
VERTEX
  5
845F
330
8456
100
AcDbEntity
  8
LW 5016-32-00
100
AcDbVertex
100
AcDb2dVertex
 10
38.77476121902466
 20
-22.6503801345857
 30
0.0
  0
VERTEX
  5
8460
330
8456
100
AcDbEntity
  8
LW 5016-32-00
100
AcDbVertex
100
AcDb2dVertex
 10
38.47699787139892
 20
-22.71283626556715
 30
0.0
  0
VERTEX
  5
8461
330
8456
100
AcDbEntity
  8
LW 5016-32-00
100
AcDbVertex
100
AcDb2dVertex
 10
38.16183115959167
 20
-22.75718688965162
 30
0.0
  0
VERTEX
  5
8462
330
8456
100
AcDbEntity
  8
LW 5016-32-00
100
AcDbVertex
100
AcDb2dVertex
 10
37.8392925453186
 20
-22.78345584869703
 30
0.0
  0
VERTEX
  5
8463
330
8456
100
AcDbEntity
  8
LW 5016-32-00
100
AcDbVertex
100
AcDb2dVertex
 10
37.52
 20
-22.79211044311842
 30
0.0
  0
VERTEX
  5
8464
330
8456
100
AcDbEntity
  8
LW 5016-32-00
100
AcDbVertex
100
AcDb2dVertex
 10
37.20070745468139
 20
-22.78345584869703
 30
0.0
  0
VERTEX
  5
8465
330
8456
100
AcDbEntity
  8
LW 5016-32-00
100
AcDbVertex
100
AcDb2dVertex
 10
36.87816884040832
 20
-22.75718688965162
 30
0.0
  0
VERTEX
  5
8466
330
8456
100
AcDbEntity
  8
LW 5016-32-00
100
AcDbVertex
100
AcDb2dVertex
 10
36.56300212860107
 20
-22.71283626556715
 30
0.0
  0
VERTEX
  5
8467
330
8456
100
AcDbEntity
  8
LW 5016-32-00
100
AcDbVertex
100
AcDb2dVertex
 10
36.26523878097534
 20
-22.6503801345857
 30
0.0
  0
VERTEX
  5
8468
330
8456
100
AcDbEntity
  8
LW 5016-32-00
100
AcDbVertex
100
AcDb2dVertex
 10
35.99259998321533
 20
-22.57195234299024
 30
0.0
  0
VERTEX
  5
8469
330
8456
100
AcDbEntity
  8
LW 5016-32-00
100
AcDbVertex
100
AcDb2dVertex
 10
35.7522347164154
 20
-22.48032569885595
 30
0.0
  0
VERTEX
  5
846A
330
8456
100
AcDbEntity
  8
LW 5016-32-00
100
AcDbVertex
100
AcDb2dVertex
 10
35.54152276039123
 20
-22.37386226654394
 30
0.0
  0
VERTEX
  5
846B
330
8456
100
AcDbEntity
  8
LW 5016-32-00
100
AcDbVertex
100
AcDb2dVertex
 10
35.35830523490905
 20
-22.25069761276586
 30
0.0
  0
VERTEX
  5
846C
330
8456
100
AcDbEntity
  8
LW 5016-32-00
100
AcDbVertex
100
AcDb2dVertex
 10
35.21042253494262
 20
-22.11326599121457
 30
0.0
  0
VERTEX
  5
846D
330
8456
100
AcDbEntity
  8
LW 5016-32-00
100
AcDbVertex
100
AcDb2dVertex
 10
35.10434295654297
 20
-21.96433782577878
 30
0.0
  0
VERTEX
  5
846E
330
8456
100
AcDbEntity
  8
LW 5016-32-00
100
AcDbVertex
100
AcDb2dVertex
 10
35.04101302146911
 20
-21.80843830109006
 30
0.0
  0
VERTEX
  5
846F
330
8456
100
AcDbEntity
  8
LW 5016-32-00
100
AcDbVertex
100
AcDb2dVertex
 10
35.02
 20
-21.65063619614023
 30
0.0
  0
SEQEND
  5
8470
330
8456
100
AcDbEntity
  8
LW 5016-32-00
  0
POLYLINE
  5
8471
330
8453
100
AcDbEntity
  8
LW 5016-32-00
100
AcDb2dPolyline
 66
     1
 10
0.0
 20
0.0
 30
0.0
 70
   128
  0
VERTEX
  5
8472
330
8471
100
AcDbEntity
  8
LW 5016-32-00
100
AcDbVertex
100
AcDb2dVertex
 10
35.02
 20
-21.65063619614023
 30
0.0
  0
VERTEX
  5
8473
330
8471
100
AcDbEntity
  8
LW 5016-32-00
100
AcDbVertex
100
AcDb2dVertex
 10
35.04101302146911
 20
-21.48914575577169
 30
0.0
  0
VERTEX
  5
8474
330
8471
100
AcDbEntity
  8
LW 5016-32-00
100
AcDbVertex
100
AcDb2dVertex
 10
35.10434295654297
 20
-21.32250547409455
 30
0.0
  0
VERTEX
  5
8475
330
8471
100
AcDbEntity
  8
LW 5016-32-00
100
AcDbVertex
100
AcDb2dVertex
 10
35.21042253494262
 20
-21.15626573563031
 30
0.0
  0
VERTEX
  5
8476
330
8471
100
AcDbEntity
  8
LW 5016-32-00
100
AcDbVertex
100
AcDb2dVertex
 10
35.35830523490905
 20
-20.9959340095561
 30
0.0
  0
VERTEX
  5
8477
330
8471
100
AcDbEntity
  8
LW 5016-32-00
100
AcDbVertex
100
AcDb2dVertex
 10
35.54152276039123
 20
-20.84645748138848
 30
0.0
  0
VERTEX
  5
8478
330
8471
100
AcDbEntity
  8
LW 5016-32-00
100
AcDbVertex
100
AcDb2dVertex
 10
35.7522347164154
 20
-20.71255683899346
 30
0.0
  0
VERTEX
  5
8479
330
8471
100
AcDbEntity
  8
LW 5016-32-00
100
AcDbVertex
100
AcDb2dVertex
 10
35.99259998321533
 20
-20.59347152710393
 30
0.0
  0
VERTEX
  5
847A
330
8471
100
AcDbEntity
  8
LW 5016-32-00
100
AcDbVertex
100
AcDb2dVertex
 10
36.26523878097534
 20
-20.48868179321721
 30
0.0
  0
VERTEX
  5
847B
330
8471
100
AcDbEntity
  8
LW 5016-32-00
100
AcDbVertex
100
AcDb2dVertex
 10
36.56300212860107
 20
-20.40325641632512
 30
0.0
  0
VERTEX
  5
847C
330
8471
100
AcDbEntity
  8
LW 5016-32-00
100
AcDbVertex
100
AcDb2dVertex
 10
36.87816884040832
 20
-20.34152984619573
 30
0.0
  0
VERTEX
  5
847D
330
8471
100
AcDbEntity
  8
LW 5016-32-00
100
AcDbVertex
100
AcDb2dVertex
 10
37.20070745468139
 20
-20.30447006226018
 30
0.0
  0
VERTEX
  5
847E
330
8471
100
AcDbEntity
  8
LW 5016-32-00
100
AcDbVertex
100
AcDb2dVertex
 10
37.52
 20
-20.29211044311955
 30
0.0
  0
VERTEX
  5
847F
330
8471
100
AcDbEntity
  8
LW 5016-32-00
100
AcDbVertex
100
AcDb2dVertex
 10
37.8392925453186
 20
-20.30447006226018
 30
0.0
  0
VERTEX
  5
8480
330
8471
100
AcDbEntity
  8
LW 5016-32-00
100
AcDbVertex
100
AcDb2dVertex
 10
38.16183115959167
 20
-20.34152984619573
 30
0.0
  0
VERTEX
  5
8481
330
8471
100
AcDbEntity
  8
LW 5016-32-00
100
AcDbVertex
100
AcDb2dVertex
 10
38.47699787139892
 20
-20.40325641632512
 30
0.0
  0
VERTEX
  5
8482
330
8471
100
AcDbEntity
  8
LW 5016-32-00
100
AcDbVertex
100
AcDb2dVertex
 10
38.77476121902466
 20
-20.48868179321721
 30
0.0
  0
VERTEX
  5
8483
330
8471
100
AcDbEntity
  8
LW 5016-32-00
100
AcDbVertex
100
AcDb2dVertex
 10
39.04740001678467
 20
-20.59347152710393
 30
0.0
  0
VERTEX
  5
8484
330
8471
100
AcDbEntity
  8
LW 5016-32-00
100
AcDbVertex
100
AcDb2dVertex
 10
39.28776528358459
 20
-20.71255683899346
 30
0.0
  0
VERTEX
  5
8485
330
8471
100
AcDbEntity
  8
LW 5016-32-00
100
AcDbVertex
100
AcDb2dVertex
 10
39.49847723960876
 20
-20.84645748138848
 30
0.0
  0
VERTEX
  5
8486
330
8471
100
AcDbEntity
  8
LW 5016-32-00
100
AcDbVertex
100
AcDb2dVertex
 10
39.68169476509094
 20
-20.9959340095561
 30
0.0
  0
VERTEX
  5
8487
330
8471
100
AcDbEntity
  8
LW 5016-32-00
100
AcDbVertex
100
AcDb2dVertex
 10
39.82957746505737
 20
-21.15626573563031
 30
0.0
  0
VERTEX
  5
8488
330
8471
100
AcDbEntity
  8
LW 5016-32-00
100
AcDbVertex
100
AcDb2dVertex
 10
39.93565704345703
 20
-21.32250547409455
 30
0.0
  0
VERTEX
  5
8489
330
8471
100
AcDbEntity
  8
LW 5016-32-00
100
AcDbVertex
100
AcDb2dVertex
 10
39.99898697853088
 20
-21.48914575577169
 30
0.0
  0
VERTEX
  5
848A
330
8471
100
AcDbEntity
  8
LW 5016-32-00
100
AcDbVertex
100
AcDb2dVertex
 10
40.01999999999999
 20
-21.65063619614023
 30
0.0
  0
SEQEND
  5
848B
330
8471
100
AcDbEntity
  8
LW 5016-32-00
  0
POLYLINE
  5
848C
330
8453
100
AcDbEntity
  8
LW 5016-32-00
100
AcDb2dPolyline
 66
     1
 10
0.0
 20
0.0
 30
0.0
 70
   128
  0
VERTEX
  5
848D
330
848C
100
AcDbEntity
  8
LW 5016-32-00
100
AcDbVertex
100
AcDb2dVertex
 10
40.01999999999999
 20
21.65063619613272
 30
0.0
  0
VERTEX
  5
848E
330
848C
100
AcDbEntity
  8
LW 5016-32-00
100
AcDbVertex
100
AcDb2dVertex
 10
39.99898697853088
 20
21.48914575576396
 30
0.0
  0
VERTEX
  5
848F
330
848C
100
AcDbEntity
  8
LW 5016-32-00
100
AcDbVertex
100
AcDb2dVertex
 10
39.93565704345703
 20
21.3225054740866
 30
0.0
  0
VERTEX
  5
8490
330
848C
100
AcDbEntity
  8
LW 5016-32-00
100
AcDbVertex
100
AcDb2dVertex
 10
39.82957746505737
 20
21.15626573562213
 30
0.0
  0
VERTEX
  5
8491
330
848C
100
AcDbEntity
  8
LW 5016-32-00
100
AcDbVertex
100
AcDb2dVertex
 10
39.68169476509094
 20
20.99593400954791
 30
0.0
  0
VERTEX
  5
8492
330
848C
100
AcDbEntity
  8
LW 5016-32-00
100
AcDbVertex
100
AcDb2dVertex
 10
39.49847723960876
 20
20.84645748138007
 30
0.0
  0
VERTEX
  5
8493
330
848C
100
AcDbEntity
  8
LW 5016-32-00
100
AcDbVertex
100
AcDb2dVertex
 10
39.28776528358459
 20
20.71255683898505
 30
0.0
  0
VERTEX
  5
8494
330
848C
100
AcDbEntity
  8
LW 5016-32-00
100
AcDbVertex
100
AcDb2dVertex
 10
39.04740001678467
 20
20.59347152709529
 30
0.0
  0
VERTEX
  5
8495
330
848C
100
AcDbEntity
  8
LW 5016-32-00
100
AcDbVertex
100
AcDb2dVertex
 10
38.77476121902466
 20
20.48868179320857
 30
0.0
  0
VERTEX
  5
8496
330
848C
100
AcDbEntity
  8
LW 5016-32-00
100
AcDbVertex
100
AcDb2dVertex
 10
38.47699787139892
 20
20.40325641631648
 30
0.0
  0
VERTEX
  5
8497
330
848C
100
AcDbEntity
  8
LW 5016-32-00
100
AcDbVertex
100
AcDb2dVertex
 10
38.16183115959167
 20
20.34152984618708
 30
0.0
  0
VERTEX
  5
8498
330
848C
100
AcDbEntity
  8
LW 5016-32-00
100
AcDbVertex
100
AcDb2dVertex
 10
37.8392925453186
 20
20.30447006225154
 30
0.0
  0
VERTEX
  5
8499
330
848C
100
AcDbEntity
  8
LW 5016-32-00
100
AcDbVertex
100
AcDb2dVertex
 10
37.52
 20
20.29211044311091
 30
0.0
  0
VERTEX
  5
849A
330
848C
100
AcDbEntity
  8
LW 5016-32-00
100
AcDbVertex
100
AcDb2dVertex
 10
37.20070745468139
 20
20.30447006225154
 30
0.0
  0
VERTEX
  5
849B
330
848C
100
AcDbEntity
  8
LW 5016-32-00
100
AcDbVertex
100
AcDb2dVertex
 10
36.87816884040832
 20
20.34152984618708
 30
0.0
  0
VERTEX
  5
849C
330
848C
100
AcDbEntity
  8
LW 5016-32-00
100
AcDbVertex
100
AcDb2dVertex
 10
36.56300212860107
 20
20.40325641631648
 30
0.0
  0
VERTEX
  5
849D
330
848C
100
AcDbEntity
  8
LW 5016-32-00
100
AcDbVertex
100
AcDb2dVertex
 10
36.26523878097534
 20
20.48868179320857
 30
0.0
  0
VERTEX
  5
849E
330
848C
100
AcDbEntity
  8
LW 5016-32-00
100
AcDbVertex
100
AcDb2dVertex
 10
35.99259998321533
 20
20.59347152709529
 30
0.0
  0
VERTEX
  5
849F
330
848C
100
AcDbEntity
  8
LW 5016-32-00
100
AcDbVertex
100
AcDb2dVertex
 10
35.7522347164154
 20
20.71255683898505
 30
0.0
  0
VERTEX
  5
84A0
330
848C
100
AcDbEntity
  8
LW 5016-32-00
100
AcDbVertex
100
AcDb2dVertex
 10
35.54152276039123
 20
20.84645748138007
 30
0.0
  0
VERTEX
  5
84A1
330
848C
100
AcDbEntity
  8
LW 5016-32-00
100
AcDbVertex
100
AcDb2dVertex
 10
35.35830523490905
 20
20.99593400954791
 30
0.0
  0
VERTEX
  5
84A2
330
848C
100
AcDbEntity
  8
LW 5016-32-00
100
AcDbVertex
100
AcDb2dVertex
 10
35.21042253494262
 20
21.15626573562213
 30
0.0
  0
VERTEX
  5
84A3
330
848C
100
AcDbEntity
  8
LW 5016-32-00
100
AcDbVertex
100
AcDb2dVertex
 10
35.10434295654297
 20
21.3225054740866
 30
0.0
  0
VERTEX
  5
84A4
330
848C
100
AcDbEntity
  8
LW 5016-32-00
100
AcDbVertex
100
AcDb2dVertex
 10
35.04101302146911
 20
21.48914575576396
 30
0.0
  0
VERTEX
  5
84A5
330
848C
100
AcDbEntity
  8
LW 5016-32-00
100
AcDbVertex
100
AcDb2dVertex
 10
35.02
 20
21.65063619613272
 30
0.0
  0
SEQEND
  5
84A6
330
848C
100
AcDbEntity
  8
LW 5016-32-00
  0
POLYLINE
  5
84A7
330
8453
100
AcDbEntity
  8
LW 5016-32-00
100
AcDb2dPolyline
 66
     1
 10
0.0
 20
0.0
 30
0.0
 70
   128
  0
VERTEX
  5
84A8
330
84A7
100
AcDbEntity
  8
LW 5016-32-00
100
AcDbVertex
100
AcDb2dVertex
 10
35.02
 20
21.65063619613272
 30
0.0
  0
VERTEX
  5
84A9
330
84A7
100
AcDbEntity
  8
LW 5016-32-00
100
AcDbVertex
100
AcDb2dVertex
 10
35.04101302146911
 20
21.80843830108279
 30
0.0
  0
VERTEX
  5
84AA
330
84A7
100
AcDbEntity
  8
LW 5016-32-00
100
AcDbVertex
100
AcDb2dVertex
 10
35.10434295654297
 20
21.96433782577151
 30
0.0
  0
VERTEX
  5
84AB
330
84A7
100
AcDbEntity
  8
LW 5016-32-00
100
AcDbVertex
100
AcDb2dVertex
 10
35.21042253494262
 20
22.1132659912073
 30
0.0
  0
VERTEX
  5
84AC
330
84A7
100
AcDbEntity
  8
LW 5016-32-00
100
AcDbVertex
100
AcDb2dVertex
 10
35.35830523490905
 20
22.25069761275904
 30
0.0
  0
VERTEX
  5
84AD
330
84A7
100
AcDbEntity
  8
LW 5016-32-00
100
AcDbVertex
100
AcDb2dVertex
 10
35.54152276039123
 20
22.37386226653712
 30
0.0
  0
VERTEX
  5
84AE
330
84A7
100
AcDbEntity
  8
LW 5016-32-00
100
AcDbVertex
100
AcDb2dVertex
 10
35.7522347164154
 20
22.48032569884913
 30
0.0
  0
VERTEX
  5
84AF
330
84A7
100
AcDbEntity
  8
LW 5016-32-00
100
AcDbVertex
100
AcDb2dVertex
 10
35.99259998321533
 20
22.57195234298388
 30
0.0
  0
VERTEX
  5
84B0
330
84A7
100
AcDbEntity
  8
LW 5016-32-00
100
AcDbVertex
100
AcDb2dVertex
 10
36.26523878097534
 20
22.65038013457933
 30
0.0
  0
VERTEX
  5
84B1
330
84A7
100
AcDbEntity
  8
LW 5016-32-00
100
AcDbVertex
100
AcDb2dVertex
 10
36.56300212860107
 20
22.71283626556078
 30
0.0
  0
VERTEX
  5
84B2
330
84A7
100
AcDbEntity
  8
LW 5016-32-00
100
AcDbVertex
100
AcDb2dVertex
 10
36.87816884040832
 20
22.75718688964525
 30
0.0
  0
VERTEX
  5
84B3
330
84A7
100
AcDbEntity
  8
LW 5016-32-00
100
AcDbVertex
100
AcDb2dVertex
 10
37.20070745468139
 20
22.78345584869066
 30
0.0
  0
VERTEX
  5
84B4
330
84A7
100
AcDbEntity
  8
LW 5016-32-00
100
AcDbVertex
100
AcDb2dVertex
 10
37.52
 20
22.79211044311205
 30
0.0
  0
VERTEX
  5
84B5
330
84A7
100
AcDbEntity
  8
LW 5016-32-00
100
AcDbVertex
100
AcDb2dVertex
 10
37.8392925453186
 20
22.78345584869066
 30
0.0
  0
VERTEX
  5
84B6
330
84A7
100
AcDbEntity
  8
LW 5016-32-00
100
AcDbVertex
100
AcDb2dVertex
 10
38.16183115959167
 20
22.75718688964525
 30
0.0
  0
VERTEX
  5
84B7
330
84A7
100
AcDbEntity
  8
LW 5016-32-00
100
AcDbVertex
100
AcDb2dVertex
 10
38.47699787139892
 20
22.71283626556078
 30
0.0
  0
VERTEX
  5
84B8
330
84A7
100
AcDbEntity
  8
LW 5016-32-00
100
AcDbVertex
100
AcDb2dVertex
 10
38.77476121902466
 20
22.65038013457933
 30
0.0
  0
VERTEX
  5
84B9
330
84A7
100
AcDbEntity
  8
LW 5016-32-00
100
AcDbVertex
100
AcDb2dVertex
 10
39.04740001678467
 20
22.57195234298388
 30
0.0
  0
VERTEX
  5
84BA
330
84A7
100
AcDbEntity
  8
LW 5016-32-00
100
AcDbVertex
100
AcDb2dVertex
 10
39.28776528358459
 20
22.48032569884913
 30
0.0
  0
VERTEX
  5
84BB
330
84A7
100
AcDbEntity
  8
LW 5016-32-00
100
AcDbVertex
100
AcDb2dVertex
 10
39.49847723960876
 20
22.37386226653712
 30
0.0
  0
VERTEX
  5
84BC
330
84A7
100
AcDbEntity
  8
LW 5016-32-00
100
AcDbVertex
100
AcDb2dVertex
 10
39.68169476509094
 20
22.25069761275904
 30
0.0
  0
VERTEX
  5
84BD
330
84A7
100
AcDbEntity
  8
LW 5016-32-00
100
AcDbVertex
100
AcDb2dVertex
 10
39.82957746505737
 20
22.1132659912073
 30
0.0
  0
VERTEX
  5
84BE
330
84A7
100
AcDbEntity
  8
LW 5016-32-00
100
AcDbVertex
100
AcDb2dVertex
 10
39.93565704345703
 20
21.96433782577151
 30
0.0
  0
VERTEX
  5
84BF
330
84A7
100
AcDbEntity
  8
LW 5016-32-00
100
AcDbVertex
100
AcDb2dVertex
 10
39.99898697853088
 20
21.80843830108279
 30
0.0
  0
VERTEX
  5
84C0
330
84A7
100
AcDbEntity
  8
LW 5016-32-00
100
AcDbVertex
100
AcDb2dVertex
 10
40.01999999999999
 20
21.65063619613272
 30
0.0
  0
SEQEND
  5
84C1
330
84A7
100
AcDbEntity
  8
LW 5016-32-00
  0
LINE
  5
84C2
330
8453
100
AcDbEntity
  8
LW 5016-32-00
100
AcDbLine
 10
41.52
 20
-25.0
 30
0.0
 11
41.52
 21
25.0
 31
0.0
  0
LINE
  5
84C3
330
8453
100
AcDbEntity
  8
LW 5016-32-00
100
AcDbLine
 10
47.51999999999999
 20
-19.0
 30
0.0
 11
47.51999999999999
 21
19.0
 31
0.0
  0
LINE
  5
84C4
330
8453
100
AcDbEntity
  8
LW 5016-32-00
100
AcDbLine
 10
22.52
 20
25.0
 30
0.0
 11
41.52
 21
25.0
 31
0.0
  0
LINE
  5
84C5
330
8453
100
AcDbEntity
  8
LW 5016-32-00
100
AcDbLine
 10
22.52
 20
-25.0
 30
0.0
 11
41.52
 21
-25.0
 31
0.0
  0
LINE
  5
84C6
330
8453
100
AcDbEntity
  8
LW 5016-32-00
100
AcDbLine
 10
47.51999999999999
 20
-19.0
 30
0.0
 11
41.52
 21
-25.0
 31
0.0
  0
LINE
  5
84C7
330
8453
100
AcDbEntity
  8
LW 5016-32-00
100
AcDbLine
 10
47.51999999999999
 20
19.0
 30
0.0
 11
41.52
 21
25.0
 31
0.0
  0
POLYLINE
  5
84C8
330
8453
100
AcDbEntity
  8
LW 5016-32-00
100
AcDb2dPolyline
 66
     1
 10
0.0
 20
0.0
 30
0.0
 70
   128
  0
VERTEX
  5
84C9
330
84C8
100
AcDbEntity
  8
LW 5016-32-00
100
AcDbVertex
100
AcDb2dVertex
 10
-40.01999999999999
 20
21.65063619613272
 30
0.0
  0
VERTEX
  5
84CA
330
84C8
100
AcDbEntity
  8
LW 5016-32-00
100
AcDbVertex
100
AcDb2dVertex
 10
-39.99898697853088
 20
21.80843830108279
 30
0.0
  0
VERTEX
  5
84CB
330
84C8
100
AcDbEntity
  8
LW 5016-32-00
100
AcDbVertex
100
AcDb2dVertex
 10
-39.93565704345703
 20
21.96433782577151
 30
0.0
  0
VERTEX
  5
84CC
330
84C8
100
AcDbEntity
  8
LW 5016-32-00
100
AcDbVertex
100
AcDb2dVertex
 10
-39.82957746505737
 20
22.1132659912073
 30
0.0
  0
VERTEX
  5
84CD
330
84C8
100
AcDbEntity
  8
LW 5016-32-00
100
AcDbVertex
100
AcDb2dVertex
 10
-39.68169476509094
 20
22.25069761275904
 30
0.0
  0
VERTEX
  5
84CE
330
84C8
100
AcDbEntity
  8
LW 5016-32-00
100
AcDbVertex
100
AcDb2dVertex
 10
-39.49847723960876
 20
22.37386226653712
 30
0.0
  0
VERTEX
  5
84CF
330
84C8
100
AcDbEntity
  8
LW 5016-32-00
100
AcDbVertex
100
AcDb2dVertex
 10
-39.28776528358459
 20
22.48032569884913
 30
0.0
  0
VERTEX
  5
84D0
330
84C8
100
AcDbEntity
  8
LW 5016-32-00
100
AcDbVertex
100
AcDb2dVertex
 10
-39.04740001678467
 20
22.57195234298388
 30
0.0
  0
VERTEX
  5
84D1
330
84C8
100
AcDbEntity
  8
LW 5016-32-00
100
AcDbVertex
100
AcDb2dVertex
 10
-38.77476121902466
 20
22.65038013457933
 30
0.0
  0
VERTEX
  5
84D2
330
84C8
100
AcDbEntity
  8
LW 5016-32-00
100
AcDbVertex
100
AcDb2dVertex
 10
-38.47699787139892
 20
22.71283626556078
 30
0.0
  0
VERTEX
  5
84D3
330
84C8
100
AcDbEntity
  8
LW 5016-32-00
100
AcDbVertex
100
AcDb2dVertex
 10
-38.16183115959167
 20
22.75718688964525
 30
0.0
  0
VERTEX
  5
84D4
330
84C8
100
AcDbEntity
  8
LW 5016-32-00
100
AcDbVertex
100
AcDb2dVertex
 10
-37.8392925453186
 20
22.78345584869066
 30
0.0
  0
VERTEX
  5
84D5
330
84C8
100
AcDbEntity
  8
LW 5016-32-00
100
AcDbVertex
100
AcDb2dVertex
 10
-37.52
 20
22.79211044311205
 30
0.0
  0
VERTEX
  5
84D6
330
84C8
100
AcDbEntity
  8
LW 5016-32-00
100
AcDbVertex
100
AcDb2dVertex
 10
-37.20070745468139
 20
22.78345584869066
 30
0.0
  0
VERTEX
  5
84D7
330
84C8
100
AcDbEntity
  8
LW 5016-32-00
100
AcDbVertex
100
AcDb2dVertex
 10
-36.87816884040832
 20
22.75718688964525
 30
0.0
  0
VERTEX
  5
84D8
330
84C8
100
AcDbEntity
  8
LW 5016-32-00
100
AcDbVertex
100
AcDb2dVertex
 10
-36.56300212860107
 20
22.71283626556078
 30
0.0
  0
VERTEX
  5
84D9
330
84C8
100
AcDbEntity
  8
LW 5016-32-00
100
AcDbVertex
100
AcDb2dVertex
 10
-36.26523878097534
 20
22.65038013457933
 30
0.0
  0
VERTEX
  5
84DA
330
84C8
100
AcDbEntity
  8
LW 5016-32-00
100
AcDbVertex
100
AcDb2dVertex
 10
-35.99259998321533
 20
22.57195234298388
 30
0.0
  0
VERTEX
  5
84DB
330
84C8
100
AcDbEntity
  8
LW 5016-32-00
100
AcDbVertex
100
AcDb2dVertex
 10
-35.7522347164154
 20
22.48032569884913
 30
0.0
  0
VERTEX
  5
84DC
330
84C8
100
AcDbEntity
  8
LW 5016-32-00
100
AcDbVertex
100
AcDb2dVertex
 10
-35.54152276039123
 20
22.37386226653712
 30
0.0
  0
VERTEX
  5
84DD
330
84C8
100
AcDbEntity
  8
LW 5016-32-00
100
AcDbVertex
100
AcDb2dVertex
 10
-35.35830523490905
 20
22.25069761275904
 30
0.0
  0
VERTEX
  5
84DE
330
84C8
100
AcDbEntity
  8
LW 5016-32-00
100
AcDbVertex
100
AcDb2dVertex
 10
-35.21042253494262
 20
22.1132659912073
 30
0.0
  0
VERTEX
  5
84DF
330
84C8
100
AcDbEntity
  8
LW 5016-32-00
100
AcDbVertex
100
AcDb2dVertex
 10
-35.10434295654297
 20
21.96433782577151
 30
0.0
  0
VERTEX
  5
84E0
330
84C8
100
AcDbEntity
  8
LW 5016-32-00
100
AcDbVertex
100
AcDb2dVertex
 10
-35.04101302146911
 20
21.80843830108279
 30
0.0
  0
VERTEX
  5
84E1
330
84C8
100
AcDbEntity
  8
LW 5016-32-00
100
AcDbVertex
100
AcDb2dVertex
 10
-35.02
 20
21.65063619613272
 30
0.0
  0
SEQEND
  5
84E2
330
84C8
100
AcDbEntity
  8
LW 5016-32-00
  0
POLYLINE
  5
84E3
330
8453
100
AcDbEntity
  8
LW 5016-32-00
100
AcDb2dPolyline
 66
     1
 10
0.0
 20
0.0
 30
0.0
 70
   128
  0
VERTEX
  5
84E4
330
84E3
100
AcDbEntity
  8
LW 5016-32-00
100
AcDbVertex
100
AcDb2dVertex
 10
-35.02
 20
21.65063619613272
 30
0.0
  0
VERTEX
  5
84E5
330
84E3
100
AcDbEntity
  8
LW 5016-32-00
100
AcDbVertex
100
AcDb2dVertex
 10
-35.04101302146911
 20
21.48914575576396
 30
0.0
  0
VERTEX
  5
84E6
330
84E3
100
AcDbEntity
  8
LW 5016-32-00
100
AcDbVertex
100
AcDb2dVertex
 10
-35.10434295654297
 20
21.3225054740866
 30
0.0
  0
VERTEX
  5
84E7
330
84E3
100
AcDbEntity
  8
LW 5016-32-00
100
AcDbVertex
100
AcDb2dVertex
 10
-35.21042253494262
 20
21.15626573562213
 30
0.0
  0
VERTEX
  5
84E8
330
84E3
100
AcDbEntity
  8
LW 5016-32-00
100
AcDbVertex
100
AcDb2dVertex
 10
-35.35830523490905
 20
20.99593400954791
 30
0.0
  0
VERTEX
  5
84E9
330
84E3
100
AcDbEntity
  8
LW 5016-32-00
100
AcDbVertex
100
AcDb2dVertex
 10
-35.54152276039123
 20
20.84645748138007
 30
0.0
  0
VERTEX
  5
84EA
330
84E3
100
AcDbEntity
  8
LW 5016-32-00
100
AcDbVertex
100
AcDb2dVertex
 10
-35.7522347164154
 20
20.71255683898494
 30
0.0
  0
VERTEX
  5
84EB
330
84E3
100
AcDbEntity
  8
LW 5016-32-00
100
AcDbVertex
100
AcDb2dVertex
 10
-35.99259998321533
 20
20.59347152709529
 30
0.0
  0
VERTEX
  5
84EC
330
84E3
100
AcDbEntity
  8
LW 5016-32-00
100
AcDbVertex
100
AcDb2dVertex
 10
-36.26523878097534
 20
20.48868179320857
 30
0.0
  0
VERTEX
  5
84ED
330
84E3
100
AcDbEntity
  8
LW 5016-32-00
100
AcDbVertex
100
AcDb2dVertex
 10
-36.56300212860107
 20
20.40325641631648
 30
0.0
  0
VERTEX
  5
84EE
330
84E3
100
AcDbEntity
  8
LW 5016-32-00
100
AcDbVertex
100
AcDb2dVertex
 10
-36.87816884040832
 20
20.34152984618708
 30
0.0
  0
VERTEX
  5
84EF
330
84E3
100
AcDbEntity
  8
LW 5016-32-00
100
AcDbVertex
100
AcDb2dVertex
 10
-37.20070745468139
 20
20.30447006225154
 30
0.0
  0
VERTEX
  5
84F0
330
84E3
100
AcDbEntity
  8
LW 5016-32-00
100
AcDbVertex
100
AcDb2dVertex
 10
-37.52
 20
20.29211044311091
 30
0.0
  0
VERTEX
  5
84F1
330
84E3
100
AcDbEntity
  8
LW 5016-32-00
100
AcDbVertex
100
AcDb2dVertex
 10
-37.8392925453186
 20
20.30447006225154
 30
0.0
  0
VERTEX
  5
84F2
330
84E3
100
AcDbEntity
  8
LW 5016-32-00
100
AcDbVertex
100
AcDb2dVertex
 10
-38.16183115959167
 20
20.34152984618708
 30
0.0
  0
VERTEX
  5
84F3
330
84E3
100
AcDbEntity
  8
LW 5016-32-00
100
AcDbVertex
100
AcDb2dVertex
 10
-38.47699787139892
 20
20.40325641631648
 30
0.0
  0
VERTEX
  5
84F4
330
84E3
100
AcDbEntity
  8
LW 5016-32-00
100
AcDbVertex
100
AcDb2dVertex
 10
-38.77476121902466
 20
20.48868179320857
 30
0.0
  0
VERTEX
  5
84F5
330
84E3
100
AcDbEntity
  8
LW 5016-32-00
100
AcDbVertex
100
AcDb2dVertex
 10
-39.04740001678467
 20
20.59347152709529
 30
0.0
  0
VERTEX
  5
84F6
330
84E3
100
AcDbEntity
  8
LW 5016-32-00
100
AcDbVertex
100
AcDb2dVertex
 10
-39.28776528358459
 20
20.71255683898494
 30
0.0
  0
VERTEX
  5
84F7
330
84E3
100
AcDbEntity
  8
LW 5016-32-00
100
AcDbVertex
100
AcDb2dVertex
 10
-39.49847723960876
 20
20.84645748138007
 30
0.0
  0
VERTEX
  5
84F8
330
84E3
100
AcDbEntity
  8
LW 5016-32-00
100
AcDbVertex
100
AcDb2dVertex
 10
-39.68169476509094
 20
20.99593400954791
 30
0.0
  0
VERTEX
  5
84F9
330
84E3
100
AcDbEntity
  8
LW 5016-32-00
100
AcDbVertex
100
AcDb2dVertex
 10
-39.82957746505737
 20
21.15626573562213
 30
0.0
  0
VERTEX
  5
84FA
330
84E3
100
AcDbEntity
  8
LW 5016-32-00
100
AcDbVertex
100
AcDb2dVertex
 10
-39.93565704345703
 20
21.3225054740866
 30
0.0
  0
VERTEX
  5
84FB
330
84E3
100
AcDbEntity
  8
LW 5016-32-00
100
AcDbVertex
100
AcDb2dVertex
 10
-39.99898697853088
 20
21.48914575576396
 30
0.0
  0
VERTEX
  5
84FC
330
84E3
100
AcDbEntity
  8
LW 5016-32-00
100
AcDbVertex
100
AcDb2dVertex
 10
-40.01999999999999
 20
21.65063619613272
 30
0.0
  0
SEQEND
  5
84FD
330
84E3
100
AcDbEntity
  8
LW 5016-32-00
  0
POLYLINE
  5
84FE
330
8453
100
AcDbEntity
  8
LW 5016-32-00
100
AcDb2dPolyline
 66
     1
 10
0.0
 20
0.0
 30
0.0
 70
   128
  0
VERTEX
  5
84FF
330
84FE
100
AcDbEntity
  8
LW 5016-32-00
100
AcDbVertex
100
AcDb2dVertex
 10
-40.01999999999999
 20
-21.65063619614023
 30
0.0
  0
VERTEX
  5
8500
330
84FE
100
AcDbEntity
  8
LW 5016-32-00
100
AcDbVertex
100
AcDb2dVertex
 10
-39.99898697853088
 20
-21.48914575577169
 30
0.0
  0
VERTEX
  5
8501
330
84FE
100
AcDbEntity
  8
LW 5016-32-00
100
AcDbVertex
100
AcDb2dVertex
 10
-39.93565704345703
 20
-21.32250547409455
 30
0.0
  0
VERTEX
  5
8502
330
84FE
100
AcDbEntity
  8
LW 5016-32-00
100
AcDbVertex
100
AcDb2dVertex
 10
-39.82957746505737
 20
-21.15626573563031
 30
0.0
  0
VERTEX
  5
8503
330
84FE
100
AcDbEntity
  8
LW 5016-32-00
100
AcDbVertex
100
AcDb2dVertex
 10
-39.68169476509094
 20
-20.9959340095561
 30
0.0
  0
VERTEX
  5
8504
330
84FE
100
AcDbEntity
  8
LW 5016-32-00
100
AcDbVertex
100
AcDb2dVertex
 10
-39.49847723960876
 20
-20.84645748138848
 30
0.0
  0
VERTEX
  5
8505
330
84FE
100
AcDbEntity
  8
LW 5016-32-00
100
AcDbVertex
100
AcDb2dVertex
 10
-39.28776528358459
 20
-20.71255683899358
 30
0.0
  0
VERTEX
  5
8506
330
84FE
100
AcDbEntity
  8
LW 5016-32-00
100
AcDbVertex
100
AcDb2dVertex
 10
-39.04740001678467
 20
-20.59347152710393
 30
0.0
  0
VERTEX
  5
8507
330
84FE
100
AcDbEntity
  8
LW 5016-32-00
100
AcDbVertex
100
AcDb2dVertex
 10
-38.77476121902466
 20
-20.48868179321721
 30
0.0
  0
VERTEX
  5
8508
330
84FE
100
AcDbEntity
  8
LW 5016-32-00
100
AcDbVertex
100
AcDb2dVertex
 10
-38.47699787139892
 20
-20.40325641632512
 30
0.0
  0
VERTEX
  5
8509
330
84FE
100
AcDbEntity
  8
LW 5016-32-00
100
AcDbVertex
100
AcDb2dVertex
 10
-38.16183115959167
 20
-20.34152984619573
 30
0.0
  0
VERTEX
  5
850A
330
84FE
100
AcDbEntity
  8
LW 5016-32-00
100
AcDbVertex
100
AcDb2dVertex
 10
-37.8392925453186
 20
-20.30447006226018
 30
0.0
  0
VERTEX
  5
850B
330
84FE
100
AcDbEntity
  8
LW 5016-32-00
100
AcDbVertex
100
AcDb2dVertex
 10
-37.52
 20
-20.29211044311955
 30
0.0
  0
VERTEX
  5
850C
330
84FE
100
AcDbEntity
  8
LW 5016-32-00
100
AcDbVertex
100
AcDb2dVertex
 10
-37.20070745468139
 20
-20.30447006226018
 30
0.0
  0
VERTEX
  5
850D
330
84FE
100
AcDbEntity
  8
LW 5016-32-00
100
AcDbVertex
100
AcDb2dVertex
 10
-36.87816884040832
 20
-20.34152984619573
 30
0.0
  0
VERTEX
  5
850E
330
84FE
100
AcDbEntity
  8
LW 5016-32-00
100
AcDbVertex
100
AcDb2dVertex
 10
-36.56300212860107
 20
-20.40325641632512
 30
0.0
  0
VERTEX
  5
850F
330
84FE
100
AcDbEntity
  8
LW 5016-32-00
100
AcDbVertex
100
AcDb2dVertex
 10
-36.26523878097534
 20
-20.48868179321721
 30
0.0
  0
VERTEX
  5
8510
330
84FE
100
AcDbEntity
  8
LW 5016-32-00
100
AcDbVertex
100
AcDb2dVertex
 10
-35.99259998321533
 20
-20.59347152710393
 30
0.0
  0
VERTEX
  5
8511
330
84FE
100
AcDbEntity
  8
LW 5016-32-00
100
AcDbVertex
100
AcDb2dVertex
 10
-35.7522347164154
 20
-20.71255683899358
 30
0.0
  0
VERTEX
  5
8512
330
84FE
100
AcDbEntity
  8
LW 5016-32-00
100
AcDbVertex
100
AcDb2dVertex
 10
-35.54152276039123
 20
-20.84645748138848
 30
0.0
  0
VERTEX
  5
8513
330
84FE
100
AcDbEntity
  8
LW 5016-32-00
100
AcDbVertex
100
AcDb2dVertex
 10
-35.35830523490905
 20
-20.9959340095561
 30
0.0
  0
VERTEX
  5
8514
330
84FE
100
AcDbEntity
  8
LW 5016-32-00
100
AcDbVertex
100
AcDb2dVertex
 10
-35.21042253494262
 20
-21.15626573563031
 30
0.0
  0
VERTEX
  5
8515
330
84FE
100
AcDbEntity
  8
LW 5016-32-00
100
AcDbVertex
100
AcDb2dVertex
 10
-35.10434295654297
 20
-21.32250547409455
 30
0.0
  0
VERTEX
  5
8516
330
84FE
100
AcDbEntity
  8
LW 5016-32-00
100
AcDbVertex
100
AcDb2dVertex
 10
-35.04101302146911
 20
-21.48914575577169
 30
0.0
  0
VERTEX
  5
8517
330
84FE
100
AcDbEntity
  8
LW 5016-32-00
100
AcDbVertex
100
AcDb2dVertex
 10
-35.02
 20
-21.65063619614023
 30
0.0
  0
SEQEND
  5
8518
330
84FE
100
AcDbEntity
  8
LW 5016-32-00
  0
POLYLINE
  5
8519
330
8453
100
AcDbEntity
  8
LW 5016-32-00
100
AcDb2dPolyline
 66
     1
 10
0.0
 20
0.0
 30
0.0
 70
   128
  0
VERTEX
  5
851A
330
8519
100
AcDbEntity
  8
LW 5016-32-00
100
AcDbVertex
100
AcDb2dVertex
 10
-35.02
 20
-21.65063619614023
 30
0.0
  0
VERTEX
  5
851B
330
8519
100
AcDbEntity
  8
LW 5016-32-00
100
AcDbVertex
100
AcDb2dVertex
 10
-35.04101302146911
 20
-21.80843830109006
 30
0.0
  0
VERTEX
  5
851C
330
8519
100
AcDbEntity
  8
LW 5016-32-00
100
AcDbVertex
100
AcDb2dVertex
 10
-35.10434295654297
 20
-21.96433782577878
 30
0.0
  0
VERTEX
  5
851D
330
8519
100
AcDbEntity
  8
LW 5016-32-00
100
AcDbVertex
100
AcDb2dVertex
 10
-35.21042253494262
 20
-22.11326599121457
 30
0.0
  0
VERTEX
  5
851E
330
8519
100
AcDbEntity
  8
LW 5016-32-00
100
AcDbVertex
100
AcDb2dVertex
 10
-35.35830523490905
 20
-22.25069761276586
 30
0.0
  0
VERTEX
  5
851F
330
8519
100
AcDbEntity
  8
LW 5016-32-00
100
AcDbVertex
100
AcDb2dVertex
 10
-35.54152276039123
 20
-22.37386226654394
 30
0.0
  0
VERTEX
  5
8520
330
8519
100
AcDbEntity
  8
LW 5016-32-00
100
AcDbVertex
100
AcDb2dVertex
 10
-35.7522347164154
 20
-22.48032569885595
 30
0.0
  0
VERTEX
  5
8521
330
8519
100
AcDbEntity
  8
LW 5016-32-00
100
AcDbVertex
100
AcDb2dVertex
 10
-35.99259998321533
 20
-22.57195234299024
 30
0.0
  0
VERTEX
  5
8522
330
8519
100
AcDbEntity
  8
LW 5016-32-00
100
AcDbVertex
100
AcDb2dVertex
 10
-36.26523878097534
 20
-22.6503801345857
 30
0.0
  0
VERTEX
  5
8523
330
8519
100
AcDbEntity
  8
LW 5016-32-00
100
AcDbVertex
100
AcDb2dVertex
 10
-36.56300212860107
 20
-22.71283626556715
 30
0.0
  0
VERTEX
  5
8524
330
8519
100
AcDbEntity
  8
LW 5016-32-00
100
AcDbVertex
100
AcDb2dVertex
 10
-36.87816884040832
 20
-22.75718688965162
 30
0.0
  0
VERTEX
  5
8525
330
8519
100
AcDbEntity
  8
LW 5016-32-00
100
AcDbVertex
100
AcDb2dVertex
 10
-37.20070745468139
 20
-22.78345584869703
 30
0.0
  0
VERTEX
  5
8526
330
8519
100
AcDbEntity
  8
LW 5016-32-00
100
AcDbVertex
100
AcDb2dVertex
 10
-37.52
 20
-22.79211044311842
 30
0.0
  0
VERTEX
  5
8527
330
8519
100
AcDbEntity
  8
LW 5016-32-00
100
AcDbVertex
100
AcDb2dVertex
 10
-37.8392925453186
 20
-22.78345584869703
 30
0.0
  0
VERTEX
  5
8528
330
8519
100
AcDbEntity
  8
LW 5016-32-00
100
AcDbVertex
100
AcDb2dVertex
 10
-38.16183115959167
 20
-22.75718688965162
 30
0.0
  0
VERTEX
  5
8529
330
8519
100
AcDbEntity
  8
LW 5016-32-00
100
AcDbVertex
100
AcDb2dVertex
 10
-38.47699787139892
 20
-22.71283626556715
 30
0.0
  0
VERTEX
  5
852A
330
8519
100
AcDbEntity
  8
LW 5016-32-00
100
AcDbVertex
100
AcDb2dVertex
 10
-38.77476121902466
 20
-22.6503801345857
 30
0.0
  0
VERTEX
  5
852B
330
8519
100
AcDbEntity
  8
LW 5016-32-00
100
AcDbVertex
100
AcDb2dVertex
 10
-39.04740001678467
 20
-22.57195234299024
 30
0.0
  0
VERTEX
  5
852C
330
8519
100
AcDbEntity
  8
LW 5016-32-00
100
AcDbVertex
100
AcDb2dVertex
 10
-39.28776528358459
 20
-22.48032569885595
 30
0.0
  0
VERTEX
  5
852D
330
8519
100
AcDbEntity
  8
LW 5016-32-00
100
AcDbVertex
100
AcDb2dVertex
 10
-39.49847723960876
 20
-22.37386226654394
 30
0.0
  0
VERTEX
  5
852E
330
8519
100
AcDbEntity
  8
LW 5016-32-00
100
AcDbVertex
100
AcDb2dVertex
 10
-39.68169476509094
 20
-22.25069761276586
 30
0.0
  0
VERTEX
  5
852F
330
8519
100
AcDbEntity
  8
LW 5016-32-00
100
AcDbVertex
100
AcDb2dVertex
 10
-39.82957746505737
 20
-22.11326599121457
 30
0.0
  0
VERTEX
  5
8530
330
8519
100
AcDbEntity
  8
LW 5016-32-00
100
AcDbVertex
100
AcDb2dVertex
 10
-39.93565704345703
 20
-21.96433782577878
 30
0.0
  0
VERTEX
  5
8531
330
8519
100
AcDbEntity
  8
LW 5016-32-00
100
AcDbVertex
100
AcDb2dVertex
 10
-39.99898697853088
 20
-21.80843830109006
 30
0.0
  0
VERTEX
  5
8532
330
8519
100
AcDbEntity
  8
LW 5016-32-00
100
AcDbVertex
100
AcDb2dVertex
 10
-40.01999999999999
 20
-21.65063619614023
 30
0.0
  0
SEQEND
  5
8533
330
8519
100
AcDbEntity
  8
LW 5016-32-00
  0
LINE
  5
8534
330
8453
100
AcDbEntity
  8
LW 5016-32-00
100
AcDbLine
 10
-41.52
 20
25.0
 30
0.0
 11
-41.52
 21
-25.0
 31
0.0
  0
LINE
  5
8535
330
8453
100
AcDbEntity
  8
LW 5016-32-00
100
AcDbLine
 10
-47.51999999999999
 20
19.0
 30
0.0
 11
-47.51999999999999
 21
-19.0
 31
0.0
  0
LINE
  5
8536
330
8453
100
AcDbEntity
  8
LW 5016-32-00
100
AcDbLine
 10
-141.52
 20
10.0
 30
0.0
 11
-141.52
 21
-10.0
 31
0.0
  0
LINE
  5
8537
330
8453
100
AcDbEntity
  8
LW 5016-32-00
100
AcDbLine
 10
-142.52
 20
9.0
 30
0.0
 11
-142.52
 21
-9.0
 31
0.0
  0
LINE
  5
8538
330
8453
100
AcDbEntity
  8
LW 5016-32-00
100
AcDbLine
 10
-22.52
 20
-25.0
 30
0.0
 11
-41.52
 21
-25.0
 31
0.0
  0
LINE
  5
8539
330
8453
100
AcDbEntity
  8
LW 5016-32-00
100
AcDbLine
 10
-22.52
 20
25.0
 30
0.0
 11
-41.52
 21
25.0
 31
0.0
  0
LINE
  5
853A
330
8453
100
AcDbEntity
  8
LW 5016-32-00
100
AcDbLine
 10
-47.51999999999999
 20
19.0
 30
0.0
 11
-41.52
 21
25.0
 31
0.0
  0
LINE
  5
853B
330
8453
100
AcDbEntity
  8
LW 5016-32-00
100
AcDbLine
 10
-47.51999999999999
 20
-19.0
 30
0.0
 11
-41.52
 21
-25.0
 31
0.0
  0
ARC
  5
853C
330
8453
100
AcDbEntity
  8
LW 5016-32-00
100
AcDbCircle
 10
-48.52
 20
11.0
 30
0.0
 40
1.000000000000002
100
AcDbArc
 50
270.0
 51
0.0
  0
ARC
  5
853D
330
8453
100
AcDbEntity
  8
LW 5016-32-00
100
AcDbCircle
 10
-48.52
 20
-11.0
 30
0.0
 40
1.000000000000002
100
AcDbArc
 50
0.0
 51
90.0
  0
LINE
  5
853E
330
8453
100
AcDbEntity
  8
LW 5016-32-00
100
AcDbLine
 10
-48.52
 20
-10.0
 30
0.0
 11
-98.48612181133097
 21
-10.00000000000003
 31
0.0
  0
LINE
  5
853F
330
8453
100
AcDbEntity
  8
LW 5016-32-00
100
AcDbLine
 10
-116.513878188669
 20
-10.0
 30
0.0
 11
-141.52
 21
-10.0
 31
0.0
  0
LINE
  5
8540
330
8453
100
AcDbEntity
  8
LW 5016-32-00
100
AcDbLine
 10
-48.52
 20
10.0
 30
0.0
 11
-90.72949016875318
 21
9.999999999999971
 31
0.0
  0
LINE
  5
8541
330
8453
100
AcDbEntity
  8
LW 5016-32-00
100
AcDbLine
 10
-124.2705098312468
 20
10.0
 30
0.0
 11
-141.52
 21
10.0
 31
0.0
  0
LINE
  5
8542
330
8453
100
AcDbEntity
  8
LW 5016-32-00
100
AcDbLine
 10
-142.52
 20
9.0
 30
0.0
 11
-141.52
 21
10.0
 31
0.0
  0
LINE
  5
8543
330
8453
100
AcDbEntity
  8
LW 5016-32-00
100
AcDbLine
 10
-142.52
 20
-9.0
 30
0.0
 11
-141.52
 21
-10.0
 31
0.0
  0
CIRCLE
  5
8544
330
8453
100
AcDbEntity
  8
LW 5016-32-00
100
AcDbCircle
 10
-107.5
 20
4.999999999994543
 30
0.0
 40
17.50000000000001
  0
LINE
  5
8545
330
8453
100
AcDbEntity
  8
LW 5016-32-00
100
AcDbLine
 10
16.0
 20
12.0
 30
0.0
 11
16.0
 21
-12.00000000000011
 31
0.0
  0
LINE
  5
8546
330
8453
100
AcDbEntity
  8
LW 5016-32-00
100
AcDbLine
 10
-16.0
 20
12.0
 30
0.0
 11
-16.0
 21
-12.00000000000011
 31
0.0
  0
LINE
  5
8547
330
8453
100
AcDbEntity
  8
LW 5016-32-00
100
AcDbLine
 10
-16.0
 20
12.0
 30
0.0
 11
16.0
 21
12.0
 31
0.0
  0
LINE
  5
8548
330
8453
100
AcDbEntity
  8
LW 5016-32-00
100
AcDbLine
 10
-16.0
 20
-12.00000000000011
 30
0.0
 11
16.0
 21
-12.00000000000011
 31
0.0
  0
LINE
  5
8549
330
8453
100
AcDbEntity
  8
LW 5016-32-00
100
AcDbLine
 10
-19.52
 20
32.5
 30
0.0
 11
-19.52
 21
-32.5
 31
0.0
  0
LINE
  5
854A
330
8453
100
AcDbEntity
  8
LW 5016-32-00
100
AcDbLine
 10
-22.52
 20
32.5
 30
0.0
 11
-22.52
 21
-32.5
 31
0.0
  0
LINE
  5
854B
330
8453
100
AcDbEntity
  8
LW 5016-32-00
100
AcDbLine
 10
-22.52
 20
32.5
 30
0.0
 11
-19.52
 21
32.5
 31
0.0
  0
LINE
  5
854C
330
8453
100
AcDbEntity
  8
LW 5016-32-00
100
AcDbLine
 10
-22.52
 20
-32.5
 30
0.0
 11
-19.52
 21
-32.5
 31
0.0
  0
LINE
  5
854D
330
8453
100
AcDbEntity
  8
LW 5016-32-00
100
AcDbLine
 10
19.51999999999999
 20
-32.5
 30
0.0
 11
19.51999999999999
 21
32.5
 31
0.0
  0
LINE
  5
854E
330
8453
100
AcDbEntity
  8
LW 5016-32-00
100
AcDbLine
 10
22.52
 20
-32.5
 30
0.0
 11
22.52
 21
32.5
 31
0.0
  0
LINE
  5
854F
330
8453
100
AcDbEntity
  8
LW 5016-32-00
100
AcDbLine
 10
22.52
 20
-32.5
 30
0.0
 11
19.51999999999999
 21
-32.5
 31
0.0
  0
LINE
  5
8550
330
8453
100
AcDbEntity
  8
LW 5016-32-00
100
AcDbLine
 10
22.52
 20
32.5
 30
0.0
 11
19.51999999999999
 21
32.5
 31
0.0
  0
LINE
  5
8551
330
8453
100
AcDbEntity
  8
LW 5016-32-00
100
AcDbLine
 10
-17.52
 20
32.0
 30
0.0
 11
-17.52
 21
-32.00000000000012
 31
0.0
  0
LINE
  5
8552
330
8453
100
AcDbEntity
  8
LW 5016-32-00
100
AcDbLine
 10
-19.52
 20
32.0
 30
0.0
 11
-17.52
 21
32.0
 31
0.0
  0
LINE
  5
8553
330
8453
100
AcDbEntity
  8
LW 5016-32-00
100
AcDbLine
 10
-19.52
 20
-32.0
 30
0.0
 11
-17.52
 21
-32.0
 31
0.0
  0
LINE
  5
8554
330
8453
100
AcDbEntity
  8
LW 5016-32-00
100
AcDbLine
 10
17.52
 20
-32.00000000000012
 30
0.0
 11
17.52
 21
32.0
 31
0.0
  0
LINE
  5
8555
330
8453
100
AcDbEntity
  8
LW 5016-32-00
100
AcDbLine
 10
19.51999999999999
 20
-32.0
 30
0.0
 11
17.52
 21
-32.0
 31
0.0
  0
LINE
  5
8556
330
8453
100
AcDbEntity
  8
LW 5016-32-00
100
AcDbLine
 10
19.51999999999999
 20
32.0
 30
0.0
 11
17.52
 21
32.0
 31
0.0
  0
LINE
  5
8557
330
8453
100
AcDbEntity
  8
LW 5016-32-00
100
AcDbLine
 10
17.52
 20
-7.000000000000113
 30
0.0
 11
16.0
 21
-7.000000000000113
 31
0.0
  0
LINE
  5
8558
330
8453
100
AcDbEntity
  8
LW 5016-32-00
100
AcDbLine
 10
-16.0
 20
-7.000000000000113
 30
0.0
 11
-17.52
 21
-7.000000000000113
 31
0.0
  0
LINE
  5
8559
330
8453
100
AcDbEntity
  8
LW 5016-32-00
100
AcDbLine
 10
17.52
 20
7.0
 30
0.0
 11
16.0
 21
7.0
 31
0.0
  0
LINE
  5
855A
330
8453
100
AcDbEntity
  8
LW 5016-32-00
100
AcDbLine
 10
-16.0
 20
7.0
 30
0.0
 11
-17.52
 21
7.0
 31
0.0
  0
LINE
  5
855B
330
8453
100
AcDbEntity
  8
LW 5016-32-00
 62
     3
100
AcDbLine
 10
-17.52
 20
-5.794500000000084
 30
0.0
 11
-16.0
 21
-5.794500000000084
 31
0.0
  0
LINE
  5
855C
330
8453
100
AcDbEntity
  8
LW 5016-32-00
 62
     3
100
AcDbLine
 10
16.0
 20
-5.794500000000084
 30
0.0
 11
17.52
 21
-5.794500000000084
 31
0.0
  0
LINE
  5
855D
330
8453
100
AcDbEntity
  8
LW 5016-32-00
 62
     3
100
AcDbLine
 10
17.52
 20
5.79449999999997
 30
0.0
 11
16.0
 21
5.79449999999997
 31
0.0
  0
LINE
  5
855E
330
8453
100
AcDbEntity
  8
LW 5016-32-00
 62
     3
100
AcDbLine
 10
-16.00000000000022
 20
5.79449999999997
 30
0.0
 11
-17.52
 21
5.79449999999997
 31
0.0
  0
LINE
  5
855F
330
8453
100
AcDbEntity
  8
LW 5016-32-00
  6
MITTE2
 62
     3
100
AcDbLine
 10
-107.5
 20
27.49999999999455
 30
0.0
 11
-107.5
 21
-17.50000000000546
 31
0.0
  0
LINE
  5
8560
330
8453
100
AcDbEntity
  8
LW 5016-32-00
  6
MITTE2
 62
     3
100
AcDbLine
 10
60.86430348519638
 20
0.0
 30
0.0
 11
-145.8643034851966
 21
0.0
 31
0.0
  0
HATCH
  5
8561
330
8453
100
AcDbEntity
  8
LW 5016-32-00
 62
     1
100
AcDbHatch
 10
0.0
 20
0.0
 30
0.0
210
0.0
220
0.0
230
1.0
  2
SOLID
 70
     1
 71
     0
 91
        5
 92
        7
 72
     0
 73
     1
 93
       76
 10
-71.61549835337381
 20
5.86969851444465
 10
-71.58363952400098
 20
5.9212794762864
 10
-71.4654813997697
 20
6.072521875302328
 10
-71.33100332455704
 20
6.212946005564873
 10
-71.18498341809548
 20
6.34133056727822
 10
-71.02131462201349
 20
6.458236850194026
 10
-70.84592766864874
 20
6.56041473201563
 10
-70.66417473604836
 20
6.651766411598515
 10
-70.48300580058274
 20
6.721284724044636
 10
-72.74014373878275
 20
6.721284724044636
 10
-72.95304029118277
 20
6.712595068844649
 10
-73.15507477458275
 20
6.686526103244688
 10
-73.35059201658281
 20
6.645250241044578
 10
-73.53524718958259
 20
6.590939896044602
 10
-73.71121270738284
 20
6.521422654444592
 10
-73.87848856998265
 20
6.438870930044487
 10
-74.02905683252969
 20
6.343545412500617
 10
-74.17176443298261
 20
6.236836446644502
 10
-74.29720568855326
 20
6.117788170404452
 10
-74.40847064063063
 20
5.989528859652551
 10
-74.50848857198273
 20
5.852319204044562
 10
-74.59104029638273
 20
5.706767479444494
 10
-74.65404029658269
 20
5.552526099644438
 10
-74.70400581398256
 20
5.391767478444563
 10
-74.73224719338258
 20
5.226664029644581
 10
-74.74093684858257
 20
5.052870925644612
 10
-74.73007477958252
 20
4.879077821644415
 10
-74.69966098638268
 20
4.711801959044493
 10
-74.64535064138248
 20
4.551043337844504
 10
-74.57583339978258
 20
4.394629544244509
 10
-74.48676443398243
 20
4.246905405844501
 10
-74.38031615778253
 20
4.105698508844653
 10
-74.25761822635853
 20
3.974484715324507
 10
-74.12141917765028
 20
3.853350921836664
 10
-73.97407477718251
 20
3.742905404244567
 10
-73.81331615598241
 20
3.645146783244655
 10
-73.63768953473526
 20
3.560248851940542
 10
-73.4570402927827
 20
3.486560575844606
 10
-73.26586787838254
 20
3.430077817044576
 10
-73.0660058087826
 20
3.386629541044641
 10
-72.85745408398269
 20
3.360560575444566
 10
-72.64672994538272
 20
3.351870920244579
 10
-70.52755885963005
 20
3.351870920244692
 10
-70.68810272368249
 20
3.414941723979637
 10
-70.8716668674849
 20
3.505561997502383
 10
-71.04013327365509
 20
3.610091690433847
 10
-71.20296616841573
 20
3.725709928859288
 10
-71.34687853678586
 20
3.85549952539921
 10
-71.47431443027016
 20
3.994853208627802
 10
-71.58801978501355
 20
4.145341453340307
 10
-71.6399910164623
 20
4.22952609544464
 10
-72.66845408338257
 20
4.229526095444526
 10
-72.80056291138816
 20
4.23708609546864
 10
-72.93131615318269
 20
4.257419888636633
 10
-73.05948856738244
 20
4.29035368184455
 10
-73.17462649878256
 20
4.335974371644653
 10
-73.27957146463289
 20
4.392457130444569
 10
-73.37772112011702
 20
4.460062647900514
 10
-73.46790236178252
 20
4.538008855044523
 10
-73.53959201718247
 20
4.622732993244568
 10
-71.81207070292384
 20
4.622732993244682
 10
-71.82265517019685
 20
4.655368434002895
 10
-71.85876697816114
 20
4.840742381554065
 10
-71.87081063094296
 20
5.031032095504798
 10
-71.8587889585135
 20
5.225783188859878
 10
-71.82248323683824
 20
5.412152560126315
 10
-71.80588453416338
 20
5.461284720044574
 10
-73.5765230517827
 20
5.461284720044574
 10
-73.50700581018258
 20
5.556870927244546
 10
-73.42445408578258
 20
5.639422651644537
 10
-73.32936318892915
 20
5.709287479452569
 10
-73.22676442998271
 20
5.767595065844631
 10
-73.10807242960594
 20
5.811564721156543
 10
-72.98562649818267
 20
5.843629548844575
 10
-72.8487644287827
 20
5.863181273044602
 10
-72.70538511798257
 20
5.869698514444536
 97
        0
 92
        7
 72
     0
 73
     1
 93
       72
 10
-69.88703448834598
 20
5.855099893708626
 10
-69.76417145347316
 20
5.873174376524644
 10
-69.64010924618263
 20
5.87838816964475
 10
-68.3714195869827
 20
5.87838816964475
 10
-69.21866096898269
 20
5.06373299464488
 10
-67.45248854958252
 20
3.345353678844759
 10
-66.13383337298272
 20
3.345353678844759
 10
-67.8478678611825
 20
5.087629546444787
 10
-66.16641957998261
 20
6.721284724044863
 10
-69.60535062538268
 20
6.721284724044636
 10
-69.81333752259478
 20
6.710509551596743
 10
-70.02005573014752
 20
6.685048861860678
 10
-70.22448855838273
 20
6.645250241044692
 10
-70.41783338658273
 20
6.588767482244662
 10
-70.60466097338279
 20
6.517077826844598
 10
-70.7758211118571
 20
6.431050240364612
 10
-70.94138511238269
 20
6.334595067644642
 10
-71.09345407838258
 20
6.225974377644689
 10
-71.22915173398586
 20
6.10666541174865
 10
-71.35414373438265
 20
5.976146790644662
 10
-71.46276442438282
 20
5.837112307444641
 10
-71.55400580398257
 20
5.689388169044747
 10
-71.62569545938275
 20
5.535146789244691
 10
-71.68000580438273
 20
5.374388168044589
 10
-71.71259201138262
 20
5.207112305444553
 10
-71.72345408038267
 20
5.03114678764453
 10
-71.71259201138262
 20
4.859526097444614
 10
-71.6800058043825
 20
4.692250234844692
 10
-71.62786787318258
 20
4.531491613644703
 10
-71.55835063158268
 20
4.377250233844648
 10
-71.46650966577384
 20
4.228483336820801
 10
-71.36113021716345
 20
4.08901437086061
 10
-71.24312469954723
 20
3.959972991140745
 10
-71.11083338878255
 20
3.840664025244706
 10
-70.95871228485133
 20
3.73265161110865
 10
-70.80017821538262
 20
3.634284714244614
 10
-70.62855752518247
 20
3.549560576044683
 10
-70.44607476598251
 20
3.477870920644619
 10
-70.25184359295211
 20
3.423821265300631
 10
-70.05504028198264
 20
3.380112299644707
 10
-69.8464885571825
 20
3.354043334044746
 10
-69.63576441858252
 20
3.345353678844759
 10
-67.73272992978262
 20
3.345353678844759
 10
-68.61907476018267
 20
4.218664026444713
 10
-69.63576441858252
 20
4.218664026444713
 10
-69.70243145327707
 20
4.222411319384065
 10
-69.80337917773543
 20
4.232393681660624
 10
-69.9235136608754
 20
4.253857130004718
 10
-70.04063283366098
 20
4.28818126804461
 10
-70.14212800639687
 20
4.329109544036697
 10
-70.198263178989
 20
4.357264026884678
 10
-70.25194786881455
 20
4.3898502338848
 10
-70.38450855889071
 20
4.489172992820641
 10
-70.4581099384345
 20
4.559211613732742
 10
-70.51317628343689
 20
4.627077820844561
 10
-70.56188180083312
 20
4.699636441764624
 10
-70.60124593888916
 20
4.776800579940555
 10
-70.63066911139616
 20
4.858222649164673
 10
-70.65136787008258
 20
4.94537989082076
 10
-70.65888442183062
 20
5.034709546276559
 10
-70.65752883561934
 20
5.097014374060591
 10
-70.65152428387612
 20
5.159145408740556
 10
-70.63936745625141
 20
5.222319202044701
 10
-70.62115393895213
 20
5.284015753964723
 10
-70.5775058008828
 20
5.382730237036554
 10
-70.53597793868174
 20
5.450596444148601
 10
-70.47289973158512
 20
5.528629547844644
 10
-70.3434977912202
 20
5.655152284898377
 10
-70.28422993788261
 20
5.695210238028749
 10
-70.20793476522657
 20
5.73952747954857
 10
-70.12391448909783
 20
5.781672307268678
 10
-70.00737752321059
 20
5.824512307404717
 97
        0
 92
        7
 72
     0
 73
     1
 93
       57
 10
-65.32899750835849
 20
5.833028169500977
 10
-65.19752302518257
 20
5.873000583420918
 10
-65.06283336958266
 20
5.900112307644945
 10
-64.91945405878276
 20
5.908801962844819
 10
-63.67900577898261
 20
5.908801962844933
 10
-63.67900577898261
 20
6.734319206844958
 10
-64.9129368173826
 20
6.734319206844844
 10
-65.12366095598257
 20
6.725629551644857
 10
-65.33004026698266
 20
6.697388172244842
 10
-65.52772992278254
 20
6.656112310044846
 10
-65.71672992338266
 20
6.60180196504487
 10
-65.90138509638267
 20
6.53011230964492
 10
-66.06779199346282
 20
6.447473688692781
 10
-66.22661282155307
 20
6.35101851597281
 10
-66.37669185651223
 20
6.241528860452746
 10
-66.51125116728415
 20
6.122306791108854
 10
-66.63131613318272
 20
5.993526101044864
 10
-66.73559199558257
 20
5.854491617844843
 10
-66.82031613378261
 20
5.708939893244775
 10
-66.89200578918279
 20
5.554698513444719
 10
-66.94197130658266
 20
5.393939892244844
 10
-66.97455751358255
 20
5.226664029644922
 10
-66.98541958258259
 20
5.052870925644839
 10
-66.97455751358255
 20
4.87907782164487
 10
-66.94197130658266
 20
4.711801959044834
 10
-66.88983337538274
 20
4.551043337844731
 10
-66.81814371998256
 20
4.39462954424485
 10
-66.73124716798246
 20
4.246905405844842
 10
-66.62240054694733
 20
4.107349543332844
 10
-66.50254413277387
 20
3.977004715332924
 10
-66.36611654613374
 20
3.855697128740786
 10
-66.21855751118253
 20
3.745077818044848
 10
-66.05779888998267
 20
3.647319197044708
 10
-65.88400578598269
 20
3.562595058844891
 10
-65.69935061298245
 20
3.488732989644887
 10
-65.50817819858251
 20
3.432250230844857
 10
-65.30831612898258
 20
3.388801954844922
 10
-65.10193681798249
 20
3.364905403044787
 10
-64.88904026558246
 20
3.3562157478448
 10
-63.67900577898261
 20
3.356215747844913
 10
-63.67900577898261
 20
4.214319198844833
 10
-64.9129368173826
 20
4.214319198844833
 10
-65.04658371435856
 20
4.224659888532784
 10
-65.17884026650243
 20
4.246644716188967
 10
-65.29945268067852
 20
4.280968854228859
 10
-65.41545957759852
 20
4.32893575093297
 10
-65.52512302622266
 20
4.389850233884914
 10
-65.62218647480652
 20
4.457455751340859
 10
-65.7096044061186
 20
4.537226786076899
 10
-65.7840747511825
 20
4.622732993244909
 10
-63.67900577898261
 20
4.622732993244909
 10
-63.67900577898261
 20
5.450422651044874
 10
-65.82100578578273
 20
5.450422651044874
 10
-65.75148854418261
 20
5.548181272044786
 10
-65.66459199218273
 20
5.63725023784471
 10
-65.56344440565452
 20
5.71354541050087
 10
-65.45604026738259
 20
5.780629548644839
 97
        0
 92
        7
 72
     0
 73
     1
 93
        6
 10
-63.44872991618261
 20
6.721284724044977
 10
-63.44872991618261
 20
3.35187092024492
 10
-61.21114370218241
 20
3.351870920245033
 10
-61.21114370218264
 20
4.218664026445054
 10
-62.4255230163826
 20
4.218664026445054
 10
-62.4255230163826
 20
6.721284724044977
 97
        0
 92
        7
 72
     0
 73
     1
 93
        8
 10
-62.19307473978277
 20
6.721284724044977
 10
-62.19307473978277
 20
5.895767480044952
 10
-60.95914370138256
 20
5.895767480045066
 10
-60.95914370138256
 20
3.345353678844986
 10
-59.93376438778248
 20
3.345353678844986
 10
-59.93376438778271
 20
5.895767480044952
 10
-58.69114369418274
 20
5.895767480045066
 10
-58.69114369418274
 20
6.721284724045091
 97
        0
 75
     0
 76
     1
 47
0.0142553043587597
 98
        5
 10
-72.30583822730749
 20
6.278835054455527
 10
-70.03834101396477
 20
6.13628206944989
 10
-65.54612928176332
 20
6.19330324199771
 10
-62.82228019793159
 20
6.435643466690095
 10
-61.41044221570495
 20
6.335856334276769
450
        0
451
        0
460
0.0
461
0.0
452
        0
462
0.0
453
        0
470

  0
LWPOLYLINE
  5
8562
330
8453
100
AcDbEntity
  8
LW 5016-32-00
 62
     1
100
AcDbPolyline
 90
        8
 70
     1
 43
0.0
 10
-59.93376438778271
 20
5.895767480044952
 10
-59.93376438778248
 20
3.345353678844986
 10
-60.95914370138256
 20
3.345353678844986
 10
-60.95914370138256
 20
5.895767480045066
 10
-62.19307473978277
 20
5.895767480044952
 10
-62.19307473978277
 20
6.721284724044977
 10
-58.69114369418274
 20
6.721284724045091
 10
-58.69114369418274
 20
5.895767480045066
  0
LWPOLYLINE
  5
8563
330
8453
100
AcDbEntity
  8
LW 5016-32-00
 62
     1
100
AcDbPolyline
 90
       73
 70
     1
 43
0.0
 10
-69.63576441858252
 20
4.218664026444713
 10
-68.61907476018267
 20
4.218664026444713
 10
-67.73272992978262
 20
3.345353678844759
 10
-69.63576441858252
 20
3.345353678844645
 10
-69.8464885571825
 20
3.354043334044746
 10
-70.05504028198264
 20
3.380112299644707
 10
-70.25184359295211
 20
3.423821265300631
 10
-70.44607476598251
 20
3.477870920644619
 10
-70.62855752518247
 20
3.549560576044683
 10
-70.80017821538262
 20
3.634284714244614
 10
-70.95871228485133
 20
3.73265161110865
 10
-71.11083338878255
 20
3.840664025244706
 10
-71.24312469954746
 20
3.959972991140631
 10
-71.36113021716345
 20
4.08901437086061
 10
-71.46650966577384
 20
4.228483336820687
 10
-71.55835063158268
 20
4.377250233844648
 10
-71.62786787318258
 20
4.531491613644703
 10
-71.6800058043825
 20
4.692250234844692
 10
-71.71259201138262
 20
4.859526097444614
 10
-71.72345408038267
 20
5.031146787644644
 10
-71.71259201138262
 20
5.207112305444553
 10
-71.68000580438273
 20
5.374388168044589
 10
-71.62569545938253
 20
5.535146789244691
 10
-71.55400580398257
 20
5.689388169044633
 10
-71.4627644243826
 20
5.837112307444641
 10
-71.35414373438265
 20
5.976146790644662
 10
-71.22915173398586
 20
6.106665411748764
 10
-71.0934540783828
 20
6.225974377644689
 10
-70.94138511238269
 20
6.334595067644642
 10
-70.7758211118571
 20
6.431050240364612
 10
-70.60466097338279
 20
6.517077826844598
 10
-70.41783338658273
 20
6.588767482244662
 10
-70.22448855838273
 20
6.645250241044806
 10
-70.02005573014752
 20
6.685048861860678
 10
-69.81333752259478
 20
6.710509551596743
 10
-69.60535062538268
 20
6.721284724044636
 10
-66.16641957998261
 20
6.721284724044863
 10
-67.8478678611825
 20
5.087629546444787
 10
-66.13383337298272
 20
3.345353678844759
 10
-67.45248854958252
 20
3.345353678844759
 10
-69.21866096898269
 20
5.06373299464488
 10
-68.3714195869827
 20
5.87838816964475
 10
-69.64010924618263
 20
5.87838816964475
 10
-69.76417145347316
 20
5.873174376524644
 10
-69.88703448834598
 20
5.855099893708626
 10
-70.00737752321059
 20
5.824512307404717
 10
-70.12391448909783
 20
5.781672307268564
 10
-70.2079347652268
 20
5.739527479548684
 10
-70.28422993788261
 20
5.695210238028749
 10
-70.3244717311138
 20
5.668011617252687
 10
-70.36198497261215
 20
5.637076444740642
 10
-70.47289973158512
 20
5.528629547844644
 10
-70.53597793868174
 20
5.450596444148601
 10
-70.57750580088257
 20
5.382730237036668
 10
-70.62115393895213
 20
5.284015753964723
 10
-70.63936745625141
 20
5.222319202044701
 10
-70.65152428387612
 20
5.15914540874067
 10
-70.65752883561934
 20
5.097014374060705
 10
-70.65888442183062
 20
5.034709546276673
 10
-70.65136787008258
 20
4.94537989082076
 10
-70.63066911139616
 20
4.858222649164673
 10
-70.60124593888893
 20
4.776800579940669
 10
-70.56188180083312
 20
4.699636441764624
 10
-70.51317628343712
 20
4.627077820844675
 10
-70.4581099384345
 20
4.559211613732742
 10
-70.38450855889071
 20
4.489172992820641
 10
-70.25194786881455
 20
4.3898502338848
 10
-70.198263178989
 20
4.357264026884678
 10
-70.14212800639687
 20
4.329109544036697
 10
-70.04063283366098
 20
4.28818126804461
 10
-69.9235136608754
 20
4.253857130004718
 10
-69.80337917773543
 20
4.232393681660624
 10
-69.70243145327707
 20
4.222411319384065
  0
LWPOLYLINE
  5
8564
330
8453
100
AcDbEntity
  8
LW 5016-32-00
 62
     1
100
AcDbPolyline
 90
       76
 70
     1
 43
0.0
 10
-70.84592766864874
 20
6.56041473201563
 10
-71.02131462201349
 20
6.458236850193912
 10
-71.18498341809548
 20
6.34133056727822
 10
-71.33100332455704
 20
6.212946005564873
 10
-71.4654813997697
 20
6.072521875302328
 10
-71.58363952400098
 20
5.9212794762864
 10
-71.61549835337381
 20
5.86969851444465
 10
-72.70538511798257
 20
5.86969851444465
 10
-72.8487644287827
 20
5.863181273044602
 10
-72.98562649818267
 20
5.843629548844575
 10
-73.10807242960594
 20
5.811564721156543
 10
-73.22676442998271
 20
5.767595065844631
 10
-73.32936318892892
 20
5.709287479452569
 10
-73.42445408578258
 20
5.639422651644537
 10
-73.5070058101828
 20
5.556870927244546
 10
-73.5765230517827
 20
5.461284720044574
 10
-71.80588453416338
 20
5.461284720044574
 10
-71.82248323683824
 20
5.412152560126315
 10
-71.85878895851373
 20
5.225783188859651
 10
-71.87081063094296
 20
5.031032095504798
 10
-71.85876697816114
 20
4.840742381554065
 10
-71.82265517019662
 20
4.655368434003008
 10
-71.81207070292384
 20
4.622732993244682
 10
-73.53959201718247
 20
4.622732993244568
 10
-73.46790236178252
 20
4.538008855044523
 10
-73.37772112011702
 20
4.460062647900514
 10
-73.27957146463289
 20
4.392457130444569
 10
-73.17462649878256
 20
4.335974371644653
 10
-73.05948856738244
 20
4.290353681844663
 10
-72.93131615318269
 20
4.257419888636633
 10
-72.80056291138816
 20
4.23708609546864
 10
-72.66845408338257
 20
4.229526095444526
 10
-71.6399910164623
 20
4.22952609544464
 10
-71.58801978501355
 20
4.145341453340307
 10
-71.47431443027016
 20
3.994853208627802
 10
-71.34687853678586
 20
3.85549952539921
 10
-71.20296616841573
 20
3.725709928859515
 10
-71.04013327365509
 20
3.610091690433847
 10
-70.8716668674849
 20
3.505561997502383
 10
-70.68810272368249
 20
3.414941723979637
 10
-70.52755885963005
 20
3.351870920244692
 10
-72.64672994538249
 20
3.351870920244465
 10
-72.85745408398269
 20
3.360560575444566
 10
-73.0660058087826
 20
3.386629541044641
 10
-73.26586787838254
 20
3.430077817044576
 10
-73.45704029278248
 20
3.486560575844492
 10
-73.63768953473549
 20
3.560248851940542
 10
-73.81331615598241
 20
3.645146783244655
 10
-73.97407477718251
 20
3.742905404244567
 10
-74.12141917765028
 20
3.85335092183655
 10
-74.25761822635853
 20
3.974484715324507
 10
-74.38031615778253
 20
4.10569850884454
 10
-74.48676443398266
 20
4.246905405844501
 10
-74.57583339978258
 20
4.394629544244509
 10
-74.64535064138248
 20
4.551043337844504
 10
-74.69966098638268
 20
4.711801959044493
 10
-74.73007477958252
 20
4.879077821644642
 10
-74.74093684858257
 20
5.052870925644498
 10
-74.7322471933828
 20
5.226664029644467
 10
-74.70400581398256
 20
5.391767478444563
 10
-74.65404029658269
 20
5.552526099644438
 10
-74.59104029638273
 20
5.706767479444494
 10
-74.50848857198273
 20
5.852319204044562
 10
-74.40847064063063
 20
5.989528859652551
 10
-74.29720568855326
 20
6.117788170404566
 10
-74.17176443298261
 20
6.236836446644502
 10
-74.02905683252969
 20
6.343545412500617
 10
-73.87848856998265
 20
6.4388709300446
 10
-73.71121270738261
 20
6.521422654444478
 10
-73.53524718958259
 20
6.590939896044602
 10
-73.35059201658258
 20
6.645250241044578
 10
-73.15507477458275
 20
6.686526103244688
 10
-72.95304029118277
 20
6.712595068844649
 10
-72.74014373878275
 20
6.721284724044636
 10
-70.48300580058252
 20
6.72128472404475
 10
-70.66417473604836
 20
6.651766411598515
  0
LWPOLYLINE
  5
8565
330
8453
100
AcDbEntity
  8
LW 5016-32-00
 62
     1
100
AcDbPolyline
 90
        6
 70
     1
 43
0.0
 10
-61.21114370218241
 20
3.351870920245033
 10
-63.44872991618261
 20
3.35187092024492
 10
-63.44872991618261
 20
6.721284724044977
 10
-62.4255230163826
 20
6.721284724044977
 10
-62.4255230163826
 20
4.218664026445054
 10
-61.21114370218264
 20
4.218664026445054
  0
LWPOLYLINE
  5
8566
330
8453
100
AcDbEntity
  8
LW 5016-32-00
 62
     1
100
AcDbPolyline
 90
       57
 70
     1
 43
0.0
 10
-66.50254413277387
 20
3.977004715332924
 10
-66.62240054694733
 20
4.10734954333273
 10
-66.73124716798269
 20
4.246905405844728
 10
-66.81814371998256
 20
4.39462954424485
 10
-66.88983337538274
 20
4.551043337844731
 10
-66.94197130658266
 20
4.711801959044834
 10
-66.97455751358255
 20
4.87907782164487
 10
-66.98541958258259
 20
5.052870925644839
 10
-66.97455751358255
 20
5.226664029644808
 10
-66.94197130658266
 20
5.393939892244844
 10
-66.89200578918279
 20
5.554698513444719
 10
-66.82031613378261
 20
5.708939893244888
 10
-66.7355919955828
 20
5.854491617844729
 10
-66.63131613318272
 20
5.993526101044864
 10
-66.51125116728438
 20
6.122306791108741
 10
-66.37669185651223
 20
6.241528860452746
 10
-66.22661282155307
 20
6.35101851597281
 10
-66.06779199346259
 20
6.447473688692895
 10
-65.90138509638267
 20
6.53011230964492
 10
-65.71672992338266
 20
6.60180196504487
 10
-65.52772992278254
 20
6.656112310044846
 10
-65.33004026698266
 20
6.697388172244842
 10
-65.12366095598257
 20
6.725629551644857
 10
-64.9129368173826
 20
6.734319206844844
 10
-63.67900577898261
 20
6.734319206844958
 10
-63.67900577898261
 20
5.908801962844933
 10
-64.91945405878253
 20
5.908801962844819
 10
-65.06283336958266
 20
5.900112307644832
 10
-65.19752302518257
 20
5.873000583420918
 10
-65.32899750835871
 20
5.833028169500863
 10
-65.45604026738259
 20
5.780629548644839
 10
-65.56344440565452
 20
5.71354541050087
 10
-65.66459199218273
 20
5.637250237844938
 10
-65.75148854418261
 20
5.548181272044786
 10
-65.82100578578273
 20
5.450422651044874
 10
-63.67900577898261
 20
5.450422651044874
 10
-63.67900577898261
 20
4.622732993244909
 10
-65.7840747511825
 20
4.622732993244909
 10
-65.7096044061186
 20
4.537226786076899
 10
-65.62218647480652
 20
4.457455751340859
 10
-65.52512302622266
 20
4.389850233884914
 10
-65.41545957759852
 20
4.32893575093297
 10
-65.29945268067852
 20
4.280968854228859
 10
-65.17884026650243
 20
4.246644716188967
 10
-65.04658371435856
 20
4.224659888532784
 10
-64.9129368173826
 20
4.214319198844833
 10
-63.67900577898261
 20
4.214319198844833
 10
-63.67900577898261
 20
3.356215747844913
 10
-64.88904026558246
 20
3.3562157478448
 10
-65.10193681798249
 20
3.364905403044787
 10
-65.30831612898258
 20
3.388801954844922
 10
-65.50817819858251
 20
3.432250230844857
 10
-65.69935061298245
 20
3.488732989644887
 10
-65.88400578598269
 20
3.562595058844891
 10
-66.05779888998267
 20
3.647319197044936
 10
-66.21855751118253
 20
3.745077818044848
 10
-66.36611654613374
 20
3.855697128740786
  0
LINE
  5
8567
330
8453
100
AcDbEntity
  8
LW 5016-32-00
  6
MITTE2
 62
     3
100
AcDbLine
 10
0.0
 20
37.0
 30
0.0
 11
0.0
 21
-37.00000000000012
 31
0.0
  0
INSERT
  5
8568
330
8453
100
AcDbEntity
  8
LW 5016-32-00
100
AcDbBlockReference
 66
     1
  2
insertpoint-ECKELT
 10
0.0
 20
0.0
 30
0.0
  0
ATTRIB
  5
8569
330
8568
100
AcDbEntity
  8
insertpoint_ECKELT
100
AcDbText
 10
-6.93151432469286
 20
0.0
 30
0.0
 40
0.6
  1
LW 5016/32-00
 72
     2
 11
-1.199999999999818
 21
0.0
 31
0.0
100
AcDbAttribute
  2
LINKS
 70
     0
  0
ATTRIB
  5
856A
330
8568
100
AcDbEntity
  8
insertpoint_ECKELT
100
AcDbText
 10
1.199999999999818
 20
0.0
 30
0.0
 40
0.6
  1

100
AcDbAttribute
  2
RECHTS
 70
     0
  0
SEQEND
  5
856B
330
8568
100
AcDbEntity
  8
LW 5016-32-00
  0
LINE
  5
856C
330
8453
100
AcDbEntity
  8
LW 5016-32-00
  6
MITTE2
 62
     3
100
AcDbLine
 10
-84.99999999999998
 20
4.999999999994543
 30
0.0
 11
-130.0
 21
4.999999999994543
 31
0.0
  0
ENDBLK
  5
8455
330
8453
100
AcDbEntity
  8
0
100
AcDbBlockEnd
  0
ENDSEC
  0
SECTION
  2
ENTITIES
  0
INSERT
  5
7F90
330
23
100
AcDbEntity
  8
0
100
AcDbBlockReference
  2
LW 5016-32-00_c
 10
303.6796665410893
 20
207.0345158723449
 30
0.0
  0
INSERT
  5
7FB4
330
23
100
AcDbEntity
  8
0
100
AcDbBlockReference
  2
LW 5016-32-00_d
 10
-303.6796665407583
 20
207.034515872345
 30
0.0
  0
INSERT
  5
8452
330
23
100
AcDbEntity
  8
0
100
AcDbBlockReference
  2
LW 5016-32-00_a
 10
0.0
 20
0.0
 30
0.0
  0
INSERT
  5
856D
330
23
100
AcDbEntity
  8
0
100
AcDbBlockReference
  2
LW 5016-32-00_b
 10
0.000000000165528
 20
207.0345158723449
 30
0.0
  0
ENDSEC
  0
SECTION
  2
OBJECTS
  0
DICTIONARY
  5
C
330
0
100
AcDbDictionary
281
     1
  3
ACAD_COLOR
350
1C
  3
ACAD_GROUP
350
D
  3
ACAD_LAYOUT
350
1A
  3
ACAD_MATERIAL
350
1B
  3
ACAD_MLINESTYLE
350
17
  3
ACAD_PLOTSETTINGS
350
19
  3
ACAD_PLOTSTYLENAME
350
E
  3
ACAD_TABLESTYLE
350
1D
  3
AcDbVariableDictionary
350
1064
  0
DICTIONARY
  5
16C1
330
2
100
AcDbDictionary
280
     1
281
     1
  3
ACAD_LAYERFILTERS
360
7BEB
  3
ACLYDICTIONARY
360
7BEA
  0
DICTIONARY
  5
15A2
330
23
100
AcDbDictionary
280
     1
281
     1
  3
ACAD_SORTENTS
360
15A3
  0
DICTIONARY
  5
106F
330
106E
100
AcDbDictionary
280
     1
281
     1
  3
ACAD_SORTENTS
360
7828
  0
DICTIONARY
  5
1C
102
{ACAD_REACTORS
330
C
102
}
330
C
100
AcDbDictionary
281
     1
  0
DICTIONARY
  5
D
102
{ACAD_REACTORS
330
C
102
}
330
C
100
AcDbDictionary
281
     1
  0
DICTIONARY
  5
1A
102
{ACAD_REACTORS
330
C
102
}
330
C
100
AcDbDictionary
281
     1
  3
Layout1
350
22
  3
Layout2
350
2A
  3
Model
350
26
  0
DICTIONARY
  5
1B
102
{ACAD_REACTORS
330
C
102
}
330
C
100
AcDbDictionary
281
     1
  0
DICTIONARY
  5
17
102
{ACAD_REACTORS
330
C
102
}
330
C
100
AcDbDictionary
281
     1
  3
Standard
350
18
  0
DICTIONARY
  5
19
102
{ACAD_REACTORS
330
C
102
}
330
C
100
AcDbDictionary
281
     1
  0
ACDBDICTIONARYWDFLT
  5
E
102
{ACAD_REACTORS
330
C
102
}
330
C
100
AcDbDictionary
281
     1
  3
Normal
350
F
100
AcDbDictionaryWithDefault
340
F
  0
DICTIONARY
  5
1D
102
{ACAD_REACTORS
330
C
102
}
330
C
100
AcDbDictionary
281
     1
  3
Standard
350
1E
  0
DICTIONARY
  5
1064
102
{ACAD_REACTORS
330
C
102
}
330
C
100
AcDbDictionary
281
     1
  3
CTABLESTYLE
350
1065
  3
DIMASSOC
350
18F4
  3
HIDETEXT
350
18F3
  3
PROJECTNAME
350
18F5
  0
DICTIONARY
  5
7BEB
102
{ACAD_REACTORS
330
16C1
102
}
330
16C1
100
AcDbDictionary
281
     1
  0
DICTIONARY
  5
7BEA
102
{ACAD_REACTORS
330
16C1
102
}
330
16C1
100
AcDbDictionary
281
     1
1001
ACAD
1000
<All
  0
SORTENTSTABLE
  5
15A3
102
{ACAD_REACTORS
330
15A2
102
}
330
15A2
100
AcDbSortentsTable
330
23
331
7F90
  5
82DB
331
7FB4
  5
82DC
  0
SORTENTSTABLE
  5
7828
102
{ACAD_REACTORS
330
106F
102
}
330
106F
100
AcDbSortentsTable
330
106E
  0
LAYOUT
  5
22
102
{ACAD_REACTORS
330
1A
102
}
330
1A
100
AcDbPlotSettings
  1

  2

  4

  6

 40
0.0
 41
0.0
 42
0.0
 43
0.0
 44
0.0
 45
0.0
 46
0.0
 47
0.0
 48
0.0
 49
0.0
140
0.0
141
0.0
142
1.0
143
1.0
 70
   688
 72
     0
 73
     0
 74
     5
  7

 75
    16
147
1.0
 76
     0
 77
     2
 78
   300
148
0.0
149
0.0
100
AcDbLayout
  1
Layout1
 70
     1
 71
     1
 10
0.0
 20
0.0
 11
2100.0
 21
1485.0
 12
0.0
 22
0.0
 32
0.0
 14
0.0
 24
0.0
 34
0.0
 15
2100.0
 25
1485.0
 35
0.0
146
0.0
 13
0.0
 23
0.0
 33
0.0
 16
1.0
 26
0.0
 36
0.0
 17
0.0
 27
1.0
 37
0.0
 76
     0
330
1F
  0
LAYOUT
  5
2A
102
{ACAD_REACTORS
330
1A
102
}
330
1A
100
AcDbPlotSettings
  1

  2

  4

  6

 40
0.0
 41
0.0
 42
0.0
 43
0.0
 44
0.0
 45
0.0
 46
0.0
 47
0.0
 48
0.0
 49
0.0
140
0.0
141
0.0
142
1.0
143
1.0
 70
   688
 72
     0
 73
     0
 74
     5
  7

 75
    16
147
1.0
 76
     0
 77
     2
 78
   300
148
0.0
149
0.0
100
AcDbLayout
  1
Layout2
 70
     1
 71
     2
 10
0.0
 20
0.0
 11
12.0
 21
9.0
 12
0.0
 22
0.0
 32
0.0
 14
0.0
 24
0.0
 34
0.0
 15
0.0
 25
0.0
 35
0.0
146
0.0
 13
0.0
 23
0.0
 33
0.0
 16
1.0
 26
0.0
 36
0.0
 17
0.0
 27
1.0
 37
0.0
 76
     0
330
27
  0
LAYOUT
  5
26
102
{ACAD_REACTORS
330
1A
102
}
330
1A
100
AcDbPlotSettings
  1

  2

  4

  6

 40
0.0
 41
0.0
 42
0.0
 43
0.0
 44
0.0
 45
0.0
 46
0.0
 47
0.0
 48
0.0
 49
0.0
140
0.0
141
0.0
142
1.0
143
1.0
 70
  1712
 72
     0
 73
     0
 74
     0
  7

 75
     0
147
1.0
 76
     0
 77
     2
 78
   300
148
0.0
149
0.0
100
AcDbLayout
  1
Model
 70
     1
 71
     0
 10
0.0
 20
0.0
 11
12.0
 21
9.0
 12
0.0
 22
0.0
 32
0.0
 14
0.0
 24
0.0
 34
0.0
 15
0.0
 25
0.0
 35
0.0
146
0.0
 13
0.0
 23
0.0
 33
0.0
 16
1.0
 26
0.0
 36
0.0
 17
0.0
 27
1.0
 37
0.0
 76
     0
330
23
  0
MLINESTYLE
  5
18
102
{ACAD_REACTORS
330
17
102
}
330
17
100
AcDbMlineStyle
  2
STANDARD
 70
     0
  3

 62
   256
 51
90.0
 52
90.0
 71
     2
 49
0.5
 62
   256
  6
BYLAYER
 49
-0.5
 62
   256
  6
BYLAYER
  0
ACDBPLACEHOLDER
  5
F
102
{ACAD_REACTORS
330
E
102
}
330
E
  0
TABLESTYLE
  5
1E
102
{ACAD_REACTORS
330
1D
102
}
330
1D
100
AcDbTableStyle
  3
Standard
 70
     0
 71
     0
 40
0.06
 41
0.06
280
     0
281
     0
  7
Standard
140
0.18
170
     2
 62
     0
 63
     7
283
     0
274
    -2
284
     1
 64
     0
275
    -2
285
     1
 65
     0
276
    -2
286
     1
 66
     0
277
    -2
287
     1
 67
     0
278
    -2
288
     1
 68
     0
279
    -2
289
     1
 69
     0
  7
Standard
140
0.25
170
     5
 62
     0
 63
     7
283
     0
274
    -2
284
     1
 64
     0
275
    -2
285
     1
 65
     0
276
    -2
286
     1
 66
     0
277
    -2
287
     1
 67
     0
278
    -2
288
     1
 68
     0
279
    -2
289
     1
 69
     0
  7
Standard
140
0.18
170
     5
 62
     0
 63
     7
283
     0
274
    -2
284
     1
 64
     0
275
    -2
285
     1
 65
     0
276
    -2
286
     1
 66
     0
277
    -2
287
     1
 67
     0
278
    -2
288
     1
 68
     0
279
    -2
289
     1
 69
     0
  0
DICTIONARYVAR
  5
1065
102
{ACAD_REACTORS
330
1064
102
}
330
1064
100
DictionaryVariables
280
     0
  1
STANDARD
  0
DICTIONARYVAR
  5
18F4
102
{ACAD_REACTORS
330
1064
102
}
330
1064
100
DictionaryVariables
280
     0
  1
1
  0
DICTIONARYVAR
  5
18F3
102
{ACAD_REACTORS
330
1064
102
}
330
1064
100
DictionaryVariables
280
     0
  1
1
  0
DICTIONARYVAR
  5
18F5
102
{ACAD_REACTORS
330
1064
102
}
330
1064
100
DictionaryVariables
280
     0
  1

  0
ENDSEC
  0
EOF
