  0
SECTION
  2
HEADER
  9
$ACADVER
  1
AC1018
  9
$ACADMAINTVER
 70
    76
  9
$DWGCODEPAGE
  3
ANSI_1252
  9
$AUTHOR
  1
Grandl
  9
$CUSTOMPROPERTYTAG
  1
Manager
  9
$CUSTOMPROPERTY
  1

  9
$CUSTOMPROPERTYTAG
  1
Firma
  9
$CUSTOMPROPERTY
  1

  9
$CUSTOMPROPERTYTAG
  1
Kategorie
  9
$CUSTOMPROPERTY
  1

  9
$CUSTOMPROPERTYTAG
  1
Bauteilnummer
  9
$CUSTOMPROPERTY
  1
3250-40-00
  9
$CUSTOMPROPERTYTAG
  1
Bezeichnung
  9
$CUSTOMPROPERTY
  1

  9
$CUSTOMPROPERTYTAG
  1
Projekt
  9
$CUSTOMPROPERTY
  1

  9
$CUSTOMPROPERTYTAG
  1
Konstrukteur
  9
$CUSTOMPROPERTY
  1
Grandl
  9
$CUSTOMPROPERTYTAG
  1
Ingenieur
  9
$CUSTOMPROPERTY
  1

  9
$CUSTOMPROPERTYTAG
  1
Bevollmächtigter
  9
$CUSTOMPROPERTY
  1

  9
$CUSTOMPROPERTYTAG
  1
Kostenstelle
  9
$CUSTOMPROPERTY
  1

  9
$CUSTOMPROPERTYTAG
  1
Händler
  9
$CUSTOMPROPERTY
  1

  9
$CUSTOMPROPERTYTAG
  1
Benutzerstatus
  9
$CUSTOMPROPERTY
  1

  9
$CUSTOMPROPERTYTAG
  1
Konstruktionsstatus
  9
$CUSTOMPROPERTY
  1
InBearbeitung
  9
$CUSTOMPROPERTYTAG
  1
Überprüft von
  9
$CUSTOMPROPERTY
  1

  9
$CUSTOMPROPERTYTAG
  1
Konstruktion genehmigt von
  9
$CUSTOMPROPERTY
  1

  9
$CUSTOMPROPERTYTAG
  1
Fertigung genehmigt von
  9
$CUSTOMPROPERTY
  1

  9
$INSBASE
 10
0.0
 20
0.0
 30
0.0
  9
$EXTMIN
 10
-340.7823554760514
 20
-37.00000000000006
 30
0.0
  9
$EXTMAX
 10
342.649373436547
 20
244.0345158723449
 30
0.0
  9
$LIMMIN
 10
0.0
 20
0.0
  9
$LIMMAX
 10
2100.0
 20
1485.0
  9
$ORTHOMODE
 70
     1
  9
$REGENMODE
 70
     1
  9
$FILLMODE
 70
     1
  9
$QTEXTMODE
 70
     0
  9
$MIRRTEXT
 70
     0
  9
$LTSCALE
 40
0.5
  9
$ATTMODE
 70
     1
  9
$TEXTSIZE
 40
0.2
  9
$TRACEWID
 40
0.05
  9
$TEXTSTYLE
  7
Standard
  9
$CLAYER
  8
0
  9
$CELTYPE
  6
ByLayer
  9
$CECOLOR
 62
   256
  9
$CELTSCALE
 40
1.0
  9
$DISPSILH
 70
     0
  9
$DIMSCALE
 40
1.0
  9
$DIMASZ
 40
0.18
  9
$DIMEXO
 40
0.0625
  9
$DIMDLI
 40
0.38
  9
$DIMRND
 40
0.0
  9
$DIMDLE
 40
0.0
  9
$DIMEXE
 40
0.18
  9
$DIMTP
 40
0.0
  9
$DIMTM
 40
0.0
  9
$DIMTXT
 40
0.18
  9
$DIMCEN
 40
0.09
  9
$DIMTSZ
 40
0.0
  9
$DIMTOL
 70
     0
  9
$DIMLIM
 70
     0
  9
$DIMTIH
 70
     1
  9
$DIMTOH
 70
     1
  9
$DIMSE1
 70
     0
  9
$DIMSE2
 70
     0
  9
$DIMTAD
 70
     0
  9
$DIMZIN
 70
     0
  9
$DIMBLK
  1

  9
$DIMASO
 70
     1
  9
$DIMSHO
 70
     1
  9
$DIMPOST
  1

  9
$DIMAPOST
  1

  9
$DIMALT
 70
     0
  9
$DIMALTD
 70
     2
  9
$DIMALTF
 40
25.4
  9
$DIMLFAC
 40
1.0
  9
$DIMTOFL
 70
     0
  9
$DIMTVP
 40
0.0
  9
$DIMTIX
 70
     0
  9
$DIMSOXD
 70
     0
  9
$DIMSAH
 70
     0
  9
$DIMBLK1
  1

  9
$DIMBLK2
  1

  9
$DIMSTYLE
  2
Standard
  9
$DIMCLRD
 70
     0
  9
$DIMCLRE
 70
     0
  9
$DIMCLRT
 70
     0
  9
$DIMTFAC
 40
1.0
  9
$DIMGAP
 40
0.09
  9
$DIMJUST
 70
     0
  9
$DIMSD1
 70
     0
  9
$DIMSD2
 70
     0
  9
$DIMTOLJ
 70
     1
  9
$DIMTZIN
 70
     0
  9
$DIMALTZ
 70
     0
  9
$DIMALTTZ
 70
     0
  9
$DIMUPT
 70
     0
  9
$DIMDEC
 70
     4
  9
$DIMTDEC
 70
     4
  9
$DIMALTU
 70
     2
  9
$DIMALTTD
 70
     2
  9
$DIMTXSTY
  7
Standard
  9
$DIMAUNIT
 70
     0
  9
$DIMADEC
 70
     0
  9
$DIMALTRND
 40
0.0
  9
$DIMAZIN
 70
     0
  9
$DIMDSEP
 70
    46
  9
$DIMATFIT
 70
     3
  9
$DIMFRAC
 70
     0
  9
$DIMLDRBLK
  1

  9
$DIMLUNIT
 70
     2
  9
$DIMLWD
 70
    -2
  9
$DIMLWE
 70
    -2
  9
$DIMTMOVE
 70
     0
  9
$LUNITS
 70
     2
  9
$LUPREC
 70
     4
  9
$SKETCHINC
 40
0.1
  9
$FILLETRAD
 40
0.0
  9
$AUNITS
 70
     0
  9
$AUPREC
 70
     0
  9
$MENU
  1
.
  9
$ELEVATION
 40
0.0
  9
$PELEVATION
 40
0.0
  9
$THICKNESS
 40
0.0
  9
$LIMCHECK
 70
     0
  9
$CHAMFERA
 40
0.0
  9
$CHAMFERB
 40
0.0
  9
$CHAMFERC
 40
0.0
  9
$CHAMFERD
 40
0.0
  9
$SKPOLY
 70
     0
  9
$TDCREATE
 40
2453712.483610903
  9
$TDUCREATE
 40
2453712.441944236
  9
$TDUPDATE
 40
2453717.684019618
  9
$TDUUPDATE
 40
2453717.642352951
  9
$TDINDWG
 40
0.1521794907
  9
$TDUSRTIMER
 40
0.1521794907
  9
$USRTIMER
 70
     1
  9
$ANGBASE
 50
0.0
  9
$ANGDIR
 70
     0
  9
$PDMODE
 70
     0
  9
$PDSIZE
 40
0.0
  9
$PLINEWID
 40
0.0
  9
$SPLFRAME
 70
     0
  9
$SPLINETYPE
 70
     6
  9
$SPLINESEGS
 70
     8
  9
$HANDSEED
  5
8D07
  9
$SURFTAB1
 70
     6
  9
$SURFTAB2
 70
     6
  9
$SURFTYPE
 70
     6
  9
$SURFU
 70
     6
  9
$SURFV
 70
     6
  9
$UCSBASE
  2

  9
$UCSNAME
  2

  9
$UCSORG
 10
0.0
 20
0.0
 30
0.0
  9
$UCSXDIR
 10
1.0
 20
0.0
 30
0.0
  9
$UCSYDIR
 10
0.0
 20
1.0
 30
0.0
  9
$UCSORTHOREF
  2

  9
$UCSORTHOVIEW
 70
     0
  9
$UCSORGTOP
 10
0.0
 20
0.0
 30
0.0
  9
$UCSORGBOTTOM
 10
0.0
 20
0.0
 30
0.0
  9
$UCSORGLEFT
 10
0.0
 20
0.0
 30
0.0
  9
$UCSORGRIGHT
 10
0.0
 20
0.0
 30
0.0
  9
$UCSORGFRONT
 10
0.0
 20
0.0
 30
0.0
  9
$UCSORGBACK
 10
0.0
 20
0.0
 30
0.0
  9
$PUCSBASE
  2

  9
$PUCSNAME
  2

  9
$PUCSORG
 10
0.0
 20
0.0
 30
0.0
  9
$PUCSXDIR
 10
1.0
 20
0.0
 30
0.0
  9
$PUCSYDIR
 10
0.0
 20
1.0
 30
0.0
  9
$PUCSORTHOREF
  2

  9
$PUCSORTHOVIEW
 70
     0
  9
$PUCSORGTOP
 10
0.0
 20
0.0
 30
0.0
  9
$PUCSORGBOTTOM
 10
0.0
 20
0.0
 30
0.0
  9
$PUCSORGLEFT
 10
0.0
 20
0.0
 30
0.0
  9
$PUCSORGRIGHT
 10
0.0
 20
0.0
 30
0.0
  9
$PUCSORGFRONT
 10
0.0
 20
0.0
 30
0.0
  9
$PUCSORGBACK
 10
0.0
 20
0.0
 30
0.0
  9
$USERI1
 70
     0
  9
$USERI2
 70
     0
  9
$USERI3
 70
     0
  9
$USERI4
 70
     0
  9
$USERI5
 70
     0
  9
$USERR1
 40
0.0
  9
$USERR2
 40
0.0
  9
$USERR3
 40
0.0
  9
$USERR4
 40
0.0
  9
$USERR5
 40
0.0
  9
$WORLDVIEW
 70
     1
  9
$SHADEDGE
 70
     3
  9
$SHADEDIF
 70
    70
  9
$TILEMODE
 70
     1
  9
$MAXACTVP
 70
    64
  9
$PINSBASE
 10
0.0
 20
0.0
 30
0.0
  9
$PLIMCHECK
 70
     0
  9
$PEXTMIN
 10
0.0
 20
0.0
 30
0.0
  9
$PEXTMAX
 10
2100.0
 20
1485.0
 30
0.0
  9
$PLIMMIN
 10
0.0
 20
0.0
  9
$PLIMMAX
 10
2100.0
 20
1485.0
  9
$UNITMODE
 70
     0
  9
$VISRETAIN
 70
     1
  9
$PLINEGEN
 70
     0
  9
$PSLTSCALE
 70
     1
  9
$TREEDEPTH
 70
  3020
  9
$CMLSTYLE
  2
Standard
  9
$CMLJUST
 70
     0
  9
$CMLSCALE
 40
1.0
  9
$PROXYGRAPHICS
 70
     1
  9
$MEASUREMENT
 70
     1
  9
$CELWEIGHT
370
    -1
  9
$ENDCAPS
280
     0
  9
$JOINSTYLE
280
     0
  9
$LWDISPLAY
290
     0
  9
$INSUNITS
 70
     0
  9
$HYPERLINKBASE
  1

  9
$STYLESHEET
  1

  9
$XEDIT
290
     1
  9
$CEPSNTYPE
380
     0
  9
$PSTYLEMODE
290
     1
  9
$FINGERPRINTGUID
  2
{C0D17482-A639-492A-87FF-6D529B9E67CF}
  9
$VERSIONGUID
  2
{61C01886-3E59-4007-8BCD-0607D49287FB}
  9
$EXTNAMES
290
     1
  9
$PSVPSCALE
 40
0.0
  9
$OLESTARTUP
290
     0
  9
$SORTENTS
280
   127
  9
$INDEXCTL
280
     0
  9
$HIDETEXT
280
     1
  9
$XCLIPFRAME
290
     0
  9
$HALOGAP
280
     0
  9
$OBSCOLOR
 70
   257
  9
$OBSLTYPE
280
     0
  9
$INTERSECTIONDISPLAY
280
     0
  9
$INTERSECTIONCOLOR
 70
   257
  9
$DIMASSOC
280
     1
  9
$PROJECTNAME
  1

  0
ENDSEC
  0
SECTION
  2
CLASSES
  0
CLASS
  1
ACDBDICTIONARYWDFLT
  2
AcDbDictionaryWithDefault
  3
ObjectDBX Classes
 90
        0
 91
        1
280
     0
281
     0
  0
CLASS
  1
TABLESTYLE
  2
AcDbTableStyle
  3
ObjectDBX Classes
 90
     2047
 91
        1
280
     0
281
     0
  0
CLASS
  1
DICTIONARYVAR
  2
AcDbDictionaryVar
  3
ObjectDBX Classes
 90
        0
 91
        4
280
     0
281
     0
  0
CLASS
  1
SORTENTSTABLE
  2
AcDbSortentsTable
  3
ObjectDBX Classes
 90
        0
 91
        2
280
     0
281
     0
  0
ENDSEC
  0
SECTION
  2
TABLES
  0
TABLE
  2
VPORT
  5
8
330
0
100
AcDbSymbolTable
 70
     3
  0
VPORT
  5
8D06
330
8
100
AcDbSymbolTableRecord
100
AcDbViewportTableRecord
  2
*Active
 70
     0
 10
0.0
 20
0.0
 11
1.0
 21
1.0
 12
0.9720479359075966
 22
103.4950027772511
 13
0.0
 23
0.0
 14
1.0
 24
1.0
 15
0.0
 25
0.0
 16
0.0
 26
0.0
 36
1.0
 17
0.0
 27
0.0
 37
0.0
 40
387.7182487368955
 41
1.773333333333333
 42
50.0
 43
0.0
 44
0.0
 50
0.0
 51
0.0
 71
     0
 72
   100
 73
     1
 74
     1
 75
     0
 76
     0
 77
     0
 78
     0
281
     0
 65
     1
110
0.0
120
0.0
130
0.0
111
1.0
121
0.0
131
0.0
112
0.0
122
1.0
132
0.0
 79
     0
146
0.0
  0
ENDTAB
  0
TABLE
  2
LTYPE
  5
5
330
0
100
AcDbSymbolTable
 70
     3
  0
LTYPE
  5
14
330
5
100
AcDbSymbolTableRecord
100
AcDbLinetypeTableRecord
  2
ByBlock
 70
     0
  3

 72
    65
 73
     0
 40
0.0
  0
LTYPE
  5
15
330
5
100
AcDbSymbolTableRecord
100
AcDbLinetypeTableRecord
  2
ByLayer
 70
     0
  3

 72
    65
 73
     0
 40
0.0
  0
LTYPE
  5
16
330
5
100
AcDbSymbolTableRecord
100
AcDbLinetypeTableRecord
  2
Continuous
 70
     0
  3
Solid line
 72
    65
 73
     0
 40
0.0
  0
LTYPE
  5
1309
330
5
100
AcDbSymbolTableRecord
100
AcDbLinetypeTableRecord
  2
MITTE2
 70
     0
  3
Mitte (.5x) ___ _ ___ _ ___ _ ___ _ ___ _ ___
 72
    65
 73
     4
 40
28.575
 49
19.05
 74
     0
 49
-3.174999999999999
 74
     0
 49
3.174999999999999
 74
     0
 49
-3.174999999999999
 74
     0
  0
LTYPE
  5
16DC
330
5
100
AcDbSymbolTableRecord
100
AcDbLinetypeTableRecord
  2
VERDECKT
 70
     0
  3
Verdeckt __ __ __ __ __ __ __ __ __ __ __ __ __
 72
    65
 73
     2
 40
9.524999999999998
 49
6.349999999999999
 74
     0
 49
-3.174999999999999
 74
     0
  0
ENDTAB
  0
TABLE
  2
LAYER
  5
2
102
{ACAD_XDICTIONARY
360
16C1
102
}
330
0
100
AcDbSymbolTable
 70
     4
  0
LAYER
  5
10
330
2
100
AcDbSymbolTableRecord
100
AcDbLayerTableRecord
  2
0
 70
     0
 62
     7
  6
Continuous
370
    -3
390
F
  0
LAYER
  5
646
330
2
100
AcDbSymbolTableRecord
100
AcDbLayerTableRecord
  2
Defpoints
 70
     0
 62
     7
  6
Continuous
290
     0
370
    -3
390
F
  0
LAYER
  5
130A
330
2
100
AcDbSymbolTableRecord
100
AcDbLayerTableRecord
  2
LW 5016-39-00
 70
     0
 62
     7
  6
Continuous
370
    -3
390
F
  0
LAYER
  5
130B
330
2
100
AcDbSymbolTableRecord
100
AcDbLayerTableRecord
  2
insertpoint_ECKELT
 70
     0
 62
   141
  6
Continuous
370
    -3
390
F
  0
ENDTAB
  0
TABLE
  2
STYLE
  5
3
330
0
100
AcDbSymbolTable
 70
     1
  0
STYLE
  5
11
330
3
100
AcDbSymbolTableRecord
100
AcDbTextStyleTableRecord
  2
Standard
 70
     0
 40
0.0
 41
1.0
 50
0.0
 71
     0
 42
0.2
  3
ARIAL.TTF
  4

1001
ACAD
1000
Arial
1071
      256
  0
ENDTAB
  0
TABLE
  2
VIEW
  5
6
330
0
100
AcDbSymbolTable
 70
     0
  0
ENDTAB
  0
TABLE
  2
UCS
  5
7
330
0
100
AcDbSymbolTable
 70
     0
  0
ENDTAB
  0
TABLE
  2
APPID
  5
9
330
0
100
AcDbSymbolTable
 70
     2
  0
APPID
  5
12
330
9
100
AcDbSymbolTableRecord
100
AcDbRegAppTableRecord
  2
ACAD
 70
     0
  0
APPID
  5
15AA
330
9
100
AcDbSymbolTableRecord
100
AcDbRegAppTableRecord
  2
ACAD_EXEMPT_FROM_CAD_STANDARDS
 70
     0
  0
ENDTAB
  0
TABLE
  2
DIMSTYLE
  5
A
330
0
100
AcDbSymbolTable
 70
     1
100
AcDbDimStyleTable
 71
     1
340
2B
  0
DIMSTYLE
105
2B
330
A
100
AcDbSymbolTableRecord
100
AcDbDimStyleTableRecord
  2
Standard
 70
     0
340
11
  0
ENDTAB
  0
TABLE
  2
BLOCK_RECORD
  5
1
330
0
100
AcDbSymbolTable
 70
     6
  0
BLOCK_RECORD
  5
23
102
{ACAD_XDICTIONARY
360
15A2
102
}
330
1
100
AcDbSymbolTableRecord
100
AcDbBlockTableRecord
  2
*Model_Space
340
26
  0
BLOCK_RECORD
  5
1F
330
1
100
AcDbSymbolTableRecord
100
AcDbBlockTableRecord
  2
*Paper_Space
340
22
  0
BLOCK_RECORD
  5
27
330
1
100
AcDbSymbolTableRecord
100
AcDbBlockTableRecord
  2
*Paper_Space0
340
2A
  0
BLOCK_RECORD
  5
106E
102
{ACAD_XDICTIONARY
360
106F
102
}
330
1
100
AcDbSymbolTableRecord
100
AcDbBlockTableRecord
  2
insertpoint-ECKELT
340
0
102
{BLKREFS
331
86DB
331
8735
331
8B65
331
8CF1
102
}
  0
BLOCK_RECORD
  5
869E
330
1
100
AcDbSymbolTableRecord
100
AcDbBlockTableRecord
  2
LW 5016-39-00_c
340
0
310
2800000020000000200000000100080000000000000400000000000000000000000000000000000000000000000080000080000000808000800000008000800080800000C0C0C000C0DCC000F0CAA6000020400000206000002080000020A0000020C0000020E00000400000004020000040400000406000004080000040A0
310
000040C0000040E00000600000006020000060400000606000006080000060A0000060C0000060E00000800000008020000080400000806000008080000080A0000080C0000080E00000A0000000A0200000A0400000A0600000A0800000A0A00000A0C00000A0E00000C0000000C0200000C0400000C0600000C0800000C0
310
A00000C0C00000C0E00000E0000000E0200000E0400000E0600000E0800000E0A00000E0C00000E0E00040000000400020004000400040006000400080004000A0004000C0004000E00040200000402020004020400040206000402080004020A0004020C0004020E000404000004040200040404000404060004040800040
310
40A0004040C0004040E00040600000406020004060400040606000406080004060A0004060C0004060E00040800000408020004080400040806000408080004080A0004080C0004080E00040A0000040A0200040A0400040A0600040A0800040A0A00040A0C00040A0E00040C0000040C0200040C0400040C0600040C08000
310
40C0A00040C0C00040C0E00040E0000040E0200040E0400040E0600040E0800040E0A00040E0C00040E0E00080000000800020008000400080006000800080008000A0008000C0008000E00080200000802020008020400080206000802080008020A0008020C0008020E00080400000804020008040400080406000804080
310
008040A0008040C0008040E00080600000806020008060400080606000806080008060A0008060C0008060E00080800000808020008080400080806000808080008080A0008080C0008080E00080A0000080A0200080A0400080A0600080A0800080A0A00080A0C00080A0E00080C0000080C0200080C0400080C0600080C0
310
800080C0A00080C0C00080C0E00080E0000080E0200080E0400080E0600080E0800080E0A00080E0C00080E0E000C0000000C0002000C0004000C0006000C0008000C000A000C000C000C000E000C0200000C0202000C0204000C0206000C0208000C020A000C020C000C020E000C0400000C0402000C0404000C0406000C0
310
408000C040A000C040C000C040E000C0600000C0602000C0604000C0606000C0608000C060A000C060C000C060E000C0800000C0802000C0804000C0806000C0808000C080A000C080C000C080E000C0A00000C0A02000C0A04000C0A06000C0A08000C0A0A000C0A0C000C0A0E000C0C00000C0C02000C0C04000C0C06000
310
C0C08000C0C0A000F0FBFF00A4A0A000808080000000FF0000FF000000FFFF00FF000000FF00FF00FFFF0000FFFFFF0000000000000000000000000000000000000000000000000000000000000000000000000000000000000000000000000000000000000000000000000000000000000000000000000000000000000000
310
00000000000000000000000000000000000000000000000000000000000000000000000000000000000000000000000000000000000000000000000000000000000000000000000000000000000000000000000000000000000000000000000000000000000000000000000000000000000000000000000000000000000000
310
000000000000000000000000000000000000000000000000000000000000000000000000000000000000000000000000000000000000000000000000000000000000000000FFFFFFFF0000000000000000000000000000000000000000000000000000FFFF00000000FFFA0000000000000000000000000000000000000000
310
0000FFFF00FFFFFAFFFFFDFAFF0000000000000000000000000000000000000000FF0000FF0000FA00FDFAFF00FF00000000000000000000000000000000000000FF00FF000000FA00FDFA00FF00FF00000000000000000000FFFFFFFFFFFFFFFFFFFFFFFFFFFFFAFFFAFFFFFFFFFF00000000000000000000FF0000000000
310
00FD00FD00FDFFFFFAFFFFFFFDFFFF00FF0000000000FAFAFAFAFF00000000000000FDFDFD00FF090909FAFFFAFAFAFAFAFAFA000000FFFF0000FF00000000FAFAFAFAFAFAFAFF090900FFFF00FFFF00FF00000000FAFAFAFAFAFAFAFAFAFAFAFAFAFAFAFAFAFAFAFAFAFAFAFAFAFAFAFAFA00000000FAFAFAFAFF00000000
310
000000FD00FDFDFFFFFAFFFFFFFDFF00FF00000000000000000000FF0000F9F9F9F90000FD00FDFDFFFFFFFFFA00FF00FF00000000000000000000FF0000F9F9F9F90000FD00FD00FDFAFDFDFAFDFFFF0000000000000000000000FFFFFFFFFFFFFFFFFFFFFFFFFFFFFAFFFFFFFAFFFF000000000000000000000000000000
310
000000000000FFFF000000000000FAFF000000000000000000000000000000000000000000000000FFFFFFFFFFFF000000000000000000000000000000000000000000000000000000000000000000000000000000000000000000000000000000000000000000000000000000000000000000000000000000000000000000
310
00000000000000000000000000000000000000000000000000000000000000000000000000000000000000000000000000000000000000000000000000000000000000000000000000000000000000000000000000000000000000000000000000000000000000000000000000000000000000000000000000000000000000
310
0000000000000000000000000000000000000000000000000000000000000000000000000000000000000000000000000000000000000000
102
{BLKREFS
331
8718
102
}
  0
BLOCK_RECORD
  5
8719
330
1
100
AcDbSymbolTableRecord
100
AcDbBlockTableRecord
  2
LW 5016-39-00_d
340
0
310
2800000020000000200000000100080000000000000400000000000000000000000000000000000000000000000080000080000000808000800000008000800080800000C0C0C000C0DCC000F0CAA6000020400000206000002080000020A0000020C0000020E00000400000004020000040400000406000004080000040A0
310
000040C0000040E00000600000006020000060400000606000006080000060A0000060C0000060E00000800000008020000080400000806000008080000080A0000080C0000080E00000A0000000A0200000A0400000A0600000A0800000A0A00000A0C00000A0E00000C0000000C0200000C0400000C0600000C0800000C0
310
A00000C0C00000C0E00000E0000000E0200000E0400000E0600000E0800000E0A00000E0C00000E0E00040000000400020004000400040006000400080004000A0004000C0004000E00040200000402020004020400040206000402080004020A0004020C0004020E000404000004040200040404000404060004040800040
310
40A0004040C0004040E00040600000406020004060400040606000406080004060A0004060C0004060E00040800000408020004080400040806000408080004080A0004080C0004080E00040A0000040A0200040A0400040A0600040A0800040A0A00040A0C00040A0E00040C0000040C0200040C0400040C0600040C08000
310
40C0A00040C0C00040C0E00040E0000040E0200040E0400040E0600040E0800040E0A00040E0C00040E0E00080000000800020008000400080006000800080008000A0008000C0008000E00080200000802020008020400080206000802080008020A0008020C0008020E00080400000804020008040400080406000804080
310
008040A0008040C0008040E00080600000806020008060400080606000806080008060A0008060C0008060E00080800000808020008080400080806000808080008080A0008080C0008080E00080A0000080A0200080A0400080A0600080A0800080A0A00080A0C00080A0E00080C0000080C0200080C0400080C0600080C0
310
800080C0A00080C0C00080C0E00080E0000080E0200080E0400080E0600080E0800080E0A00080E0C00080E0E000C0000000C0002000C0004000C0006000C0008000C000A000C000C000C000E000C0200000C0202000C0204000C0206000C0208000C020A000C020C000C020E000C0400000C0402000C0404000C0406000C0
310
408000C040A000C040C000C040E000C0600000C0602000C0604000C0606000C0608000C060A000C060C000C060E000C0800000C0802000C0804000C0806000C0808000C080A000C080C000C080E000C0A00000C0A02000C0A04000C0A06000C0A08000C0A0A000C0A0C000C0A0E000C0C00000C0C02000C0C04000C0C06000
310
C0C08000C0C0A000F0FBFF00A4A0A000808080000000FF0000FF000000FFFF00FF000000FF00FF00FFFF0000FFFFFF0000000000000000000000000000000000000000000000000000000000000000000000000000000000000000000000000000000000000000000000000000000000000000000000000000000000000000
310
000000000000000000000000000000000000000000000000000000000000FFFFFFFFFFFF000000000000000000000000000000000000000000000000FFFF000000000000FFFF0000000000000000000000000000000000000000FFFF00000000000000000000FFFF0000000000000000000000000000000000FF00FA000000
310
00FFFFFF0000000000FF000000000000000000000000000000FF000000FAFFFFFF00FA00FFFF00000000FF00000000000000000000000000FF000000FFFF00FDFFFFFA000000FFFF000000FF0000000000000000000000FF0000FFFF00FDFFFF0000FFFFFF000000FF000000FF000000000000000000FF000000FF0000FFFA
310
000000FA0000FF000000FF000000FF0000000000000000FF0000FF0000FF0000FA0000FA000000FFFF0000FF0000FF0000000000000000FF0000FF0000FF0000000000FA0000000000FF00FF0000FF00000000000000FF0000FF0000FF000000000000FA0000000000FF00FF0000FF00000000000000FF0000FF0000FF0000
310
00000000FA000000000000FF00FF0000FF00000000FAFAFFFAFAFFFAFAFFFAFAFAFAFA0909000000000000FFFDFF0000FF000000000000FF0000FF0000FF00000009090909FAFAFAFAFAFAFFFAFFFAFAFFFAFA00000000FF0000FF0000FF0000000000FA00000000000000FF00FF0000FF000000000000FF0000FF0000FF00
310
00F9F9F9F9F9F9F9000000FF0000FF0000FF00000000000000FF0000FF0000FF00F9F9F9F9F9F9F9000000FF00FF0000FF0000000000000000FF0000FF0000FF0000FA00FA0000000000FF0000FF0000FF0000000000000000FF000000FF0000FFFA0000FA000000FFFF0000FF000000FF000000000000000000FF0000FF00
310
00FDFFFF00FA00FFFF000000FF000000FF0000000000000000000000FF0000FFFFFA00FDFFFFFF00000000FF000000FF00000000000000000000000000FF000000FFFFFFFFFA000000FFFF000000FF000000000000000000000000000000FF00FA00000000FFFFFFFF00000000FF0000000000000000000000000000000000
310
FFFF00000000000000000000FFFF0000000000000000000000000000000000000000FFFF000000000000FFFF000000000000000000000000000000000000000000000000FFFFFFFFFFFF0000000000000000000000000000000000000000000000000000000000000000000000000000000000000000000000000000000000
310
0000000000000000000000000000000000000000000000000000000000000000000000000000000000000000000000000000000000000000
102
{BLKREFS
331
873C
102
}
  0
BLOCK_RECORD
  5
8A6E
330
1
100
AcDbSymbolTableRecord
100
AcDbBlockTableRecord
  2
LW 5016-39-00_a
340
0
310
2800000020000000200000000100080000000000000400000000000000000000000000000000000000000000000080000080000000808000800000008000800080800000C0C0C000C0DCC000F0CAA6000020400000206000002080000020A0000020C0000020E00000400000004020000040400000406000004080000040A0
310
000040C0000040E00000600000006020000060400000606000006080000060A0000060C0000060E00000800000008020000080400000806000008080000080A0000080C0000080E00000A0000000A0200000A0400000A0600000A0800000A0A00000A0C00000A0E00000C0000000C0200000C0400000C0600000C0800000C0
310
A00000C0C00000C0E00000E0000000E0200000E0400000E0600000E0800000E0A00000E0C00000E0E00040000000400020004000400040006000400080004000A0004000C0004000E00040200000402020004020400040206000402080004020A0004020C0004020E000404000004040200040404000404060004040800040
310
40A0004040C0004040E00040600000406020004060400040606000406080004060A0004060C0004060E00040800000408020004080400040806000408080004080A0004080C0004080E00040A0000040A0200040A0400040A0600040A0800040A0A00040A0C00040A0E00040C0000040C0200040C0400040C0600040C08000
310
40C0A00040C0C00040C0E00040E0000040E0200040E0400040E0600040E0800040E0A00040E0C00040E0E00080000000800020008000400080006000800080008000A0008000C0008000E00080200000802020008020400080206000802080008020A0008020C0008020E00080400000804020008040400080406000804080
310
008040A0008040C0008040E00080600000806020008060400080606000806080008060A0008060C0008060E00080800000808020008080400080806000808080008080A0008080C0008080E00080A0000080A0200080A0400080A0600080A0800080A0A00080A0C00080A0E00080C0000080C0200080C0400080C0600080C0
310
800080C0A00080C0C00080C0E00080E0000080E0200080E0400080E0600080E0800080E0A00080E0C00080E0E000C0000000C0002000C0004000C0006000C0008000C000A000C000C000C000E000C0200000C0202000C0204000C0206000C0208000C020A000C020C000C020E000C0400000C0402000C0404000C0406000C0
310
408000C040A000C040C000C040E000C0600000C0602000C0604000C0606000C0608000C060A000C060C000C060E000C0800000C0802000C0804000C0806000C0808000C080A000C080C000C080E000C0A00000C0A02000C0A04000C0A06000C0A08000C0A0A000C0A0C000C0A0E000C0C00000C0C02000C0C04000C0C06000
310
C0C08000C0C0A000F0FBFF00A4A0A000808080000000FF0000FF000000FFFF00FF000000FF00FF00FFFF0000FFFFFF0000000000000000000000000000000000000000000000000000000000000000000000000000000000000000000000000000000000000000000000000000000000000000000000000000000000000000
310
00000000000000000000000000000000000000000000000000000000000000000000000000000000000000000000000000000000000000000000000000000000000000000000000000000000000000000000000000000000000000000000000000000000000000000000000000000000000000000000000000000000000000
310
000000000000000000000000000000000000000000000000000000000000000000000000FF0000FA0000FF0000000000000000000000000000FA00000000000000FFFFFFFF0000FA0000FFFFFFFF0000000000000000FFFFFFFAFFFF00000000FFFF0000FF0000FA0000FF0000FFFF0000000000FFFFFF0000FA00FFFFFFFF
310
FFFFFFFF00FFFFFFFAFFFFFF00FFFFFF0000000000FF00FFFF00FAFFFF00000000FFFF0000FAFA000900FAFA0000FFFF00000000FAFAFAFFFFFAFAFFFFFAFAFAFAFAFAFAFAFAFA0909FAFAFAFAFAFAFAFAFA000000FFFFFF0000FA00FFFFFFFFFFFFFF0000FFFFFFFAFFFFFF0000FFFF00000000000000FF0000FA00FF0000
310
0000FFFF0000FF0000FA0000FF0000FFFF00000000000000FFF9F9FA00FF0000000000FFFFFFFF0000FA0000FFFFFFFF0000000000000000FFF9F9FA00FF0000000000000000FF0000FA0000FF0000000000000000000000FFF9F9FA00FF0000000000000000000000000000000000000000000000000000FF0000FA00FF00
310
00000000000000000000000000000000000000000000000000FFFDFDFDFDFD0000000000000000000000000000000000000000000000000000FDFFFAFAFFFD00000000000000000000000000000000000000000000000000000000FAFA000000000000000000000000000000000000000000000000000000000000FAFA0000
310
0000000000000000000000000000000000000000000000000000000000FA00000000000000000000000000000000000000000000000000000000000000FA0000000000000000000000000000000000000000000000000000000000000000000000000000000000000000000000000000000000000000000000000000000000
310
00000000000000000000000000000000000000000000000000000000000000000000000000000000000000000000000000000000000000000000000000000000000000000000000000000000000000000000000000000000000000000000000000000000000000000000000000000000000000000000000000000000000000
310
0000000000000000000000000000000000000000000000000000000000000000000000000000000000000000000000000000000000000000
102
{BLKREFS
331
8BDB
102
}
  0
BLOCK_RECORD
  5
8BDC
330
1
100
AcDbSymbolTableRecord
100
AcDbBlockTableRecord
  2
LW 5016-39-00_b
340
0
310
2800000020000000200000000100080000000000000400000000000000000000000000000000000000000000000080000080000000808000800000008000800080800000C0C0C000C0DCC000F0CAA6000020400000206000002080000020A0000020C0000020E00000400000004020000040400000406000004080000040A0
310
000040C0000040E00000600000006020000060400000606000006080000060A0000060C0000060E00000800000008020000080400000806000008080000080A0000080C0000080E00000A0000000A0200000A0400000A0600000A0800000A0A00000A0C00000A0E00000C0000000C0200000C0400000C0600000C0800000C0
310
A00000C0C00000C0E00000E0000000E0200000E0400000E0600000E0800000E0A00000E0C00000E0E00040000000400020004000400040006000400080004000A0004000C0004000E00040200000402020004020400040206000402080004020A0004020C0004020E000404000004040200040404000404060004040800040
310
40A0004040C0004040E00040600000406020004060400040606000406080004060A0004060C0004060E00040800000408020004080400040806000408080004080A0004080C0004080E00040A0000040A0200040A0400040A0600040A0800040A0A00040A0C00040A0E00040C0000040C0200040C0400040C0600040C08000
310
40C0A00040C0C00040C0E00040E0000040E0200040E0400040E0600040E0800040E0A00040E0C00040E0E00080000000800020008000400080006000800080008000A0008000C0008000E00080200000802020008020400080206000802080008020A0008020C0008020E00080400000804020008040400080406000804080
310
008040A0008040C0008040E00080600000806020008060400080606000806080008060A0008060C0008060E00080800000808020008080400080806000808080008080A0008080C0008080E00080A0000080A0200080A0400080A0600080A0800080A0A00080A0C00080A0E00080C0000080C0200080C0400080C0600080C0
310
800080C0A00080C0C00080C0E00080E0000080E0200080E0400080E0600080E0800080E0A00080E0C00080E0E000C0000000C0002000C0004000C0006000C0008000C000A000C000C000C000E000C0200000C0202000C0204000C0206000C0208000C020A000C020C000C020E000C0400000C0402000C0404000C0406000C0
310
408000C040A000C040C000C040E000C0600000C0602000C0604000C0606000C0608000C060A000C060C000C060E000C0800000C0802000C0804000C0806000C0808000C080A000C080C000C080E000C0A00000C0A02000C0A04000C0A06000C0A08000C0A0A000C0A0C000C0A0E000C0C00000C0C02000C0C04000C0C06000
310
C0C08000C0C0A000F0FBFF00A4A0A000808080000000FF0000FF000000FFFF00FF000000FF00FF00FFFF0000FFFFFF0000000000000000000000000000000000000000000000000000000000000000000000000000000000000000000000000000000000000000000000000000000000000000000000000000000000000000
310
00000000000000000000000000000000000000000000000000000000000000000000000000000000000000000000000000000000000000000000000000000000000000000000000000000000000000000000000000000000000000000000000000000000000000000000000000000000000000000000000000000000000000
310
00000000000000000000000000000000000000000000000000000000000000000000000000000000000000000000000000000000000000000000000000000000000000000000000000000000000000000000000000000000000000000000000000000000000000000000000000000000000000000000000000000000000000
310
00000000000000000000000000000000000000000000000000000000000000000000000000FF0000FA0000FFFF000000000000000000000000000000000000000000FFFFFFFF0000FA0000FFFFFFFF00000000000000000000FA00000000000000FFFFFF00FF0000FA0000FFFFFFFFFF0000000000FFFFFFFFFA00FFFFFFFF
310
FFFFFFFF0000FFFFFFFAFFFFFFFF00FFFF0000000000FF0000FFFAFFFF0000000000FFFF0000FAFA000900FAFAFF00FFFF00000000FAFAFAFAFAFAFAFAFAFAF9F9F9FAFAFAFAFAFA0909FAFAFAFAFAFAFAFAFA000000FFFFFFFFFA0000FFFFFFFFFFFFFF0000FFFFFFFAFFFFFFFF00FFFF0000000000000000FFFAFFFF0000
310
000000FFFFFF00FF0000FA0000FFFFFFFFFF000000000000000000FA0000000000000000FFFFFFFF0000FA0000FFFFFFFF00000000000000000000000000000000000000000000FF0000FA0000FFFF000000000000000000000000000000000000000000000000000000000000000000000000000000000000000000000000
310
00000000000000000000000000000000000000000000000000000000000000000000000000000000000000000000000000000000000000000000000000000000000000000000000000000000000000000000000000000000000000000000000000000000000000000000000000000000000000000000000000000000000000
310
00000000000000000000000000000000000000000000000000000000000000000000000000000000000000000000000000000000000000000000000000000000000000000000000000000000000000000000000000000000000000000000000000000000000000000000000000000000000000000000000000000000000000
310
0000000000000000000000000000000000000000000000000000000000000000000000000000000000000000000000000000000000000000
102
{BLKREFS
331
8CF6
102
}
  0
ENDTAB
  0
ENDSEC
  0
SECTION
  2
BLOCKS
  0
BLOCK
  5
24
330
23
100
AcDbEntity
  8
0
100
AcDbBlockBegin
  2
*Model_Space
 70
     0
 10
0.0
 20
0.0
 30
0.0
  3
*Model_Space
  1

  0
ENDBLK
  5
25
330
23
100
AcDbEntity
  8
0
100
AcDbBlockEnd
  0
BLOCK
  5
20
330
1F
100
AcDbEntity
 67
     1
  8
0
100
AcDbBlockBegin
  2
*Paper_Space
 70
     0
 10
0.0
 20
0.0
 30
0.0
  3
*Paper_Space
  1

  0
ENDBLK
  5
21
330
1F
100
AcDbEntity
 67
     1
  8
0
100
AcDbBlockEnd
  0
BLOCK
  5
28
330
27
100
AcDbEntity
 67
     1
  8
0
100
AcDbBlockBegin
  2
*Paper_Space0
 70
     0
 10
0.0
 20
0.0
 30
0.0
  3
*Paper_Space0
  1

  0
ENDBLK
  5
29
330
27
100
AcDbEntity
 67
     1
  8
0
100
AcDbBlockEnd
  0
BLOCK
  5
1071
330
106E
100
AcDbEntity
  8
0
100
AcDbBlockBegin
  2
insertpoint-ECKELT
 70
     2
 10
0.0
 20
0.0
 30
0.0
  3
insertpoint-ECKELT
  1

  0
ATTDEF
  5
1072
330
106E
100
AcDbEntity
  8
insertpoint_ECKELT
100
AcDbText
 10
-2.457298772169167
 20
-0.0000000000000284
 30
0.0
 40
0.6
  1
LW
 72
     2
 11
-1.199999999999999
 21
-0.0000000000000284
 31
0.0
100
AcDbAttributeDefinition
  3
Nr. links
  2
LINKS
 70
     0
  0
ATTDEF
  5
1073
330
106E
100
AcDbEntity
  8
insertpoint_ECKELT
100
AcDbText
 10
1.199999999999999
 20
-0.0000000000000284
 30
0.0
 40
0.6
  1
LW
100
AcDbAttributeDefinition
  3
Nr. rechts
  2
RECHTS
 70
     0
  0
LINE
  5
1074
102
{ACAD_REACTORS
330
1077
102
}
330
106E
100
AcDbEntity
  8
insertpoint_ECKELT
100
AcDbLine
 10
0.0
 20
1.799999999999997
 30
0.0
 11
0.0
 21
-1.799999999999997
 31
0.0
  0
LINE
  5
1075
102
{ACAD_REACTORS
330
1077
102
}
330
106E
100
AcDbEntity
  8
insertpoint_ECKELT
100
AcDbLine
 10
-1.8
 20
-0.0000000000000284
 30
0.0
 11
1.8
 21
-0.0000000000000284
 31
0.0
  0
CIRCLE
  5
1076
102
{ACAD_REACTORS
330
1077
102
}
330
106E
100
AcDbEntity
  8
insertpoint_ECKELT
100
AcDbCircle
 10
0.0
 20
0.0
 30
0.0
 40
1.199999999999999
  0
HATCH
  5
1077
330
106E
100
AcDbEntity
  8
insertpoint_ECKELT
100
AcDbHatch
 10
0.0
 20
0.0
 30
0.0
210
0.0
220
0.0
230
1.0
  2
SOLID
 70
     1
 71
     1
 91
        2
 92
        7
 72
     1
 73
     1
 93
        3
 10
0.0
 20
-0.0000000000000284
 42
0.0
 10
0.0
 20
1.200000000000002
 42
0.4142135623731013
 10
-1.199999999999999
 20
-0.0000000000000284
 42
0.0
 97
        3
330
1076
330
1075
330
1074
 92
        7
 72
     1
 73
     1
 93
        3
 10
1.199999999999999
 20
-0.0000000000000284
 42
0.0
 10
0.0
 20
-0.0000000000000284
 42
0.0
 10
0.0
 20
-1.200000000000002
 42
0.4142135623730888
 97
        3
330
1075
330
1074
330
1076
 75
     0
 76
     1
 47
0.0223086566480813
 98
        2
 10
-0.3163651093721391
 20
0.271413292077348
 10
0.7415965996738798
 20
-0.4513871917946233
450
        0
451
        0
460
0.0
461
0.0
452
        0
462
0.0
453
        0
470

  0
ENDBLK
  5
1078
330
106E
100
AcDbEntity
  8
0
100
AcDbBlockEnd
  0
BLOCK
  5
869F
330
869E
100
AcDbEntity
  8
0
100
AcDbBlockBegin
  2
LW 5016-39-00_c
 70
     0
 10
0.0
 20
0.0
 30
0.0
  3
LW 5016-39-00_c
  1

  0
LINE
  5
86A1
330
869E
100
AcDbEntity
  8
LW 5016-39-00
  6
VERDECKT
 62
     6
100
AcDbLine
 10
7.334936490574818
 20
17.70448267190204
 30
0.0
 11
11.66506350949657
 21
15.2044826719009
 31
0.0
  0
LINE
  5
86A2
330
869E
100
AcDbEntity
  8
LW 5016-39-00
  6
VERDECKT
 62
     6
100
AcDbLine
 10
11.66506350948748
 20
-15.20448267190795
 30
0.0
 11
7.334936490564359
 21
-17.70448267190659
 31
0.0
  0
LINE
  5
86A3
330
869E
100
AcDbEntity
  8
LW 5016-39-00
  6
VERDECKT
 62
     6
100
AcDbLine
 10
8.748924226250892
 20
15.1535812713729
 30
0.0
 11
7.334936490574818
 21
17.70448267190204
 31
0.0
  0
LINE
  5
86A4
330
869E
100
AcDbEntity
  8
LW 5016-39-00
  6
VERDECKT
 62
     6
100
AcDbLine
 10
8.748924226250892
 20
15.1535812713729
 30
0.0
 11
11.66506350949657
 21
15.2044826719009
 31
0.0
  0
LINE
  5
86A5
330
869E
100
AcDbEntity
  8
LW 5016-39-00
  6
VERDECKT
 62
     6
100
AcDbLine
 10
14.60240647333057
 20
20.29210992451317
 30
0.0
 11
11.66506350949657
 21
15.20448267190068
 31
0.0
  0
LINE
  5
86A6
330
869E
100
AcDbEntity
  8
LW 5016-39-00
  6
VERDECKT
 62
     6
100
AcDbLine
 10
10.27227945440927
 20
22.79210992451453
 30
0.0
 11
7.334936490574818
 21
17.70448267190204
 31
0.0
  0
LINE
  5
86A7
330
869E
100
AcDbEntity
  8
LW 5016-39-00
  6
VERDECKT
 62
     6
100
AcDbLine
 10
8.748924226241797
 20
-15.15358127137824
 30
0.0
 11
11.66506350948748
 21
-15.20448267190795
 31
0.0
  0
LINE
  5
86A8
330
869E
100
AcDbEntity
  8
LW 5016-39-00
  6
VERDECKT
 62
     6
100
AcDbLine
 10
8.748924226241797
 20
-15.15358127137824
 30
0.0
 11
7.334936490564359
 21
-17.70448267190659
 31
0.0
  0
LINE
  5
86A9
330
869E
100
AcDbEntity
  8
LW 5016-39-00
  6
VERDECKT
 62
     6
100
AcDbLine
 10
10.27227945439563
 20
-22.79210992452068
 30
0.0
 11
7.334936490564359
 21
-17.70448267190659
 31
0.0
  0
LINE
  5
86AA
330
869E
100
AcDbEntity
  8
LW 5016-39-00
  6
VERDECKT
 62
     6
100
AcDbLine
 10
14.60240647331875
 20
-20.29210992452204
 30
0.0
 11
11.66506350948748
 21
-15.20448267190795
 31
0.0
  0
LINE
  5
86AB
330
869E
100
AcDbEntity
  8
LW 5016-39-00
  6
VERDECKT
 62
     6
100
AcDbLine
 10
-18.99999999996998
 20
-2.499999999994543
 30
0.0
 11
-18.99999999996862
 21
2.500000000005456
 31
0.0
  0
LINE
  5
86AC
330
869E
100
AcDbEntity
  8
LW 5016-39-00
  6
VERDECKT
 62
     6
100
AcDbLine
 10
-17.49784845240037
 20
0.0000000000051159
 30
0.0
 11
-18.99999999996998
 21
-2.499999999994543
 31
0.0
  0
LINE
  5
86AD
330
869E
100
AcDbEntity
  8
LW 5016-39-00
  6
VERDECKT
 62
     6
100
AcDbLine
 10
-17.49784845240037
 20
0.0000000000051159
 30
0.0
 11
-18.99999999996862
 21
2.500000000005456
 31
0.0
  0
LINE
  5
86AE
330
869E
100
AcDbEntity
  8
LW 5016-39-00
  6
VERDECKT
 62
     6
100
AcDbLine
 10
-24.87468592763389
 20
2.500000000007275
 30
0.0
 11
-18.99999999996862
 21
2.500000000005456
 31
0.0
  0
LINE
  5
86AF
330
869E
100
AcDbEntity
  8
LW 5016-39-00
  6
VERDECKT
 62
     6
100
AcDbLine
 10
-24.87468592763526
 20
-2.499999999992724
 30
0.0
 11
-18.99999999996998
 21
-2.499999999994543
 31
0.0
  0
ARC
  5
86B0
330
869E
100
AcDbEntity
  8
LW 5016-39-00
100
AcDbCircle
 10
0.0000000000295586
 20
0.0
 30
0.0
 40
25.0
100
AcDbArc
 50
209.999999999983
 51
36.86989764582579
  0
ARC
  5
86B1
330
869E
100
AcDbEntity
  8
LW 5016-39-00
100
AcDbCircle
 10
0.0000000000295586
 20
0.0
 30
0.0
 40
25.0
100
AcDbArc
 50
64.15806723681654
 51
115.8419327631507
  0
ARC
  5
86B2
330
869E
100
AcDbEntity
  8
LW 5016-39-00
100
AcDbCircle
 10
0.0000000000276827
 20
-0.0000000000000568
 30
0.0
 40
18.99999999999993
100
AcDbArc
 50
221.1395104148819
 51
318.8604895850835
  0
CIRCLE
  5
86B3
330
869E
100
AcDbEntity
  8
LW 5016-39-00
100
AcDbCircle
 10
0.0
 20
0.0
 30
0.0
 40
10.00000000000001
  0
CIRCLE
  5
86B4
330
869E
100
AcDbEntity
  8
LW 5016-39-00
100
AcDbCircle
 10
-0.0000000000004547
 20
0.0
 30
0.0
 40
9.000000000000008
  0
ARC
  5
86B5
330
869E
100
AcDbEntity
  8
LW 5016-39-00
  6
VERDECKT
 62
     6
100
AcDbCircle
 10
0.0000000000300133
 20
0.0000000000002274
 30
0.0
 40
24.99999999999958
100
AcDbArc
 50
36.86989764582579
 51
64.15806723681723
  0
ARC
  5
86B6
330
869E
100
AcDbEntity
  8
LW 5016-39-00
  6
VERDECKT
 62
     6
100
AcDbCircle
 10
0.0000000000295586
 20
0.0
 30
0.0
 40
25.00000000000001
100
AcDbArc
 50
115.8419327631507
 51
209.999999999983
  0
ARC
  5
86B7
330
869E
100
AcDbEntity
  8
LW 5016-39-00
  6
VERDECKT
 62
     6
100
AcDbCircle
 10
0.0000000000277396
 20
-0.0000000000000284
 30
0.0
 40
19.00000000000004
100
AcDbArc
 50
318.8604895850835
 51
221.1395104148819
  0
LINE
  5
86B8
330
869E
100
AcDbEntity
  8
LW 5016-39-00
100
AcDbLine
 10
10.10000000000673
 20
-2.000000000003069
 30
0.0
 11
10.10000000000809
 21
1.999999999996816
 31
0.0
  0
LINE
  5
86B9
330
869E
100
AcDbEntity
  8
LW 5016-39-00
100
AcDbLine
 10
-10.09999999999172
 20
2.000000000002955
 30
0.0
 11
-10.09999999999309
 21
-1.999999999997044
 31
0.0
  0
LINE
  5
86BA
330
869E
100
AcDbEntity
  8
LW 5016-39-00
  6
VERDECKT
 62
     6
100
AcDbLine
 10
-59.99999999999181
 20
-9.660108542720195
 30
0.0
 11
-59.99999999998317
 21
19.66010854275578
 31
0.0
  0
ARC
  5
86BB
330
869E
100
AcDbEntity
  8
LW 5016-39-00
  6
VERDECKT
 62
     6
100
AcDbCircle
 10
-61.99999999999182
 20
-9.660108542719626
 30
0.0
 40
2.0
100
AcDbArc
 50
340.7099537807874
 51
0.0
  0
ARC
  5
86BC
330
869E
100
AcDbEntity
  8
LW 5016-39-00
  6
VERDECKT
 62
     6
100
AcDbCircle
 10
-61.99999999998317
 20
19.66010854275623
 30
0.0
 40
2.0
100
AcDbArc
 50
0.0
 51
19.29004621917444
  0
LINE
  5
86BD
330
869E
100
AcDbEntity
  8
LW 5016-39-00
  6
VERDECKT
 62
     6
100
AcDbLine
 10
-60.11228328726019
 20
-10.32080939217644
 30
0.0
 11
-60.87499999999272
 21
-12.49999999998204
 31
0.0
  0
LINE
  5
86BE
330
869E
100
AcDbEntity
  8
LW 5016-39-00
  6
VERDECKT
 62
     6
100
AcDbLine
 10
-60.1122832872511
 20
20.32080939221192
 30
0.0
 11
-60.87499999998226
 21
22.50000000001796
 31
0.0
  0
LINE
  5
86BF
330
869E
100
AcDbEntity
  8
LW 5016-39-00
100
AcDbLine
 10
-60.87499999999272
 20
-12.49999999998204
 30
0.0
 11
-60.87499999998226
 21
22.50000000001796
 31
0.0
  0
LINE
  5
86C0
330
869E
100
AcDbEntity
  8
LW 5016-39-00
100
AcDbLine
 10
20.00000000000773
 20
-11.00000000000591
 30
0.0
 11
20.00000000001728
 21
20.99999999999409
 31
0.0
  0
LINE
  5
86C1
330
869E
100
AcDbEntity
  8
LW 5016-39-00
100
AcDbLine
 10
-60.87499999998226
 20
22.50000000001796
 30
0.0
 11
18.50000000001762
 21
22.49999999999454
 31
0.0
  0
LINE
  5
86C2
330
869E
100
AcDbEntity
  8
LW 5016-39-00
100
AcDbLine
 10
-60.87499999999272
 20
-12.49999999998204
 30
0.0
 11
-10.09999999999246
 21
-12.49999999999701
 31
0.0
  0
LINE
  5
86C3
330
869E
100
AcDbEntity
  8
LW 5016-39-00
100
AcDbLine
 10
10.10000000000707
 20
-12.50000000000298
 30
0.0
 11
18.50000000000727
 21
-12.50000000000546
 31
0.0
  0
ARC
  5
86C4
330
869E
100
AcDbEntity
  8
LW 5016-39-00
100
AcDbCircle
 10
18.50000000000773
 20
-11.00000000000545
 30
0.0
 40
1.500000000000012
100
AcDbArc
 50
269.999999999987
 51
0.0
  0
ARC
  5
86C5
330
869E
100
AcDbEntity
  8
LW 5016-39-00
100
AcDbCircle
 10
18.50000000001728
 20
20.99999999999454
 30
0.0
 40
1.500000000000012
100
AcDbArc
 50
0.0
 51
89.99999999998697
  0
LINE
  5
86C6
330
869E
100
AcDbEntity
  8
LW 5016-39-00
100
AcDbLine
 10
-76.99999999998908
 20
-0.7730999999771484
 30
0.0
 11
-76.9999999999859
 21
10.77310000002285
 31
0.0
  0
LINE
  5
86C7
330
869E
100
AcDbEntity
  8
LW 5016-39-00
100
AcDbLine
 10
-75.77309999998533
 20
12.00000000002251
 30
0.0
 11
-75.77309999998942
 21
-1.99999999997749
 31
0.0
  0
LINE
  5
86C8
330
869E
100
AcDbEntity
  8
LW 5016-39-00
100
AcDbLine
 10
-76.9999999999859
 20
10.77310000002285
 30
0.0
 11
-75.77309999998533
 21
12.00000000002251
 31
0.0
  0
LINE
  5
86C9
330
869E
100
AcDbEntity
  8
LW 5016-39-00
100
AcDbLine
 10
-76.99999999998908
 20
-0.7730999999771484
 30
0.0
 11
-75.77309999998942
 21
-1.99999999997749
 31
0.0
  0
LINE
  5
86CA
330
869E
100
AcDbEntity
  8
LW 5016-39-00
100
AcDbLine
 10
-75.77309999998533
 20
12.00000000002251
 30
0.0
 11
-60.87499999998545
 21
12.00000000001796
 31
0.0
  0
LINE
  5
86CB
330
869E
100
AcDbEntity
  8
LW 5016-39-00
100
AcDbLine
 10
-75.77309999998942
 20
-1.99999999997749
 30
0.0
 11
-60.87499999998954
 21
-1.999999999982037
 31
0.0
  0
LINE
  5
86CC
330
869E
100
AcDbEntity
  8
LW 5016-39-00
 62
     3
100
AcDbLine
 10
-60.8749999999859
 20
10.79450000001805
 30
0.0
 11
-76.97859999998581
 21
10.79450000002282
 31
0.0
  0
LINE
  5
86CD
330
869E
100
AcDbEntity
  8
LW 5016-39-00
 62
     3
100
AcDbLine
 10
-76.978599999989
 20
-0.7944999999772336
 30
0.0
 11
-60.87499999998908
 21
-0.7944999999820084
 31
0.0
  0
ARC
  5
86CE
330
869E
100
AcDbEntity
  8
LW 5016-39-00
  6
VERDECKT
 62
     6
100
AcDbCircle
 10
0.0000000000354703
 20
0.0
 30
0.0
 40
32.50000000000001
100
AcDbArc
 50
136.1869385395798
 51
202.6198649480234
  0
ARC
  5
86CF
330
869E
100
AcDbEntity
  8
LW 5016-39-00
100
AcDbCircle
 10
0.0000000000354703
 20
0.0
 30
0.0
 40
32.5
100
AcDbArc
 50
202.6198649480234
 51
136.1869385395798
  0
LINE
  5
86D0
330
869E
100
AcDbEntity
  8
LW 5016-39-00
100
AcDbLine
 10
-60.87499999998226
 20
22.50000000001796
 30
0.0
 11
-60.87499999999272
 21
-12.49999999998204
 31
0.0
  0
LINE
  5
86D1
330
869E
100
AcDbEntity
  8
LW 5016-39-00
  6
MITTE2
 62
     3
100
AcDbLine
 10
14.93734296387129
 20
25.87223694343527
 30
0.0
 11
7.00000000003456
 21
12.12435565298006
 31
0.0
  0
LINE
  5
86D2
330
869E
100
AcDbEntity
  8
LW 5016-39-00
  6
MITTE2
 62
     3
100
AcDbLine
 10
14.93734296385582
 20
-25.87223694344425
 30
0.0
 11
7.000000000027284
 21
-12.12435565298426
 31
0.0
  0
LINE
  5
86D3
330
869E
100
AcDbEntity
  8
LW 5016-39-00
  6
MITTE2
 62
     3
100
AcDbLine
 10
-38.96970689545856
 20
0.0000000000173941
 30
0.0
 11
38.96970689545765
 21
-0.0000000000173941
 31
0.0
  0
LINE
  5
86D4
330
869E
100
AcDbEntity
  8
LW 5016-39-00
  6
MITTE2
 62
     3
100
AcDbLine
 10
0.0000000000059117
 20
22.6209724824912
 30
0.0
 11
-0.000000000007276
 21
-22.6209724824912
 31
0.0
  0
HATCH
  5
86D5
330
869E
100
AcDbEntity
  8
LW 5016-39-00
 62
     1
100
AcDbHatch
 10
0.0
 20
0.0
 30
0.0
210
0.0
220
0.0
230
1.0
  2
SOLID
 70
     1
 71
     0
 91
        5
 92
        7
 72
     0
 73
     1
 93
       76
 10
-47.24928876594276
 20
18.15603796707853
 10
-47.21742993657016
 20
18.20761892892028
 10
-47.09927181233843
 20
18.35886132793621
 10
-46.964793737126
 20
18.49928545819875
 10
-46.81877383066466
 20
18.6276700199121
 10
-46.65510503458245
 20
18.74457630282791
 10
-46.47971808121792
 20
18.84675418464951
 10
-46.29796514861709
 20
18.9381058642324
 10
-46.1167962131517
 20
19.00762417667852
 10
-48.37393415135148
 20
19.00762417667852
 10
-48.58683070375173
 20
18.99893452147853
 10
-48.78886518715171
 20
18.97286555587857
 10
-48.98438242915154
 20
18.93158969367846
 10
-49.16903760215155
 20
18.87727934867848
 10
-49.34500311995179
 20
18.80776210707847
 10
-49.51227898255138
 20
18.72521038267837
 10
-49.66284724509887
 20
18.6298848651345
 10
-49.80555484555179
 20
18.52317589927838
 10
-49.93099610112222
 20
18.40412762303833
 10
-50.04226105319958
 20
18.27586831228643
 10
-50.14227898455146
 20
18.13865865667844
 10
-50.22483070895169
 20
17.99310693207837
 10
-50.28783070915188
 20
17.83886555227832
 10
-50.33779622655174
 20
17.67810693107844
 10
-50.36603760595153
 20
17.51300348227846
 10
-50.37472726115129
 20
17.33921037827849
 10
-50.36386519215148
 20
17.1654172742783
 10
-50.33345139895164
 20
16.99814141167837
 10
-50.27914105395166
 20
16.83738279047839
 10
-50.20962381235176
 20
16.68096899687839
 10
-50.12055484655139
 20
16.53324485847838
 10
-50.01410657035148
 20
16.39203796147853
 10
-49.89140863892726
 20
16.26082416795839
 10
-49.75520959021924
 20
16.13969037447054
 10
-49.60786518975146
 20
16.02924485687845
 10
-49.44710656855159
 20
15.93148623587854
 10
-49.27147994730422
 20
15.84658830457442
 10
-49.09083070535189
 20
15.77290002847849
 10
-48.89965829095172
 20
15.71641726967846
 10
-48.69979622135133
 20
15.67296899367852
 10
-48.49124449655164
 20
15.64690002807845
 10
-48.28052035795145
 20
15.63821037287846
 10
-46.161349272199
 20
15.63821037287857
 10
-46.32189313625121
 20
15.70128117661352
 10
-46.50545728005408
 20
15.79190145013626
 10
-46.67392368622404
 20
15.89643114306773
 10
-46.83675658098445
 20
16.01204938149317
 10
-46.98066894935482
 20
16.14183897803309
 10
-47.10810484283911
 20
16.28119266126168
 10
-47.22181019758273
 20
16.43168090597419
 10
-47.27378142903126
 20
16.51586554807852
 10
-48.30224449595153
 20
16.51586554807841
 10
-48.43435332395711
 20
16.52342554810252
 10
-48.56510656575165
 20
16.54375934127051
 10
-48.69327897995162
 20
16.57669313447843
 10
-48.80841691135128
 20
16.62231382427853
 10
-48.91336187720162
 20
16.67879658307845
 10
-49.01151153268575
 20
16.74640210053439
 10
-49.1016927743517
 20
16.8243483076784
 10
-49.1733824297512
 20
16.90907244587845
 10
-47.44586111549279
 20
16.90907244587856
 10
-47.4564455827658
 20
16.94170788663678
 10
-47.49255739072987
 20
17.12708183418795
 10
-47.50460104351214
 20
17.31737154813868
 10
-47.49257937108223
 20
17.51212264149376
 10
-47.45627364940719
 20
17.6984920127602
 10
-47.43967494673234
 20
17.74762417267846
 10
-49.21031346435166
 20
17.74762417267846
 10
-49.14079622275176
 20
17.84321037987843
 10
-49.05824449835154
 20
17.92576210427842
 10
-48.9631536014981
 20
17.99562693208645
 10
-48.86055484255166
 20
18.05393451847851
 10
-48.74186284217512
 20
18.09790417379042
 10
-48.61941691075163
 20
18.12996900147846
 10
-48.48255484135143
 20
18.14952072567848
 10
-48.33917553055153
 20
18.15603796707842
 97
        0
 92
        7
 72
     0
 73
     1
 93
       72
 10
-45.52082490091516
 20
18.14143934634251
 10
-45.39796186604189
 20
18.15951382915853
 10
-45.27389965875181
 20
18.16472762227863
 10
-44.00520999955142
 20
18.16472762227863
 10
-44.85245138155142
 20
17.35007244727876
 10
-43.08627896215148
 20
15.63169313147864
 10
-41.76762378555167
 20
15.63169313147864
 10
-43.48165827375169
 20
17.37396899907867
 10
-41.80020999255157
 20
19.00762417667875
 10
-45.23914103795187
 20
19.00762417667852
 10
-45.44712793516374
 20
18.99684900423062
 10
-45.6538461427167
 20
18.97138831449456
 10
-45.85827897095168
 20
18.93158969367857
 10
-46.05162379915191
 20
18.87510693487854
 10
-46.23845138595197
 20
18.80341727947848
 10
-46.40961152442605
 20
18.71738969299849
 10
-46.57517552495164
 20
18.62093452027852
 10
-46.72724449095176
 20
18.51231383027857
 10
-46.86294214655482
 20
18.39300486438253
 10
-46.98793414695183
 20
18.26248624327854
 10
-47.09655483695178
 20
18.12345176007852
 10
-47.1877962165513
 20
17.97572762167863
 10
-47.25948587195171
 20
17.82148624187857
 10
-47.31379621695168
 20
17.66072762067847
 10
-47.34638242395158
 20
17.49345175807843
 10
-47.35724449295185
 20
17.31748624027841
 10
-47.34638242395158
 20
17.1458655500785
 10
-47.31379621695168
 20
16.97858968747857
 10
-47.26165828575131
 20
16.81783106627859
 10
-47.19214104415141
 20
16.66358968647853
 10
-47.10030007834257
 20
16.51482278945468
 10
-46.99492062973241
 20
16.37535382349449
 10
-46.87691511211641
 20
16.24631244377463
 10
-46.74462380135127
 20
16.12700347787859
 10
-46.59250269742051
 20
16.01899106374253
 10
-46.43396862795134
 20
15.9206241668785
 10
-46.2623479377512
 20
15.83590002867856
 10
-46.07986517855124
 20
15.7642103732785
 10
-45.88563400552129
 20
15.71016071793451
 10
-45.6888306945516
 20
15.66645175227859
 10
-45.48027896975145
 20
15.64038278667863
 10
-45.26955483115171
 20
15.63169313147864
 10
-43.36652034235157
 20
15.63169313147864
 10
-44.25286517275162
 20
16.50500347907859
 10
-45.26955483115171
 20
16.50500347907859
 10
-45.33622186584625
 20
16.50875077201795
 10
-45.43716959030416
 20
16.5187331342945
 10
-45.55730407344436
 20
16.5401965826386
 10
-45.67442324623016
 20
16.57452072067849
 10
-45.77591841896583
 20
16.61544899667058
 10
-45.83205359155772
 20
16.64360347951856
 10
-45.88573828138351
 20
16.67618968651868
 10
-46.01829897145989
 20
16.77551244545452
 10
-46.09190035100346
 20
16.84555106636662
 10
-46.14696669600607
 20
16.91341727347844
 10
-46.1956722134023
 20
16.98597589439851
 10
-46.23503635145834
 20
17.06314003257444
 10
-46.26445952396489
 20
17.14456210179855
 10
-46.28515828265153
 20
17.23171934345464
 10
-46.29267483439934
 20
17.32104899891044
 10
-46.2913192481883
 20
17.38335382669447
 10
-46.28531469644485
 20
17.44548486137444
 10
-46.27315786882036
 20
17.50865865467858
 10
-46.25494435152131
 20
17.5703552065986
 10
-46.21129621345199
 20
17.66906968967044
 10
-46.16976835125069
 20
17.73693589678248
 10
-46.10669014415407
 20
17.81496900047853
 10
-45.97728820378915
 20
17.94149173753226
 10
-45.91802035045157
 20
17.98154969066263
 10
-45.84172517779552
 20
18.02586693218245
 10
-45.75770490166678
 20
18.06801175990256
 10
-45.64116793577932
 20
18.1108517600386
 97
        0
 92
        7
 72
     0
 73
     1
 93
       57
 10
-40.96278792092744
 20
18.11936762213486
 10
-40.83131343775176
 20
18.1593400360548
 10
-40.69662378215162
 20
18.18645176027883
 10
-40.55324447135172
 20
18.1951414154787
 10
-39.31279619155157
 20
18.19514141547881
 10
-39.31279619155157
 20
19.02065865947884
 10
-40.54672722995156
 20
19.02065865947873
 10
-40.75745136855175
 20
19.01196900427874
 10
-40.96383067955184
 20
18.98372762487872
 10
-41.16152033535172
 20
18.94245176267873
 10
-41.35052033595139
 20
18.88814141767875
 10
-41.53517550895185
 20
18.8164517622788
 10
-41.70158240603178
 20
18.73381314132666
 10
-41.86040323412226
 20
18.63735796860669
 10
-42.01048226908142
 20
18.52786831308663
 10
-42.14504157985311
 20
18.40864624374274
 10
-42.26510654575167
 20
18.27986555367874
 10
-42.36938240815152
 20
18.14083107047872
 10
-42.45410654635134
 20
17.99527934587866
 10
-42.52579620175175
 20
17.8410379660786
 10
-42.57576171915161
 20
17.68027934487873
 10
-42.60834792615151
 20
17.5130034822788
 10
-42.61920999515178
 20
17.33921037827872
 10
-42.60834792615151
 20
17.16541727427875
 10
-42.57576171915161
 20
16.99814141167871
 10
-42.52362378795169
 20
16.83738279047861
 10
-42.45193413255174
 20
16.68096899687873
 10
-42.36503758055142
 20
16.53324485847872
 10
-42.25619095951651
 20
16.39368899596673
 10
-42.13633454534283
 20
16.2633441679668
 10
-41.99990695870247
 20
16.14203658137467
 10
-41.85234792375149
 20
16.03141727067873
 10
-41.69158930255162
 20
15.93365864967859
 10
-41.51779619855142
 20
15.84893451147877
 10
-41.33314102555141
 20
15.77507244227877
 10
-41.1419686111517
 20
15.71858968347874
 10
-40.94210654155131
 20
15.6751414074788
 10
-40.73572723055121
 20
15.65124485567867
 10
-40.52283067815142
 20
15.64255520047868
 10
-39.31279619155157
 20
15.64255520047879
 10
-39.31279619155157
 20
16.50065865147871
 10
-40.54672722995156
 20
16.50065865147871
 10
-40.68037412692729
 20
16.51099934116667
 10
-40.81263067907139
 20
16.53298416882285
 10
-40.93324309324771
 20
16.56730830686274
 10
-41.04924999016748
 20
16.61527520356685
 10
-41.15891343879184
 20
16.67618968651879
 10
-41.2559768873757
 20
16.74379520397474
 10
-41.34339481868756
 20
16.82356623871078
 10
-41.41786516375169
 20
16.90907244587879
 10
-39.31279619155157
 20
16.90907244587879
 10
-39.31279619155157
 20
17.73676210367876
 10
-41.45479619835168
 20
17.73676210367876
 10
-41.38527895675133
 20
17.83452072467867
 10
-41.29838240475192
 20
17.92358969047859
 10
-41.19723481822347
 20
17.99988486313475
 10
-41.08983067995132
 20
18.06696900127872
 97
        0
 92
        7
 72
     0
 73
     1
 93
        6
 10
-39.0825203287518
 20
19.00762417667886
 10
-39.0825203287518
 20
15.6382103728788
 10
-36.84493411475114
 20
15.63821037287892
 10
-36.84493411475159
 20
16.50500347907893
 10
-38.05931342895155
 20
16.50500347907893
 10
-38.05931342895155
 20
19.00762417667886
 97
        0
 92
        7
 72
     0
 73
     1
 93
        8
 10
-37.82686515235173
 20
19.00762417667886
 10
-37.82686515235173
 20
18.18210693267883
 10
-36.59293411395129
 20
18.18210693267895
 10
-36.59293411395129
 20
15.63169313147887
 10
-35.56755480035145
 20
15.63169313147887
 10
-35.56755480035145
 20
18.18210693267883
 10
-34.3249341067517
 20
18.18210693267895
 10
-34.3249341067517
 20
19.00762417667897
 97
        0
 75
     0
 76
     1
 47
0.0142553043587597
 98
        5
 10
-47.93962863987644
 20
18.56517450708941
 10
-45.67213142653372
 20
18.42262152208377
 10
-41.1799196943325
 20
18.47964269463159
 10
-38.45607061050078
 20
18.72198291932398
 10
-37.04423262827413
 20
18.62219578691065
450
        0
451
        0
460
0.0
461
0.0
452
        0
462
0.0
453
        0
470

  0
LWPOLYLINE
  5
86D6
330
869E
100
AcDbEntity
  8
LW 5016-39-00
 62
     1
100
AcDbPolyline
 90
        8
 70
     1
 43
0.0
 10
-35.56755480035145
 20
18.18210693267883
 10
-35.56755480035145
 20
15.63169313147887
 10
-36.59293411395129
 20
15.63169313147887
 10
-36.59293411395129
 20
18.18210693267895
 10
-37.82686515235173
 20
18.18210693267883
 10
-37.82686515235173
 20
19.00762417667886
 10
-34.3249341067517
 20
19.00762417667897
 10
-34.3249341067517
 20
18.18210693267895
  0
LWPOLYLINE
  5
86D7
330
869E
100
AcDbEntity
  8
LW 5016-39-00
 62
     1
100
AcDbPolyline
 90
       73
 70
     1
 43
0.0
 10
-45.26955483115171
 20
16.50500347907859
 10
-44.25286517275162
 20
16.50500347907859
 10
-43.36652034235157
 20
15.63169313147864
 10
-45.26955483115171
 20
15.63169313147853
 10
-45.48027896975145
 20
15.64038278667863
 10
-45.6888306945516
 20
15.66645175227859
 10
-45.88563400552129
 20
15.71016071793451
 10
-46.07986517855124
 20
15.7642103732785
 10
-46.2623479377512
 20
15.83590002867856
 10
-46.43396862795134
 20
15.9206241668785
 10
-46.59250269742051
 20
16.01899106374253
 10
-46.74462380135127
 20
16.12700347787859
 10
-46.87691511211641
 20
16.24631244377451
 10
-46.99492062973241
 20
16.37535382349449
 10
-47.10030007834257
 20
16.51482278945457
 10
-47.19214104415141
 20
16.66358968647853
 10
-47.26165828575131
 20
16.81783106627859
 10
-47.31379621695168
 20
16.97858968747857
 10
-47.34638242395158
 20
17.1458655500785
 10
-47.35724449295185
 20
17.31748624027853
 10
-47.34638242395158
 20
17.49345175807843
 10
-47.31379621695168
 20
17.66072762067847
 10
-47.25948587195171
 20
17.82148624187857
 10
-47.1877962165513
 20
17.97572762167851
 10
-47.09655483695178
 20
18.12345176007852
 10
-46.98793414695183
 20
18.26248624327854
 10
-46.86294214655482
 20
18.39300486438264
 10
-46.72724449095176
 20
18.51231383027857
 10
-46.57517552495164
 20
18.62093452027852
 10
-46.40961152442605
 20
18.71738969299849
 10
-46.23845138595197
 20
18.80341727947848
 10
-46.05162379915191
 20
18.87510693487854
 10
-45.85827897095168
 20
18.93158969367869
 10
-45.6538461427167
 20
18.97138831449456
 10
-45.44712793516374
 20
18.99684900423062
 10
-45.23914103795187
 20
19.00762417667852
 10
-41.80020999255157
 20
19.00762417667875
 10
-43.48165827375169
 20
17.37396899907867
 10
-41.76762378555167
 20
15.63169313147864
 10
-43.08627896215148
 20
15.63169313147864
 10
-44.85245138155142
 20
17.35007244727876
 10
-44.00520999955142
 20
18.16472762227863
 10
-45.27389965875181
 20
18.16472762227863
 10
-45.39796186604189
 20
18.15951382915853
 10
-45.52082490091516
 20
18.14143934634251
 10
-45.64116793577932
 20
18.1108517600386
 10
-45.75770490166678
 20
18.06801175990244
 10
-45.84172517779598
 20
18.02586693218257
 10
-45.91802035045157
 20
17.98154969066263
 10
-45.95826214368253
 20
17.95435106988657
 10
-45.99577538518087
 20
17.92341589737452
 10
-46.10669014415407
 20
17.81496900047853
 10
-46.16976835125069
 20
17.73693589678248
 10
-46.21129621345153
 20
17.66906968967055
 10
-46.25494435152131
 20
17.5703552065986
 10
-46.27315786882036
 20
17.50865865467858
 10
-46.28531469644485
 20
17.44548486137455
 10
-46.2913192481883
 20
17.38335382669459
 10
-46.29267483439934
 20
17.32104899891055
 10
-46.28515828265153
 20
17.23171934345464
 10
-46.26445952396489
 20
17.14456210179855
 10
-46.23503635145789
 20
17.06314003257455
 10
-46.1956722134023
 20
16.98597589439851
 10
-46.14696669600607
 20
16.91341727347856
 10
-46.09190035100346
 20
16.84555106636662
 10
-46.01829897145989
 20
16.77551244545452
 10
-45.88573828138351
 20
16.67618968651868
 10
-45.83205359155772
 20
16.64360347951856
 10
-45.77591841896583
 20
16.61544899667058
 10
-45.67442324623016
 20
16.57452072067849
 10
-45.55730407344436
 20
16.5401965826386
 10
-45.43716959030416
 20
16.5187331342945
 10
-45.33622186584625
 20
16.50875077201795
  0
LWPOLYLINE
  5
86D8
330
869E
100
AcDbEntity
  8
LW 5016-39-00
 62
     1
100
AcDbPolyline
 90
       76
 70
     1
 43
0.0
 10
-46.47971808121792
 20
18.84675418464951
 10
-46.65510503458245
 20
18.74457630282779
 10
-46.81877383066466
 20
18.6276700199121
 10
-46.964793737126
 20
18.49928545819875
 10
-47.09927181233843
 20
18.35886132793621
 10
-47.21742993657016
 20
18.20761892892028
 10
-47.24928876594276
 20
18.15603796707853
 10
-48.33917553055153
 20
18.15603796707853
 10
-48.48255484135143
 20
18.14952072567848
 10
-48.61941691075163
 20
18.12996900147846
 10
-48.74186284217512
 20
18.09790417379042
 10
-48.86055484255166
 20
18.05393451847851
 10
-48.9631536014981
 20
17.99562693208645
 10
-49.05824449835154
 20
17.92576210427842
 10
-49.14079622275176
 20
17.84321037987843
 10
-49.21031346435166
 20
17.74762417267846
 10
-47.43967494673234
 20
17.74762417267846
 10
-47.45627364940719
 20
17.6984920127602
 10
-47.49257937108268
 20
17.51212264149353
 10
-47.50460104351214
 20
17.31737154813868
 10
-47.49255739072987
 20
17.12708183418795
 10
-47.45644558276535
 20
16.94170788663689
 10
-47.44586111549279
 20
16.90907244587856
 10
-49.1733824297512
 20
16.90907244587845
 10
-49.1016927743517
 20
16.8243483076784
 10
-49.01151153268575
 20
16.74640210053439
 10
-48.91336187720162
 20
16.67879658307845
 10
-48.80841691135128
 20
16.62231382427853
 10
-48.69327897995162
 20
16.57669313447854
 10
-48.56510656575165
 20
16.54375934127051
 10
-48.43435332395711
 20
16.52342554810252
 10
-48.30224449595153
 20
16.51586554807841
 10
-47.27378142903126
 20
16.51586554807852
 10
-47.22181019758273
 20
16.43168090597419
 10
-47.10810484283911
 20
16.28119266126168
 10
-46.98066894935482
 20
16.14183897803309
 10
-46.83675658098445
 20
16.0120493814934
 10
-46.67392368622404
 20
15.89643114306773
 10
-46.50545728005408
 20
15.79190145013626
 10
-46.32189313625121
 20
15.70128117661352
 10
-46.161349272199
 20
15.63821037287857
 10
-48.28052035795145
 20
15.63821037287835
 10
-48.49124449655164
 20
15.64690002807845
 10
-48.69979622135133
 20
15.67296899367852
 10
-48.89965829095172
 20
15.71641726967846
 10
-49.09083070535143
 20
15.77290002847837
 10
-49.27147994730467
 20
15.84658830457442
 10
-49.44710656855159
 20
15.93148623587854
 10
-49.60786518975146
 20
16.02924485687845
 10
-49.75520959021924
 20
16.13969037447043
 10
-49.89140863892726
 20
16.26082416795839
 10
-50.01410657035148
 20
16.39203796147842
 10
-50.12055484655184
 20
16.53324485847838
 10
-50.20962381235176
 20
16.68096899687839
 10
-50.27914105395166
 20
16.83738279047839
 10
-50.33345139895164
 20
16.99814141167837
 10
-50.36386519215148
 20
17.16541727427852
 10
-50.37472726115129
 20
17.33921037827838
 10
-50.36603760595198
 20
17.51300348227835
 10
-50.33779622655174
 20
17.67810693107844
 10
-50.28783070915188
 20
17.83886555227832
 10
-50.22483070895169
 20
17.99310693207837
 10
-50.14227898455146
 20
18.13865865667844
 10
-50.04226105319958
 20
18.27586831228643
 10
-49.93099610112222
 20
18.40412762303845
 10
-49.80555484555179
 20
18.52317589927838
 10
-49.66284724509887
 20
18.6298848651345
 10
-49.51227898255138
 20
18.72521038267848
 10
-49.34500311995134
 20
18.80776210707836
 10
-49.16903760215155
 20
18.87727934867848
 10
-48.98438242915154
 20
18.93158969367846
 10
-48.78886518715171
 20
18.97286555587857
 10
-48.58683070375173
 20
18.99893452147853
 10
-48.37393415135148
 20
19.00762417667852
 10
-46.1167962131517
 20
19.00762417667863
 10
-46.29796514861709
 20
18.9381058642324
  0
LWPOLYLINE
  5
86D9
330
869E
100
AcDbEntity
  8
LW 5016-39-00
 62
     1
100
AcDbPolyline
 90
        6
 70
     1
 43
0.0
 10
-36.84493411475114
 20
15.63821037287892
 10
-39.0825203287518
 20
15.6382103728788
 10
-39.0825203287518
 20
19.00762417667886
 10
-38.05931342895155
 20
19.00762417667886
 10
-38.05931342895155
 20
16.50500347907893
 10
-36.84493411475159
 20
16.50500347907893
  0
LWPOLYLINE
  5
86DA
330
869E
100
AcDbEntity
  8
LW 5016-39-00
 62
     1
100
AcDbPolyline
 90
       57
 70
     1
 43
0.0
 10
-42.13633454534283
 20
16.2633441679668
 10
-42.25619095951651
 20
16.39368899596661
 10
-42.36503758055142
 20
16.53324485847861
 10
-42.45193413255174
 20
16.68096899687873
 10
-42.52362378795169
 20
16.83738279047861
 10
-42.57576171915161
 20
16.99814141167871
 10
-42.60834792615151
 20
17.16541727427875
 10
-42.61920999515178
 20
17.33921037827872
 10
-42.60834792615151
 20
17.51300348227869
 10
-42.57576171915161
 20
17.68027934487873
 10
-42.52579620175175
 20
17.8410379660786
 10
-42.45410654635134
 20
17.99527934587877
 10
-42.36938240815152
 20
18.14083107047861
 10
-42.26510654575167
 20
18.27986555367874
 10
-42.14504157985311
 20
18.40864624374262
 10
-42.01048226908142
 20
18.52786831308663
 10
-41.86040323412226
 20
18.63735796860669
 10
-41.70158240603131
 20
18.73381314132678
 10
-41.53517550895185
 20
18.8164517622788
 10
-41.35052033595139
 20
18.88814141767875
 10
-41.16152033535172
 20
18.94245176267873
 10
-40.96383067955184
 20
18.98372762487872
 10
-40.75745136855175
 20
19.01196900427874
 10
-40.54672722995156
 20
19.02065865947873
 10
-39.31279619155157
 20
19.02065865947884
 10
-39.31279619155157
 20
18.19514141547881
 10
-40.55324447135126
 20
18.1951414154787
 10
-40.69662378215162
 20
18.18645176027871
 10
-40.83131343775176
 20
18.1593400360548
 10
-40.96278792092789
 20
18.11936762213474
 10
-41.08983067995132
 20
18.06696900127872
 10
-41.19723481822347
 20
17.99988486313475
 10
-41.29838240475192
 20
17.92358969047882
 10
-41.38527895675133
 20
17.83452072467867
 10
-41.45479619835168
 20
17.73676210367876
 10
-39.31279619155157
 20
17.73676210367876
 10
-39.31279619155157
 20
16.90907244587879
 10
-41.41786516375169
 20
16.90907244587879
 10
-41.34339481868756
 20
16.82356623871078
 10
-41.2559768873757
 20
16.74379520397474
 10
-41.15891343879184
 20
16.67618968651879
 10
-41.04924999016748
 20
16.61527520356685
 10
-40.93324309324771
 20
16.56730830686274
 10
-40.81263067907139
 20
16.53298416882285
 10
-40.68037412692729
 20
16.51099934116667
 10
-40.54672722995156
 20
16.50065865147871
 10
-39.31279619155157
 20
16.50065865147871
 10
-39.31279619155157
 20
15.64255520047879
 10
-40.52283067815142
 20
15.64255520047868
 10
-40.73572723055121
 20
15.65124485567867
 10
-40.94210654155131
 20
15.6751414074788
 10
-41.1419686111517
 20
15.71858968347874
 10
-41.33314102555141
 20
15.77507244227877
 10
-41.51779619855142
 20
15.84893451147877
 10
-41.69158930255162
 20
15.93365864967882
 10
-41.85234792375149
 20
16.03141727067873
 10
-41.99990695870247
 20
16.14203658137467
  0
INSERT
  5
86DB
330
869E
100
AcDbEntity
  8
LW 5016-39-00
100
AcDbBlockReference
 66
     1
  2
insertpoint-ECKELT
 10
-0.0000000000004547
 20
0.0
 30
0.0
  0
ATTRIB
  5
86DC
330
86DB
100
AcDbEntity
  8
insertpoint_ECKELT
100
AcDbText
 10
-6.931514324693314
 20
0.0
 30
0.0
 40
0.6
  1
LW 5016/39-00
 72
     2
 11
-1.200000000000272
 21
0.0
 31
0.0
100
AcDbAttribute
  2
LINKS
 70
     0
  0
ATTRIB
  5
86DD
330
86DB
100
AcDbEntity
  8
insertpoint_ECKELT
100
AcDbText
 10
1.199999999999363
 20
0.0
 30
0.0
 40
0.6
  1

100
AcDbAttribute
  2
RECHTS
 70
     0
  0
SEQEND
  5
86DE
330
86DB
100
AcDbEntity
  8
LW 5016-39-00
  0
LINE
  5
86DF
330
869E
100
AcDbEntity
  8
LW 5016-39-00
100
AcDbLine
 10
-10.09999999999218
 20
5.500000000003012
 30
0.0
 11
-10.0999999999924
 21
-12.49999999999701
 31
0.0
  0
POLYLINE
  5
86E0
330
869E
100
AcDbEntity
  8
LW 5016-39-00
100
AcDb2dPolyline
 66
     1
 10
0.0
 20
0.0
 30
0.0
 70
   128
  0
VERTEX
  5
86E1
330
86E0
100
AcDbEntity
  8
LW 5016-39-00
100
AcDbVertex
100
AcDb2dVertex
 10
-10.10000228881063
 20
5.500000007453593
 30
0.0
  0
VERTEX
  5
86E2
330
86E0
100
AcDbEntity
  8
LW 5016-39-00
100
AcDbVertex
100
AcDb2dVertex
 10
-10.07782459258214
 20
6.152630448344325
 30
0.0
  0
VERTEX
  5
86E3
330
86E0
100
AcDbEntity
  8
LW 5016-39-00
100
AcDbVertex
100
AcDb2dVertex
 10
-10.01159191130773
 20
6.810174882414912
 30
0.0
  0
VERTEX
  5
86E4
330
86E0
100
AcDbEntity
  8
LW 5016-39-00
100
AcDbVertex
100
AcDb2dVertex
 10
-9.901742935172023
 20
7.467362880709742
 30
0.0
  0
VERTEX
  5
86E5
330
86E0
100
AcDbEntity
  8
LW 5016-39-00
100
AcDbVertex
100
AcDb2dVertex
 10
-9.748716354361476
 20
8.118924200537719
 30
0.0
  0
VERTEX
  5
86E6
330
86E0
100
AcDbEntity
  8
LW 5016-39-00
100
AcDbVertex
100
AcDb2dVertex
 10
-9.552946090689147
 20
8.759588897231083
 30
0.0
  0
VERTEX
  5
86E7
330
86E0
100
AcDbEntity
  8
LW 5016-39-00
100
AcDbVertex
100
AcDb2dVertex
 10
-9.314870834341263
 20
9.384086430075569
 30
0.0
  0
VERTEX
  5
86E8
330
86E0
100
AcDbEntity
  8
LW 5016-39-00
100
AcDbVertex
100
AcDb2dVertex
 10
-9.035677909841524
 20
9.987690150740434
 30
0.0
  0
VERTEX
  5
86E9
330
86E0
100
AcDbEntity
  8
LW 5016-39-00
100
AcDbVertex
100
AcDb2dVertex
 10
-8.718976974477754
 20
10.56716978550213
 30
0.0
  0
VERTEX
  5
86EA
330
86E0
100
AcDbEntity
  8
LW 5016-39-00
100
AcDbVertex
100
AcDb2dVertex
 10
-8.368849754323719
 20
11.11950039863831
 30
0.0
  0
VERTEX
  5
86EB
330
86E0
100
AcDbEntity
  8
LW 5016-39-00
100
AcDbVertex
100
AcDb2dVertex
 10
-7.989382743825444
 20
11.64165675640339
 30
0.0
  0
VERTEX
  5
86EC
330
86E0
100
AcDbEntity
  8
LW 5016-39-00
100
AcDbVertex
100
AcDb2dVertex
 10
-7.584662437428733
 20
12.13061451912148
 30
0.0
  0
VERTEX
  5
86ED
330
86E0
100
AcDbEntity
  8
LW 5016-39-00
100
AcDbVertex
100
AcDb2dVertex
 10
-7.15876579283622
 20
12.58334755897732
 30
0.0
  0
VERTEX
  5
86EE
330
86E0
100
AcDbEntity
  8
LW 5016-39-00
100
AcDbVertex
100
AcDb2dVertex
 10
-6.705121994007868
 20
13.00724446773728
 30
0.0
  0
VERTEX
  5
86EF
330
86E0
100
AcDbEntity
  8
LW 5016-39-00
100
AcDbVertex
100
AcDb2dVertex
 10
-6.216325759876781
 20
13.40922176838103
 30
0.0
  0
VERTEX
  5
86F0
330
86E0
100
AcDbEntity
  8
LW 5016-39-00
100
AcDbVertex
100
AcDb2dVertex
 10
-5.695304870594554
 20
13.78546059131787
 30
0.0
  0
VERTEX
  5
86F1
330
86E0
100
AcDbEntity
  8
LW 5016-39-00
100
AcDbVertex
100
AcDb2dVertex
 10
-5.1449871063121
 20
14.13214206695704
 30
0.0
  0
VERTEX
  5
86F2
330
86E0
100
AcDbEntity
  8
LW 5016-39-00
100
AcDbVertex
100
AcDb2dVertex
 10
-4.568305015552596
 20
14.44544792175423
 30
0.0
  0
VERTEX
  5
86F3
330
86E0
100
AcDbEntity
  8
LW 5016-39-00
100
AcDbVertex
100
AcDb2dVertex
 10
-3.968186378467635
 20
14.72155869007224
 30
0.0
  0
VERTEX
  5
86F4
330
86E0
100
AcDbEntity
  8
LW 5016-39-00
100
AcDbVertex
100
AcDb2dVertex
 10
-3.347783088672485
 20
14.95777785778136
 30
0.0
  0
VERTEX
  5
86F5
330
86E0
100
AcDbEntity
  8
LW 5016-39-00
100
AcDbVertex
100
AcDb2dVertex
 10
-2.711348533618547
 20
15.15290260315015
 30
0.0
  0
VERTEX
  5
86F6
330
86E0
100
AcDbEntity
  8
LW 5016-39-00
100
AcDbVertex
100
AcDb2dVertex
 10
-2.063431739795305
 20
15.3053522109991
 30
0.0
  0
VERTEX
  5
86F7
330
86E0
100
AcDbEntity
  8
LW 5016-39-00
100
AcDbVertex
100
AcDb2dVertex
 10
-1.408705711352922
 20
15.4138541221622
 30
0.0
  0
VERTEX
  5
86F8
330
86E0
100
AcDbEntity
  8
LW 5016-39-00
100
AcDbVertex
100
AcDb2dVertex
 10
-0.7524204254032157
 20
15.47855496406572
 30
0.0
  0
VERTEX
  5
86F9
330
86E0
100
AcDbEntity
  8
LW 5016-39-00
100
AcDbVertex
100
AcDb2dVertex
 10
-0.1000022888065359
 20
15.49999952316284
 30
0.0
  0
SEQEND
  5
86FA
330
86E0
100
AcDbEntity
  8
LW 5016-39-00
  0
POLYLINE
  5
86FB
330
869E
100
AcDbEntity
  8
LW 5016-39-00
100
AcDb2dPolyline
 66
     1
 10
0.0
 20
0.0
 30
0.0
 70
   128
  0
VERTEX
  5
86FC
330
86FB
100
AcDbEntity
  8
LW 5016-39-00
100
AcDbVertex
100
AcDb2dVertex
 10
0.1000022888301828
 20
15.49999952316278
 30
0.0
  0
VERTEX
  5
86FD
330
86FB
100
AcDbEntity
  8
LW 5016-39-00
100
AcDbVertex
100
AcDb2dVertex
 10
0.7524204254268625
 20
15.47855496406526
 30
0.0
  0
VERTEX
  5
86FE
330
86FB
100
AcDbEntity
  8
LW 5016-39-00
100
AcDbVertex
100
AcDb2dVertex
 10
1.408705711376569
 20
15.41385412216141
 30
0.0
  0
VERTEX
  5
86FF
330
86FB
100
AcDbEntity
  8
LW 5016-39-00
100
AcDbVertex
100
AcDb2dVertex
 10
2.063431739818952
 20
15.30535221099791
 30
0.0
  0
VERTEX
  5
8700
330
86FB
100
AcDbEntity
  8
LW 5016-39-00
100
AcDbVertex
100
AcDb2dVertex
 10
2.711348533641967
 20
15.15290260314856
 30
0.0
  0
VERTEX
  5
8701
330
86FB
100
AcDbEntity
  8
LW 5016-39-00
100
AcDbVertex
100
AcDb2dVertex
 10
3.34778308869545
 20
14.95777785777943
 30
0.0
  0
VERTEX
  5
8702
330
86FB
100
AcDbEntity
  8
LW 5016-39-00
100
AcDbVertex
100
AcDb2dVertex
 10
3.968186378490372
 20
14.72155869006991
 30
0.0
  0
VERTEX
  5
8703
330
86FB
100
AcDbEntity
  8
LW 5016-39-00
100
AcDbVertex
100
AcDb2dVertex
 10
4.568305015575333
 20
14.44544792175151
 30
0.0
  0
VERTEX
  5
8704
330
86FB
100
AcDbEntity
  8
LW 5016-39-00
100
AcDbVertex
100
AcDb2dVertex
 10
5.144987106334156
 20
14.13214206695397
 30
0.0
  0
VERTEX
  5
8705
330
86FB
100
AcDbEntity
  8
LW 5016-39-00
100
AcDbVertex
100
AcDb2dVertex
 10
5.695304870616382
 20
13.78546059131452
 30
0.0
  0
VERTEX
  5
8706
330
86FB
100
AcDbEntity
  8
LW 5016-39-00
100
AcDbVertex
100
AcDb2dVertex
 10
6.216325759898381
 20
13.40922176837733
 30
0.0
  0
VERTEX
  5
8707
330
86FB
100
AcDbEntity
  8
LW 5016-39-00
100
AcDbVertex
100
AcDb2dVertex
 10
6.705121994029013
 20
13.0072444677333
 30
0.0
  0
VERTEX
  5
8708
330
86FB
100
AcDbEntity
  8
LW 5016-39-00
100
AcDbVertex
100
AcDb2dVertex
 10
7.158765792856911
 20
12.58334755897306
 30
0.0
  0
VERTEX
  5
8709
330
86FB
100
AcDbEntity
  8
LW 5016-39-00
100
AcDbVertex
100
AcDb2dVertex
 10
7.584662437448969
 20
12.13061451911699
 30
0.0
  0
VERTEX
  5
870A
330
86FB
100
AcDbEntity
  8
LW 5016-39-00
100
AcDbVertex
100
AcDb2dVertex
 10
7.989382743845226
 20
11.64165675639861
 30
0.0
  0
VERTEX
  5
870B
330
86FB
100
AcDbEntity
  8
LW 5016-39-00
100
AcDbVertex
100
AcDb2dVertex
 10
8.368849754343045
 20
11.11950039863336
 30
0.0
  0
VERTEX
  5
870C
330
86FB
100
AcDbEntity
  8
LW 5016-39-00
100
AcDbVertex
100
AcDb2dVertex
 10
8.718976974496854
 20
10.5671697854969
 30
0.0
  0
VERTEX
  5
870D
330
86FB
100
AcDbEntity
  8
LW 5016-39-00
100
AcDbVertex
100
AcDb2dVertex
 10
9.035677909860396
 20
9.987690150735033
 30
0.0
  0
VERTEX
  5
870E
330
86FB
100
AcDbEntity
  8
LW 5016-39-00
100
AcDbVertex
100
AcDb2dVertex
 10
9.31487083435968
 20
9.384086430069999
 30
0.0
  0
VERTEX
  5
870F
330
86FB
100
AcDbEntity
  8
LW 5016-39-00
100
AcDbVertex
100
AcDb2dVertex
 10
9.552946090706882
 20
8.759588897225398
 30
0.0
  0
VERTEX
  5
8710
330
86FB
100
AcDbEntity
  8
LW 5016-39-00
100
AcDbVertex
100
AcDb2dVertex
 10
9.748716354378757
 20
8.118924200531921
 30
0.0
  0
VERTEX
  5
8711
330
86FB
100
AcDbEntity
  8
LW 5016-39-00
100
AcDbVertex
100
AcDb2dVertex
 10
9.901742935188849
 20
7.467362880703888
 30
0.0
  0
VERTEX
  5
8712
330
86FB
100
AcDbEntity
  8
LW 5016-39-00
100
AcDbVertex
100
AcDb2dVertex
 10
10.0115919113241
 20
6.810174882408944
 30
0.0
  0
VERTEX
  5
8713
330
86FB
100
AcDbEntity
  8
LW 5016-39-00
100
AcDbVertex
100
AcDb2dVertex
 10
10.07782459259806
 20
6.152630448338356
 30
0.0
  0
VERTEX
  5
8714
330
86FB
100
AcDbEntity
  8
LW 5016-39-00
100
AcDbVertex
100
AcDb2dVertex
 10
10.10000228882609
 20
5.500000007447567
 30
0.0
  0
SEQEND
  5
8715
330
86FB
100
AcDbEntity
  8
LW 5016-39-00
  0
LINE
  5
8716
330
869E
100
AcDbEntity
  8
LW 5016-39-00
100
AcDbLine
 10
10.10000000000707
 20
-12.50000000000298
 30
0.0
 11
10.10000000000764
 21
5.499999999997044
 31
0.0
  0
LINE
  5
8717
330
869E
100
AcDbEntity
  8
LW 5016-39-00
  6
MITTE2
 62
     3
100
AcDbLine
 10
-80.5415240363186
 20
5.000000000023874
 30
0.0
 11
37.06495985655966
 21
4.999999999989086
 31
0.0
  0
ENDBLK
  5
86A0
330
869E
100
AcDbEntity
  8
0
100
AcDbBlockEnd
  0
BLOCK
  5
871A
330
8719
100
AcDbEntity
  8
0
100
AcDbBlockBegin
  2
LW 5016-39-00_d
 70
     0
 10
0.0
 20
0.0
 30
0.0
  3
LW 5016-39-00_d
  1

  0
LINE
  5
871C
330
8719
100
AcDbEntity
  8
LW 5016-39-00
  6
VERDECKT
 62
     6
100
AcDbLine
 10
-7.334936490575273
 20
17.70448267190204
 30
0.0
 11
-11.66506350949703
 21
15.2044826719009
 31
0.0
  0
LINE
  5
871D
330
8719
100
AcDbEntity
  8
LW 5016-39-00
  6
VERDECKT
 62
     6
100
AcDbLine
 10
-11.66506350948793
 20
-15.20448267190795
 30
0.0
 11
-7.334936490564814
 21
-17.70448267190659
 31
0.0
  0
LINE
  5
871E
330
8719
100
AcDbEntity
  8
LW 5016-39-00
  6
VERDECKT
 62
     6
100
AcDbLine
 10
-8.748924226251347
 20
15.1535812713729
 30
0.0
 11
-7.334936490575273
 21
17.70448267190204
 31
0.0
  0
LINE
  5
871F
330
8719
100
AcDbEntity
  8
LW 5016-39-00
  6
VERDECKT
 62
     6
100
AcDbLine
 10
-8.748924226251347
 20
15.1535812713729
 30
0.0
 11
-11.66506350949703
 21
15.2044826719009
 31
0.0
  0
LINE
  5
8720
330
8719
100
AcDbEntity
  8
LW 5016-39-00
  6
VERDECKT
 62
     6
100
AcDbLine
 10
-14.60240647333103
 20
20.29210992451317
 30
0.0
 11
-11.66506350949703
 21
15.20448267190068
 31
0.0
  0
LINE
  5
8721
330
8719
100
AcDbEntity
  8
LW 5016-39-00
  6
VERDECKT
 62
     6
100
AcDbLine
 10
-10.27227945440972
 20
22.79210992451453
 30
0.0
 11
-7.334936490575273
 21
17.70448267190204
 31
0.0
  0
LINE
  5
8722
330
8719
100
AcDbEntity
  8
LW 5016-39-00
  6
VERDECKT
 62
     6
100
AcDbLine
 10
-8.748924226242252
 20
-15.15358127137824
 30
0.0
 11
-11.66506350948793
 21
-15.20448267190795
 31
0.0
  0
LINE
  5
8723
330
8719
100
AcDbEntity
  8
LW 5016-39-00
  6
VERDECKT
 62
     6
100
AcDbLine
 10
-8.748924226242252
 20
-15.15358127137824
 30
0.0
 11
-7.334936490564814
 21
-17.70448267190659
 31
0.0
  0
LINE
  5
8724
330
8719
100
AcDbEntity
  8
LW 5016-39-00
  6
VERDECKT
 62
     6
100
AcDbLine
 10
-10.27227945439608
 20
-22.79210992452068
 30
0.0
 11
-7.334936490564814
 21
-17.70448267190659
 31
0.0
  0
LINE
  5
8725
330
8719
100
AcDbEntity
  8
LW 5016-39-00
  6
VERDECKT
 62
     6
100
AcDbLine
 10
-14.6024064733192
 20
-20.29210992452204
 30
0.0
 11
-11.66506350948793
 21
-15.20448267190795
 31
0.0
  0
LINE
  5
8726
330
8719
100
AcDbEntity
  8
LW 5016-39-00
  6
VERDECKT
 62
     6
100
AcDbLine
 10
18.99999999996953
 20
-2.499999999994543
 30
0.0
 11
18.99999999996817
 21
2.500000000005456
 31
0.0
  0
LINE
  5
8727
330
8719
100
AcDbEntity
  8
LW 5016-39-00
  6
VERDECKT
 62
     6
100
AcDbLine
 10
17.49784845239992
 20
0.0000000000051159
 30
0.0
 11
18.99999999996953
 21
-2.499999999994543
 31
0.0
  0
LINE
  5
8728
330
8719
100
AcDbEntity
  8
LW 5016-39-00
  6
VERDECKT
 62
     6
100
AcDbLine
 10
17.49784845239992
 20
0.0000000000051159
 30
0.0
 11
18.99999999996817
 21
2.500000000005456
 31
0.0
  0
LINE
  5
8729
330
8719
100
AcDbEntity
  8
LW 5016-39-00
  6
VERDECKT
 62
     6
100
AcDbLine
 10
24.87468592763344
 20
2.500000000007275
 30
0.0
 11
18.99999999996817
 21
2.500000000005456
 31
0.0
  0
LINE
  5
872A
330
8719
100
AcDbEntity
  8
LW 5016-39-00
  6
VERDECKT
 62
     6
100
AcDbLine
 10
24.8746859276348
 20
-2.499999999992724
 30
0.0
 11
18.99999999996953
 21
-2.499999999994543
 31
0.0
  0
LINE
  5
872B
330
8719
100
AcDbEntity
  8
LW 5016-39-00
  6
MITTE2
 62
     3
100
AcDbLine
 10
-14.93734296387174
 20
25.87223694343527
 30
0.0
 11
-7.000000000035015
 21
12.12435565298006
 31
0.0
  0
LINE
  5
872C
330
8719
100
AcDbEntity
  8
LW 5016-39-00
  6
MITTE2
 62
     3
100
AcDbLine
 10
-14.93734296385628
 20
-25.87223694344425
 30
0.0
 11
-7.000000000027739
 21
-12.12435565298426
 31
0.0
  0
LINE
  5
872D
330
8719
100
AcDbEntity
  8
LW 5016-39-00
  6
MITTE2
 62
     3
100
AcDbLine
 10
37.10268893529315
 20
0.0000000000173941
 30
0.0
 11
-37.10268893529315
 21
-0.0000000000173941
 31
0.0
  0
LINE
  5
872E
330
8719
100
AcDbEntity
  8
LW 5016-39-00
  6
MITTE2
 62
     3
100
AcDbLine
 10
-0.0000000000065938
 20
22.6209724824912
 30
0.0
 11
0.0000000000065938
 21
-22.6209724824912
 31
0.0
  0
HATCH
  5
872F
330
8719
100
AcDbEntity
  8
LW 5016-39-00
 62
     1
100
AcDbHatch
 10
0.0
 20
0.0
 30
0.0
210
0.0
220
0.0
230
1.0
  2
SOLID
 70
     1
 71
     0
 91
        5
 92
        7
 72
     0
 73
     1
 93
       76
 10
-5.057173424229176
 20
8.051816195540595
 10
-5.025314594856581
 20
8.103397157382346
 10
-4.90715647062484
 20
8.254639556398274
 10
-4.772678395412413
 20
8.395063686660819
 10
-4.626658488951079
 20
8.523448248374165
 10
-4.462989692868859
 20
8.640354531289972
 10
-4.287602739504336
 20
8.742532413111575
 10
-4.105849806903506
 20
8.833884092694461
 10
-3.924680871438113
 20
8.903402405140582
 10
-6.181818809637888
 20
8.903402405140582
 10
-6.394715362038141
 20
8.894712749940595
 10
-6.596749845438125
 20
8.868643784340633
 10
-6.792267087437949
 20
8.827367922140524
 10
-6.976922260437959
 20
8.773057577140548
 10
-7.152887778238209
 20
8.703540335540537
 10
-7.32016364083779
 20
8.620988611140433
 10
-7.470731903385285
 20
8.525663093596563
 10
-7.613439503838208
 20
8.418954127740448
 10
-7.73888075940863
 20
8.299905851500398
 10
-7.850145711485993
 20
8.171646540748497
 10
-7.950163642837878
 20
8.034436885140507
 10
-8.032715367238097
 20
7.888885160540439
 10
-8.095715367438288
 20
7.734643780740384
 10
-8.145680884838156
 20
7.573885159540509
 10
-8.173922264237944
 20
7.408781710740527
 10
-8.182611919437704
 20
7.234988606740557
 10
-8.17174985043789
 20
7.061195502740361
 10
-8.141336057238049
 20
6.893919640140438
 10
-8.087025712238073
 20
6.73316101894045
 10
-8.017508470638176
 20
6.576747225340454
 10
-7.928439504837797
 20
6.429023086940446
 10
-7.821991228637898
 20
6.287816189940599
 10
-7.699293297213671
 20
6.156602396420453
 10
-7.563094248505649
 20
6.03546860293261
 10
-7.415749848037876
 20
5.925023085340512
 10
-7.254991226838001
 20
5.827264464340601
 10
-7.079364605590626
 20
5.742366533036488
 10
-6.898715363638302
 20
5.668678256940552
 10
-6.707542949238131
 20
5.612195498140522
 10
-6.507680879637746
 20
5.568747222140586
 10
-6.299129154838055
 20
5.542678256540511
 10
-6.088405016237857
 20
5.533988601340524
 10
-3.969233930485415
 20
5.533988601340638
 10
-4.129777794537631
 20
5.597059405075583
 10
-4.313341938340499
 20
5.687679678598328
 10
-4.481808344510454
 20
5.792209371529793
 10
-4.644641239270868
 20
5.907827609955234
 10
-4.788553607641233
 20
6.037617206495156
 10
-4.915989501125523
 20
6.176970889723747
 10
-5.029694855869138
 20
6.327459134436253
 10
-5.081666087317671
 20
6.411643776540586
 10
-6.110129154237938
 20
6.411643776540472
 10
-6.242237982243523
 20
6.419203776564586
 10
-6.372991224038059
 20
6.439537569732578
 10
-6.50116363823804
 20
6.472471362940495
 10
-6.616301569637698
 20
6.518092052740598
 10
-6.721246535488035
 20
6.574574811540514
 10
-6.819396190972156
 20
6.64218032899646
 10
-6.909577432638116
 20
6.720126536140469
 10
-6.981267088037611
 20
6.804850674340514
 10
-5.253745773779201
 20
6.804850674340627
 10
-5.264330241052221
 20
6.83748611509884
 10
-5.300442049016282
 20
7.022860062650011
 10
-5.31248570179855
 20
7.213149776600744
 10
-5.30046402936864
 20
7.407900869955824
 10
-5.264158307693605
 20
7.594270241222261
 10
-5.24755960501875
 20
7.643402401140519
 10
-7.018198122638068
 20
7.643402401140519
 10
-6.948680881038171
 20
7.738988608340491
 10
-6.866129156637953
 20
7.821540332740482
 10
-6.771038259784518
 20
7.891405160548515
 10
-6.668439500838076
 20
7.949712746940576
 10
-6.549747500461535
 20
7.993682402252488
 10
-6.427301569038036
 20
8.02574722994052
 10
-6.290439499637841
 20
8.045298954140548
 10
-6.14706018883794
 20
8.051816195540482
 97
        0
 92
        7
 72
     0
 73
     1
 93
       72
 10
-3.32870955920157
 20
8.037217574804571
 10
-3.205846524328308
 20
8.05529205762059
 10
-3.081784317038227
 20
8.060505850740696
 10
-1.813094657837837
 20
8.060505850740696
 10
-2.660336039837829
 20
7.245850675740825
 10
-0.8941636204378937
 20
5.527471359940705
 10
0.424491556161911
 20
5.527471359940705
 10
-1.289542932038102
 20
7.269747227540733
 10
0.3919053491620161
 20
8.903402405140809
 10
-3.047025696238279
 20
8.903402405140582
 10
-3.255012593450146
 20
8.892627232692689
 10
-3.461730801003113
 20
8.867166542956624
 10
-3.666163629238099
 20
8.827367922140638
 10
-3.859508457438323
 20
8.770885163340608
 10
-4.046336044238387
 20
8.699195507940544
 10
-4.217496182712466
 20
8.613167921460558
 10
-4.383060183238058
 20
8.516712748740587
 10
-4.535129149238173
 20
8.408092058740635
 10
-4.670826804841226
 20
8.288783092844596
 10
-4.795818805238241
 20
8.158264471740608
 10
-4.904439495238193
 20
8.019229988540587
 10
-4.995680874837717
 20
7.871505850140692
 10
-5.067370530238122
 20
7.717264470340637
 10
-5.121680875238098
 20
7.556505849140535
 10
-5.154267082237993
 20
7.389229986540499
 10
-5.165129151238261
 20
7.213264468740476
 10
-5.154267082237993
 20
7.04164377854056
 10
-5.121680875238098
 20
6.874367915940638
 10
-5.069542944037721
 20
6.713609294740649
 10
-5.000025702437824
 20
6.559367914940594
 10
-4.908184736628982
 20
6.410601017916746
 10
-4.802805288018817
 20
6.271132051956556
 10
-4.684799770402833
 20
6.14209067223669
 10
-4.552508459637692
 20
6.022781706340651
 10
-4.400387355706925
 20
5.914769292204596
 10
-4.241853286237756
 20
5.81640239534056
 10
-4.070232596037612
 20
5.731678257140629
 10
-3.887749836837656
 20
5.659988601740565
 10
-3.693518663807708
 20
5.605938946396577
 10
-3.496715352838009
 20
5.562229980740653
 10
-3.288163628037864
 20
5.536161015140692
 10
-3.07743948943812
 20
5.527471359940705
 10
-1.174405000637989
 20
5.527471359940705
 10
-2.060749831038037
 20
6.400781707540659
 10
-3.07743948943812
 20
6.400781707540659
 10
-3.144106524132666
 20
6.40452900048001
 10
-3.245054248590577
 20
6.41451136275657
 10
-3.365188731730768
 20
6.435974811100663
 10
-3.482307904516574
 20
6.470298949140556
 10
-3.583803077252241
 20
6.511227225132643
 10
-3.639938249844135
 20
6.539381707980624
 10
-3.693622939669921
 20
6.571967914980746
 10
-3.82618362974631
 20
6.671290673916587
 10
-3.899785009289871
 20
6.741329294828688
 10
-3.954851354292486
 20
6.809195501940507
 10
-4.003556871688715
 20
6.88175412286057
 10
-4.042921009744759
 20
6.958918261036501
 10
-4.072344182251299
 20
7.040340330260619
 10
-4.093042940937948
 20
7.127497571916705
 10
-4.100559492685761
 20
7.216827227372505
 10
-4.099203906474713
 20
7.279132055156537
 10
-4.093199354731268
 20
7.341263089836502
 10
-4.081042527106774
 20
7.404436883140647
 10
-4.062829009807728
 20
7.466133435060669
 10
-4.019180871738399
 20
7.5648479181325
 10
-3.977653009537107
 20
7.632714125244547
 10
-3.914574802440483
 20
7.71074722894059
 10
-3.785172862075569
 20
7.837269965994323
 10
-3.725905008737981
 20
7.877327919124695
 10
-3.649609836081936
 20
7.921645160644516
 10
-3.565589559953195
 20
7.963789988364624
 10
-3.449052594065733
 20
8.006629988500662
 97
        0
 92
        7
 72
     0
 73
     1
 93
       57
 10
1.229327420786148
 20
8.015145850596923
 10
1.360801903961828
 20
8.055118264516863
 10
1.495491559561969
 20
8.082229988740891
 10
1.63887087036187
 20
8.090919643940765
 10
2.879319150162018
 20
8.090919643940878
 10
2.879319150162018
 20
8.916436887940903
 10
1.645388111762031
 20
8.91643688794079
 10
1.434663973161832
 20
8.907747232740803
 10
1.22828466216174
 20
8.879505853340788
 10
1.030595006361863
 20
8.838229991140792
 10
0.8415950057622012
 20
8.783919646140816
 10
0.6569398327617364
 20
8.712229990740866
 10
0.4905329356818129
 20
8.629591369788727
 10
0.3317121075913292
 20
8.533136197068756
 10
0.1816330726321667
 20
8.423646541548691
 10
0.0470737618604744
 20
8.3044244722048
 10
-0.0729912040380896
 20
8.175643782140809
 10
-0.1772670664379348
 20
8.036609298940788
 10
-0.2619912046377522
 20
7.89105757434072
 10
-0.3336808600381573
 20
7.736816194540665
 10
-0.3836463774380263
 20
7.57605757334079
 10
-0.4162325844379211
 20
7.408781710740868
 10
-0.4270946534381892
 20
7.234988606740785
 10
-0.4162325844379211
 20
7.061195502740815
 10
-0.3836463774380263
 20
6.893919640140779
 10
-0.3315084462381037
 20
6.733161018940677
 10
-0.2598187908381533
 20
6.576747225340795
 10
-0.1729222388378275
 20
6.429023086940787
 10
-0.0640756178029278
 20
6.28946722442879
 10
0.0557807963707546
 20
6.15912239642887
 10
0.1922083830111205
 20
6.037814809836731
 10
0.3397674179620935
 20
5.927195499140793
 10
0.5005260391619686
 20
5.829436878140654
 10
0.6743191431621654
 20
5.744712739940837
 10
0.8589743161621754
 20
5.670850670740833
 10
1.050146730561891
 20
5.614367911940803
 10
1.250008800162277
 20
5.570919635940867
 10
1.456388111162368
 20
5.547023084140732
 10
1.669284663562166
 20
5.538333428940745
 10
2.879319150162018
 20
5.538333428940859
 10
2.879319150162018
 20
6.396436879940779
 10
1.645388111762031
 20
6.396436879940779
 10
1.511741214786297
 20
6.406777569628729
 10
1.379484662642198
 20
6.428762397284913
 10
1.258872248465877
 20
6.463086535324805
 10
1.142865351546106
 20
6.511053432028916
 10
1.033201902921746
 20
6.571967914980859
 10
0.936138454337879
 20
6.639573432436804
 10
0.8487205230260315
 20
6.719344467172845
 10
0.7742501779619034
 20
6.804850674340855
 10
2.879319150162018
 20
6.804850674340855
 10
2.879319150162018
 20
7.63254033214082
 10
0.7373191433619013
 20
7.63254033214082
 10
0.8068363849622528
 20
7.730298953140732
 10
0.8937329369616691
 20
7.819367918940656
 10
0.9948805234901101
 20
7.895663091596816
 10
1.102284661762269
 20
7.962747229740784
 97
        0
 92
        7
 72
     0
 73
     1
 93
        6
 10
3.10959501296179
 20
8.903402405140923
 10
3.10959501296179
 20
5.533988601340865
 10
5.347181226962447
 20
5.533988601340979
 10
5.347181226961993
 20
6.400781707541
 10
4.132801912762033
 20
6.400781707541
 10
4.132801912762033
 20
8.903402405140923
 97
        0
 92
        7
 72
     0
 73
     1
 93
        8
 10
4.365250189361859
 20
8.903402405140923
 10
4.365250189361859
 20
8.077885161140898
 10
5.599181227762301
 20
8.077885161141011
 10
5.599181227762301
 20
5.527471359940932
 10
6.624560541362143
 20
5.527471359940932
 10
6.624560541362143
 20
8.077885161140898
 10
7.86718123496189
 20
8.077885161141011
 10
7.86718123496189
 20
8.903402405141036
 97
        0
 75
     0
 76
     1
 47
0.0142553043587597
 98
        5
 10
-5.747513298162857
 20
8.460952735551472
 10
-3.480016084820135
 20
8.318399750545836
 10
1.012195647381076
 20
8.375420923093656
 10
3.736044731212814
 20
8.61776114778604
 10
5.147882713439457
 20
8.517974015372715
450
        0
451
        0
460
0.0
461
0.0
452
        0
462
0.0
453
        0
470

  0
LWPOLYLINE
  5
8730
330
8719
100
AcDbEntity
  8
LW 5016-39-00
 62
     1
100
AcDbPolyline
 90
        8
 70
     1
 43
0.0
 10
6.624560541362143
 20
8.077885161140898
 10
6.624560541362143
 20
5.527471359940932
 10
5.599181227762301
 20
5.527471359940932
 10
5.599181227762301
 20
8.077885161141011
 10
4.365250189361859
 20
8.077885161140898
 10
4.365250189361859
 20
8.903402405140923
 10
7.86718123496189
 20
8.903402405141036
 10
7.86718123496189
 20
8.077885161141011
  0
LWPOLYLINE
  5
8731
330
8719
100
AcDbEntity
  8
LW 5016-39-00
 62
     1
100
AcDbPolyline
 90
       73
 70
     1
 43
0.0
 10
-3.07743948943812
 20
6.400781707540659
 10
-2.060749831038037
 20
6.400781707540659
 10
-1.174405000637989
 20
5.527471359940705
 10
-3.07743948943812
 20
5.527471359940591
 10
-3.288163628037864
 20
5.536161015140692
 10
-3.496715352838009
 20
5.562229980740653
 10
-3.693518663807708
 20
5.605938946396577
 10
-3.887749836837656
 20
5.659988601740565
 10
-4.070232596037612
 20
5.731678257140629
 10
-4.241853286237756
 20
5.81640239534056
 10
-4.400387355706925
 20
5.914769292204596
 10
-4.552508459637692
 20
6.022781706340651
 10
-4.684799770402833
 20
6.142090672236577
 10
-4.802805288018817
 20
6.271132051956556
 10
-4.908184736628982
 20
6.410601017916633
 10
-5.000025702437824
 20
6.559367914940594
 10
-5.069542944037721
 20
6.713609294740649
 10
-5.121680875238098
 20
6.874367915940638
 10
-5.154267082237993
 20
7.04164377854056
 10
-5.165129151238261
 20
7.21326446874059
 10
-5.154267082237993
 20
7.389229986540499
 10
-5.121680875238098
 20
7.556505849140535
 10
-5.067370530238122
 20
7.717264470340637
 10
-4.995680874837717
 20
7.871505850140579
 10
-4.904439495238193
 20
8.019229988540587
 10
-4.795818805238241
 20
8.158264471740608
 10
-4.670826804841226
 20
8.28878309284471
 10
-4.535129149238173
 20
8.408092058740635
 10
-4.383060183238058
 20
8.516712748740587
 10
-4.217496182712466
 20
8.613167921460558
 10
-4.046336044238387
 20
8.699195507940544
 10
-3.859508457438323
 20
8.770885163340608
 10
-3.666163629238099
 20
8.827367922140751
 10
-3.461730801003113
 20
8.867166542956624
 10
-3.255012593450146
 20
8.892627232692689
 10
-3.047025696238279
 20
8.903402405140582
 10
0.3919053491620161
 20
8.903402405140809
 10
-1.289542932038102
 20
7.269747227540733
 10
0.424491556161911
 20
5.527471359940705
 10
-0.8941636204378937
 20
5.527471359940705
 10
-2.660336039837829
 20
7.245850675740825
 10
-1.813094657837837
 20
8.060505850740696
 10
-3.081784317038227
 20
8.060505850740696
 10
-3.205846524328308
 20
8.05529205762059
 10
-3.32870955920157
 20
8.037217574804571
 10
-3.449052594065733
 20
8.006629988500662
 10
-3.565589559953195
 20
7.96378998836451
 10
-3.64960983608239
 20
7.921645160644629
 10
-3.725905008737981
 20
7.877327919124695
 10
-3.766146801968943
 20
7.850129298348633
 10
-3.803660043467289
 20
7.819194125836588
 10
-3.914574802440483
 20
7.71074722894059
 10
-3.977653009537107
 20
7.632714125244547
 10
-4.019180871737944
 20
7.564847918132613
 10
-4.062829009807728
 20
7.466133435060669
 10
-4.081042527106774
 20
7.404436883140647
 10
-4.093199354731268
 20
7.341263089836616
 10
-4.099203906474713
 20
7.279132055156651
 10
-4.100559492685761
 20
7.216827227372618
 10
-4.093042940937948
 20
7.127497571916705
 10
-4.072344182251299
 20
7.040340330260619
 10
-4.042921009744304
 20
6.958918261036615
 10
-4.003556871688715
 20
6.88175412286057
 10
-3.954851354292486
 20
6.809195501940621
 10
-3.899785009289871
 20
6.741329294828688
 10
-3.82618362974631
 20
6.671290673916587
 10
-3.693622939669921
 20
6.571967914980746
 10
-3.639938249844135
 20
6.539381707980624
 10
-3.583803077252241
 20
6.511227225132643
 10
-3.482307904516574
 20
6.470298949140556
 10
-3.365188731730768
 20
6.435974811100663
 10
-3.245054248590577
 20
6.41451136275657
 10
-3.144106524132666
 20
6.40452900048001
  0
LWPOLYLINE
  5
8732
330
8719
100
AcDbEntity
  8
LW 5016-39-00
 62
     1
100
AcDbPolyline
 90
       76
 70
     1
 43
0.0
 10
-4.287602739504336
 20
8.742532413111575
 10
-4.462989692868859
 20
8.640354531289858
 10
-4.626658488951079
 20
8.523448248374165
 10
-4.772678395412413
 20
8.395063686660819
 10
-4.90715647062484
 20
8.254639556398274
 10
-5.025314594856581
 20
8.103397157382346
 10
-5.057173424229176
 20
8.051816195540595
 10
-6.14706018883794
 20
8.051816195540595
 10
-6.290439499637841
 20
8.045298954140548
 10
-6.427301569038036
 20
8.02574722994052
 10
-6.549747500461535
 20
7.993682402252488
 10
-6.668439500838076
 20
7.949712746940576
 10
-6.771038259784518
 20
7.891405160548515
 10
-6.866129156637953
 20
7.821540332740482
 10
-6.948680881038171
 20
7.738988608340491
 10
-7.018198122638068
 20
7.643402401140519
 10
-5.24755960501875
 20
7.643402401140519
 10
-5.264158307693605
 20
7.594270241222261
 10
-5.300464029369095
 20
7.407900869955597
 10
-5.31248570179855
 20
7.213149776600744
 10
-5.300442049016282
 20
7.022860062650011
 10
-5.264330241051766
 20
6.837486115098954
 10
-5.253745773779201
 20
6.804850674340627
 10
-6.981267088037611
 20
6.804850674340514
 10
-6.909577432638116
 20
6.720126536140469
 10
-6.819396190972156
 20
6.64218032899646
 10
-6.721246535488035
 20
6.574574811540514
 10
-6.616301569637698
 20
6.518092052740598
 10
-6.50116363823804
 20
6.472471362940609
 10
-6.372991224038059
 20
6.439537569732578
 10
-6.242237982243523
 20
6.419203776564586
 10
-6.110129154237938
 20
6.411643776540472
 10
-5.081666087317671
 20
6.411643776540586
 10
-5.029694855869138
 20
6.327459134436253
 10
-4.915989501125523
 20
6.176970889723747
 10
-4.788553607641233
 20
6.037617206495156
 10
-4.644641239270868
 20
5.907827609955461
 10
-4.481808344510454
 20
5.792209371529793
 10
-4.313341938340499
 20
5.687679678598328
 10
-4.129777794537631
 20
5.597059405075583
 10
-3.969233930485415
 20
5.533988601340638
 10
-6.088405016237857
 20
5.533988601340411
 10
-6.299129154838055
 20
5.542678256540511
 10
-6.507680879637746
 20
5.568747222140586
 10
-6.707542949238131
 20
5.612195498140522
 10
-6.898715363637847
 20
5.668678256940438
 10
-7.079364605591081
 20
5.742366533036488
 10
-7.254991226838001
 20
5.827264464340601
 10
-7.415749848037876
 20
5.925023085340512
 10
-7.563094248505649
 20
6.035468602932496
 10
-7.699293297213671
 20
6.156602396420453
 10
-7.821991228637898
 20
6.287816189940485
 10
-7.928439504838252
 20
6.429023086940446
 10
-8.017508470638176
 20
6.576747225340454
 10
-8.087025712238073
 20
6.73316101894045
 10
-8.141336057238049
 20
6.893919640140438
 10
-8.17174985043789
 20
7.061195502740588
 10
-8.182611919437704
 20
7.234988606740444
 10
-8.173922264238399
 20
7.408781710740413
 10
-8.145680884838156
 20
7.573885159540509
 10
-8.095715367438288
 20
7.734643780740384
 10
-8.032715367238097
 20
7.888885160540439
 10
-7.950163642837878
 20
8.034436885140507
 10
-7.850145711485993
 20
8.171646540748497
 10
-7.73888075940863
 20
8.299905851500511
 10
-7.613439503838208
 20
8.418954127740448
 10
-7.470731903385285
 20
8.525663093596563
 10
-7.32016364083779
 20
8.620988611140546
 10
-7.152887778237754
 20
8.703540335540424
 10
-6.976922260437959
 20
8.773057577140548
 10
-6.792267087437949
 20
8.827367922140524
 10
-6.596749845438125
 20
8.868643784340633
 10
-6.394715362038141
 20
8.894712749940595
 10
-6.181818809637888
 20
8.903402405140582
 10
-3.924680871438113
 20
8.903402405140695
 10
-4.105849806903506
 20
8.833884092694461
  0
LWPOLYLINE
  5
8733
330
8719
100
AcDbEntity
  8
LW 5016-39-00
 62
     1
100
AcDbPolyline
 90
        6
 70
     1
 43
0.0
 10
5.347181226962447
 20
5.533988601340979
 10
3.10959501296179
 20
5.533988601340865
 10
3.10959501296179
 20
8.903402405140923
 10
4.132801912762033
 20
8.903402405140923
 10
4.132801912762033
 20
6.400781707541
 10
5.347181226961993
 20
6.400781707541
  0
LWPOLYLINE
  5
8734
330
8719
100
AcDbEntity
  8
LW 5016-39-00
 62
     1
100
AcDbPolyline
 90
       57
 70
     1
 43
0.0
 10
0.0557807963707546
 20
6.15912239642887
 10
-0.0640756178029278
 20
6.289467224428676
 10
-0.1729222388378275
 20
6.429023086940674
 10
-0.2598187908381533
 20
6.576747225340795
 10
-0.3315084462381037
 20
6.733161018940677
 10
-0.3836463774380263
 20
6.893919640140779
 10
-0.4162325844379211
 20
7.061195502740815
 10
-0.4270946534381892
 20
7.234988606740785
 10
-0.4162325844379211
 20
7.408781710740754
 10
-0.3836463774380263
 20
7.57605757334079
 10
-0.3336808600381573
 20
7.736816194540665
 10
-0.2619912046377522
 20
7.891057574340834
 10
-0.1772670664379348
 20
8.036609298940675
 10
-0.0729912040380896
 20
8.175643782140809
 10
0.0470737618604744
 20
8.304424472204686
 10
0.1816330726321667
 20
8.423646541548691
 10
0.3317121075913292
 20
8.533136197068756
 10
0.4905329356822677
 20
8.62959136978884
 10
0.6569398327617364
 20
8.712229990740866
 10
0.8415950057622012
 20
8.783919646140816
 10
1.030595006361863
 20
8.838229991140792
 10
1.22828466216174
 20
8.879505853340788
 10
1.434663973161832
 20
8.907747232740803
 10
1.645388111762031
 20
8.91643688794079
 10
2.879319150162018
 20
8.916436887940903
 10
2.879319150162018
 20
8.090919643940878
 10
1.638870870362325
 20
8.090919643940765
 10
1.495491559561969
 20
8.082229988740778
 10
1.360801903961828
 20
8.055118264516863
 10
1.229327420785693
 20
8.015145850596809
 10
1.102284661762269
 20
7.962747229740784
 10
0.9948805234901101
 20
7.895663091596816
 10
0.8937329369616691
 20
7.819367918940884
 10
0.8068363849622528
 20
7.730298953140732
 10
0.7373191433619013
 20
7.63254033214082
 10
2.879319150162018
 20
7.63254033214082
 10
2.879319150162018
 20
6.804850674340855
 10
0.7742501779619034
 20
6.804850674340855
 10
0.8487205230260315
 20
6.719344467172845
 10
0.936138454337879
 20
6.639573432436804
 10
1.033201902921746
 20
6.571967914980859
 10
1.142865351546106
 20
6.511053432028916
 10
1.258872248465877
 20
6.463086535324805
 10
1.379484662642198
 20
6.428762397284913
 10
1.511741214786297
 20
6.406777569628729
 10
1.645388111762031
 20
6.396436879940779
 10
2.879319150162018
 20
6.396436879940779
 10
2.879319150162018
 20
5.538333428940859
 10
1.669284663562166
 20
5.538333428940745
 10
1.456388111162368
 20
5.547023084140732
 10
1.250008800162277
 20
5.570919635940867
 10
1.050146730561891
 20
5.614367911940803
 10
0.8589743161621754
 20
5.670850670740833
 10
0.6743191431621654
 20
5.744712739940837
 10
0.5005260391619686
 20
5.829436878140882
 10
0.3397674179620935
 20
5.927195499140793
 10
0.1922083830111205
 20
6.037814809836731
  0
INSERT
  5
8735
330
8719
100
AcDbEntity
  8
LW 5016-39-00
100
AcDbBlockReference
 66
     1
  2
insertpoint-ECKELT
 10
0.0
 20
0.0
 30
0.0
  0
ATTRIB
  5
8736
330
8735
100
AcDbEntity
  8
insertpoint_ECKELT
100
AcDbText
 10
-6.93151432469286
 20
0.0
 30
0.0
 40
0.6
  1
LW 5016/39-00
 72
     2
 11
-1.199999999999818
 21
0.0
 31
0.0
100
AcDbAttribute
  2
LINKS
 70
     0
  0
ATTRIB
  5
8737
330
8735
100
AcDbEntity
  8
insertpoint_ECKELT
100
AcDbText
 10
1.199999999999818
 20
0.0
 30
0.0
 40
0.6
  1

100
AcDbAttribute
  2
RECHTS
 70
     0
  0
SEQEND
  5
8738
330
8735
100
AcDbEntity
  8
LW 5016-39-00
  0
CIRCLE
  5
8739
330
8719
100
AcDbEntity
  8
LW 5016-39-00
100
AcDbCircle
 10
0.0
 20
0.0
 30
0.0
 40
18.99999999998902
  0
CIRCLE
  5
873A
330
8719
100
AcDbEntity
  8
LW 5016-39-00
100
AcDbCircle
 10
0.0
 20
0.0
 30
0.0
 40
24.99999999997855
  0
CIRCLE
  5
873B
330
8719
100
AcDbEntity
  8
LW 5016-39-00
100
AcDbCircle
 10
0.0
 20
0.0
 30
0.0
 40
32.49999999996969
  0
ENDBLK
  5
871B
330
8719
100
AcDbEntity
  8
0
100
AcDbBlockEnd
  0
BLOCK
  5
8A6F
330
8A6E
100
AcDbEntity
  8
0
100
AcDbBlockBegin
  2
LW 5016-39-00_a
 70
     0
 10
0.0
 20
0.0
 30
0.0
  3
LW 5016-39-00_a
  1

  0
ELLIPSE
  5
8A71
330
8A6E
100
AcDbEntity
  8
LW 5016-39-00
100
AcDbEllipse
 10
41.02000000000022
 20
-9.499999999999943
 30
0.0
 11
-2.499999999999998
 21
0.0000000000002117
 31
0.0
210
0.0
220
0.0
230
1.0
 40
0.8660254037844389
 41
0.7560039322268067
 42
2.385588721363189
  0
POLYLINE
  5
8A72
330
8A6E
100
AcDbEntity
  8
LW 5016-39-00
100
AcDb2dPolyline
 66
     1
 10
0.0
 20
0.0
 30
0.0
 70
   128
  0
VERTEX
  5
8A73
330
8A72
100
AcDbEntity
  8
LW 5016-39-00
100
AcDbVertex
100
AcDb2dVertex
 10
43.52000000000022
 20
-12.49999999999994
 30
0.0
  0
VERTEX
  5
8A74
330
8A72
100
AcDbEntity
  8
LW 5016-39-00
100
AcDbVertex
100
AcDb2dVertex
 10
43.4989869785311
 20
-12.77545213699335
 30
0.0
  0
VERTEX
  5
8A75
330
8A72
100
AcDbEntity
  8
LW 5016-39-00
100
AcDbVertex
100
AcDb2dVertex
 10
43.43565704345725
 20
-13.05167794227594
 30
0.0
  0
VERTEX
  5
8A76
330
8A72
100
AcDbEntity
  8
LW 5016-39-00
100
AcDbVertex
100
AcDb2dVertex
 10
43.32957746505759
 20
-13.31962585449213
 30
0.0
  0
VERTEX
  5
8A77
330
8A72
100
AcDbEntity
  8
LW 5016-39-00
100
AcDbVertex
100
AcDb2dVertex
 10
43.18169476509116
 20
-13.5708856582641
 30
0.0
  0
VERTEX
  5
8A78
330
8A72
100
AcDbEntity
  8
LW 5016-39-00
100
AcDbVertex
100
AcDb2dVertex
 10
42.99847723960898
 20
-13.79940271377558
 30
0.0
  0
VERTEX
  5
8A79
330
8A72
100
AcDbEntity
  8
LW 5016-39-00
100
AcDbVertex
100
AcDb2dVertex
 10
42.78776528358481
 20
-13.99964332580561
 30
0.0
  0
VERTEX
  5
8A7A
330
8A72
100
AcDbEntity
  8
LW 5016-39-00
100
AcDbVertex
100
AcDb2dVertex
 10
42.54740001678489
 20
-14.17419910430902
 30
0.0
  0
VERTEX
  5
8A7B
330
8A72
100
AcDbEntity
  8
LW 5016-39-00
100
AcDbVertex
100
AcDb2dVertex
 10
42.27476121902488
 20
-14.32525992393488
 30
0.0
  0
VERTEX
  5
8A7C
330
8A72
100
AcDbEntity
  8
LW 5016-39-00
100
AcDbVertex
100
AcDb2dVertex
 10
41.97699787139915
 20
-14.44669842720026
 30
0.0
  0
VERTEX
  5
8A7D
330
8A72
100
AcDbEntity
  8
LW 5016-39-00
100
AcDbVertex
100
AcDb2dVertex
 10
41.66183115959189
 20
-14.53354954719538
 30
0.0
  0
VERTEX
  5
8A7E
330
8A72
100
AcDbEntity
  8
LW 5016-39-00
100
AcDbVertex
100
AcDb2dVertex
 10
41.33929254531882
 20
-14.58527922630304
 30
0.0
  0
VERTEX
  5
8A7F
330
8A72
100
AcDbEntity
  8
LW 5016-39-00
100
AcDbVertex
100
AcDb2dVertex
 10
41.02000000000022
 20
-14.6024060249328
 30
0.0
  0
VERTEX
  5
8A80
330
8A72
100
AcDbEntity
  8
LW 5016-39-00
100
AcDbVertex
100
AcDb2dVertex
 10
40.70070745468162
 20
-14.58527922630304
 30
0.0
  0
VERTEX
  5
8A81
330
8A72
100
AcDbEntity
  8
LW 5016-39-00
100
AcDbVertex
100
AcDb2dVertex
 10
40.37816884040855
 20
-14.53354954719538
 30
0.0
  0
VERTEX
  5
8A82
330
8A72
100
AcDbEntity
  8
LW 5016-39-00
100
AcDbVertex
100
AcDb2dVertex
 10
40.06300212860129
 20
-14.44669842720026
 30
0.0
  0
VERTEX
  5
8A83
330
8A72
100
AcDbEntity
  8
LW 5016-39-00
100
AcDbVertex
100
AcDb2dVertex
 10
39.76523878097557
 20
-14.32525992393488
 30
0.0
  0
VERTEX
  5
8A84
330
8A72
100
AcDbEntity
  8
LW 5016-39-00
100
AcDbVertex
100
AcDb2dVertex
 10
39.49259998321556
 20
-14.17419910430902
 30
0.0
  0
VERTEX
  5
8A85
330
8A72
100
AcDbEntity
  8
LW 5016-39-00
100
AcDbVertex
100
AcDb2dVertex
 10
39.25223471641563
 20
-13.99964332580561
 30
0.0
  0
VERTEX
  5
8A86
330
8A72
100
AcDbEntity
  8
LW 5016-39-00
100
AcDbVertex
100
AcDb2dVertex
 10
39.04152276039146
 20
-13.79940271377558
 30
0.0
  0
VERTEX
  5
8A87
330
8A72
100
AcDbEntity
  8
LW 5016-39-00
100
AcDbVertex
100
AcDb2dVertex
 10
38.85830523490928
 20
-13.5708856582641
 30
0.0
  0
VERTEX
  5
8A88
330
8A72
100
AcDbEntity
  8
LW 5016-39-00
100
AcDbVertex
100
AcDb2dVertex
 10
38.71042253494285
 20
-13.31962585449213
 30
0.0
  0
VERTEX
  5
8A89
330
8A72
100
AcDbEntity
  8
LW 5016-39-00
100
AcDbVertex
100
AcDb2dVertex
 10
38.60434295654319
 20
-13.05167794227594
 30
0.0
  0
VERTEX
  5
8A8A
330
8A72
100
AcDbEntity
  8
LW 5016-39-00
100
AcDbVertex
100
AcDb2dVertex
 10
38.54101302146934
 20
-12.77545213699335
 30
0.0
  0
VERTEX
  5
8A8B
330
8A72
100
AcDbEntity
  8
LW 5016-39-00
100
AcDbVertex
100
AcDb2dVertex
 10
38.52000000000022
 20
-12.49999999999994
 30
0.0
  0
SEQEND
  5
8A8C
330
8A72
100
AcDbEntity
  8
LW 5016-39-00
  0
POLYLINE
  5
8A8D
330
8A6E
100
AcDbEntity
  8
LW 5016-39-00
100
AcDb2dPolyline
 66
     1
 10
0.0
 20
0.0
 30
0.0
 70
   128
  0
VERTEX
  5
8A8E
330
8A8D
100
AcDbEntity
  8
LW 5016-39-00
100
AcDbVertex
100
AcDb2dVertex
 10
38.52000000000022
 20
-12.49999999999994
 30
0.0
  0
VERTEX
  5
8A8F
330
8A8D
100
AcDbEntity
  8
LW 5016-39-00
100
AcDbVertex
100
AcDb2dVertex
 10
38.54101302146934
 20
-12.22241878509516
 30
0.0
  0
VERTEX
  5
8A90
330
8A8D
100
AcDbEntity
  8
LW 5016-39-00
100
AcDbVertex
100
AcDb2dVertex
 10
38.60434295654319
 20
-11.93999171257013
 30
0.0
  0
VERTEX
  5
8A91
330
8A8D
100
AcDbEntity
  8
LW 5016-39-00
100
AcDbVertex
100
AcDb2dVertex
 10
38.71042253494285
 20
-11.6620504856109
 30
0.0
  0
VERTEX
  5
8A92
330
8A8D
100
AcDbEntity
  8
LW 5016-39-00
100
AcDbVertex
100
AcDb2dVertex
 10
38.85830523490928
 20
-11.39756798744196
 30
0.0
  0
VERTEX
  5
8A93
330
8A8D
100
AcDbEntity
  8
LW 5016-39-00
100
AcDbVertex
100
AcDb2dVertex
 10
39.04152276039146
 20
-11.15386009216303
 30
0.0
  0
VERTEX
  5
8A94
330
8A8D
100
AcDbEntity
  8
LW 5016-39-00
100
AcDbVertex
100
AcDb2dVertex
 10
39.25223471641563
 20
-10.9377777576446
 30
0.0
  0
VERTEX
  5
8A95
330
8A8D
100
AcDbEntity
  8
LW 5016-39-00
100
AcDbVertex
100
AcDb2dVertex
 10
39.49259998321556
 20
-10.74736952781671
 30
0.0
  0
VERTEX
  5
8A96
330
8A8D
100
AcDbEntity
  8
LW 5016-39-00
100
AcDbVertex
100
AcDb2dVertex
 10
39.76523878097557
 20
-10.58108925819391
 30
0.0
  0
VERTEX
  5
8A97
330
8A8D
100
AcDbEntity
  8
LW 5016-39-00
100
AcDbVertex
100
AcDb2dVertex
 10
40.06300212860129
 20
-10.4463899135589
 30
0.0
  0
VERTEX
  5
8A98
330
8A8D
100
AcDbEntity
  8
LW 5016-39-00
100
AcDbVertex
100
AcDb2dVertex
 10
40.37816884040855
 20
-10.34950613975519
 30
0.0
  0
VERTEX
  5
8A99
330
8A8D
100
AcDbEntity
  8
LW 5016-39-00
100
AcDbVertex
100
AcDb2dVertex
 10
40.70070745468162
 20
-10.2915477752685
 30
0.0
  0
VERTEX
  5
8A9A
330
8A8D
100
AcDbEntity
  8
LW 5016-39-00
100
AcDbVertex
100
AcDb2dVertex
 10
41.02000000000022
 20
-10.2722799777984
 30
0.0
  0
VERTEX
  5
8A9B
330
8A8D
100
AcDbEntity
  8
LW 5016-39-00
100
AcDbVertex
100
AcDb2dVertex
 10
41.33929254531882
 20
-10.2915477752685
 30
0.0
  0
VERTEX
  5
8A9C
330
8A8D
100
AcDbEntity
  8
LW 5016-39-00
100
AcDbVertex
100
AcDb2dVertex
 10
41.66183115959189
 20
-10.34950613975519
 30
0.0
  0
VERTEX
  5
8A9D
330
8A8D
100
AcDbEntity
  8
LW 5016-39-00
100
AcDbVertex
100
AcDb2dVertex
 10
41.97699787139915
 20
-10.4463899135589
 30
0.0
  0
VERTEX
  5
8A9E
330
8A8D
100
AcDbEntity
  8
LW 5016-39-00
100
AcDbVertex
100
AcDb2dVertex
 10
42.27476121902488
 20
-10.58108925819391
 30
0.0
  0
VERTEX
  5
8A9F
330
8A8D
100
AcDbEntity
  8
LW 5016-39-00
100
AcDbVertex
100
AcDb2dVertex
 10
42.54740001678489
 20
-10.74736952781671
 30
0.0
  0
VERTEX
  5
8AA0
330
8A8D
100
AcDbEntity
  8
LW 5016-39-00
100
AcDbVertex
100
AcDb2dVertex
 10
42.78776528358481
 20
-10.9377777576446
 30
0.0
  0
VERTEX
  5
8AA1
330
8A8D
100
AcDbEntity
  8
LW 5016-39-00
100
AcDbVertex
100
AcDb2dVertex
 10
42.99847723960898
 20
-11.15386009216303
 30
0.0
  0
VERTEX
  5
8AA2
330
8A8D
100
AcDbEntity
  8
LW 5016-39-00
100
AcDbVertex
100
AcDb2dVertex
 10
43.18169476509116
 20
-11.39756798744196
 30
0.0
  0
VERTEX
  5
8AA3
330
8A8D
100
AcDbEntity
  8
LW 5016-39-00
100
AcDbVertex
100
AcDb2dVertex
 10
43.32957746505759
 20
-11.6620504856109
 30
0.0
  0
VERTEX
  5
8AA4
330
8A8D
100
AcDbEntity
  8
LW 5016-39-00
100
AcDbVertex
100
AcDb2dVertex
 10
43.43565704345725
 20
-11.93999171257013
 30
0.0
  0
VERTEX
  5
8AA5
330
8A8D
100
AcDbEntity
  8
LW 5016-39-00
100
AcDbVertex
100
AcDb2dVertex
 10
43.4989869785311
 20
-12.22241878509516
 30
0.0
  0
VERTEX
  5
8AA6
330
8A8D
100
AcDbEntity
  8
LW 5016-39-00
100
AcDbVertex
100
AcDb2dVertex
 10
43.52000000000022
 20
-12.49999999999994
 30
0.0
  0
SEQEND
  5
8AA7
330
8A8D
100
AcDbEntity
  8
LW 5016-39-00
  0
POLYLINE
  5
8AA8
330
8A6E
100
AcDbEntity
  8
LW 5016-39-00
100
AcDb2dPolyline
 66
     1
 10
0.0
 20
0.0
 30
0.0
 70
   128
  0
VERTEX
  5
8AA9
330
8AA8
100
AcDbEntity
  8
LW 5016-39-00
100
AcDbVertex
100
AcDb2dVertex
 10
43.52000000000022
 20
25.00000000000011
 30
0.0
  0
VERTEX
  5
8AAA
330
8AA8
100
AcDbEntity
  8
LW 5016-39-00
100
AcDbVertex
100
AcDb2dVertex
 10
43.4989869785311
 20
24.99787092208874
 30
0.0
  0
VERTEX
  5
8AAB
330
8AA8
100
AcDbEntity
  8
LW 5016-39-00
100
AcDbVertex
100
AcDb2dVertex
 10
43.43565704345725
 20
24.99166965484631
 30
0.0
  0
VERTEX
  5
8AAC
330
8AA8
100
AcDbEntity
  8
LW 5016-39-00
100
AcDbVertex
100
AcDb2dVertex
 10
43.32957746505759
 20
24.98167514801037
 30
0.0
  0
VERTEX
  5
8AAD
330
8AA8
100
AcDbEntity
  8
LW 5016-39-00
100
AcDbVertex
100
AcDb2dVertex
 10
43.18169476509116
 20
24.96845483779919
 30
0.0
  0
VERTEX
  5
8AAE
330
8AA8
100
AcDbEntity
  8
LW 5016-39-00
100
AcDbVertex
100
AcDb2dVertex
 10
42.99847723960898
 20
24.95326280593884
 30
0.0
  0
VERTEX
  5
8AAF
330
8AA8
100
AcDbEntity
  8
LW 5016-39-00
100
AcDbVertex
100
AcDb2dVertex
 10
42.78776528358481
 20
24.93742227554333
 30
0.0
  0
VERTEX
  5
8AB0
330
8AA8
100
AcDbEntity
  8
LW 5016-39-00
100
AcDbVertex
100
AcDb2dVertex
 10
42.54740001678489
 20
24.92156982421886
 30
0.0
  0
VERTEX
  5
8AB1
330
8AA8
100
AcDbEntity
  8
LW 5016-39-00
100
AcDbVertex
100
AcDb2dVertex
 10
42.27476121902488
 20
24.90634918212902
 30
0.0
  0
VERTEX
  5
8AB2
330
8AA8
100
AcDbEntity
  8
LW 5016-39-00
100
AcDbVertex
100
AcDb2dVertex
 10
41.97699787139915
 20
24.89308834075939
 30
0.0
  0
VERTEX
  5
8AB3
330
8AA8
100
AcDbEntity
  8
LW 5016-39-00
100
AcDbVertex
100
AcDb2dVertex
 10
41.66183115959189
 20
24.8830556869508
 30
0.0
  0
VERTEX
  5
8AB4
330
8AA8
100
AcDbEntity
  8
LW 5016-39-00
100
AcDbVertex
100
AcDb2dVertex
 10
41.33929254531882
 20
24.87682580947887
 30
0.0
  0
VERTEX
  5
8AB5
330
8AA8
100
AcDbEntity
  8
LW 5016-39-00
100
AcDbVertex
100
AcDb2dVertex
 10
41.02000000000022
 20
24.87468481063854
 30
0.0
  0
VERTEX
  5
8AB6
330
8AA8
100
AcDbEntity
  8
LW 5016-39-00
100
AcDbVertex
100
AcDb2dVertex
 10
40.70070745468162
 20
24.87682580947887
 30
0.0
  0
VERTEX
  5
8AB7
330
8AA8
100
AcDbEntity
  8
LW 5016-39-00
100
AcDbVertex
100
AcDb2dVertex
 10
40.37816884040855
 20
24.8830556869508
 30
0.0
  0
VERTEX
  5
8AB8
330
8AA8
100
AcDbEntity
  8
LW 5016-39-00
100
AcDbVertex
100
AcDb2dVertex
 10
40.06300212860129
 20
24.89308834075939
 30
0.0
  0
VERTEX
  5
8AB9
330
8AA8
100
AcDbEntity
  8
LW 5016-39-00
100
AcDbVertex
100
AcDb2dVertex
 10
39.76523878097557
 20
24.90634918212902
 30
0.0
  0
VERTEX
  5
8ABA
330
8AA8
100
AcDbEntity
  8
LW 5016-39-00
100
AcDbVertex
100
AcDb2dVertex
 10
39.49259998321556
 20
24.92156982421886
 30
0.0
  0
VERTEX
  5
8ABB
330
8AA8
100
AcDbEntity
  8
LW 5016-39-00
100
AcDbVertex
100
AcDb2dVertex
 10
39.25223471641563
 20
24.93742227554333
 30
0.0
  0
VERTEX
  5
8ABC
330
8AA8
100
AcDbEntity
  8
LW 5016-39-00
100
AcDbVertex
100
AcDb2dVertex
 10
39.04152276039146
 20
24.95326280593884
 30
0.0
  0
VERTEX
  5
8ABD
330
8AA8
100
AcDbEntity
  8
LW 5016-39-00
100
AcDbVertex
100
AcDb2dVertex
 10
38.85830523490928
 20
24.96845483779919
 30
0.0
  0
VERTEX
  5
8ABE
330
8AA8
100
AcDbEntity
  8
LW 5016-39-00
100
AcDbVertex
100
AcDb2dVertex
 10
38.71042253494285
 20
24.98167514801037
 30
0.0
  0
VERTEX
  5
8ABF
330
8AA8
100
AcDbEntity
  8
LW 5016-39-00
100
AcDbVertex
100
AcDb2dVertex
 10
38.60434295654319
 20
24.99166965484631
 30
0.0
  0
VERTEX
  5
8AC0
330
8AA8
100
AcDbEntity
  8
LW 5016-39-00
100
AcDbVertex
100
AcDb2dVertex
 10
38.54101302146934
 20
24.99787092208874
 30
0.0
  0
VERTEX
  5
8AC1
330
8AA8
100
AcDbEntity
  8
LW 5016-39-00
100
AcDbVertex
100
AcDb2dVertex
 10
38.52000000000022
 20
25.00000000000011
 30
0.0
  0
SEQEND
  5
8AC2
330
8AA8
100
AcDbEntity
  8
LW 5016-39-00
  0
LINE
  5
8AC3
330
8A6E
100
AcDbEntity
  8
LW 5016-39-00
100
AcDbLine
 10
45.02000000000022
 20
-24.99999999999995
 30
0.0
 11
45.02000000000022
 21
25.00000000000011
 31
0.0
  0
LINE
  5
8AC4
330
8A6E
100
AcDbEntity
  8
LW 5016-39-00
100
AcDbLine
 10
51.02000000000022
 20
-18.99999999999989
 30
0.0
 11
51.02000000000022
 21
19.00000000000005
 31
0.0
  0
LINE
  5
8AC5
330
8A6E
100
AcDbEntity
  8
LW 5016-39-00
100
AcDbLine
 10
26.02000000000022
 20
25.00000000000011
 30
0.0
 11
38.52000000000022
 21
25.00000000000011
 31
0.0
  0
LINE
  5
8AC6
330
8A6E
100
AcDbEntity
  8
LW 5016-39-00
100
AcDbLine
 10
43.52000000000022
 20
25.00000000000011
 30
0.0
 11
45.02000000000022
 21
25.00000000000011
 31
0.0
  0
LINE
  5
8AC7
330
8A6E
100
AcDbEntity
  8
LW 5016-39-00
100
AcDbLine
 10
26.02000000000022
 20
-24.99999999999995
 30
0.0
 11
45.02000000000022
 21
-24.99999999999995
 31
0.0
  0
LINE
  5
8AC8
330
8A6E
100
AcDbEntity
  8
LW 5016-39-00
100
AcDbLine
 10
51.02000000000022
 20
-18.99999999999989
 30
0.0
 11
45.02000000000022
 21
-24.99999999999995
 31
0.0
  0
LINE
  5
8AC9
330
8A6E
100
AcDbEntity
  8
LW 5016-39-00
100
AcDbLine
 10
51.02000000000022
 20
19.00000000000005
 30
0.0
 11
45.02000000000022
 21
25.00000000000011
 31
0.0
  0
ELLIPSE
  5
8ACA
330
8A6E
100
AcDbEntity
  8
LW 5016-39-00
100
AcDbEllipse
 10
-41.01999999999977
 20
-9.499999999999943
 30
0.0
 11
-2.499999999999997
 21
0.0000000000002
 31
0.0
210
0.0
220
0.0
230
1.0
 40
0.866025403784439
 41
0.7560039322268107
 42
2.385588721363187
  0
POLYLINE
  5
8ACB
330
8A6E
100
AcDbEntity
  8
LW 5016-39-00
100
AcDb2dPolyline
 66
     1
 10
0.0
 20
0.0
 30
0.0
 70
   128
  0
VERTEX
  5
8ACC
330
8ACB
100
AcDbEntity
  8
LW 5016-39-00
100
AcDbVertex
100
AcDb2dVertex
 10
-43.51999999999977
 20
-12.49999999999994
 30
0.0
  0
VERTEX
  5
8ACD
330
8ACB
100
AcDbEntity
  8
LW 5016-39-00
100
AcDbVertex
100
AcDb2dVertex
 10
-43.49898697853065
 20
-12.22241878509516
 30
0.0
  0
VERTEX
  5
8ACE
330
8ACB
100
AcDbEntity
  8
LW 5016-39-00
100
AcDbVertex
100
AcDb2dVertex
 10
-43.4356570434568
 20
-11.93999171257013
 30
0.0
  0
VERTEX
  5
8ACF
330
8ACB
100
AcDbEntity
  8
LW 5016-39-00
100
AcDbVertex
100
AcDb2dVertex
 10
-43.32957746505714
 20
-11.6620504856109
 30
0.0
  0
VERTEX
  5
8AD0
330
8ACB
100
AcDbEntity
  8
LW 5016-39-00
100
AcDbVertex
100
AcDb2dVertex
 10
-43.18169476509071
 20
-11.39756798744196
 30
0.0
  0
VERTEX
  5
8AD1
330
8ACB
100
AcDbEntity
  8
LW 5016-39-00
100
AcDbVertex
100
AcDb2dVertex
 10
-42.99847723960853
 20
-11.15386009216303
 30
0.0
  0
VERTEX
  5
8AD2
330
8ACB
100
AcDbEntity
  8
LW 5016-39-00
100
AcDbVertex
100
AcDb2dVertex
 10
-42.78776528358436
 20
-10.9377777576446
 30
0.0
  0
VERTEX
  5
8AD3
330
8ACB
100
AcDbEntity
  8
LW 5016-39-00
100
AcDbVertex
100
AcDb2dVertex
 10
-42.54740001678444
 20
-10.74736952781671
 30
0.0
  0
VERTEX
  5
8AD4
330
8ACB
100
AcDbEntity
  8
LW 5016-39-00
100
AcDbVertex
100
AcDb2dVertex
 10
-42.27476121902443
 20
-10.58108925819391
 30
0.0
  0
VERTEX
  5
8AD5
330
8ACB
100
AcDbEntity
  8
LW 5016-39-00
100
AcDbVertex
100
AcDb2dVertex
 10
-41.97699787139869
 20
-10.4463899135589
 30
0.0
  0
VERTEX
  5
8AD6
330
8ACB
100
AcDbEntity
  8
LW 5016-39-00
100
AcDbVertex
100
AcDb2dVertex
 10
-41.66183115959144
 20
-10.34950613975519
 30
0.0
  0
VERTEX
  5
8AD7
330
8ACB
100
AcDbEntity
  8
LW 5016-39-00
100
AcDbVertex
100
AcDb2dVertex
 10
-41.33929254531837
 20
-10.2915477752685
 30
0.0
  0
VERTEX
  5
8AD8
330
8ACB
100
AcDbEntity
  8
LW 5016-39-00
100
AcDbVertex
100
AcDb2dVertex
 10
-41.01999999999977
 20
-10.2722799777984
 30
0.0
  0
VERTEX
  5
8AD9
330
8ACB
100
AcDbEntity
  8
LW 5016-39-00
100
AcDbVertex
100
AcDb2dVertex
 10
-40.70070745468116
 20
-10.2915477752685
 30
0.0
  0
VERTEX
  5
8ADA
330
8ACB
100
AcDbEntity
  8
LW 5016-39-00
100
AcDbVertex
100
AcDb2dVertex
 10
-40.37816884040809
 20
-10.34950613975519
 30
0.0
  0
VERTEX
  5
8ADB
330
8ACB
100
AcDbEntity
  8
LW 5016-39-00
100
AcDbVertex
100
AcDb2dVertex
 10
-40.06300212860084
 20
-10.4463899135589
 30
0.0
  0
VERTEX
  5
8ADC
330
8ACB
100
AcDbEntity
  8
LW 5016-39-00
100
AcDbVertex
100
AcDb2dVertex
 10
-39.76523878097511
 20
-10.58108925819391
 30
0.0
  0
VERTEX
  5
8ADD
330
8ACB
100
AcDbEntity
  8
LW 5016-39-00
100
AcDbVertex
100
AcDb2dVertex
 10
-39.4925999832151
 20
-10.74736952781671
 30
0.0
  0
VERTEX
  5
8ADE
330
8ACB
100
AcDbEntity
  8
LW 5016-39-00
100
AcDbVertex
100
AcDb2dVertex
 10
-39.25223471641518
 20
-10.9377777576446
 30
0.0
  0
VERTEX
  5
8ADF
330
8ACB
100
AcDbEntity
  8
LW 5016-39-00
100
AcDbVertex
100
AcDb2dVertex
 10
-39.04152276039101
 20
-11.15386009216303
 30
0.0
  0
VERTEX
  5
8AE0
330
8ACB
100
AcDbEntity
  8
LW 5016-39-00
100
AcDbVertex
100
AcDb2dVertex
 10
-38.85830523490883
 20
-11.39756798744196
 30
0.0
  0
VERTEX
  5
8AE1
330
8ACB
100
AcDbEntity
  8
LW 5016-39-00
100
AcDbVertex
100
AcDb2dVertex
 10
-38.7104225349424
 20
-11.6620504856109
 30
0.0
  0
VERTEX
  5
8AE2
330
8ACB
100
AcDbEntity
  8
LW 5016-39-00
100
AcDbVertex
100
AcDb2dVertex
 10
-38.60434295654274
 20
-11.93999171257013
 30
0.0
  0
VERTEX
  5
8AE3
330
8ACB
100
AcDbEntity
  8
LW 5016-39-00
100
AcDbVertex
100
AcDb2dVertex
 10
-38.54101302146889
 20
-12.22241878509516
 30
0.0
  0
VERTEX
  5
8AE4
330
8ACB
100
AcDbEntity
  8
LW 5016-39-00
100
AcDbVertex
100
AcDb2dVertex
 10
-38.51999999999977
 20
-12.49999999999994
 30
0.0
  0
SEQEND
  5
8AE5
330
8ACB
100
AcDbEntity
  8
LW 5016-39-00
  0
POLYLINE
  5
8AE6
330
8A6E
100
AcDbEntity
  8
LW 5016-39-00
100
AcDb2dPolyline
 66
     1
 10
0.0
 20
0.0
 30
0.0
 70
   128
  0
VERTEX
  5
8AE7
330
8AE6
100
AcDbEntity
  8
LW 5016-39-00
100
AcDbVertex
100
AcDb2dVertex
 10
-38.51999999999977
 20
-12.49999999999994
 30
0.0
  0
VERTEX
  5
8AE8
330
8AE6
100
AcDbEntity
  8
LW 5016-39-00
100
AcDbVertex
100
AcDb2dVertex
 10
-38.54101302146889
 20
-12.77545213699335
 30
0.0
  0
VERTEX
  5
8AE9
330
8AE6
100
AcDbEntity
  8
LW 5016-39-00
100
AcDbVertex
100
AcDb2dVertex
 10
-38.60434295654274
 20
-13.05167794227594
 30
0.0
  0
VERTEX
  5
8AEA
330
8AE6
100
AcDbEntity
  8
LW 5016-39-00
100
AcDbVertex
100
AcDb2dVertex
 10
-38.7104225349424
 20
-13.31962585449213
 30
0.0
  0
VERTEX
  5
8AEB
330
8AE6
100
AcDbEntity
  8
LW 5016-39-00
100
AcDbVertex
100
AcDb2dVertex
 10
-38.85830523490883
 20
-13.5708856582641
 30
0.0
  0
VERTEX
  5
8AEC
330
8AE6
100
AcDbEntity
  8
LW 5016-39-00
100
AcDbVertex
100
AcDb2dVertex
 10
-39.04152276039101
 20
-13.79940271377558
 30
0.0
  0
VERTEX
  5
8AED
330
8AE6
100
AcDbEntity
  8
LW 5016-39-00
100
AcDbVertex
100
AcDb2dVertex
 10
-39.25223471641518
 20
-13.99964332580561
 30
0.0
  0
VERTEX
  5
8AEE
330
8AE6
100
AcDbEntity
  8
LW 5016-39-00
100
AcDbVertex
100
AcDb2dVertex
 10
-39.4925999832151
 20
-14.17419910430902
 30
0.0
  0
VERTEX
  5
8AEF
330
8AE6
100
AcDbEntity
  8
LW 5016-39-00
100
AcDbVertex
100
AcDb2dVertex
 10
-39.76523878097511
 20
-14.32525992393488
 30
0.0
  0
VERTEX
  5
8AF0
330
8AE6
100
AcDbEntity
  8
LW 5016-39-00
100
AcDbVertex
100
AcDb2dVertex
 10
-40.06300212860084
 20
-14.44669842720026
 30
0.0
  0
VERTEX
  5
8AF1
330
8AE6
100
AcDbEntity
  8
LW 5016-39-00
100
AcDbVertex
100
AcDb2dVertex
 10
-40.37816884040809
 20
-14.53354954719538
 30
0.0
  0
VERTEX
  5
8AF2
330
8AE6
100
AcDbEntity
  8
LW 5016-39-00
100
AcDbVertex
100
AcDb2dVertex
 10
-40.70070745468116
 20
-14.58527922630304
 30
0.0
  0
VERTEX
  5
8AF3
330
8AE6
100
AcDbEntity
  8
LW 5016-39-00
100
AcDbVertex
100
AcDb2dVertex
 10
-41.01999999999977
 20
-14.6024060249328
 30
0.0
  0
VERTEX
  5
8AF4
330
8AE6
100
AcDbEntity
  8
LW 5016-39-00
100
AcDbVertex
100
AcDb2dVertex
 10
-41.33929254531837
 20
-14.58527922630304
 30
0.0
  0
VERTEX
  5
8AF5
330
8AE6
100
AcDbEntity
  8
LW 5016-39-00
100
AcDbVertex
100
AcDb2dVertex
 10
-41.66183115959144
 20
-14.53354954719538
 30
0.0
  0
VERTEX
  5
8AF6
330
8AE6
100
AcDbEntity
  8
LW 5016-39-00
100
AcDbVertex
100
AcDb2dVertex
 10
-41.97699787139869
 20
-14.44669842720026
 30
0.0
  0
VERTEX
  5
8AF7
330
8AE6
100
AcDbEntity
  8
LW 5016-39-00
100
AcDbVertex
100
AcDb2dVertex
 10
-42.27476121902443
 20
-14.32525992393488
 30
0.0
  0
VERTEX
  5
8AF8
330
8AE6
100
AcDbEntity
  8
LW 5016-39-00
100
AcDbVertex
100
AcDb2dVertex
 10
-42.54740001678444
 20
-14.17419910430902
 30
0.0
  0
VERTEX
  5
8AF9
330
8AE6
100
AcDbEntity
  8
LW 5016-39-00
100
AcDbVertex
100
AcDb2dVertex
 10
-42.78776528358436
 20
-13.99964332580561
 30
0.0
  0
VERTEX
  5
8AFA
330
8AE6
100
AcDbEntity
  8
LW 5016-39-00
100
AcDbVertex
100
AcDb2dVertex
 10
-42.99847723960853
 20
-13.79940271377558
 30
0.0
  0
VERTEX
  5
8AFB
330
8AE6
100
AcDbEntity
  8
LW 5016-39-00
100
AcDbVertex
100
AcDb2dVertex
 10
-43.18169476509071
 20
-13.5708856582641
 30
0.0
  0
VERTEX
  5
8AFC
330
8AE6
100
AcDbEntity
  8
LW 5016-39-00
100
AcDbVertex
100
AcDb2dVertex
 10
-43.32957746505714
 20
-13.31962585449213
 30
0.0
  0
VERTEX
  5
8AFD
330
8AE6
100
AcDbEntity
  8
LW 5016-39-00
100
AcDbVertex
100
AcDb2dVertex
 10
-43.4356570434568
 20
-13.05167794227594
 30
0.0
  0
VERTEX
  5
8AFE
330
8AE6
100
AcDbEntity
  8
LW 5016-39-00
100
AcDbVertex
100
AcDb2dVertex
 10
-43.49898697853065
 20
-12.77545213699335
 30
0.0
  0
VERTEX
  5
8AFF
330
8AE6
100
AcDbEntity
  8
LW 5016-39-00
100
AcDbVertex
100
AcDb2dVertex
 10
-43.51999999999977
 20
-12.49999999999994
 30
0.0
  0
SEQEND
  5
8B00
330
8AE6
100
AcDbEntity
  8
LW 5016-39-00
  0
POLYLINE
  5
8B01
330
8A6E
100
AcDbEntity
  8
LW 5016-39-00
100
AcDb2dPolyline
 66
     1
 10
0.0
 20
0.0
 30
0.0
 70
   128
  0
VERTEX
  5
8B02
330
8B01
100
AcDbEntity
  8
LW 5016-39-00
100
AcDbVertex
100
AcDb2dVertex
 10
-38.51999999999977
 20
25.00000000000011
 30
0.0
  0
VERTEX
  5
8B03
330
8B01
100
AcDbEntity
  8
LW 5016-39-00
100
AcDbVertex
100
AcDb2dVertex
 10
-38.54101302146889
 20
24.99787092208874
 30
0.0
  0
VERTEX
  5
8B04
330
8B01
100
AcDbEntity
  8
LW 5016-39-00
100
AcDbVertex
100
AcDb2dVertex
 10
-38.60434295654274
 20
24.99166965484631
 30
0.0
  0
VERTEX
  5
8B05
330
8B01
100
AcDbEntity
  8
LW 5016-39-00
100
AcDbVertex
100
AcDb2dVertex
 10
-38.7104225349424
 20
24.98167514801037
 30
0.0
  0
VERTEX
  5
8B06
330
8B01
100
AcDbEntity
  8
LW 5016-39-00
100
AcDbVertex
100
AcDb2dVertex
 10
-38.85830523490883
 20
24.96845483779919
 30
0.0
  0
VERTEX
  5
8B07
330
8B01
100
AcDbEntity
  8
LW 5016-39-00
100
AcDbVertex
100
AcDb2dVertex
 10
-39.04152276039101
 20
24.95326280593884
 30
0.0
  0
VERTEX
  5
8B08
330
8B01
100
AcDbEntity
  8
LW 5016-39-00
100
AcDbVertex
100
AcDb2dVertex
 10
-39.25223471641518
 20
24.93742227554333
 30
0.0
  0
VERTEX
  5
8B09
330
8B01
100
AcDbEntity
  8
LW 5016-39-00
100
AcDbVertex
100
AcDb2dVertex
 10
-39.4925999832151
 20
24.92156982421886
 30
0.0
  0
VERTEX
  5
8B0A
330
8B01
100
AcDbEntity
  8
LW 5016-39-00
100
AcDbVertex
100
AcDb2dVertex
 10
-39.76523878097511
 20
24.90634918212902
 30
0.0
  0
VERTEX
  5
8B0B
330
8B01
100
AcDbEntity
  8
LW 5016-39-00
100
AcDbVertex
100
AcDb2dVertex
 10
-40.06300212860084
 20
24.89308834075939
 30
0.0
  0
VERTEX
  5
8B0C
330
8B01
100
AcDbEntity
  8
LW 5016-39-00
100
AcDbVertex
100
AcDb2dVertex
 10
-40.37816884040809
 20
24.8830556869508
 30
0.0
  0
VERTEX
  5
8B0D
330
8B01
100
AcDbEntity
  8
LW 5016-39-00
100
AcDbVertex
100
AcDb2dVertex
 10
-40.70070745468116
 20
24.87682580947887
 30
0.0
  0
VERTEX
  5
8B0E
330
8B01
100
AcDbEntity
  8
LW 5016-39-00
100
AcDbVertex
100
AcDb2dVertex
 10
-41.01999999999977
 20
24.87468481063854
 30
0.0
  0
VERTEX
  5
8B0F
330
8B01
100
AcDbEntity
  8
LW 5016-39-00
100
AcDbVertex
100
AcDb2dVertex
 10
-41.33929254531837
 20
24.87682580947887
 30
0.0
  0
VERTEX
  5
8B10
330
8B01
100
AcDbEntity
  8
LW 5016-39-00
100
AcDbVertex
100
AcDb2dVertex
 10
-41.66183115959144
 20
24.8830556869508
 30
0.0
  0
VERTEX
  5
8B11
330
8B01
100
AcDbEntity
  8
LW 5016-39-00
100
AcDbVertex
100
AcDb2dVertex
 10
-41.97699787139869
 20
24.89308834075939
 30
0.0
  0
VERTEX
  5
8B12
330
8B01
100
AcDbEntity
  8
LW 5016-39-00
100
AcDbVertex
100
AcDb2dVertex
 10
-42.27476121902443
 20
24.90634918212902
 30
0.0
  0
VERTEX
  5
8B13
330
8B01
100
AcDbEntity
  8
LW 5016-39-00
100
AcDbVertex
100
AcDb2dVertex
 10
-42.54740001678444
 20
24.92156982421886
 30
0.0
  0
VERTEX
  5
8B14
330
8B01
100
AcDbEntity
  8
LW 5016-39-00
100
AcDbVertex
100
AcDb2dVertex
 10
-42.78776528358436
 20
24.93742227554333
 30
0.0
  0
VERTEX
  5
8B15
330
8B01
100
AcDbEntity
  8
LW 5016-39-00
100
AcDbVertex
100
AcDb2dVertex
 10
-42.99847723960853
 20
24.95326280593884
 30
0.0
  0
VERTEX
  5
8B16
330
8B01
100
AcDbEntity
  8
LW 5016-39-00
100
AcDbVertex
100
AcDb2dVertex
 10
-43.18169476509071
 20
24.96845483779919
 30
0.0
  0
VERTEX
  5
8B17
330
8B01
100
AcDbEntity
  8
LW 5016-39-00
100
AcDbVertex
100
AcDb2dVertex
 10
-43.32957746505714
 20
24.98167514801037
 30
0.0
  0
VERTEX
  5
8B18
330
8B01
100
AcDbEntity
  8
LW 5016-39-00
100
AcDbVertex
100
AcDb2dVertex
 10
-43.4356570434568
 20
24.99166965484631
 30
0.0
  0
VERTEX
  5
8B19
330
8B01
100
AcDbEntity
  8
LW 5016-39-00
100
AcDbVertex
100
AcDb2dVertex
 10
-43.49898697853065
 20
24.99787092208874
 30
0.0
  0
VERTEX
  5
8B1A
330
8B01
100
AcDbEntity
  8
LW 5016-39-00
100
AcDbVertex
100
AcDb2dVertex
 10
-43.51999999999977
 20
25.00000000000011
 30
0.0
  0
SEQEND
  5
8B1B
330
8B01
100
AcDbEntity
  8
LW 5016-39-00
  0
LINE
  5
8B1C
330
8A6E
100
AcDbEntity
  8
LW 5016-39-00
100
AcDbLine
 10
-45.01999999999976
 20
25.00000000000011
 30
0.0
 11
-45.01999999999976
 21
-24.99999999999995
 31
0.0
  0
LINE
  5
8B1D
330
8A6E
100
AcDbEntity
  8
LW 5016-39-00
100
AcDbLine
 10
-51.01999999999977
 20
19.00000000000005
 30
0.0
 11
-51.01999999999977
 21
-18.99999999999989
 31
0.0
  0
LINE
  5
8B1E
330
8A6E
100
AcDbEntity
  8
LW 5016-39-00
100
AcDbLine
 10
-145.02
 20
10.00000000000011
 30
0.0
 11
-145.02
 21
-9.999999999999943
 31
0.0
  0
LINE
  5
8B1F
330
8A6E
100
AcDbEntity
  8
LW 5016-39-00
100
AcDbLine
 10
-146.02
 20
9.000000000000113
 30
0.0
 11
-146.02
 21
-8.999999999999943
 31
0.0
  0
LINE
  5
8B20
330
8A6E
100
AcDbEntity
  8
LW 5016-39-00
100
AcDbLine
 10
-26.01999999999977
 20
-24.99999999999995
 30
0.0
 11
-45.01999999999976
 21
-24.99999999999995
 31
0.0
  0
LINE
  5
8B21
330
8A6E
100
AcDbEntity
  8
LW 5016-39-00
100
AcDbLine
 10
-26.01999999999977
 20
25.00000000000011
 30
0.0
 11
-38.51999999999977
 21
25.00000000000011
 31
0.0
  0
LINE
  5
8B22
330
8A6E
100
AcDbEntity
  8
LW 5016-39-00
100
AcDbLine
 10
-43.51999999999977
 20
25.00000000000011
 30
0.0
 11
-45.01999999999976
 21
25.00000000000011
 31
0.0
  0
LINE
  5
8B23
330
8A6E
100
AcDbEntity
  8
LW 5016-39-00
100
AcDbLine
 10
-51.01999999999977
 20
19.00000000000005
 30
0.0
 11
-45.01999999999976
 21
25.00000000000011
 31
0.0
  0
LINE
  5
8B24
330
8A6E
100
AcDbEntity
  8
LW 5016-39-00
100
AcDbLine
 10
-51.01999999999977
 20
-18.99999999999989
 30
0.0
 11
-45.01999999999976
 21
-24.99999999999995
 31
0.0
  0
ARC
  5
8B25
330
8A6E
100
AcDbEntity
  8
LW 5016-39-00
100
AcDbCircle
 10
-52.01999999999999
 20
11.00000000000011
 30
0.0
 40
1.000000000000002
100
AcDbArc
 50
270.0
 51
0.0
  0
ARC
  5
8B26
330
8A6E
100
AcDbEntity
  8
LW 5016-39-00
100
AcDbCircle
 10
-52.01999999999999
 20
-10.99999999999994
 30
0.0
 40
1.000000000000002
100
AcDbArc
 50
0.0
 51
90.0
  0
LINE
  5
8B27
330
8A6E
100
AcDbEntity
  8
LW 5016-39-00
100
AcDbLine
 10
-52.01999999999999
 20
-9.999999999999943
 30
0.0
 11
-93.60435004493384
 21
-9.999999999999943
 31
0.0
  0
LINE
  5
8B28
330
8A6E
100
AcDbEntity
  8
LW 5016-39-00
100
AcDbLine
 10
-128.3956499550655
 20
-9.999999999999943
 30
0.0
 11
-145.02
 21
-9.999999999999943
 31
0.0
  0
LINE
  5
8B29
330
8A6E
100
AcDbEntity
  8
LW 5016-39-00
100
AcDbLine
 10
-52.01999999999999
 20
10.00000000000011
 30
0.0
 11
-93.60435004493467
 21
10.00000000000011
 31
0.0
  0
LINE
  5
8B2A
330
8A6E
100
AcDbEntity
  8
LW 5016-39-00
100
AcDbLine
 10
-128.3956499550647
 20
10.00000000000011
 30
0.0
 11
-145.02
 21
10.00000000000011
 31
0.0
  0
LINE
  5
8B2B
330
8A6E
100
AcDbEntity
  8
LW 5016-39-00
100
AcDbLine
 10
-146.02
 20
9.000000000000056
 30
0.0
 11
-145.02
 21
10.00000000000011
 31
0.0
  0
LINE
  5
8B2C
330
8A6E
100
AcDbEntity
  8
LW 5016-39-00
100
AcDbLine
 10
-146.02
 20
-8.999999999999943
 30
0.0
 11
-145.02
 21
-9.999999999999943
 31
0.0
  0
LINE
  5
8B2D
330
8A6E
100
AcDbEntity
  8
LW 5016-39-00
100
AcDbLine
 10
-128.4999999999997
 20
60.87500000000005
 30
0.0
 11
-93.49999999999976
 21
60.87500000000005
 31
0.0
  0
LINE
  5
8B2E
330
8A6E
100
AcDbEntity
  8
LW 5016-39-00
100
AcDbLine
 10
-126.9999999999997
 20
-19.99999999999994
 30
0.0
 11
-94.99999999999976
 21
-19.99999999999994
 31
0.0
  0
LINE
  5
8B2F
330
8A6E
100
AcDbEntity
  8
LW 5016-39-00
100
AcDbLine
 10
-93.49999999999976
 20
60.87500000000005
 30
0.0
 11
-93.49999999999976
 21
10.10000000000008
 31
0.0
  0
LINE
  5
8B30
330
8A6E
100
AcDbEntity
  8
LW 5016-39-00
100
AcDbLine
 10
-93.49999999999976
 20
-10.09999999999996
 30
0.0
 11
-93.49999999999976
 21
-18.49999999999994
 31
0.0
  0
LINE
  5
8B31
330
8A6E
100
AcDbEntity
  8
LW 5016-39-00
100
AcDbLine
 10
-128.4999999999997
 20
60.87500000000005
 30
0.0
 11
-128.4999999999997
 21
10.10000000000008
 31
0.0
  0
LINE
  5
8B32
330
8A6E
100
AcDbEntity
  8
LW 5016-39-00
100
AcDbLine
 10
-128.4999999999997
 20
-10.09999999999996
 30
0.0
 11
-128.4999999999997
 21
-18.49999999999994
 31
0.0
  0
ARC
  5
8B33
330
8A6E
100
AcDbEntity
  8
LW 5016-39-00
100
AcDbCircle
 10
-126.9999999999997
 20
-18.49999999999994
 30
0.0
 40
1.500000000000012
100
AcDbArc
 50
180.0
 51
270.0
  0
ARC
  5
8B34
330
8A6E
100
AcDbEntity
  8
LW 5016-39-00
100
AcDbCircle
 10
-94.99999999999976
 20
-18.49999999999994
 30
0.0
 40
1.500000000000012
100
AcDbArc
 50
270.0
 51
0.0
  0
LINE
  5
8B35
330
8A6E
100
AcDbEntity
  8
LW 5016-39-00
100
AcDbLine
 10
-116.7730999999998
 20
77.00000000000006
 30
0.0
 11
-105.2268999999999
 21
77.00000000000006
 31
0.0
  0
LINE
  5
8B36
330
8A6E
100
AcDbEntity
  8
LW 5016-39-00
100
AcDbLine
 10
-103.9999999999997
 20
75.77310000000017
 30
0.0
 11
-117.9999999999997
 21
75.77310000000017
 31
0.0
  0
LINE
  5
8B37
330
8A6E
100
AcDbEntity
  8
LW 5016-39-00
100
AcDbLine
 10
-105.2268999999999
 20
77.00000000000006
 30
0.0
 11
-103.9999999999997
 21
75.77310000000017
 31
0.0
  0
LINE
  5
8B38
330
8A6E
100
AcDbEntity
  8
LW 5016-39-00
100
AcDbLine
 10
-116.7730999999998
 20
77.00000000000006
 30
0.0
 11
-117.9999999999997
 21
75.77310000000017
 31
0.0
  0
LINE
  5
8B39
330
8A6E
100
AcDbEntity
  8
LW 5016-39-00
100
AcDbLine
 10
-103.9999999999997
 20
75.77310000000017
 30
0.0
 11
-103.9999999999997
 21
60.87500000000005
 31
0.0
  0
LINE
  5
8B3A
330
8A6E
100
AcDbEntity
  8
LW 5016-39-00
100
AcDbLine
 10
-117.9999999999997
 20
75.77310000000017
 30
0.0
 11
-117.9999999999997
 21
60.87500000000005
 31
0.0
  0
LINE
  5
8B3B
330
8A6E
100
AcDbEntity
  8
LW 5016-39-00
 62
     3
100
AcDbLine
 10
-105.2054999999998
 20
60.87500000000005
 30
0.0
 11
-105.2054999999998
 21
76.97860000000009
 31
0.0
  0
LINE
  5
8B3C
330
8A6E
100
AcDbEntity
  8
LW 5016-39-00
 62
     3
100
AcDbLine
 10
-116.7944999999997
 20
76.97860000000009
 30
0.0
 11
-116.7944999999997
 21
60.87500000000005
 31
0.0
  0
LINE
  5
8B3D
330
8A6E
100
AcDbEntity
  8
LW 5016-39-00
100
AcDbLine
 10
16.0
 20
12.00000000000005
 30
0.0
 11
16.0
 21
-11.99999999999994
 31
0.0
  0
LINE
  5
8B3E
330
8A6E
100
AcDbEntity
  8
LW 5016-39-00
100
AcDbLine
 10
-16.0
 20
12.00000000000005
 30
0.0
 11
-16.0
 21
-11.99999999999994
 31
0.0
  0
LINE
  5
8B3F
330
8A6E
100
AcDbEntity
  8
LW 5016-39-00
100
AcDbLine
 10
-16.0
 20
12.00000000000005
 30
0.0
 11
16.0
 21
12.00000000000005
 31
0.0
  0
LINE
  5
8B40
330
8A6E
100
AcDbEntity
  8
LW 5016-39-00
100
AcDbLine
 10
-16.0
 20
-11.99999999999994
 30
0.0
 11
16.0
 21
-11.99999999999994
 31
0.0
  0
LINE
  5
8B41
330
8A6E
100
AcDbEntity
  8
LW 5016-39-00
100
AcDbLine
 10
-23.01999999999977
 20
32.50000000000006
 30
0.0
 11
-23.01999999999977
 21
-32.49999999999995
 31
0.0
  0
LINE
  5
8B42
330
8A6E
100
AcDbEntity
  8
LW 5016-39-00
100
AcDbLine
 10
-26.01999999999977
 20
32.50000000000006
 30
0.0
 11
-26.01999999999977
 21
-32.49999999999995
 31
0.0
  0
LINE
  5
8B43
330
8A6E
100
AcDbEntity
  8
LW 5016-39-00
100
AcDbLine
 10
-26.01999999999977
 20
32.50000000000006
 30
0.0
 11
-23.01999999999977
 21
32.50000000000006
 31
0.0
  0
LINE
  5
8B44
330
8A6E
100
AcDbEntity
  8
LW 5016-39-00
100
AcDbLine
 10
-26.01999999999977
 20
-32.49999999999995
 30
0.0
 11
-23.01999999999977
 21
-32.49999999999995
 31
0.0
  0
LINE
  5
8B45
330
8A6E
100
AcDbEntity
  8
LW 5016-39-00
100
AcDbLine
 10
23.02000000000022
 20
-32.49999999999995
 30
0.0
 11
23.02000000000022
 21
32.50000000000006
 31
0.0
  0
LINE
  5
8B46
330
8A6E
100
AcDbEntity
  8
LW 5016-39-00
100
AcDbLine
 10
26.02000000000022
 20
-32.49999999999995
 30
0.0
 11
26.02000000000022
 21
32.50000000000006
 31
0.0
  0
LINE
  5
8B47
330
8A6E
100
AcDbEntity
  8
LW 5016-39-00
100
AcDbLine
 10
26.02000000000022
 20
-32.49999999999995
 30
0.0
 11
23.02000000000022
 21
-32.49999999999995
 31
0.0
  0
LINE
  5
8B48
330
8A6E
100
AcDbEntity
  8
LW 5016-39-00
100
AcDbLine
 10
26.02000000000022
 20
32.50000000000006
 30
0.0
 11
23.02000000000022
 21
32.50000000000006
 31
0.0
  0
LINE
  5
8B49
330
8A6E
100
AcDbEntity
  8
LW 5016-39-00
100
AcDbLine
 10
-21.01999999999977
 20
32.00000000000006
 30
0.0
 11
-21.01999999999977
 21
-31.99999999999994
 31
0.0
  0
LINE
  5
8B4A
330
8A6E
100
AcDbEntity
  8
LW 5016-39-00
100
AcDbLine
 10
-23.01999999999977
 20
32.00000000000006
 30
0.0
 11
-21.01999999999977
 21
32.00000000000006
 31
0.0
  0
LINE
  5
8B4B
330
8A6E
100
AcDbEntity
  8
LW 5016-39-00
100
AcDbLine
 10
-23.01999999999977
 20
-31.99999999999994
 30
0.0
 11
-21.01999999999977
 21
-31.99999999999994
 31
0.0
  0
LINE
  5
8B4C
330
8A6E
100
AcDbEntity
  8
LW 5016-39-00
100
AcDbLine
 10
21.02000000000022
 20
-31.99999999999994
 30
0.0
 11
21.02000000000022
 21
32.00000000000006
 31
0.0
  0
LINE
  5
8B4D
330
8A6E
100
AcDbEntity
  8
LW 5016-39-00
100
AcDbLine
 10
23.02000000000022
 20
-31.99999999999994
 30
0.0
 11
21.02000000000022
 21
-31.99999999999994
 31
0.0
  0
LINE
  5
8B4E
330
8A6E
100
AcDbEntity
  8
LW 5016-39-00
100
AcDbLine
 10
23.02000000000022
 20
32.00000000000006
 30
0.0
 11
21.02000000000022
 21
32.00000000000006
 31
0.0
  0
LINE
  5
8B4F
330
8A6E
100
AcDbEntity
  8
LW 5016-39-00
100
AcDbLine
 10
21.02000000000022
 20
-6.999999999999943
 30
0.0
 11
16.0
 21
-6.999999999999943
 31
0.0
  0
LINE
  5
8B50
330
8A6E
100
AcDbEntity
  8
LW 5016-39-00
100
AcDbLine
 10
-15.99999999999977
 20
-6.999999999999943
 30
0.0
 11
-21.01999999999977
 21
-6.999999999999943
 31
0.0
  0
LINE
  5
8B51
330
8A6E
100
AcDbEntity
  8
LW 5016-39-00
100
AcDbLine
 10
21.02000000000022
 20
7.000000000000056
 30
0.0
 11
16.0
 21
7.000000000000056
 31
0.0
  0
LINE
  5
8B52
330
8A6E
100
AcDbEntity
  8
LW 5016-39-00
100
AcDbLine
 10
-15.99999999999977
 20
7.000000000000056
 30
0.0
 11
-21.01999999999977
 21
7.000000000000056
 31
0.0
  0
LINE
  5
8B53
330
8A6E
100
AcDbEntity
  8
LW 5016-39-00
 62
     3
100
AcDbLine
 10
-21.01999999999977
 20
-5.794499999999914
 30
0.0
 11
-15.99999999999977
 21
-5.794499999999914
 31
0.0
  0
LINE
  5
8B54
330
8A6E
100
AcDbEntity
  8
LW 5016-39-00
 62
     3
100
AcDbLine
 10
16.0
 20
-5.794499999999914
 30
0.0
 11
21.02000000000022
 21
-5.794499999999914
 31
0.0
  0
LINE
  5
8B55
330
8A6E
100
AcDbEntity
  8
LW 5016-39-00
 62
     3
100
AcDbLine
 10
21.02000000000022
 20
5.794500000000084
 30
0.0
 11
16.0
 21
5.794500000000084
 31
0.0
  0
LINE
  5
8B56
330
8A6E
100
AcDbEntity
  8
LW 5016-39-00
 62
     3
100
AcDbLine
 10
-16.0
 20
5.794500000000084
 30
0.0
 11
-21.01999999999977
 21
5.794500000000084
 31
0.0
  0
LINE
  5
8B57
330
8A6E
100
AcDbEntity
  8
LW 5016-39-00
  6
MITTE2
 62
     3
100
AcDbLine
 10
-110.9999999999997
 20
96.48528480478473
 30
0.0
 11
-110.9999999999997
 21
-28.08786257571905
 31
0.0
  0
LINE
  5
8B58
330
8A6E
100
AcDbEntity
  8
LW 5016-39-00
  6
MITTE2
 62
     3
100
AcDbLine
 10
64.94128632737488
 20
0.0
 30
0.0
 11
-149.9412863273749
 21
0.0
 31
0.0
  0
LINE
  5
8B59
330
8A6E
100
AcDbEntity
  8
LW 5016-39-00
  6
VERDECKT
 62
     6
100
AcDbLine
 10
-125.660108542738
 20
60.00000000000437
 30
0.0
 11
-96.33989145726195
 21
59.99999999999573
 31
0.0
  0
ARC
  5
8B5A
330
8A6E
100
AcDbEntity
  8
LW 5016-39-00
  6
VERDECKT
 62
     6
100
AcDbCircle
 10
-125.6601085427375
 20
62.00000000000438
 30
0.0
 40
2.0
100
AcDbArc
 50
250.7099537807859
 51
270.0
  0
ARC
  5
8B5B
330
8A6E
100
AcDbEntity
  8
LW 5016-39-00
  6
VERDECKT
 62
     6
100
AcDbCircle
 10
-96.33989145726149
 20
61.99999999999573
 30
0.0
 40
2.0
100
AcDbArc
 50
270.0
 51
289.2900462191729
  0
LINE
  5
8B5C
330
8A6E
100
AcDbEntity
  8
LW 5016-39-00
  6
VERDECKT
 62
     6
100
AcDbLine
 10
-126.3208093921941
 20
60.11228328727276
 30
0.0
 11
-128.4999999999997
 21
60.87500000000528
 31
0.0
  0
LINE
  5
8B5D
330
8A6E
100
AcDbEntity
  8
LW 5016-39-00
  6
VERDECKT
 62
     6
100
AcDbLine
 10
-95.6791906078058
 20
60.11228328726367
 30
0.0
 11
-93.49999999999976
 21
60.87499999999483
 31
0.0
  0
HATCH
  5
8B5E
330
8A6E
100
AcDbEntity
  8
LW 5016-39-00
 62
     1
100
AcDbHatch
 10
0.0
 20
0.0
 30
0.0
210
0.0
220
0.0
230
1.0
  2
SOLID
 70
     1
 71
     0
 91
        5
 92
        7
 72
     0
 73
     1
 93
       76
 10
-119.4849828252545
 20
27.54233513799324
 10
-119.5365637870963
 20
27.57419396736606
 10
-119.6878061861121
 20
27.69235209159734
 10
-119.8282303163746
 20
27.82683016681
 10
-119.9566148780882
 20
27.97285007327156
 10
-120.073521161004
 20
28.13651886935355
 10
-120.1756990428255
 20
28.3119058227183
 10
-120.2670507224083
 20
28.49365875531868
 10
-120.3365690348546
 20
28.6748276907843
 10
-120.3365690348546
 20
26.41768975258429
 10
-120.3278793796544
 20
26.20479320018427
 10
-120.3018104140546
 20
26.00275871678429
 10
-120.2605345518545
 20
25.80724147478424
 10
-120.2062242068546
 20
25.62258630178445
 10
-120.1367069652544
 20
25.4466207839842
 10
-120.0541552408544
 20
25.27934492138439
 10
-119.9588297233103
 20
25.12877665883735
 10
-119.8521207574545
 20
24.98606905838443
 10
-119.7330724812143
 20
24.86062780281378
 10
-119.6048131704624
 20
24.74936285073642
 10
-119.4676035148545
 20
24.64934491938431
 10
-119.3220517902543
 20
24.56679319498431
 10
-119.1678104104544
 20
24.50379319478435
 10
-119.0070517892545
 20
24.45382767738448
 10
-118.8419483404545
 20
24.42558629798447
 10
-118.6681552364543
 20
24.41689664278448
 10
-118.4943621324541
 20
24.42775871178452
 10
-118.3270862698543
 20
24.45817250498436
 10
-118.1663276486542
 20
24.51248284998456
 10
-118.0099138550545
 20
24.58200009158446
 10
-117.8621897166544
 20
24.67106905738461
 10
-117.7209828196546
 20
24.77751733358451
 10
-117.5897690261344
 20
24.90021526500851
 10
-117.4686352326466
 20
25.03641431371676
 10
-117.3581897150543
 20
25.18375871418454
 10
-117.2604310940546
 20
25.34451733538464
 10
-117.1755331627505
 20
25.52014395663178
 10
-117.1018448866543
 20
25.70079319858434
 10
-117.0453621278543
 20
25.89196561298451
 10
-117.0019138518546
 20
26.09182768258444
 10
-116.9758448862544
 20
26.30037940738436
 10
-116.9671552310544
 20
26.51110354598433
 10
-116.9671552310546
 20
28.630274631737
 10
-117.0302260347894
 20
28.46973076768455
 10
-117.1208463083121
 20
28.28616662388214
 10
-117.2253760012436
 20
28.11770021771196
 10
-117.3409942396692
 20
27.95486732295132
 10
-117.4707838362092
 20
27.81095495458118
 10
-117.6101375194375
 20
27.68351906109689
 10
-117.76062576415
 20
27.5698137063535
 10
-117.8448104062545
 20
27.51784247490474
 10
-117.8448104062545
 20
26.48937940798447
 10
-117.8523704062786
 20
26.35727057997889
 10
-117.8727041994466
 20
26.22651733818435
 10
-117.9056379926544
 20
26.0983449239846
 10
-117.9512586824544
 20
25.98320699258449
 10
-118.0077414412544
 20
25.87826202673415
 10
-118.0753469587102
 20
25.78011237125003
 10
-118.1532931658544
 20
25.68993112958452
 10
-118.2380173040544
 20
25.61824147418457
 10
-118.2380173040546
 20
27.34576278844321
 10
-118.2706527448126
 20
27.33517832117019
 10
-118.456026692364
 20
27.2990665132059
 10
-118.6463164063148
 20
27.28702286042409
 10
-118.8410674996698
 20
27.29904453285354
 10
-119.027436870936
 20
27.3353502545288
 10
-119.0765690308544
 20
27.35194895720366
 10
-119.0765690308544
 20
25.58131043958435
 10
-119.1721552380545
 20
25.65082768118447
 10
-119.2547069624543
 20
25.73337940558446
 10
-119.3245717902623
 20
25.82847030243789
 10
-119.3828793766545
 20
25.93106906138434
 10
-119.4268490319664
 20
26.0497610617611
 10
-119.4589138596543
 20
26.17220699318437
 10
-119.4784655838543
 20
26.30906906258434
 10
-119.4849828252545
 20
26.45244837338447
 97
        0
 92
        7
 72
     0
 73
     1
 93
       72
 10
-119.4703842045184
 20
29.27079900302107
 10
-119.4884586873345
 20
29.39366203789388
 10
-119.4936724804547
 20
29.51772424518441
 10
-119.4936724804547
 20
30.78641390438435
 10
-118.6790173054546
 20
29.93917252238436
 10
-116.9606379896545
 20
31.70534494178452
 10
-116.9606379896545
 20
33.02400011838432
 10
-118.7029138572547
 20
31.30996563018454
 10
-120.3365690348546
 20
32.99141391138443
 10
-120.3365690348546
 20
29.55248286598436
 10
-120.3257938624065
 20
29.34449596877227
 10
-120.3003331726704
 20
29.13777776121952
 10
-120.2605345518545
 20
28.93334493298431
 10
-120.2040517930545
 20
28.74000010478432
 10
-120.1323621376545
 20
28.55317251798425
 10
-120.0463345511743
 20
28.38201237950995
 10
-119.9498793784546
 20
28.21644837898436
 10
-119.8412586884546
 20
28.06437941298447
 10
-119.7219497225585
 20
27.92868175738119
 10
-119.5914311014544
 20
27.8036897569844
 10
-119.4523966182546
 20
27.69506906698422
 10
-119.3046724798546
 20
27.60382768738447
 10
-119.1504311000544
 20
27.53213803198429
 10
-118.9896724788545
 20
27.47782768698431
 10
-118.8223966162545
 20
27.44524147998442
 10
-118.6464310984542
 20
27.43437941098438
 10
-118.4748104082546
 20
27.44524147998442
 10
-118.3075345456545
 20
27.47782768698454
 10
-118.1467759244547
 20
27.52996561818446
 10
-117.9925345446545
 20
27.59948285978436
 10
-117.8437676476305
 20
27.6913238255932
 10
-117.7042986816704
 20
27.7967032742036
 10
-117.5752573019506
 20
27.91470879181981
 10
-117.4559483360544
 20
28.04700010258449
 10
-117.3479359219186
 20
28.19912120651571
 10
-117.2495690250543
 20
28.35765527598443
 10
-117.1648448868545
 20
28.52927596618457
 10
-117.0931552314546
 20
28.71175872538453
 10
-117.0391055761106
 20
28.90598989841493
 10
-116.9953966104544
 20
29.1027932093844
 10
-116.9693276448547
 20
29.31134493418455
 10
-116.9606379896545
 20
29.52206907278452
 10
-116.9606379896545
 20
31.42510356158442
 10
-117.8339483372547
 20
30.53875873118438
 10
-117.8339483372547
 20
29.52206907278452
 10
-117.837695630194
 20
29.45540203808997
 10
-117.8476779924704
 20
29.35445431363161
 10
-117.8691414408144
 20
29.23431983049165
 10
-117.9034655788546
 20
29.11720065770607
 10
-117.9443938548465
 20
29.01570548497017
 10
-117.9725483376946
 20
28.95957031237805
 10
-118.0051345446945
 20
28.90588562255249
 10
-118.1044573036306
 20
28.77332493247633
 10
-118.1744959245424
 20
28.69972355293254
 10
-118.2423621316543
 20
28.64465720793015
 10
-118.3149207525743
 20
28.59595169053392
 10
-118.3920848907505
 20
28.55658755247788
 10
-118.4735069599746
 20
28.52716437997088
 10
-118.5606642016305
 20
28.50646562128446
 10
-118.6499938570864
 20
28.49894906953642
 10
-118.7122986848703
 20
28.5003046557477
 10
-118.7744297195504
 20
28.50630920749092
 10
-118.8376035128544
 20
28.51846603511564
 10
-118.8993000647747
 20
28.53667955241491
 10
-118.9980145478464
 20
28.58032769048424
 10
-119.0658807549584
 20
28.6218555526853
 10
-119.1439138586545
 20
28.68493375978193
 10
-119.2704365957083
 20
28.81433570014684
 10
-119.3104945488385
 20
28.87360355348443
 10
-119.3548117903583
 20
28.94989872614047
 10
-119.3969566180785
 20
29.03391900226921
 10
-119.4397966182145
 20
29.15045596815645
 97
        0
 92
        7
 72
     0
 73
     1
 93
       57
 10
-119.4483124803109
 20
33.82883598300856
 10
-119.4882848942306
 20
33.96031046618447
 10
-119.5153966184548
 20
34.09500012178438
 10
-119.5240862736545
 20
34.23837943258428
 10
-119.5240862736548
 20
35.47882771238443
 10
-120.3496035176549
 20
35.47882771238443
 10
-120.3496035176547
 20
34.24489667398444
 10
-120.3409138624547
 20
34.03417253538447
 10
-120.3126724830547
 20
33.82779322438438
 10
-120.2713966208548
 20
33.6301035685845
 10
-120.2170862758548
 20
33.44110356798438
 10
-120.1453966204549
 20
33.25644839498437
 10
-120.0627579995025
 20
33.09004149790423
 10
-119.9663028267828
 20
32.93122066981397
 10
-119.8568131712627
 20
32.78114163485481
 10
-119.7375911019187
 20
32.64658232408289
 10
-119.6088104118548
 20
32.52651735818432
 10
-119.4697759286546
 20
32.42224149578448
 10
-119.3242242040546
 20
32.33751735758443
 10
-119.1699828242544
 20
32.26582770218425
 10
-119.0092242030546
 20
32.21586218478439
 10
-118.8419483404548
 20
32.18327597778449
 10
-118.6681552364548
 20
32.17241390878445
 10
-118.4943621324546
 20
32.18327597778449
 10
-118.3270862698545
 20
32.21586218478439
 10
-118.1663276486547
 20
32.26800011598431
 10
-118.0099138550547
 20
32.33968977138449
 10
-117.8621897166547
 20
32.42658632338458
 10
-117.7226338541427
 20
32.53543294441971
 10
-117.5922890261426
 20
32.65528935859317
 10
-117.4709814395505
 20
32.79171694523331
 10
-117.3603621288548
 20
32.93927598018451
 10
-117.2626035078547
 20
33.10003460138438
 10
-117.1778793696548
 20
33.27382770538435
 10
-117.1040173004548
 20
33.45848287838459
 10
-117.0475345416548
 20
33.64965529278453
 10
-117.0040862656546
 20
33.84951736238446
 10
-116.9801897138545
 20
34.05589667338456
 10
-116.9715000586547
 20
34.26879322578458
 10
-116.9715000586547
 20
35.47882771238443
 10
-117.8296035096545
 20
35.47882771238443
 10
-117.8296035096545
 20
34.24489667398444
 10
-117.8399441993426
 20
34.11124977700848
 10
-117.8619290269989
 20
33.97899322486461
 10
-117.8962531650386
 20
33.85838081068852
 10
-117.9442200617427
 20
33.74237391376852
 10
-118.0051345446947
 20
33.63271046514439
 10
-118.0727400621508
 20
33.53564701656052
 10
-118.1525110968868
 20
33.44822908524844
 10
-118.2380173040546
 20
33.37375874018454
 10
-118.2380173040546
 20
35.47882771238443
 10
-119.0657069618546
 20
35.47882771238443
 10
-119.0657069618546
 20
33.33682770558431
 10
-119.1634655828547
 20
33.40634494718444
 10
-119.2525345486546
 20
33.49324149918431
 10
-119.3288297213107
 20
33.59438908571252
 10
-119.3959138594546
 20
33.70179322398445
 97
        0
 92
        7
 72
     0
 73
     1
 93
        6
 10
-120.3365690348548
 20
35.70910357518443
 10
-116.9671552310546
 20
35.70910357518443
 10
-116.9671552310549
 20
37.94668978918463
 10
-117.8339483372549
 20
37.94668978918441
 10
-117.8339483372549
 20
36.73231047498445
 10
-120.3365690348548
 20
36.73231047498445
 97
        0
 92
        7
 72
     0
 73
     1
 93
        8
 10
-120.3365690348548
 20
36.96475875158427
 10
-119.5110517908547
 20
36.96475875158427
 10
-119.5110517908549
 20
38.19868978998449
 10
-116.9606379896549
 20
38.19868978998449
 10
-116.9606379896549
 20
39.22406910358456
 10
-119.5110517908547
 20
39.22406910358433
 10
-119.5110517908549
 20
40.4666897971843
 10
-120.336569034855
 20
40.4666897971843
 97
        0
 75
     0
 76
     1
 47
0.0142553043587597
 98
        5
 10
-119.8941193652654
 20
26.85199526405956
 10
-119.7515663802596
 20
29.11949247740228
 10
-119.8085875528076
 20
33.61170420960372
 10
-120.0509277774999
 20
36.33555329343546
 10
-119.9511406450865
 20
37.7473912756621
450
        0
451
        0
460
0.0
461
0.0
452
        0
462
0.0
453
        0
470

  0
LWPOLYLINE
  5
8B5F
330
8A6E
100
AcDbEntity
  8
LW 5016-39-00
 62
     1
100
AcDbPolyline
 90
        8
 70
     1
 43
0.0
 10
-119.5110517908547
 20
39.22406910358433
 10
-116.9606379896549
 20
39.22406910358456
 10
-116.9606379896549
 20
38.19868978998449
 10
-119.5110517908549
 20
38.19868978998449
 10
-119.5110517908547
 20
36.96475875158427
 10
-120.3365690348548
 20
36.96475875158427
 10
-120.336569034855
 20
40.4666897971843
 10
-119.5110517908549
 20
40.4666897971843
  0
LWPOLYLINE
  5
8B60
330
8A6E
100
AcDbEntity
  8
LW 5016-39-00
 62
     1
100
AcDbPolyline
 90
       73
 70
     1
 43
0.0
 10
-117.8339483372547
 20
29.52206907278452
 10
-117.8339483372547
 20
30.53875873118438
 10
-116.9606379896545
 20
31.42510356158442
 10
-116.9606379896545
 20
29.52206907278452
 10
-116.9693276448547
 20
29.31134493418455
 10
-116.9953966104544
 20
29.1027932093844
 10
-117.0391055761106
 20
28.90598989841493
 10
-117.0931552314546
 20
28.71175872538453
 10
-117.1648448868545
 20
28.52927596618457
 10
-117.2495690250543
 20
28.35765527598443
 10
-117.3479359219186
 20
28.19912120651571
 10
-117.4559483360544
 20
28.04700010258449
 10
-117.5752573019503
 20
27.91470879181958
 10
-117.7042986816704
 20
27.7967032742036
 10
-117.8437676476305
 20
27.6913238255932
 10
-117.9925345446545
 20
27.59948285978436
 10
-118.1467759244547
 20
27.52996561818446
 10
-118.3075345456545
 20
27.47782768698454
 10
-118.4748104082546
 20
27.44524147998442
 10
-118.6464310984545
 20
27.43437941098438
 10
-118.8223966162545
 20
27.44524147998442
 10
-118.9896724788545
 20
27.47782768698431
 10
-119.1504311000544
 20
27.53213803198452
 10
-119.3046724798546
 20
27.60382768738447
 10
-119.4523966182546
 20
27.69506906698445
 10
-119.5914311014544
 20
27.8036897569844
 10
-119.7219497225587
 20
27.92868175738119
 10
-119.8412586884546
 20
28.06437941298424
 10
-119.9498793784546
 20
28.21644837898436
 10
-120.0463345511743
 20
28.38201237950995
 10
-120.1323621376545
 20
28.55317251798425
 10
-120.2040517930545
 20
28.74000010478432
 10
-120.2605345518545
 20
28.93334493298431
 10
-120.3003331726704
 20
29.13777776121952
 10
-120.3257938624065
 20
29.34449596877227
 10
-120.3365690348546
 20
29.55248286598436
 10
-120.3365690348546
 20
32.99141391138443
 10
-118.7029138572547
 20
31.30996563018454
 10
-116.9606379896545
 20
33.02400011838432
 10
-116.9606379896545
 20
31.70534494178452
 10
-118.6790173054546
 20
29.93917252238436
 10
-119.4936724804547
 20
30.78641390438435
 10
-119.4936724804547
 20
29.51772424518441
 10
-119.4884586873345
 20
29.39366203789388
 10
-119.4703842045184
 20
29.27079900302107
 10
-119.4397966182145
 20
29.15045596815645
 10
-119.3969566180785
 20
29.03391900226921
 10
-119.3548117903585
 20
28.94989872614025
 10
-119.3104945488385
 20
28.87360355348443
 10
-119.2832959280626
 20
28.83336176025324
 10
-119.2523607555504
 20
28.7958485187549
 10
-119.1439138586545
 20
28.68493375978193
 10
-119.0658807549584
 20
28.6218555526853
 10
-118.9980145478466
 20
28.58032769048447
 10
-118.8993000647747
 20
28.53667955241491
 10
-118.8376035128544
 20
28.51846603511564
 10
-118.7744297195504
 20
28.50630920749092
 10
-118.7122986848705
 20
28.5003046557477
 10
-118.6499938570864
 20
28.49894906953642
 10
-118.5606642016305
 20
28.50646562128446
 10
-118.4735069599746
 20
28.52716437997088
 10
-118.3920848907505
 20
28.55658755247811
 10
-118.3149207525743
 20
28.59595169053392
 10
-118.2423621316545
 20
28.64465720792992
 10
-118.1744959245424
 20
28.69972355293254
 10
-118.1044573036306
 20
28.77332493247633
 10
-118.0051345446945
 20
28.90588562255249
 10
-117.9725483376946
 20
28.95957031237805
 10
-117.9443938548465
 20
29.01570548497017
 10
-117.9034655788546
 20
29.11720065770607
 10
-117.8691414408144
 20
29.23431983049165
 10
-117.8476779924704
 20
29.35445431363161
 10
-117.837695630194
 20
29.45540203808997
  0
LWPOLYLINE
  5
8B61
330
8A6E
100
AcDbEntity
  8
LW 5016-39-00
 62
     1
100
AcDbPolyline
 90
       76
 70
     1
 43
0.0
 10
-120.1756990428255
 20
28.3119058227183
 10
-120.0735211610037
 20
28.13651886935355
 10
-119.9566148780882
 20
27.97285007327156
 10
-119.8282303163746
 20
27.82683016681
 10
-119.6878061861121
 20
27.69235209159734
 10
-119.5365637870963
 20
27.57419396736606
 10
-119.4849828252545
 20
27.54233513799324
 10
-119.4849828252545
 20
26.45244837338447
 10
-119.4784655838543
 20
26.30906906258434
 10
-119.4589138596543
 20
26.17220699318437
 10
-119.4268490319664
 20
26.0497610617611
 10
-119.3828793766545
 20
25.93106906138434
 10
-119.3245717902623
 20
25.82847030243812
 10
-119.2547069624543
 20
25.73337940558446
 10
-119.1721552380545
 20
25.65082768118424
 10
-119.0765690308544
 20
25.58131043958435
 10
-119.0765690308544
 20
27.35194895720366
 10
-119.027436870936
 20
27.3353502545288
 10
-118.8410674996694
 20
27.29904453285332
 10
-118.6463164063148
 20
27.28702286042409
 10
-118.456026692364
 20
27.2990665132059
 10
-118.2706527448128
 20
27.33517832117042
 10
-118.2380173040546
 20
27.34576278844321
 10
-118.2380173040544
 20
25.61824147418457
 10
-118.1532931658544
 20
25.68993112958452
 10
-118.0753469587102
 20
25.78011237125003
 10
-118.0077414412544
 20
25.87826202673415
 10
-117.9512586824544
 20
25.98320699258449
 10
-117.9056379926546
 20
26.0983449239846
 10
-117.8727041994466
 20
26.22651733818435
 10
-117.8523704062786
 20
26.35727057997889
 10
-117.8448104062545
 20
26.48937940798447
 10
-117.8448104062545
 20
27.51784247490474
 10
-117.76062576415
 20
27.5698137063535
 10
-117.6101375194375
 20
27.68351906109689
 10
-117.4707838362092
 20
27.81095495458118
 10
-117.3409942396692
 20
27.95486732295132
 10
-117.2253760012436
 20
28.11770021771196
 10
-117.1208463083121
 20
28.28616662388214
 10
-117.0302260347894
 20
28.46973076768455
 10
-116.9671552310546
 20
28.630274631737
 10
-116.9671552310542
 20
26.51110354598456
 10
-116.9758448862544
 20
26.30037940738436
 10
-117.0019138518546
 20
26.09182768258444
 10
-117.0453621278543
 20
25.89196561298451
 10
-117.1018448866543
 20
25.70079319858456
 10
-117.1755331627505
 20
25.52014395663156
 10
-117.2604310940546
 20
25.34451733538464
 10
-117.3581897150543
 20
25.18375871418454
 10
-117.4686352326464
 20
25.03641431371676
 10
-117.5897690261344
 20
24.90021526500851
 10
-117.7209828196544
 20
24.77751733358451
 10
-117.8621897166544
 20
24.67106905738439
 10
-118.0099138550545
 20
24.58200009158446
 10
-118.1663276486542
 20
24.51248284998456
 10
-118.3270862698543
 20
24.45817250498436
 10
-118.4943621324546
 20
24.42775871178452
 10
-118.6681552364543
 20
24.41689664278448
 10
-118.8419483404543
 20
24.42558629798424
 10
-119.0070517892545
 20
24.45382767738448
 10
-119.1678104104544
 20
24.50379319478435
 10
-119.3220517902543
 20
24.56679319498431
 10
-119.4676035148545
 20
24.64934491938431
 10
-119.6048131704624
 20
24.74936285073642
 10
-119.7330724812145
 20
24.86062780281378
 10
-119.8521207574545
 20
24.98606905838443
 10
-119.9588297233103
 20
25.12877665883735
 10
-120.0541552408544
 20
25.27934492138439
 10
-120.1367069652542
 20
25.44662078398443
 10
-120.2062242068546
 20
25.62258630178445
 10
-120.2605345518545
 20
25.80724147478446
 10
-120.3018104140546
 20
26.00275871678429
 10
-120.3278793796544
 20
26.20479320018427
 10
-120.3365690348546
 20
26.41768975258429
 10
-120.3365690348546
 20
28.67482769078453
 10
-120.2670507224083
 20
28.49365875531868
  0
LWPOLYLINE
  5
8B62
330
8A6E
100
AcDbEntity
  8
LW 5016-39-00
 62
     1
100
AcDbPolyline
 90
        6
 70
     1
 43
0.0
 10
-116.9671552310549
 20
37.94668978918463
 10
-116.9671552310546
 20
35.70910357518443
 10
-120.3365690348548
 20
35.70910357518443
 10
-120.3365690348548
 20
36.73231047498445
 10
-117.8339483372549
 20
36.73231047498445
 10
-117.8339483372549
 20
37.94668978918441
  0
LWPOLYLINE
  5
8B63
330
8A6E
100
AcDbEntity
  8
LW 5016-39-00
 62
     1
100
AcDbPolyline
 90
       57
 70
     1
 43
0.0
 10
-117.5922890261426
 20
32.65528935859317
 10
-117.7226338541427
 20
32.53543294441971
 10
-117.8621897166544
 20
32.42658632338436
 10
-118.0099138550547
 20
32.33968977138449
 10
-118.1663276486547
 20
32.26800011598431
 10
-118.3270862698545
 20
32.21586218478439
 10
-118.4943621324546
 20
32.18327597778449
 10
-118.6681552364548
 20
32.17241390878445
 10
-118.8419483404545
 20
32.18327597778449
 10
-119.0092242030546
 20
32.21586218478439
 10
-119.1699828242544
 20
32.26582770218425
 10
-119.3242242040546
 20
32.33751735758443
 10
-119.4697759286546
 20
32.42224149578425
 10
-119.6088104118548
 20
32.52651735818432
 10
-119.7375911019185
 20
32.64658232408266
 10
-119.8568131712627
 20
32.78114163485481
 10
-119.9663028267828
 20
32.93122066981397
 10
-120.0627579995027
 20
33.09004149790445
 10
-120.1453966204549
 20
33.25644839498437
 10
-120.2170862758548
 20
33.44110356798438
 10
-120.2713966208548
 20
33.6301035685845
 10
-120.3126724830547
 20
33.82779322438438
 10
-120.3409138624547
 20
34.03417253538447
 10
-120.3496035176547
 20
34.24489667398444
 10
-120.3496035176549
 20
35.47882771238443
 10
-119.5240862736548
 20
35.47882771238443
 10
-119.5240862736545
 20
34.23837943258451
 10
-119.5153966184548
 20
34.09500012178438
 10
-119.4882848942306
 20
33.96031046618447
 10
-119.4483124803107
 20
33.82883598300833
 10
-119.3959138594546
 20
33.70179322398445
 10
-119.3288297213107
 20
33.59438908571252
 10
-119.2525345486546
 20
33.49324149918431
 10
-119.1634655828547
 20
33.40634494718444
 10
-119.0657069618546
 20
33.33682770558431
 10
-119.0657069618546
 20
35.47882771238443
 10
-118.2380173040546
 20
35.47882771238443
 10
-118.2380173040546
 20
33.37375874018454
 10
-118.1525110968868
 20
33.44822908524844
 10
-118.0727400621508
 20
33.53564701656052
 10
-118.0051345446947
 20
33.63271046514439
 10
-117.9442200617427
 20
33.74237391376852
 10
-117.8962531650386
 20
33.85838081068852
 10
-117.8619290269989
 20
33.97899322486461
 10
-117.8399441993426
 20
34.11124977700848
 10
-117.8296035096545
 20
34.24489667398444
 10
-117.8296035096545
 20
35.47882771238443
 10
-116.9715000586547
 20
35.47882771238443
 10
-116.9715000586547
 20
34.26879322578458
 10
-116.9801897138545
 20
34.05589667338456
 10
-117.0040862656546
 20
33.84951736238446
 10
-117.0475345416548
 20
33.64965529278453
 10
-117.1040173004548
 20
33.45848287838459
 10
-117.1778793696548
 20
33.27382770538435
 10
-117.2626035078547
 20
33.10003460138438
 10
-117.3603621288548
 20
32.93927598018451
 10
-117.4709814395505
 20
32.79171694523331
  0
LINE
  5
8B64
330
8A6E
100
AcDbEntity
  8
LW 5016-39-00
  6
MITTE2
 62
     3
100
AcDbLine
 10
0.0
 20
37.00000000000006
 30
0.0
 11
0.0
 21
-37.00000000000006
 31
0.0
  0
INSERT
  5
8B65
330
8A6E
100
AcDbEntity
  8
LW 5016-39-00
100
AcDbBlockReference
 66
     1
  2
insertpoint-ECKELT
 10
0.0
 20
0.0
 30
0.0
  0
ATTRIB
  5
8B66
330
8B65
100
AcDbEntity
  8
insertpoint_ECKELT
100
AcDbText
 10
-6.93151432469286
 20
0.0
 30
0.0
 40
0.6
  1
LW 5016/39-00
 72
     2
 11
-1.199999999999818
 21
0.0
 31
0.0
100
AcDbAttribute
  2
LINKS
 70
     0
  0
ATTRIB
  5
8B67
330
8B65
100
AcDbEntity
  8
insertpoint_ECKELT
100
AcDbText
 10
1.199999999999818
 20
0.0
 30
0.0
 40
0.6
  1

100
AcDbAttribute
  2
RECHTS
 70
     0
  0
SEQEND
  5
8B68
330
8B65
100
AcDbEntity
  8
LW 5016-39-00
  0
POLYLINE
  5
8B69
330
8A6E
100
AcDbEntity
  8
LW 5016-39-00
100
AcDb2dPolyline
 66
     1
 10
0.0
 20
0.0
 30
0.0
 70
   128
  0
VERTEX
  5
8B6A
330
8B69
100
AcDbEntity
  8
LW 5016-39-00
100
AcDbVertex
100
AcDb2dVertex
 10
-97.00000023841834
 20
0.1000022888189846
 30
0.0
  0
VERTEX
  5
8B6B
330
8B69
100
AcDbEntity
  8
LW 5016-39-00
100
AcDbVertex
100
AcDb2dVertex
 10
-96.98383784294104
 20
0.7524204254156644
 30
0.0
  0
VERTEX
  5
8B6C
330
8B69
100
AcDbEntity
  8
LW 5016-39-00
100
AcDbVertex
100
AcDb2dVertex
 10
-96.93569993972754
 20
1.408705711365371
 30
0.0
  0
VERTEX
  5
8B6D
330
8B69
100
AcDbEntity
  8
LW 5016-39-00
100
AcDbVertex
100
AcDb2dVertex
 10
-96.85610747337317
 20
2.063431739807754
 30
0.0
  0
VERTEX
  5
8B6E
330
8B69
100
AcDbEntity
  8
LW 5016-39-00
100
AcDbVertex
100
AcDb2dVertex
 10
-96.74622988700843
 20
2.711348533630996
 30
0.0
  0
VERTEX
  5
8B6F
330
8B69
100
AcDbEntity
  8
LW 5016-39-00
100
AcDbVertex
100
AcDb2dVertex
 10
-96.60924053192115
 20
3.347783088684707
 30
0.0
  0
VERTEX
  5
8B70
330
8B69
100
AcDbEntity
  8
LW 5016-39-00
100
AcDbVertex
100
AcDb2dVertex
 10
-96.44866681098914
 20
3.968186378479629
 30
0.0
  0
VERTEX
  5
8B71
330
8B69
100
AcDbEntity
  8
LW 5016-39-00
100
AcDbVertex
100
AcDb2dVertex
 10
-96.26835083961463
 20
4.56830501556459
 30
0.0
  0
VERTEX
  5
8B72
330
8B69
100
AcDbEntity
  8
LW 5016-39-00
100
AcDbVertex
100
AcDb2dVertex
 10
-96.07279276847815
 20
5.14498710632381
 30
0.0
  0
VERTEX
  5
8B73
330
8B69
100
AcDbEntity
  8
LW 5016-39-00
100
AcDbVertex
100
AcDb2dVertex
 10
-95.86650586128211
 20
5.695304870606037
 30
0.0
  0
VERTEX
  5
8B74
330
8B69
100
AcDbEntity
  8
LW 5016-39-00
100
AcDbVertex
100
AcDb2dVertex
 10
-95.65400457382178
 20
6.216325759888263
 30
0.0
  0
VERTEX
  5
8B75
330
8B69
100
AcDbEntity
  8
LW 5016-39-00
100
AcDbVertex
100
AcDb2dVertex
 10
-95.43980336189246
 20
6.705121994019123
 30
0.0
  0
VERTEX
  5
8B76
330
8B69
100
AcDbEntity
  8
LW 5016-39-00
100
AcDbVertex
100
AcDb2dVertex
 10
-95.22841668128943
 20
7.158765792847248
 30
0.0
  0
VERTEX
  5
8B77
330
8B69
100
AcDbEntity
  8
LW 5016-39-00
100
AcDbVertex
100
AcDb2dVertex
 10
-95.01902914047217
 20
7.584662437439533
 30
0.0
  0
VERTEX
  5
8B78
330
8B69
100
AcDbEntity
  8
LW 5016-39-00
100
AcDbVertex
100
AcDb2dVertex
 10
-94.81035447120643
 20
7.989382743836017
 30
0.0
  0
VERTEX
  5
8B79
330
8B69
100
AcDbEntity
  8
LW 5016-39-00
100
AcDbVertex
100
AcDb2dVertex
 10
-94.60615491867041
 20
8.368849754334064
 30
0.0
  0
VERTEX
  5
8B7A
330
8B69
100
AcDbEntity
  8
LW 5016-39-00
100
AcDbVertex
100
AcDb2dVertex
 10
-94.41019630432105
 20
8.718976974487816
 30
0.0
  0
VERTEX
  5
8B7B
330
8B69
100
AcDbEntity
  8
LW 5016-39-00
100
AcDbVertex
100
AcDb2dVertex
 10
-94.22623848915076
 20
9.035677909851585
 30
0.0
  0
VERTEX
  5
8B7C
330
8B69
100
AcDbEntity
  8
LW 5016-39-00
100
AcDbVertex
100
AcDb2dVertex
 10
-94.05804610252356
 20
9.314870834351097
 30
0.0
  0
VERTEX
  5
8B7D
330
8B69
100
AcDbEntity
  8
LW 5016-39-00
100
AcDbVertex
100
AcDb2dVertex
 10
-93.90935873985267
 20
9.552946090698753
 30
0.0
  0
VERTEX
  5
8B7E
330
8B69
100
AcDbEntity
  8
LW 5016-39-00
100
AcDbVertex
100
AcDb2dVertex
 10
-93.78207540512061
 20
9.748716354370628
 30
0.0
  0
VERTEX
  5
8B7F
330
8B69
100
AcDbEntity
  8
LW 5016-39-00
100
AcDbVertex
100
AcDb2dVertex
 10
-93.67720580100989
 20
9.901742935181175
 30
0.0
  0
VERTEX
  5
8B80
330
8B69
100
AcDbEntity
  8
LW 5016-39-00
100
AcDbVertex
100
AcDb2dVertex
 10
-93.59575486183143
 20
10.01159191131643
 30
0.0
  0
VERTEX
  5
8B81
330
8B69
100
AcDbEntity
  8
LW 5016-39-00
100
AcDbVertex
100
AcDb2dVertex
 10
-93.5387322902677
 20
10.07782459259084
 30
0.0
  0
VERTEX
  5
8B82
330
8B69
100
AcDbEntity
  8
LW 5016-39-00
100
AcDbVertex
100
AcDb2dVertex
 10
-93.50714421272254
 20
10.10000228881887
 30
0.0
  0
SEQEND
  5
8B83
330
8B69
100
AcDbEntity
  8
LW 5016-39-00
  0
POLYLINE
  5
8B84
330
8A6E
100
AcDbEntity
  8
LW 5016-39-00
100
AcDb2dPolyline
 66
     1
 10
0.0
 20
0.0
 30
0.0
 70
   128
  0
VERTEX
  5
8B85
330
8B84
100
AcDbEntity
  8
LW 5016-39-00
100
AcDbVertex
100
AcDb2dVertex
 10
-128.4928557872769
 20
10.10000228881887
 30
0.0
  0
VERTEX
  5
8B86
330
8B84
100
AcDbEntity
  8
LW 5016-39-00
100
AcDbVertex
100
AcDb2dVertex
 10
-128.4612677097317
 20
10.07782459259084
 30
0.0
  0
VERTEX
  5
8B87
330
8B84
100
AcDbEntity
  8
LW 5016-39-00
100
AcDbVertex
100
AcDb2dVertex
 10
-128.404245138168
 20
10.01159191131643
 30
0.0
  0
VERTEX
  5
8B88
330
8B84
100
AcDbEntity
  8
LW 5016-39-00
100
AcDbVertex
100
AcDb2dVertex
 10
-128.3227941989895
 20
9.901742935181175
 30
0.0
  0
VERTEX
  5
8B89
330
8B84
100
AcDbEntity
  8
LW 5016-39-00
100
AcDbVertex
100
AcDb2dVertex
 10
-128.2179245948789
 20
9.748716354370628
 30
0.0
  0
VERTEX
  5
8B8A
330
8B84
100
AcDbEntity
  8
LW 5016-39-00
100
AcDbVertex
100
AcDb2dVertex
 10
-128.0906412601468
 20
9.552946090698753
 30
0.0
  0
VERTEX
  5
8B8B
330
8B84
100
AcDbEntity
  8
LW 5016-39-00
100
AcDbVertex
100
AcDb2dVertex
 10
-127.9419538974759
 20
9.314870834351097
 30
0.0
  0
VERTEX
  5
8B8C
330
8B84
100
AcDbEntity
  8
LW 5016-39-00
100
AcDbVertex
100
AcDb2dVertex
 10
-127.7737615108487
 20
9.035677909851585
 30
0.0
  0
VERTEX
  5
8B8D
330
8B84
100
AcDbEntity
  8
LW 5016-39-00
100
AcDbVertex
100
AcDb2dVertex
 10
-127.5898036956784
 20
8.718976974487816
 30
0.0
  0
VERTEX
  5
8B8E
330
8B84
100
AcDbEntity
  8
LW 5016-39-00
100
AcDbVertex
100
AcDb2dVertex
 10
-127.3938450813291
 20
8.368849754334064
 30
0.0
  0
VERTEX
  5
8B8F
330
8B84
100
AcDbEntity
  8
LW 5016-39-00
100
AcDbVertex
100
AcDb2dVertex
 10
-127.1896455287931
 20
7.989382743836017
 30
0.0
  0
VERTEX
  5
8B90
330
8B84
100
AcDbEntity
  8
LW 5016-39-00
100
AcDbVertex
100
AcDb2dVertex
 10
-126.9809708595273
 20
7.584662437439533
 30
0.0
  0
VERTEX
  5
8B91
330
8B84
100
AcDbEntity
  8
LW 5016-39-00
100
AcDbVertex
100
AcDb2dVertex
 10
-126.7715833187101
 20
7.158765792847248
 30
0.0
  0
VERTEX
  5
8B92
330
8B84
100
AcDbEntity
  8
LW 5016-39-00
100
AcDbVertex
100
AcDb2dVertex
 10
-126.560196638107
 20
6.705121994019123
 30
0.0
  0
VERTEX
  5
8B93
330
8B84
100
AcDbEntity
  8
LW 5016-39-00
100
AcDbVertex
100
AcDb2dVertex
 10
-126.3459954261777
 20
6.216325759888263
 30
0.0
  0
VERTEX
  5
8B94
330
8B84
100
AcDbEntity
  8
LW 5016-39-00
100
AcDbVertex
100
AcDb2dVertex
 10
-126.1334941387174
 20
5.695304870606037
 30
0.0
  0
VERTEX
  5
8B95
330
8B84
100
AcDbEntity
  8
LW 5016-39-00
100
AcDbVertex
100
AcDb2dVertex
 10
-125.9272072315213
 20
5.14498710632381
 30
0.0
  0
VERTEX
  5
8B96
330
8B84
100
AcDbEntity
  8
LW 5016-39-00
100
AcDbVertex
100
AcDb2dVertex
 10
-125.7316491603849
 20
4.56830501556459
 30
0.0
  0
VERTEX
  5
8B97
330
8B84
100
AcDbEntity
  8
LW 5016-39-00
100
AcDbVertex
100
AcDb2dVertex
 10
-125.5513331890103
 20
3.968186378479629
 30
0.0
  0
VERTEX
  5
8B98
330
8B84
100
AcDbEntity
  8
LW 5016-39-00
100
AcDbVertex
100
AcDb2dVertex
 10
-125.3907594680784
 20
3.347783088684707
 30
0.0
  0
VERTEX
  5
8B99
330
8B84
100
AcDbEntity
  8
LW 5016-39-00
100
AcDbVertex
100
AcDb2dVertex
 10
-125.2537701129911
 20
2.711348533630996
 30
0.0
  0
VERTEX
  5
8B9A
330
8B84
100
AcDbEntity
  8
LW 5016-39-00
100
AcDbVertex
100
AcDb2dVertex
 10
-125.1438925266263
 20
2.063431739807754
 30
0.0
  0
VERTEX
  5
8B9B
330
8B84
100
AcDbEntity
  8
LW 5016-39-00
100
AcDbVertex
100
AcDb2dVertex
 10
-125.064300060272
 20
1.408705711365371
 30
0.0
  0
VERTEX
  5
8B9C
330
8B84
100
AcDbEntity
  8
LW 5016-39-00
100
AcDbVertex
100
AcDb2dVertex
 10
-125.0161621570585
 20
0.7524204254156644
 30
0.0
  0
VERTEX
  5
8B9D
330
8B84
100
AcDbEntity
  8
LW 5016-39-00
100
AcDbVertex
100
AcDb2dVertex
 10
-124.9999997615812
 20
0.1000022888189846
 30
0.0
  0
SEQEND
  5
8B9E
330
8B84
100
AcDbEntity
  8
LW 5016-39-00
  0
POLYLINE
  5
8B9F
330
8A6E
100
AcDbEntity
  8
LW 5016-39-00
100
AcDb2dPolyline
 66
     1
 10
0.0
 20
0.0
 30
0.0
 70
   128
  0
VERTEX
  5
8BA0
330
8B9F
100
AcDbEntity
  8
LW 5016-39-00
100
AcDbVertex
100
AcDb2dVertex
 10
-93.50714421272254
 20
-10.10000228881756
 30
0.0
  0
VERTEX
  5
8BA1
330
8B9F
100
AcDbEntity
  8
LW 5016-39-00
100
AcDbVertex
100
AcDb2dVertex
 10
-93.5387322902677
 20
-10.07782459258953
 30
0.0
  0
VERTEX
  5
8BA2
330
8B9F
100
AcDbEntity
  8
LW 5016-39-00
100
AcDbVertex
100
AcDb2dVertex
 10
-93.59575486183143
 20
-10.01159191131512
 30
0.0
  0
VERTEX
  5
8BA3
330
8B9F
100
AcDbEntity
  8
LW 5016-39-00
100
AcDbVertex
100
AcDb2dVertex
 10
-93.67720580100989
 20
-9.901742935179868
 30
0.0
  0
VERTEX
  5
8BA4
330
8B9F
100
AcDbEntity
  8
LW 5016-39-00
100
AcDbVertex
100
AcDb2dVertex
 10
-93.78207540512061
 20
-9.748716354369321
 30
0.0
  0
VERTEX
  5
8BA5
330
8B9F
100
AcDbEntity
  8
LW 5016-39-00
100
AcDbVertex
100
AcDb2dVertex
 10
-93.90935873985267
 20
-9.552946090697446
 30
0.0
  0
VERTEX
  5
8BA6
330
8B9F
100
AcDbEntity
  8
LW 5016-39-00
100
AcDbVertex
100
AcDb2dVertex
 10
-94.05804610252356
 20
-9.31487083434979
 30
0.0
  0
VERTEX
  5
8BA7
330
8B9F
100
AcDbEntity
  8
LW 5016-39-00
100
AcDbVertex
100
AcDb2dVertex
 10
-94.22623848915076
 20
-9.035677909850335
 30
0.0
  0
VERTEX
  5
8BA8
330
8B9F
100
AcDbEntity
  8
LW 5016-39-00
100
AcDbVertex
100
AcDb2dVertex
 10
-94.41019630432105
 20
-8.718976974486565
 30
0.0
  0
VERTEX
  5
8BA9
330
8B9F
100
AcDbEntity
  8
LW 5016-39-00
100
AcDbVertex
100
AcDb2dVertex
 10
-94.60615491867041
 20
-8.368849754332757
 30
0.0
  0
VERTEX
  5
8BAA
330
8B9F
100
AcDbEntity
  8
LW 5016-39-00
100
AcDbVertex
100
AcDb2dVertex
 10
-94.81035447120643
 20
-7.98938274383471
 30
0.0
  0
VERTEX
  5
8BAB
330
8B9F
100
AcDbEntity
  8
LW 5016-39-00
100
AcDbVertex
100
AcDb2dVertex
 10
-95.01902914047217
 20
-7.584662437438225
 30
0.0
  0
VERTEX
  5
8BAC
330
8B9F
100
AcDbEntity
  8
LW 5016-39-00
100
AcDbVertex
100
AcDb2dVertex
 10
-95.22841668128943
 20
-7.15876579284594
 30
0.0
  0
VERTEX
  5
8BAD
330
8B9F
100
AcDbEntity
  8
LW 5016-39-00
100
AcDbVertex
100
AcDb2dVertex
 10
-95.43980336189246
 20
-6.705121994017815
 30
0.0
  0
VERTEX
  5
8BAE
330
8B9F
100
AcDbEntity
  8
LW 5016-39-00
100
AcDbVertex
100
AcDb2dVertex
 10
-95.65400457382178
 20
-6.216325759886956
 30
0.0
  0
VERTEX
  5
8BAF
330
8B9F
100
AcDbEntity
  8
LW 5016-39-00
100
AcDbVertex
100
AcDb2dVertex
 10
-95.86650586128211
 20
-5.695304870604729
 30
0.0
  0
VERTEX
  5
8BB0
330
8B9F
100
AcDbEntity
  8
LW 5016-39-00
100
AcDbVertex
100
AcDb2dVertex
 10
-96.07279276847815
 20
-5.144987106322503
 30
0.0
  0
VERTEX
  5
8BB1
330
8B9F
100
AcDbEntity
  8
LW 5016-39-00
100
AcDbVertex
100
AcDb2dVertex
 10
-96.26835083961463
 20
-4.568305015563225
 30
0.0
  0
VERTEX
  5
8BB2
330
8B9F
100
AcDbEntity
  8
LW 5016-39-00
100
AcDbVertex
100
AcDb2dVertex
 10
-96.44866681098914
 20
-3.968186378478264
 30
0.0
  0
VERTEX
  5
8BB3
330
8B9F
100
AcDbEntity
  8
LW 5016-39-00
100
AcDbVertex
100
AcDb2dVertex
 10
-96.60924053192115
 20
-3.347783088683343
 30
0.0
  0
VERTEX
  5
8BB4
330
8B9F
100
AcDbEntity
  8
LW 5016-39-00
100
AcDbVertex
100
AcDb2dVertex
 10
-96.74622988700843
 20
-2.711348533629688
 30
0.0
  0
VERTEX
  5
8BB5
330
8B9F
100
AcDbEntity
  8
LW 5016-39-00
100
AcDbVertex
100
AcDb2dVertex
 10
-96.85610747337317
 20
-2.063431739806446
 30
0.0
  0
VERTEX
  5
8BB6
330
8B9F
100
AcDbEntity
  8
LW 5016-39-00
100
AcDbVertex
100
AcDb2dVertex
 10
-96.93569993972754
 20
-1.408705711364063
 30
0.0
  0
VERTEX
  5
8BB7
330
8B9F
100
AcDbEntity
  8
LW 5016-39-00
100
AcDbVertex
100
AcDb2dVertex
 10
-96.98383784294104
 20
-0.7524204254144138
 30
0.0
  0
VERTEX
  5
8BB8
330
8B9F
100
AcDbEntity
  8
LW 5016-39-00
100
AcDbVertex
100
AcDb2dVertex
 10
-97.00000023841834
 20
-0.1000022888177341
 30
0.0
  0
SEQEND
  5
8BB9
330
8B9F
100
AcDbEntity
  8
LW 5016-39-00
  0
POLYLINE
  5
8BBA
330
8A6E
100
AcDbEntity
  8
LW 5016-39-00
100
AcDb2dPolyline
 66
     1
 10
0.0
 20
0.0
 30
0.0
 70
   128
  0
VERTEX
  5
8BBB
330
8BBA
100
AcDbEntity
  8
LW 5016-39-00
100
AcDbVertex
100
AcDb2dVertex
 10
-124.9999997615812
 20
-0.1000022888177341
 30
0.0
  0
VERTEX
  5
8BBC
330
8BBA
100
AcDbEntity
  8
LW 5016-39-00
100
AcDbVertex
100
AcDb2dVertex
 10
-125.0161621570585
 20
-0.7524204254144138
 30
0.0
  0
VERTEX
  5
8BBD
330
8BBA
100
AcDbEntity
  8
LW 5016-39-00
100
AcDbVertex
100
AcDb2dVertex
 10
-125.064300060272
 20
-1.408705711364063
 30
0.0
  0
VERTEX
  5
8BBE
330
8BBA
100
AcDbEntity
  8
LW 5016-39-00
100
AcDbVertex
100
AcDb2dVertex
 10
-125.1438925266263
 20
-2.063431739806446
 30
0.0
  0
VERTEX
  5
8BBF
330
8BBA
100
AcDbEntity
  8
LW 5016-39-00
100
AcDbVertex
100
AcDb2dVertex
 10
-125.2537701129911
 20
-2.711348533629688
 30
0.0
  0
VERTEX
  5
8BC0
330
8BBA
100
AcDbEntity
  8
LW 5016-39-00
100
AcDbVertex
100
AcDb2dVertex
 10
-125.3907594680784
 20
-3.347783088683343
 30
0.0
  0
VERTEX
  5
8BC1
330
8BBA
100
AcDbEntity
  8
LW 5016-39-00
100
AcDbVertex
100
AcDb2dVertex
 10
-125.5513331890103
 20
-3.968186378478264
 30
0.0
  0
VERTEX
  5
8BC2
330
8BBA
100
AcDbEntity
  8
LW 5016-39-00
100
AcDbVertex
100
AcDb2dVertex
 10
-125.7316491603849
 20
-4.568305015563225
 30
0.0
  0
VERTEX
  5
8BC3
330
8BBA
100
AcDbEntity
  8
LW 5016-39-00
100
AcDbVertex
100
AcDb2dVertex
 10
-125.9272072315213
 20
-5.144987106322503
 30
0.0
  0
VERTEX
  5
8BC4
330
8BBA
100
AcDbEntity
  8
LW 5016-39-00
100
AcDbVertex
100
AcDb2dVertex
 10
-126.1334941387174
 20
-5.695304870604729
 30
0.0
  0
VERTEX
  5
8BC5
330
8BBA
100
AcDbEntity
  8
LW 5016-39-00
100
AcDbVertex
100
AcDb2dVertex
 10
-126.3459954261777
 20
-6.216325759886956
 30
0.0
  0
VERTEX
  5
8BC6
330
8BBA
100
AcDbEntity
  8
LW 5016-39-00
100
AcDbVertex
100
AcDb2dVertex
 10
-126.560196638107
 20
-6.705121994017815
 30
0.0
  0
VERTEX
  5
8BC7
330
8BBA
100
AcDbEntity
  8
LW 5016-39-00
100
AcDbVertex
100
AcDb2dVertex
 10
-126.7715833187101
 20
-7.15876579284594
 30
0.0
  0
VERTEX
  5
8BC8
330
8BBA
100
AcDbEntity
  8
LW 5016-39-00
100
AcDbVertex
100
AcDb2dVertex
 10
-126.9809708595273
 20
-7.584662437438225
 30
0.0
  0
VERTEX
  5
8BC9
330
8BBA
100
AcDbEntity
  8
LW 5016-39-00
100
AcDbVertex
100
AcDb2dVertex
 10
-127.1896455287931
 20
-7.98938274383471
 30
0.0
  0
VERTEX
  5
8BCA
330
8BBA
100
AcDbEntity
  8
LW 5016-39-00
100
AcDbVertex
100
AcDb2dVertex
 10
-127.3938450813291
 20
-8.368849754332757
 30
0.0
  0
VERTEX
  5
8BCB
330
8BBA
100
AcDbEntity
  8
LW 5016-39-00
100
AcDbVertex
100
AcDb2dVertex
 10
-127.5898036956784
 20
-8.718976974486565
 30
0.0
  0
VERTEX
  5
8BCC
330
8BBA
100
AcDbEntity
  8
LW 5016-39-00
100
AcDbVertex
100
AcDb2dVertex
 10
-127.7737615108487
 20
-9.035677909850335
 30
0.0
  0
VERTEX
  5
8BCD
330
8BBA
100
AcDbEntity
  8
LW 5016-39-00
100
AcDbVertex
100
AcDb2dVertex
 10
-127.9419538974759
 20
-9.31487083434979
 30
0.0
  0
VERTEX
  5
8BCE
330
8BBA
100
AcDbEntity
  8
LW 5016-39-00
100
AcDbVertex
100
AcDb2dVertex
 10
-128.0906412601468
 20
-9.552946090697446
 30
0.0
  0
VERTEX
  5
8BCF
330
8BBA
100
AcDbEntity
  8
LW 5016-39-00
100
AcDbVertex
100
AcDb2dVertex
 10
-128.2179245948789
 20
-9.748716354369321
 30
0.0
  0
VERTEX
  5
8BD0
330
8BBA
100
AcDbEntity
  8
LW 5016-39-00
100
AcDbVertex
100
AcDb2dVertex
 10
-128.3227941989895
 20
-9.901742935179868
 30
0.0
  0
VERTEX
  5
8BD1
330
8BBA
100
AcDbEntity
  8
LW 5016-39-00
100
AcDbVertex
100
AcDb2dVertex
 10
-128.404245138168
 20
-10.01159191131512
 30
0.0
  0
VERTEX
  5
8BD2
330
8BBA
100
AcDbEntity
  8
LW 5016-39-00
100
AcDbVertex
100
AcDb2dVertex
 10
-128.4612677097317
 20
-10.07782459258953
 30
0.0
  0
VERTEX
  5
8BD3
330
8BBA
100
AcDbEntity
  8
LW 5016-39-00
100
AcDbVertex
100
AcDb2dVertex
 10
-128.4928557872769
 20
-10.10000228881756
 30
0.0
  0
SEQEND
  5
8BD4
330
8BBA
100
AcDbEntity
  8
LW 5016-39-00
  0
LINE
  5
8BD5
330
8A6E
100
AcDbEntity
  8
LW 5016-39-00
100
AcDbLine
 10
-124.9999997615812
 20
-0.1000022888177341
 30
0.0
 11
-124.9999997615812
 21
0.1000022888189846
 31
0.0
  0
LINE
  5
8BD6
330
8A6E
100
AcDbEntity
  8
LW 5016-39-00
100
AcDbLine
 10
-97.00000023841834
 20
-0.1000022888177341
 30
0.0
 11
-97.00000023841834
 21
0.1000022888189846
 31
0.0
  0
LINE
  5
8BD7
330
8A6E
100
AcDbEntity
  8
LW 5016-39-00
100
AcDbLine
 10
-128.4928557872769
 20
-10.10000228881756
 30
0.0
 11
-128.4999999999997
 21
-10.10000228881756
 31
0.0
  0
LINE
  5
8BD8
330
8A6E
100
AcDbEntity
  8
LW 5016-39-00
100
AcDbLine
 10
-128.4928557872769
 20
10.10000228881887
 30
0.0
 11
-128.4999999999997
 21
10.10000000000008
 31
0.0
  0
LINE
  5
8BD9
330
8A6E
100
AcDbEntity
  8
LW 5016-39-00
100
AcDbLine
 10
-93.50714421272254
 20
10.10000228881887
 30
0.0
 11
-93.49999999999976
 21
10.10000000000008
 31
0.0
  0
LINE
  5
8BDA
330
8A6E
100
AcDbEntity
  8
LW 5016-39-00
100
AcDbLine
 10
-93.50714421272254
 20
-10.10000228881756
 30
0.0
 11
-93.49999999999976
 21
-10.09999999999996
 31
0.0
  0
ENDBLK
  5
8A70
330
8A6E
100
AcDbEntity
  8
0
100
AcDbBlockEnd
  0
BLOCK
  5
8BDD
330
8BDC
100
AcDbEntity
  8
0
100
AcDbBlockBegin
  2
LW 5016-39-00_b
 70
     0
 10
0.0
 20
0.0
 30
0.0
  3
LW 5016-39-00_b
  1

  0
POLYLINE
  5
8BDF
330
8BDC
100
AcDbEntity
  8
LW 5016-39-00
100
AcDb2dPolyline
 66
     1
 10
0.0
 20
0.0
 30
0.0
 70
   128
  0
VERTEX
  5
8BE0
330
8BDF
100
AcDbEntity
  8
LW 5016-39-00
100
AcDbVertex
100
AcDb2dVertex
 10
43.51999999999999
 20
-21.65063619614023
 30
0.0
  0
VERTEX
  5
8BE1
330
8BDF
100
AcDbEntity
  8
LW 5016-39-00
100
AcDbVertex
100
AcDb2dVertex
 10
43.49898697853087
 20
-21.80843830109006
 30
0.0
  0
VERTEX
  5
8BE2
330
8BDF
100
AcDbEntity
  8
LW 5016-39-00
100
AcDbVertex
100
AcDb2dVertex
 10
43.43565704345702
 20
-21.96433782577878
 30
0.0
  0
VERTEX
  5
8BE3
330
8BDF
100
AcDbEntity
  8
LW 5016-39-00
100
AcDbVertex
100
AcDb2dVertex
 10
43.32957746505736
 20
-22.11326599121457
 30
0.0
  0
VERTEX
  5
8BE4
330
8BDF
100
AcDbEntity
  8
LW 5016-39-00
100
AcDbVertex
100
AcDb2dVertex
 10
43.18169476509093
 20
-22.25069761276586
 30
0.0
  0
VERTEX
  5
8BE5
330
8BDF
100
AcDbEntity
  8
LW 5016-39-00
100
AcDbVertex
100
AcDb2dVertex
 10
42.99847723960875
 20
-22.37386226654394
 30
0.0
  0
VERTEX
  5
8BE6
330
8BDF
100
AcDbEntity
  8
LW 5016-39-00
100
AcDbVertex
100
AcDb2dVertex
 10
42.78776528358458
 20
-22.48032569885595
 30
0.0
  0
VERTEX
  5
8BE7
330
8BDF
100
AcDbEntity
  8
LW 5016-39-00
100
AcDbVertex
100
AcDb2dVertex
 10
42.54740001678466
 20
-22.57195234299024
 30
0.0
  0
VERTEX
  5
8BE8
330
8BDF
100
AcDbEntity
  8
LW 5016-39-00
100
AcDbVertex
100
AcDb2dVertex
 10
42.27476121902465
 20
-22.6503801345857
 30
0.0
  0
VERTEX
  5
8BE9
330
8BDF
100
AcDbEntity
  8
LW 5016-39-00
100
AcDbVertex
100
AcDb2dVertex
 10
41.97699787139892
 20
-22.71283626556715
 30
0.0
  0
VERTEX
  5
8BEA
330
8BDF
100
AcDbEntity
  8
LW 5016-39-00
100
AcDbVertex
100
AcDb2dVertex
 10
41.66183115959166
 20
-22.75718688965162
 30
0.0
  0
VERTEX
  5
8BEB
330
8BDF
100
AcDbEntity
  8
LW 5016-39-00
100
AcDbVertex
100
AcDb2dVertex
 10
41.33929254531859
 20
-22.78345584869703
 30
0.0
  0
VERTEX
  5
8BEC
330
8BDF
100
AcDbEntity
  8
LW 5016-39-00
100
AcDbVertex
100
AcDb2dVertex
 10
41.01999999999999
 20
-22.79211044311842
 30
0.0
  0
VERTEX
  5
8BED
330
8BDF
100
AcDbEntity
  8
LW 5016-39-00
100
AcDbVertex
100
AcDb2dVertex
 10
40.70070745468139
 20
-22.78345584869703
 30
0.0
  0
VERTEX
  5
8BEE
330
8BDF
100
AcDbEntity
  8
LW 5016-39-00
100
AcDbVertex
100
AcDb2dVertex
 10
40.37816884040831
 20
-22.75718688965162
 30
0.0
  0
VERTEX
  5
8BEF
330
8BDF
100
AcDbEntity
  8
LW 5016-39-00
100
AcDbVertex
100
AcDb2dVertex
 10
40.06300212860106
 20
-22.71283626556715
 30
0.0
  0
VERTEX
  5
8BF0
330
8BDF
100
AcDbEntity
  8
LW 5016-39-00
100
AcDbVertex
100
AcDb2dVertex
 10
39.76523878097534
 20
-22.6503801345857
 30
0.0
  0
VERTEX
  5
8BF1
330
8BDF
100
AcDbEntity
  8
LW 5016-39-00
100
AcDbVertex
100
AcDb2dVertex
 10
39.49259998321533
 20
-22.57195234299024
 30
0.0
  0
VERTEX
  5
8BF2
330
8BDF
100
AcDbEntity
  8
LW 5016-39-00
100
AcDbVertex
100
AcDb2dVertex
 10
39.2522347164154
 20
-22.48032569885595
 30
0.0
  0
VERTEX
  5
8BF3
330
8BDF
100
AcDbEntity
  8
LW 5016-39-00
100
AcDbVertex
100
AcDb2dVertex
 10
39.04152276039123
 20
-22.37386226654394
 30
0.0
  0
VERTEX
  5
8BF4
330
8BDF
100
AcDbEntity
  8
LW 5016-39-00
100
AcDbVertex
100
AcDb2dVertex
 10
38.85830523490906
 20
-22.25069761276586
 30
0.0
  0
VERTEX
  5
8BF5
330
8BDF
100
AcDbEntity
  8
LW 5016-39-00
100
AcDbVertex
100
AcDb2dVertex
 10
38.71042253494263
 20
-22.11326599121457
 30
0.0
  0
VERTEX
  5
8BF6
330
8BDF
100
AcDbEntity
  8
LW 5016-39-00
100
AcDbVertex
100
AcDb2dVertex
 10
38.60434295654297
 20
-21.96433782577878
 30
0.0
  0
VERTEX
  5
8BF7
330
8BDF
100
AcDbEntity
  8
LW 5016-39-00
100
AcDbVertex
100
AcDb2dVertex
 10
38.54101302146911
 20
-21.80843830109006
 30
0.0
  0
VERTEX
  5
8BF8
330
8BDF
100
AcDbEntity
  8
LW 5016-39-00
100
AcDbVertex
100
AcDb2dVertex
 10
38.52
 20
-21.65063619614023
 30
0.0
  0
SEQEND
  5
8BF9
330
8BDF
100
AcDbEntity
  8
LW 5016-39-00
  0
POLYLINE
  5
8BFA
330
8BDC
100
AcDbEntity
  8
LW 5016-39-00
100
AcDb2dPolyline
 66
     1
 10
0.0
 20
0.0
 30
0.0
 70
   128
  0
VERTEX
  5
8BFB
330
8BFA
100
AcDbEntity
  8
LW 5016-39-00
100
AcDbVertex
100
AcDb2dVertex
 10
38.52
 20
-21.65063619614023
 30
0.0
  0
VERTEX
  5
8BFC
330
8BFA
100
AcDbEntity
  8
LW 5016-39-00
100
AcDbVertex
100
AcDb2dVertex
 10
38.54101302146911
 20
-21.48914575577169
 30
0.0
  0
VERTEX
  5
8BFD
330
8BFA
100
AcDbEntity
  8
LW 5016-39-00
100
AcDbVertex
100
AcDb2dVertex
 10
38.60434295654297
 20
-21.32250547409455
 30
0.0
  0
VERTEX
  5
8BFE
330
8BFA
100
AcDbEntity
  8
LW 5016-39-00
100
AcDbVertex
100
AcDb2dVertex
 10
38.71042253494263
 20
-21.15626573563031
 30
0.0
  0
VERTEX
  5
8BFF
330
8BFA
100
AcDbEntity
  8
LW 5016-39-00
100
AcDbVertex
100
AcDb2dVertex
 10
38.85830523490906
 20
-20.9959340095561
 30
0.0
  0
VERTEX
  5
8C00
330
8BFA
100
AcDbEntity
  8
LW 5016-39-00
100
AcDbVertex
100
AcDb2dVertex
 10
39.04152276039123
 20
-20.84645748138848
 30
0.0
  0
VERTEX
  5
8C01
330
8BFA
100
AcDbEntity
  8
LW 5016-39-00
100
AcDbVertex
100
AcDb2dVertex
 10
39.2522347164154
 20
-20.71255683899346
 30
0.0
  0
VERTEX
  5
8C02
330
8BFA
100
AcDbEntity
  8
LW 5016-39-00
100
AcDbVertex
100
AcDb2dVertex
 10
39.49259998321533
 20
-20.59347152710393
 30
0.0
  0
VERTEX
  5
8C03
330
8BFA
100
AcDbEntity
  8
LW 5016-39-00
100
AcDbVertex
100
AcDb2dVertex
 10
39.76523878097534
 20
-20.48868179321721
 30
0.0
  0
VERTEX
  5
8C04
330
8BFA
100
AcDbEntity
  8
LW 5016-39-00
100
AcDbVertex
100
AcDb2dVertex
 10
40.06300212860106
 20
-20.40325641632512
 30
0.0
  0
VERTEX
  5
8C05
330
8BFA
100
AcDbEntity
  8
LW 5016-39-00
100
AcDbVertex
100
AcDb2dVertex
 10
40.37816884040831
 20
-20.34152984619573
 30
0.0
  0
VERTEX
  5
8C06
330
8BFA
100
AcDbEntity
  8
LW 5016-39-00
100
AcDbVertex
100
AcDb2dVertex
 10
40.70070745468139
 20
-20.30447006226018
 30
0.0
  0
VERTEX
  5
8C07
330
8BFA
100
AcDbEntity
  8
LW 5016-39-00
100
AcDbVertex
100
AcDb2dVertex
 10
41.01999999999999
 20
-20.29211044311955
 30
0.0
  0
VERTEX
  5
8C08
330
8BFA
100
AcDbEntity
  8
LW 5016-39-00
100
AcDbVertex
100
AcDb2dVertex
 10
41.33929254531859
 20
-20.30447006226018
 30
0.0
  0
VERTEX
  5
8C09
330
8BFA
100
AcDbEntity
  8
LW 5016-39-00
100
AcDbVertex
100
AcDb2dVertex
 10
41.66183115959166
 20
-20.34152984619573
 30
0.0
  0
VERTEX
  5
8C0A
330
8BFA
100
AcDbEntity
  8
LW 5016-39-00
100
AcDbVertex
100
AcDb2dVertex
 10
41.97699787139892
 20
-20.40325641632512
 30
0.0
  0
VERTEX
  5
8C0B
330
8BFA
100
AcDbEntity
  8
LW 5016-39-00
100
AcDbVertex
100
AcDb2dVertex
 10
42.27476121902465
 20
-20.48868179321721
 30
0.0
  0
VERTEX
  5
8C0C
330
8BFA
100
AcDbEntity
  8
LW 5016-39-00
100
AcDbVertex
100
AcDb2dVertex
 10
42.54740001678466
 20
-20.59347152710393
 30
0.0
  0
VERTEX
  5
8C0D
330
8BFA
100
AcDbEntity
  8
LW 5016-39-00
100
AcDbVertex
100
AcDb2dVertex
 10
42.78776528358458
 20
-20.71255683899346
 30
0.0
  0
VERTEX
  5
8C0E
330
8BFA
100
AcDbEntity
  8
LW 5016-39-00
100
AcDbVertex
100
AcDb2dVertex
 10
42.99847723960875
 20
-20.84645748138848
 30
0.0
  0
VERTEX
  5
8C0F
330
8BFA
100
AcDbEntity
  8
LW 5016-39-00
100
AcDbVertex
100
AcDb2dVertex
 10
43.18169476509093
 20
-20.9959340095561
 30
0.0
  0
VERTEX
  5
8C10
330
8BFA
100
AcDbEntity
  8
LW 5016-39-00
100
AcDbVertex
100
AcDb2dVertex
 10
43.32957746505736
 20
-21.15626573563031
 30
0.0
  0
VERTEX
  5
8C11
330
8BFA
100
AcDbEntity
  8
LW 5016-39-00
100
AcDbVertex
100
AcDb2dVertex
 10
43.43565704345702
 20
-21.32250547409455
 30
0.0
  0
VERTEX
  5
8C12
330
8BFA
100
AcDbEntity
  8
LW 5016-39-00
100
AcDbVertex
100
AcDb2dVertex
 10
43.49898697853087
 20
-21.48914575577169
 30
0.0
  0
VERTEX
  5
8C13
330
8BFA
100
AcDbEntity
  8
LW 5016-39-00
100
AcDbVertex
100
AcDb2dVertex
 10
43.51999999999999
 20
-21.65063619614023
 30
0.0
  0
SEQEND
  5
8C14
330
8BFA
100
AcDbEntity
  8
LW 5016-39-00
  0
POLYLINE
  5
8C15
330
8BDC
100
AcDbEntity
  8
LW 5016-39-00
100
AcDb2dPolyline
 66
     1
 10
0.0
 20
0.0
 30
0.0
 70
   128
  0
VERTEX
  5
8C16
330
8C15
100
AcDbEntity
  8
LW 5016-39-00
100
AcDbVertex
100
AcDb2dVertex
 10
43.51999999999999
 20
21.65063619613272
 30
0.0
  0
VERTEX
  5
8C17
330
8C15
100
AcDbEntity
  8
LW 5016-39-00
100
AcDbVertex
100
AcDb2dVertex
 10
43.49898697853087
 20
21.48914575576396
 30
0.0
  0
VERTEX
  5
8C18
330
8C15
100
AcDbEntity
  8
LW 5016-39-00
100
AcDbVertex
100
AcDb2dVertex
 10
43.43565704345702
 20
21.3225054740866
 30
0.0
  0
VERTEX
  5
8C19
330
8C15
100
AcDbEntity
  8
LW 5016-39-00
100
AcDbVertex
100
AcDb2dVertex
 10
43.32957746505736
 20
21.15626573562213
 30
0.0
  0
VERTEX
  5
8C1A
330
8C15
100
AcDbEntity
  8
LW 5016-39-00
100
AcDbVertex
100
AcDb2dVertex
 10
43.18169476509093
 20
20.99593400954791
 30
0.0
  0
VERTEX
  5
8C1B
330
8C15
100
AcDbEntity
  8
LW 5016-39-00
100
AcDbVertex
100
AcDb2dVertex
 10
42.99847723960875
 20
20.84645748138007
 30
0.0
  0
VERTEX
  5
8C1C
330
8C15
100
AcDbEntity
  8
LW 5016-39-00
100
AcDbVertex
100
AcDb2dVertex
 10
42.78776528358458
 20
20.71255683898505
 30
0.0
  0
VERTEX
  5
8C1D
330
8C15
100
AcDbEntity
  8
LW 5016-39-00
100
AcDbVertex
100
AcDb2dVertex
 10
42.54740001678466
 20
20.59347152709529
 30
0.0
  0
VERTEX
  5
8C1E
330
8C15
100
AcDbEntity
  8
LW 5016-39-00
100
AcDbVertex
100
AcDb2dVertex
 10
42.27476121902465
 20
20.48868179320857
 30
0.0
  0
VERTEX
  5
8C1F
330
8C15
100
AcDbEntity
  8
LW 5016-39-00
100
AcDbVertex
100
AcDb2dVertex
 10
41.97699787139892
 20
20.40325641631648
 30
0.0
  0
VERTEX
  5
8C20
330
8C15
100
AcDbEntity
  8
LW 5016-39-00
100
AcDbVertex
100
AcDb2dVertex
 10
41.66183115959166
 20
20.34152984618708
 30
0.0
  0
VERTEX
  5
8C21
330
8C15
100
AcDbEntity
  8
LW 5016-39-00
100
AcDbVertex
100
AcDb2dVertex
 10
41.33929254531859
 20
20.30447006225154
 30
0.0
  0
VERTEX
  5
8C22
330
8C15
100
AcDbEntity
  8
LW 5016-39-00
100
AcDbVertex
100
AcDb2dVertex
 10
41.01999999999999
 20
20.29211044311091
 30
0.0
  0
VERTEX
  5
8C23
330
8C15
100
AcDbEntity
  8
LW 5016-39-00
100
AcDbVertex
100
AcDb2dVertex
 10
40.70070745468139
 20
20.30447006225154
 30
0.0
  0
VERTEX
  5
8C24
330
8C15
100
AcDbEntity
  8
LW 5016-39-00
100
AcDbVertex
100
AcDb2dVertex
 10
40.37816884040831
 20
20.34152984618708
 30
0.0
  0
VERTEX
  5
8C25
330
8C15
100
AcDbEntity
  8
LW 5016-39-00
100
AcDbVertex
100
AcDb2dVertex
 10
40.06300212860106
 20
20.40325641631648
 30
0.0
  0
VERTEX
  5
8C26
330
8C15
100
AcDbEntity
  8
LW 5016-39-00
100
AcDbVertex
100
AcDb2dVertex
 10
39.76523878097534
 20
20.48868179320857
 30
0.0
  0
VERTEX
  5
8C27
330
8C15
100
AcDbEntity
  8
LW 5016-39-00
100
AcDbVertex
100
AcDb2dVertex
 10
39.49259998321533
 20
20.59347152709529
 30
0.0
  0
VERTEX
  5
8C28
330
8C15
100
AcDbEntity
  8
LW 5016-39-00
100
AcDbVertex
100
AcDb2dVertex
 10
39.2522347164154
 20
20.71255683898505
 30
0.0
  0
VERTEX
  5
8C29
330
8C15
100
AcDbEntity
  8
LW 5016-39-00
100
AcDbVertex
100
AcDb2dVertex
 10
39.04152276039123
 20
20.84645748138007
 30
0.0
  0
VERTEX
  5
8C2A
330
8C15
100
AcDbEntity
  8
LW 5016-39-00
100
AcDbVertex
100
AcDb2dVertex
 10
38.85830523490906
 20
20.99593400954791
 30
0.0
  0
VERTEX
  5
8C2B
330
8C15
100
AcDbEntity
  8
LW 5016-39-00
100
AcDbVertex
100
AcDb2dVertex
 10
38.71042253494263
 20
21.15626573562213
 30
0.0
  0
VERTEX
  5
8C2C
330
8C15
100
AcDbEntity
  8
LW 5016-39-00
100
AcDbVertex
100
AcDb2dVertex
 10
38.60434295654297
 20
21.3225054740866
 30
0.0
  0
VERTEX
  5
8C2D
330
8C15
100
AcDbEntity
  8
LW 5016-39-00
100
AcDbVertex
100
AcDb2dVertex
 10
38.54101302146911
 20
21.48914575576396
 30
0.0
  0
VERTEX
  5
8C2E
330
8C15
100
AcDbEntity
  8
LW 5016-39-00
100
AcDbVertex
100
AcDb2dVertex
 10
38.52
 20
21.65063619613272
 30
0.0
  0
SEQEND
  5
8C2F
330
8C15
100
AcDbEntity
  8
LW 5016-39-00
  0
POLYLINE
  5
8C30
330
8BDC
100
AcDbEntity
  8
LW 5016-39-00
100
AcDb2dPolyline
 66
     1
 10
0.0
 20
0.0
 30
0.0
 70
   128
  0
VERTEX
  5
8C31
330
8C30
100
AcDbEntity
  8
LW 5016-39-00
100
AcDbVertex
100
AcDb2dVertex
 10
38.52
 20
21.65063619613272
 30
0.0
  0
VERTEX
  5
8C32
330
8C30
100
AcDbEntity
  8
LW 5016-39-00
100
AcDbVertex
100
AcDb2dVertex
 10
38.54101302146911
 20
21.80843830108279
 30
0.0
  0
VERTEX
  5
8C33
330
8C30
100
AcDbEntity
  8
LW 5016-39-00
100
AcDbVertex
100
AcDb2dVertex
 10
38.60434295654297
 20
21.96433782577151
 30
0.0
  0
VERTEX
  5
8C34
330
8C30
100
AcDbEntity
  8
LW 5016-39-00
100
AcDbVertex
100
AcDb2dVertex
 10
38.71042253494263
 20
22.1132659912073
 30
0.0
  0
VERTEX
  5
8C35
330
8C30
100
AcDbEntity
  8
LW 5016-39-00
100
AcDbVertex
100
AcDb2dVertex
 10
38.85830523490906
 20
22.25069761275904
 30
0.0
  0
VERTEX
  5
8C36
330
8C30
100
AcDbEntity
  8
LW 5016-39-00
100
AcDbVertex
100
AcDb2dVertex
 10
39.04152276039123
 20
22.37386226653712
 30
0.0
  0
VERTEX
  5
8C37
330
8C30
100
AcDbEntity
  8
LW 5016-39-00
100
AcDbVertex
100
AcDb2dVertex
 10
39.2522347164154
 20
22.48032569884913
 30
0.0
  0
VERTEX
  5
8C38
330
8C30
100
AcDbEntity
  8
LW 5016-39-00
100
AcDbVertex
100
AcDb2dVertex
 10
39.49259998321533
 20
22.57195234298388
 30
0.0
  0
VERTEX
  5
8C39
330
8C30
100
AcDbEntity
  8
LW 5016-39-00
100
AcDbVertex
100
AcDb2dVertex
 10
39.76523878097534
 20
22.65038013457933
 30
0.0
  0
VERTEX
  5
8C3A
330
8C30
100
AcDbEntity
  8
LW 5016-39-00
100
AcDbVertex
100
AcDb2dVertex
 10
40.06300212860106
 20
22.71283626556078
 30
0.0
  0
VERTEX
  5
8C3B
330
8C30
100
AcDbEntity
  8
LW 5016-39-00
100
AcDbVertex
100
AcDb2dVertex
 10
40.37816884040831
 20
22.75718688964525
 30
0.0
  0
VERTEX
  5
8C3C
330
8C30
100
AcDbEntity
  8
LW 5016-39-00
100
AcDbVertex
100
AcDb2dVertex
 10
40.70070745468139
 20
22.78345584869066
 30
0.0
  0
VERTEX
  5
8C3D
330
8C30
100
AcDbEntity
  8
LW 5016-39-00
100
AcDbVertex
100
AcDb2dVertex
 10
41.01999999999999
 20
22.79211044311205
 30
0.0
  0
VERTEX
  5
8C3E
330
8C30
100
AcDbEntity
  8
LW 5016-39-00
100
AcDbVertex
100
AcDb2dVertex
 10
41.33929254531859
 20
22.78345584869066
 30
0.0
  0
VERTEX
  5
8C3F
330
8C30
100
AcDbEntity
  8
LW 5016-39-00
100
AcDbVertex
100
AcDb2dVertex
 10
41.66183115959166
 20
22.75718688964525
 30
0.0
  0
VERTEX
  5
8C40
330
8C30
100
AcDbEntity
  8
LW 5016-39-00
100
AcDbVertex
100
AcDb2dVertex
 10
41.97699787139892
 20
22.71283626556078
 30
0.0
  0
VERTEX
  5
8C41
330
8C30
100
AcDbEntity
  8
LW 5016-39-00
100
AcDbVertex
100
AcDb2dVertex
 10
42.27476121902465
 20
22.65038013457933
 30
0.0
  0
VERTEX
  5
8C42
330
8C30
100
AcDbEntity
  8
LW 5016-39-00
100
AcDbVertex
100
AcDb2dVertex
 10
42.54740001678466
 20
22.57195234298388
 30
0.0
  0
VERTEX
  5
8C43
330
8C30
100
AcDbEntity
  8
LW 5016-39-00
100
AcDbVertex
100
AcDb2dVertex
 10
42.78776528358458
 20
22.48032569884913
 30
0.0
  0
VERTEX
  5
8C44
330
8C30
100
AcDbEntity
  8
LW 5016-39-00
100
AcDbVertex
100
AcDb2dVertex
 10
42.99847723960875
 20
22.37386226653712
 30
0.0
  0
VERTEX
  5
8C45
330
8C30
100
AcDbEntity
  8
LW 5016-39-00
100
AcDbVertex
100
AcDb2dVertex
 10
43.18169476509093
 20
22.25069761275904
 30
0.0
  0
VERTEX
  5
8C46
330
8C30
100
AcDbEntity
  8
LW 5016-39-00
100
AcDbVertex
100
AcDb2dVertex
 10
43.32957746505736
 20
22.1132659912073
 30
0.0
  0
VERTEX
  5
8C47
330
8C30
100
AcDbEntity
  8
LW 5016-39-00
100
AcDbVertex
100
AcDb2dVertex
 10
43.43565704345702
 20
21.96433782577151
 30
0.0
  0
VERTEX
  5
8C48
330
8C30
100
AcDbEntity
  8
LW 5016-39-00
100
AcDbVertex
100
AcDb2dVertex
 10
43.49898697853087
 20
21.80843830108279
 30
0.0
  0
VERTEX
  5
8C49
330
8C30
100
AcDbEntity
  8
LW 5016-39-00
100
AcDbVertex
100
AcDb2dVertex
 10
43.51999999999999
 20
21.65063619613272
 30
0.0
  0
SEQEND
  5
8C4A
330
8C30
100
AcDbEntity
  8
LW 5016-39-00
  0
LINE
  5
8C4B
330
8BDC
100
AcDbEntity
  8
LW 5016-39-00
100
AcDbLine
 10
45.01999999999999
 20
-25.0
 30
0.0
 11
45.01999999999999
 21
25.0
 31
0.0
  0
LINE
  5
8C4C
330
8BDC
100
AcDbEntity
  8
LW 5016-39-00
100
AcDbLine
 10
51.02
 20
-19.0
 30
0.0
 11
51.02
 21
19.0
 31
0.0
  0
LINE
  5
8C4D
330
8BDC
100
AcDbEntity
  8
LW 5016-39-00
100
AcDbLine
 10
26.02
 20
25.0
 30
0.0
 11
45.01999999999999
 21
25.0
 31
0.0
  0
LINE
  5
8C4E
330
8BDC
100
AcDbEntity
  8
LW 5016-39-00
100
AcDbLine
 10
26.02
 20
-25.0
 30
0.0
 11
45.01999999999999
 21
-25.0
 31
0.0
  0
LINE
  5
8C4F
330
8BDC
100
AcDbEntity
  8
LW 5016-39-00
100
AcDbLine
 10
51.02
 20
-19.0
 30
0.0
 11
45.01999999999999
 21
-25.0
 31
0.0
  0
LINE
  5
8C50
330
8BDC
100
AcDbEntity
  8
LW 5016-39-00
100
AcDbLine
 10
51.02
 20
19.0
 30
0.0
 11
45.01999999999999
 21
25.0
 31
0.0
  0
POLYLINE
  5
8C51
330
8BDC
100
AcDbEntity
  8
LW 5016-39-00
100
AcDb2dPolyline
 66
     1
 10
0.0
 20
0.0
 30
0.0
 70
   128
  0
VERTEX
  5
8C52
330
8C51
100
AcDbEntity
  8
LW 5016-39-00
100
AcDbVertex
100
AcDb2dVertex
 10
-43.51999999999999
 20
21.65063619613272
 30
0.0
  0
VERTEX
  5
8C53
330
8C51
100
AcDbEntity
  8
LW 5016-39-00
100
AcDbVertex
100
AcDb2dVertex
 10
-43.49898697853087
 20
21.80843830108279
 30
0.0
  0
VERTEX
  5
8C54
330
8C51
100
AcDbEntity
  8
LW 5016-39-00
100
AcDbVertex
100
AcDb2dVertex
 10
-43.43565704345702
 20
21.96433782577151
 30
0.0
  0
VERTEX
  5
8C55
330
8C51
100
AcDbEntity
  8
LW 5016-39-00
100
AcDbVertex
100
AcDb2dVertex
 10
-43.32957746505736
 20
22.1132659912073
 30
0.0
  0
VERTEX
  5
8C56
330
8C51
100
AcDbEntity
  8
LW 5016-39-00
100
AcDbVertex
100
AcDb2dVertex
 10
-43.18169476509093
 20
22.25069761275904
 30
0.0
  0
VERTEX
  5
8C57
330
8C51
100
AcDbEntity
  8
LW 5016-39-00
100
AcDbVertex
100
AcDb2dVertex
 10
-42.99847723960875
 20
22.37386226653712
 30
0.0
  0
VERTEX
  5
8C58
330
8C51
100
AcDbEntity
  8
LW 5016-39-00
100
AcDbVertex
100
AcDb2dVertex
 10
-42.78776528358458
 20
22.48032569884913
 30
0.0
  0
VERTEX
  5
8C59
330
8C51
100
AcDbEntity
  8
LW 5016-39-00
100
AcDbVertex
100
AcDb2dVertex
 10
-42.54740001678466
 20
22.57195234298388
 30
0.0
  0
VERTEX
  5
8C5A
330
8C51
100
AcDbEntity
  8
LW 5016-39-00
100
AcDbVertex
100
AcDb2dVertex
 10
-42.27476121902465
 20
22.65038013457933
 30
0.0
  0
VERTEX
  5
8C5B
330
8C51
100
AcDbEntity
  8
LW 5016-39-00
100
AcDbVertex
100
AcDb2dVertex
 10
-41.97699787139892
 20
22.71283626556078
 30
0.0
  0
VERTEX
  5
8C5C
330
8C51
100
AcDbEntity
  8
LW 5016-39-00
100
AcDbVertex
100
AcDb2dVertex
 10
-41.66183115959166
 20
22.75718688964525
 30
0.0
  0
VERTEX
  5
8C5D
330
8C51
100
AcDbEntity
  8
LW 5016-39-00
100
AcDbVertex
100
AcDb2dVertex
 10
-41.33929254531859
 20
22.78345584869066
 30
0.0
  0
VERTEX
  5
8C5E
330
8C51
100
AcDbEntity
  8
LW 5016-39-00
100
AcDbVertex
100
AcDb2dVertex
 10
-41.01999999999999
 20
22.79211044311205
 30
0.0
  0
VERTEX
  5
8C5F
330
8C51
100
AcDbEntity
  8
LW 5016-39-00
100
AcDbVertex
100
AcDb2dVertex
 10
-40.70070745468139
 20
22.78345584869066
 30
0.0
  0
VERTEX
  5
8C60
330
8C51
100
AcDbEntity
  8
LW 5016-39-00
100
AcDbVertex
100
AcDb2dVertex
 10
-40.37816884040831
 20
22.75718688964525
 30
0.0
  0
VERTEX
  5
8C61
330
8C51
100
AcDbEntity
  8
LW 5016-39-00
100
AcDbVertex
100
AcDb2dVertex
 10
-40.06300212860106
 20
22.71283626556078
 30
0.0
  0
VERTEX
  5
8C62
330
8C51
100
AcDbEntity
  8
LW 5016-39-00
100
AcDbVertex
100
AcDb2dVertex
 10
-39.76523878097534
 20
22.65038013457933
 30
0.0
  0
VERTEX
  5
8C63
330
8C51
100
AcDbEntity
  8
LW 5016-39-00
100
AcDbVertex
100
AcDb2dVertex
 10
-39.49259998321533
 20
22.57195234298388
 30
0.0
  0
VERTEX
  5
8C64
330
8C51
100
AcDbEntity
  8
LW 5016-39-00
100
AcDbVertex
100
AcDb2dVertex
 10
-39.2522347164154
 20
22.48032569884913
 30
0.0
  0
VERTEX
  5
8C65
330
8C51
100
AcDbEntity
  8
LW 5016-39-00
100
AcDbVertex
100
AcDb2dVertex
 10
-39.04152276039123
 20
22.37386226653712
 30
0.0
  0
VERTEX
  5
8C66
330
8C51
100
AcDbEntity
  8
LW 5016-39-00
100
AcDbVertex
100
AcDb2dVertex
 10
-38.85830523490906
 20
22.25069761275904
 30
0.0
  0
VERTEX
  5
8C67
330
8C51
100
AcDbEntity
  8
LW 5016-39-00
100
AcDbVertex
100
AcDb2dVertex
 10
-38.71042253494263
 20
22.1132659912073
 30
0.0
  0
VERTEX
  5
8C68
330
8C51
100
AcDbEntity
  8
LW 5016-39-00
100
AcDbVertex
100
AcDb2dVertex
 10
-38.60434295654297
 20
21.96433782577151
 30
0.0
  0
VERTEX
  5
8C69
330
8C51
100
AcDbEntity
  8
LW 5016-39-00
100
AcDbVertex
100
AcDb2dVertex
 10
-38.54101302146911
 20
21.80843830108279
 30
0.0
  0
VERTEX
  5
8C6A
330
8C51
100
AcDbEntity
  8
LW 5016-39-00
100
AcDbVertex
100
AcDb2dVertex
 10
-38.52
 20
21.65063619613272
 30
0.0
  0
SEQEND
  5
8C6B
330
8C51
100
AcDbEntity
  8
LW 5016-39-00
  0
POLYLINE
  5
8C6C
330
8BDC
100
AcDbEntity
  8
LW 5016-39-00
100
AcDb2dPolyline
 66
     1
 10
0.0
 20
0.0
 30
0.0
 70
   128
  0
VERTEX
  5
8C6D
330
8C6C
100
AcDbEntity
  8
LW 5016-39-00
100
AcDbVertex
100
AcDb2dVertex
 10
-38.52
 20
21.65063619613272
 30
0.0
  0
VERTEX
  5
8C6E
330
8C6C
100
AcDbEntity
  8
LW 5016-39-00
100
AcDbVertex
100
AcDb2dVertex
 10
-38.54101302146911
 20
21.48914575576396
 30
0.0
  0
VERTEX
  5
8C6F
330
8C6C
100
AcDbEntity
  8
LW 5016-39-00
100
AcDbVertex
100
AcDb2dVertex
 10
-38.60434295654297
 20
21.3225054740866
 30
0.0
  0
VERTEX
  5
8C70
330
8C6C
100
AcDbEntity
  8
LW 5016-39-00
100
AcDbVertex
100
AcDb2dVertex
 10
-38.71042253494263
 20
21.15626573562213
 30
0.0
  0
VERTEX
  5
8C71
330
8C6C
100
AcDbEntity
  8
LW 5016-39-00
100
AcDbVertex
100
AcDb2dVertex
 10
-38.85830523490906
 20
20.99593400954791
 30
0.0
  0
VERTEX
  5
8C72
330
8C6C
100
AcDbEntity
  8
LW 5016-39-00
100
AcDbVertex
100
AcDb2dVertex
 10
-39.04152276039123
 20
20.84645748138007
 30
0.0
  0
VERTEX
  5
8C73
330
8C6C
100
AcDbEntity
  8
LW 5016-39-00
100
AcDbVertex
100
AcDb2dVertex
 10
-39.2522347164154
 20
20.71255683898494
 30
0.0
  0
VERTEX
  5
8C74
330
8C6C
100
AcDbEntity
  8
LW 5016-39-00
100
AcDbVertex
100
AcDb2dVertex
 10
-39.49259998321533
 20
20.59347152709529
 30
0.0
  0
VERTEX
  5
8C75
330
8C6C
100
AcDbEntity
  8
LW 5016-39-00
100
AcDbVertex
100
AcDb2dVertex
 10
-39.76523878097534
 20
20.48868179320857
 30
0.0
  0
VERTEX
  5
8C76
330
8C6C
100
AcDbEntity
  8
LW 5016-39-00
100
AcDbVertex
100
AcDb2dVertex
 10
-40.06300212860106
 20
20.40325641631648
 30
0.0
  0
VERTEX
  5
8C77
330
8C6C
100
AcDbEntity
  8
LW 5016-39-00
100
AcDbVertex
100
AcDb2dVertex
 10
-40.37816884040831
 20
20.34152984618708
 30
0.0
  0
VERTEX
  5
8C78
330
8C6C
100
AcDbEntity
  8
LW 5016-39-00
100
AcDbVertex
100
AcDb2dVertex
 10
-40.70070745468139
 20
20.30447006225154
 30
0.0
  0
VERTEX
  5
8C79
330
8C6C
100
AcDbEntity
  8
LW 5016-39-00
100
AcDbVertex
100
AcDb2dVertex
 10
-41.01999999999999
 20
20.29211044311091
 30
0.0
  0
VERTEX
  5
8C7A
330
8C6C
100
AcDbEntity
  8
LW 5016-39-00
100
AcDbVertex
100
AcDb2dVertex
 10
-41.33929254531859
 20
20.30447006225154
 30
0.0
  0
VERTEX
  5
8C7B
330
8C6C
100
AcDbEntity
  8
LW 5016-39-00
100
AcDbVertex
100
AcDb2dVertex
 10
-41.66183115959166
 20
20.34152984618708
 30
0.0
  0
VERTEX
  5
8C7C
330
8C6C
100
AcDbEntity
  8
LW 5016-39-00
100
AcDbVertex
100
AcDb2dVertex
 10
-41.97699787139892
 20
20.40325641631648
 30
0.0
  0
VERTEX
  5
8C7D
330
8C6C
100
AcDbEntity
  8
LW 5016-39-00
100
AcDbVertex
100
AcDb2dVertex
 10
-42.27476121902465
 20
20.48868179320857
 30
0.0
  0
VERTEX
  5
8C7E
330
8C6C
100
AcDbEntity
  8
LW 5016-39-00
100
AcDbVertex
100
AcDb2dVertex
 10
-42.54740001678466
 20
20.59347152709529
 30
0.0
  0
VERTEX
  5
8C7F
330
8C6C
100
AcDbEntity
  8
LW 5016-39-00
100
AcDbVertex
100
AcDb2dVertex
 10
-42.78776528358458
 20
20.71255683898494
 30
0.0
  0
VERTEX
  5
8C80
330
8C6C
100
AcDbEntity
  8
LW 5016-39-00
100
AcDbVertex
100
AcDb2dVertex
 10
-42.99847723960875
 20
20.84645748138007
 30
0.0
  0
VERTEX
  5
8C81
330
8C6C
100
AcDbEntity
  8
LW 5016-39-00
100
AcDbVertex
100
AcDb2dVertex
 10
-43.18169476509093
 20
20.99593400954791
 30
0.0
  0
VERTEX
  5
8C82
330
8C6C
100
AcDbEntity
  8
LW 5016-39-00
100
AcDbVertex
100
AcDb2dVertex
 10
-43.32957746505736
 20
21.15626573562213
 30
0.0
  0
VERTEX
  5
8C83
330
8C6C
100
AcDbEntity
  8
LW 5016-39-00
100
AcDbVertex
100
AcDb2dVertex
 10
-43.43565704345702
 20
21.3225054740866
 30
0.0
  0
VERTEX
  5
8C84
330
8C6C
100
AcDbEntity
  8
LW 5016-39-00
100
AcDbVertex
100
AcDb2dVertex
 10
-43.49898697853087
 20
21.48914575576396
 30
0.0
  0
VERTEX
  5
8C85
330
8C6C
100
AcDbEntity
  8
LW 5016-39-00
100
AcDbVertex
100
AcDb2dVertex
 10
-43.51999999999999
 20
21.65063619613272
 30
0.0
  0
SEQEND
  5
8C86
330
8C6C
100
AcDbEntity
  8
LW 5016-39-00
  0
POLYLINE
  5
8C87
330
8BDC
100
AcDbEntity
  8
LW 5016-39-00
100
AcDb2dPolyline
 66
     1
 10
0.0
 20
0.0
 30
0.0
 70
   128
  0
VERTEX
  5
8C88
330
8C87
100
AcDbEntity
  8
LW 5016-39-00
100
AcDbVertex
100
AcDb2dVertex
 10
-43.51999999999999
 20
-21.65063619614023
 30
0.0
  0
VERTEX
  5
8C89
330
8C87
100
AcDbEntity
  8
LW 5016-39-00
100
AcDbVertex
100
AcDb2dVertex
 10
-43.49898697853087
 20
-21.48914575577169
 30
0.0
  0
VERTEX
  5
8C8A
330
8C87
100
AcDbEntity
  8
LW 5016-39-00
100
AcDbVertex
100
AcDb2dVertex
 10
-43.43565704345702
 20
-21.32250547409455
 30
0.0
  0
VERTEX
  5
8C8B
330
8C87
100
AcDbEntity
  8
LW 5016-39-00
100
AcDbVertex
100
AcDb2dVertex
 10
-43.32957746505736
 20
-21.15626573563031
 30
0.0
  0
VERTEX
  5
8C8C
330
8C87
100
AcDbEntity
  8
LW 5016-39-00
100
AcDbVertex
100
AcDb2dVertex
 10
-43.18169476509093
 20
-20.9959340095561
 30
0.0
  0
VERTEX
  5
8C8D
330
8C87
100
AcDbEntity
  8
LW 5016-39-00
100
AcDbVertex
100
AcDb2dVertex
 10
-42.99847723960875
 20
-20.84645748138848
 30
0.0
  0
VERTEX
  5
8C8E
330
8C87
100
AcDbEntity
  8
LW 5016-39-00
100
AcDbVertex
100
AcDb2dVertex
 10
-42.78776528358458
 20
-20.71255683899358
 30
0.0
  0
VERTEX
  5
8C8F
330
8C87
100
AcDbEntity
  8
LW 5016-39-00
100
AcDbVertex
100
AcDb2dVertex
 10
-42.54740001678466
 20
-20.59347152710393
 30
0.0
  0
VERTEX
  5
8C90
330
8C87
100
AcDbEntity
  8
LW 5016-39-00
100
AcDbVertex
100
AcDb2dVertex
 10
-42.27476121902465
 20
-20.48868179321721
 30
0.0
  0
VERTEX
  5
8C91
330
8C87
100
AcDbEntity
  8
LW 5016-39-00
100
AcDbVertex
100
AcDb2dVertex
 10
-41.97699787139892
 20
-20.40325641632512
 30
0.0
  0
VERTEX
  5
8C92
330
8C87
100
AcDbEntity
  8
LW 5016-39-00
100
AcDbVertex
100
AcDb2dVertex
 10
-41.66183115959166
 20
-20.34152984619573
 30
0.0
  0
VERTEX
  5
8C93
330
8C87
100
AcDbEntity
  8
LW 5016-39-00
100
AcDbVertex
100
AcDb2dVertex
 10
-41.33929254531859
 20
-20.30447006226018
 30
0.0
  0
VERTEX
  5
8C94
330
8C87
100
AcDbEntity
  8
LW 5016-39-00
100
AcDbVertex
100
AcDb2dVertex
 10
-41.01999999999999
 20
-20.29211044311955
 30
0.0
  0
VERTEX
  5
8C95
330
8C87
100
AcDbEntity
  8
LW 5016-39-00
100
AcDbVertex
100
AcDb2dVertex
 10
-40.70070745468139
 20
-20.30447006226018
 30
0.0
  0
VERTEX
  5
8C96
330
8C87
100
AcDbEntity
  8
LW 5016-39-00
100
AcDbVertex
100
AcDb2dVertex
 10
-40.37816884040831
 20
-20.34152984619573
 30
0.0
  0
VERTEX
  5
8C97
330
8C87
100
AcDbEntity
  8
LW 5016-39-00
100
AcDbVertex
100
AcDb2dVertex
 10
-40.06300212860106
 20
-20.40325641632512
 30
0.0
  0
VERTEX
  5
8C98
330
8C87
100
AcDbEntity
  8
LW 5016-39-00
100
AcDbVertex
100
AcDb2dVertex
 10
-39.76523878097534
 20
-20.48868179321721
 30
0.0
  0
VERTEX
  5
8C99
330
8C87
100
AcDbEntity
  8
LW 5016-39-00
100
AcDbVertex
100
AcDb2dVertex
 10
-39.49259998321533
 20
-20.59347152710393
 30
0.0
  0
VERTEX
  5
8C9A
330
8C87
100
AcDbEntity
  8
LW 5016-39-00
100
AcDbVertex
100
AcDb2dVertex
 10
-39.2522347164154
 20
-20.71255683899358
 30
0.0
  0
VERTEX
  5
8C9B
330
8C87
100
AcDbEntity
  8
LW 5016-39-00
100
AcDbVertex
100
AcDb2dVertex
 10
-39.04152276039123
 20
-20.84645748138848
 30
0.0
  0
VERTEX
  5
8C9C
330
8C87
100
AcDbEntity
  8
LW 5016-39-00
100
AcDbVertex
100
AcDb2dVertex
 10
-38.85830523490906
 20
-20.9959340095561
 30
0.0
  0
VERTEX
  5
8C9D
330
8C87
100
AcDbEntity
  8
LW 5016-39-00
100
AcDbVertex
100
AcDb2dVertex
 10
-38.71042253494263
 20
-21.15626573563031
 30
0.0
  0
VERTEX
  5
8C9E
330
8C87
100
AcDbEntity
  8
LW 5016-39-00
100
AcDbVertex
100
AcDb2dVertex
 10
-38.60434295654297
 20
-21.32250547409455
 30
0.0
  0
VERTEX
  5
8C9F
330
8C87
100
AcDbEntity
  8
LW 5016-39-00
100
AcDbVertex
100
AcDb2dVertex
 10
-38.54101302146911
 20
-21.48914575577169
 30
0.0
  0
VERTEX
  5
8CA0
330
8C87
100
AcDbEntity
  8
LW 5016-39-00
100
AcDbVertex
100
AcDb2dVertex
 10
-38.52
 20
-21.65063619614023
 30
0.0
  0
SEQEND
  5
8CA1
330
8C87
100
AcDbEntity
  8
LW 5016-39-00
  0
POLYLINE
  5
8CA2
330
8BDC
100
AcDbEntity
  8
LW 5016-39-00
100
AcDb2dPolyline
 66
     1
 10
0.0
 20
0.0
 30
0.0
 70
   128
  0
VERTEX
  5
8CA3
330
8CA2
100
AcDbEntity
  8
LW 5016-39-00
100
AcDbVertex
100
AcDb2dVertex
 10
-38.52
 20
-21.65063619614023
 30
0.0
  0
VERTEX
  5
8CA4
330
8CA2
100
AcDbEntity
  8
LW 5016-39-00
100
AcDbVertex
100
AcDb2dVertex
 10
-38.54101302146911
 20
-21.80843830109006
 30
0.0
  0
VERTEX
  5
8CA5
330
8CA2
100
AcDbEntity
  8
LW 5016-39-00
100
AcDbVertex
100
AcDb2dVertex
 10
-38.60434295654297
 20
-21.96433782577878
 30
0.0
  0
VERTEX
  5
8CA6
330
8CA2
100
AcDbEntity
  8
LW 5016-39-00
100
AcDbVertex
100
AcDb2dVertex
 10
-38.71042253494263
 20
-22.11326599121457
 30
0.0
  0
VERTEX
  5
8CA7
330
8CA2
100
AcDbEntity
  8
LW 5016-39-00
100
AcDbVertex
100
AcDb2dVertex
 10
-38.85830523490906
 20
-22.25069761276586
 30
0.0
  0
VERTEX
  5
8CA8
330
8CA2
100
AcDbEntity
  8
LW 5016-39-00
100
AcDbVertex
100
AcDb2dVertex
 10
-39.04152276039123
 20
-22.37386226654394
 30
0.0
  0
VERTEX
  5
8CA9
330
8CA2
100
AcDbEntity
  8
LW 5016-39-00
100
AcDbVertex
100
AcDb2dVertex
 10
-39.2522347164154
 20
-22.48032569885595
 30
0.0
  0
VERTEX
  5
8CAA
330
8CA2
100
AcDbEntity
  8
LW 5016-39-00
100
AcDbVertex
100
AcDb2dVertex
 10
-39.49259998321533
 20
-22.57195234299024
 30
0.0
  0
VERTEX
  5
8CAB
330
8CA2
100
AcDbEntity
  8
LW 5016-39-00
100
AcDbVertex
100
AcDb2dVertex
 10
-39.76523878097534
 20
-22.6503801345857
 30
0.0
  0
VERTEX
  5
8CAC
330
8CA2
100
AcDbEntity
  8
LW 5016-39-00
100
AcDbVertex
100
AcDb2dVertex
 10
-40.06300212860106
 20
-22.71283626556715
 30
0.0
  0
VERTEX
  5
8CAD
330
8CA2
100
AcDbEntity
  8
LW 5016-39-00
100
AcDbVertex
100
AcDb2dVertex
 10
-40.37816884040831
 20
-22.75718688965162
 30
0.0
  0
VERTEX
  5
8CAE
330
8CA2
100
AcDbEntity
  8
LW 5016-39-00
100
AcDbVertex
100
AcDb2dVertex
 10
-40.70070745468139
 20
-22.78345584869703
 30
0.0
  0
VERTEX
  5
8CAF
330
8CA2
100
AcDbEntity
  8
LW 5016-39-00
100
AcDbVertex
100
AcDb2dVertex
 10
-41.01999999999999
 20
-22.79211044311842
 30
0.0
  0
VERTEX
  5
8CB0
330
8CA2
100
AcDbEntity
  8
LW 5016-39-00
100
AcDbVertex
100
AcDb2dVertex
 10
-41.33929254531859
 20
-22.78345584869703
 30
0.0
  0
VERTEX
  5
8CB1
330
8CA2
100
AcDbEntity
  8
LW 5016-39-00
100
AcDbVertex
100
AcDb2dVertex
 10
-41.66183115959166
 20
-22.75718688965162
 30
0.0
  0
VERTEX
  5
8CB2
330
8CA2
100
AcDbEntity
  8
LW 5016-39-00
100
AcDbVertex
100
AcDb2dVertex
 10
-41.97699787139892
 20
-22.71283626556715
 30
0.0
  0
VERTEX
  5
8CB3
330
8CA2
100
AcDbEntity
  8
LW 5016-39-00
100
AcDbVertex
100
AcDb2dVertex
 10
-42.27476121902465
 20
-22.6503801345857
 30
0.0
  0
VERTEX
  5
8CB4
330
8CA2
100
AcDbEntity
  8
LW 5016-39-00
100
AcDbVertex
100
AcDb2dVertex
 10
-42.54740001678466
 20
-22.57195234299024
 30
0.0
  0
VERTEX
  5
8CB5
330
8CA2
100
AcDbEntity
  8
LW 5016-39-00
100
AcDbVertex
100
AcDb2dVertex
 10
-42.78776528358458
 20
-22.48032569885595
 30
0.0
  0
VERTEX
  5
8CB6
330
8CA2
100
AcDbEntity
  8
LW 5016-39-00
100
AcDbVertex
100
AcDb2dVertex
 10
-42.99847723960875
 20
-22.37386226654394
 30
0.0
  0
VERTEX
  5
8CB7
330
8CA2
100
AcDbEntity
  8
LW 5016-39-00
100
AcDbVertex
100
AcDb2dVertex
 10
-43.18169476509093
 20
-22.25069761276586
 30
0.0
  0
VERTEX
  5
8CB8
330
8CA2
100
AcDbEntity
  8
LW 5016-39-00
100
AcDbVertex
100
AcDb2dVertex
 10
-43.32957746505736
 20
-22.11326599121457
 30
0.0
  0
VERTEX
  5
8CB9
330
8CA2
100
AcDbEntity
  8
LW 5016-39-00
100
AcDbVertex
100
AcDb2dVertex
 10
-43.43565704345702
 20
-21.96433782577878
 30
0.0
  0
VERTEX
  5
8CBA
330
8CA2
100
AcDbEntity
  8
LW 5016-39-00
100
AcDbVertex
100
AcDb2dVertex
 10
-43.49898697853087
 20
-21.80843830109006
 30
0.0
  0
VERTEX
  5
8CBB
330
8CA2
100
AcDbEntity
  8
LW 5016-39-00
100
AcDbVertex
100
AcDb2dVertex
 10
-43.51999999999999
 20
-21.65063619614023
 30
0.0
  0
SEQEND
  5
8CBC
330
8CA2
100
AcDbEntity
  8
LW 5016-39-00
  0
LINE
  5
8CBD
330
8BDC
100
AcDbEntity
  8
LW 5016-39-00
100
AcDbLine
 10
-45.01999999999999
 20
25.0
 30
0.0
 11
-45.01999999999999
 21
-25.0
 31
0.0
  0
LINE
  5
8CBE
330
8BDC
100
AcDbEntity
  8
LW 5016-39-00
100
AcDbLine
 10
-51.02
 20
19.0
 30
0.0
 11
-51.02
 21
-19.0
 31
0.0
  0
LINE
  5
8CBF
330
8BDC
100
AcDbEntity
  8
LW 5016-39-00
100
AcDbLine
 10
-145.02
 20
10.0
 30
0.0
 11
-145.02
 21
-10.0
 31
0.0
  0
LINE
  5
8CC0
330
8BDC
100
AcDbEntity
  8
LW 5016-39-00
100
AcDbLine
 10
-146.02
 20
9.0
 30
0.0
 11
-146.02
 21
-9.0
 31
0.0
  0
LINE
  5
8CC1
330
8BDC
100
AcDbEntity
  8
LW 5016-39-00
100
AcDbLine
 10
-26.02
 20
-25.0
 30
0.0
 11
-45.01999999999999
 21
-25.0
 31
0.0
  0
LINE
  5
8CC2
330
8BDC
100
AcDbEntity
  8
LW 5016-39-00
100
AcDbLine
 10
-26.02
 20
25.0
 30
0.0
 11
-45.01999999999999
 21
25.0
 31
0.0
  0
LINE
  5
8CC3
330
8BDC
100
AcDbEntity
  8
LW 5016-39-00
100
AcDbLine
 10
-51.02
 20
19.0
 30
0.0
 11
-45.01999999999999
 21
25.0
 31
0.0
  0
LINE
  5
8CC4
330
8BDC
100
AcDbEntity
  8
LW 5016-39-00
100
AcDbLine
 10
-51.02
 20
-19.0
 30
0.0
 11
-45.01999999999999
 21
-25.0
 31
0.0
  0
ARC
  5
8CC5
330
8BDC
100
AcDbEntity
  8
LW 5016-39-00
100
AcDbCircle
 10
-52.01999999999999
 20
11.0
 30
0.0
 40
1.000000000000002
100
AcDbArc
 50
270.0
 51
0.0
  0
ARC
  5
8CC6
330
8BDC
100
AcDbEntity
  8
LW 5016-39-00
100
AcDbCircle
 10
-52.01999999999999
 20
-11.0
 30
0.0
 40
1.000000000000002
100
AcDbArc
 50
0.0
 51
90.0
  0
LINE
  5
8CC7
330
8BDC
100
AcDbEntity
  8
LW 5016-39-00
100
AcDbLine
 10
-52.01999999999999
 20
-10.0
 30
0.0
 11
-101.9861218113309
 21
-10.00000000000003
 31
0.0
  0
LINE
  5
8CC8
330
8BDC
100
AcDbEntity
  8
LW 5016-39-00
100
AcDbLine
 10
-120.013878188669
 20
-10.0
 30
0.0
 11
-145.02
 21
-10.0
 31
0.0
  0
LINE
  5
8CC9
330
8BDC
100
AcDbEntity
  8
LW 5016-39-00
100
AcDbLine
 10
-52.01999999999999
 20
10.0
 30
0.0
 11
-94.22949016875318
 21
9.999999999999971
 31
0.0
  0
LINE
  5
8CCA
330
8BDC
100
AcDbEntity
  8
LW 5016-39-00
100
AcDbLine
 10
-127.7705098312468
 20
10.0
 30
0.0
 11
-145.02
 21
10.0
 31
0.0
  0
LINE
  5
8CCB
330
8BDC
100
AcDbEntity
  8
LW 5016-39-00
100
AcDbLine
 10
-146.02
 20
9.0
 30
0.0
 11
-145.02
 21
10.0
 31
0.0
  0
LINE
  5
8CCC
330
8BDC
100
AcDbEntity
  8
LW 5016-39-00
100
AcDbLine
 10
-146.02
 20
-9.0
 30
0.0
 11
-145.02
 21
-10.0
 31
0.0
  0
CIRCLE
  5
8CCD
330
8BDC
100
AcDbEntity
  8
LW 5016-39-00
100
AcDbCircle
 10
-111.0
 20
4.999999999994543
 30
0.0
 40
17.50000000000001
  0
LINE
  5
8CCE
330
8BDC
100
AcDbEntity
  8
LW 5016-39-00
100
AcDbLine
 10
16.0
 20
12.0
 30
0.0
 11
16.0
 21
-12.00000000000011
 31
0.0
  0
LINE
  5
8CCF
330
8BDC
100
AcDbEntity
  8
LW 5016-39-00
100
AcDbLine
 10
-16.0
 20
12.0
 30
0.0
 11
-16.0
 21
-12.00000000000011
 31
0.0
  0
LINE
  5
8CD0
330
8BDC
100
AcDbEntity
  8
LW 5016-39-00
100
AcDbLine
 10
-16.0
 20
12.0
 30
0.0
 11
16.0
 21
12.0
 31
0.0
  0
LINE
  5
8CD1
330
8BDC
100
AcDbEntity
  8
LW 5016-39-00
100
AcDbLine
 10
-16.0
 20
-12.00000000000011
 30
0.0
 11
16.0
 21
-12.00000000000011
 31
0.0
  0
LINE
  5
8CD2
330
8BDC
100
AcDbEntity
  8
LW 5016-39-00
100
AcDbLine
 10
-23.02
 20
32.5
 30
0.0
 11
-23.02
 21
-32.5
 31
0.0
  0
LINE
  5
8CD3
330
8BDC
100
AcDbEntity
  8
LW 5016-39-00
100
AcDbLine
 10
-26.02
 20
32.5
 30
0.0
 11
-26.02
 21
-32.5
 31
0.0
  0
LINE
  5
8CD4
330
8BDC
100
AcDbEntity
  8
LW 5016-39-00
100
AcDbLine
 10
-26.02
 20
32.5
 30
0.0
 11
-23.02
 21
32.5
 31
0.0
  0
LINE
  5
8CD5
330
8BDC
100
AcDbEntity
  8
LW 5016-39-00
100
AcDbLine
 10
-26.02
 20
-32.5
 30
0.0
 11
-23.02
 21
-32.5
 31
0.0
  0
LINE
  5
8CD6
330
8BDC
100
AcDbEntity
  8
LW 5016-39-00
100
AcDbLine
 10
23.02
 20
-32.5
 30
0.0
 11
23.02
 21
32.5
 31
0.0
  0
LINE
  5
8CD7
330
8BDC
100
AcDbEntity
  8
LW 5016-39-00
100
AcDbLine
 10
26.02
 20
-32.5
 30
0.0
 11
26.02
 21
32.5
 31
0.0
  0
LINE
  5
8CD8
330
8BDC
100
AcDbEntity
  8
LW 5016-39-00
100
AcDbLine
 10
26.02
 20
-32.5
 30
0.0
 11
23.02
 21
-32.5
 31
0.0
  0
LINE
  5
8CD9
330
8BDC
100
AcDbEntity
  8
LW 5016-39-00
100
AcDbLine
 10
26.02
 20
32.5
 30
0.0
 11
23.02
 21
32.5
 31
0.0
  0
LINE
  5
8CDA
330
8BDC
100
AcDbEntity
  8
LW 5016-39-00
100
AcDbLine
 10
-21.02
 20
32.0
 30
0.0
 11
-21.02
 21
-32.00000000000012
 31
0.0
  0
LINE
  5
8CDB
330
8BDC
100
AcDbEntity
  8
LW 5016-39-00
100
AcDbLine
 10
-23.02
 20
32.0
 30
0.0
 11
-21.02
 21
32.0
 31
0.0
  0
LINE
  5
8CDC
330
8BDC
100
AcDbEntity
  8
LW 5016-39-00
100
AcDbLine
 10
-23.02
 20
-32.0
 30
0.0
 11
-21.02
 21
-32.0
 31
0.0
  0
LINE
  5
8CDD
330
8BDC
100
AcDbEntity
  8
LW 5016-39-00
100
AcDbLine
 10
21.02
 20
-32.00000000000012
 30
0.0
 11
21.02
 21
32.0
 31
0.0
  0
LINE
  5
8CDE
330
8BDC
100
AcDbEntity
  8
LW 5016-39-00
100
AcDbLine
 10
23.02
 20
-32.0
 30
0.0
 11
21.02
 21
-32.0
 31
0.0
  0
LINE
  5
8CDF
330
8BDC
100
AcDbEntity
  8
LW 5016-39-00
100
AcDbLine
 10
23.02
 20
32.0
 30
0.0
 11
21.02
 21
32.0
 31
0.0
  0
LINE
  5
8CE0
330
8BDC
100
AcDbEntity
  8
LW 5016-39-00
100
AcDbLine
 10
21.02
 20
-7.000000000000113
 30
0.0
 11
16.0
 21
-7.000000000000113
 31
0.0
  0
LINE
  5
8CE1
330
8BDC
100
AcDbEntity
  8
LW 5016-39-00
100
AcDbLine
 10
-16.0
 20
-7.000000000000113
 30
0.0
 11
-21.02
 21
-7.000000000000113
 31
0.0
  0
LINE
  5
8CE2
330
8BDC
100
AcDbEntity
  8
LW 5016-39-00
100
AcDbLine
 10
21.02
 20
7.0
 30
0.0
 11
16.0
 21
7.0
 31
0.0
  0
LINE
  5
8CE3
330
8BDC
100
AcDbEntity
  8
LW 5016-39-00
100
AcDbLine
 10
-16.0
 20
7.0
 30
0.0
 11
-21.02
 21
7.0
 31
0.0
  0
LINE
  5
8CE4
330
8BDC
100
AcDbEntity
  8
LW 5016-39-00
 62
     3
100
AcDbLine
 10
-21.02
 20
-5.794500000000084
 30
0.0
 11
-16.0
 21
-5.794500000000084
 31
0.0
  0
LINE
  5
8CE5
330
8BDC
100
AcDbEntity
  8
LW 5016-39-00
 62
     3
100
AcDbLine
 10
16.0
 20
-5.794500000000084
 30
0.0
 11
21.02
 21
-5.794500000000084
 31
0.0
  0
LINE
  5
8CE6
330
8BDC
100
AcDbEntity
  8
LW 5016-39-00
 62
     3
100
AcDbLine
 10
21.02
 20
5.79449999999997
 30
0.0
 11
16.0
 21
5.79449999999997
 31
0.0
  0
LINE
  5
8CE7
330
8BDC
100
AcDbEntity
  8
LW 5016-39-00
 62
     3
100
AcDbLine
 10
-16.00000000000022
 20
5.79449999999997
 30
0.0
 11
-21.02
 21
5.79449999999997
 31
0.0
  0
LINE
  5
8CE8
330
8BDC
100
AcDbEntity
  8
LW 5016-39-00
  6
MITTE2
 62
     3
100
AcDbLine
 10
-111.0
 20
27.49999999999455
 30
0.0
 11
-111.0
 21
-17.50000000000546
 31
0.0
  0
LINE
  5
8CE9
330
8BDC
100
AcDbEntity
  8
LW 5016-39-00
  6
MITTE2
 62
     3
100
AcDbLine
 10
64.36430348519639
 20
0.0
 30
0.0
 11
-149.3643034851966
 21
0.0
 31
0.0
  0
HATCH
  5
8CEA
330
8BDC
100
AcDbEntity
  8
LW 5016-39-00
 62
     1
100
AcDbHatch
 10
0.0
 20
0.0
 30
0.0
210
0.0
220
0.0
230
1.0
  2
SOLID
 70
     1
 71
     0
 91
        5
 92
        7
 72
     0
 73
     1
 93
       76
 10
-76.33101969178004
 20
5.86969851444465
 10
-76.29916086240722
 20
5.9212794762864
 10
-76.18100273817593
 20
6.072521875302328
 10
-76.04652466296328
 20
6.212946005564873
 10
-75.90050475650172
 20
6.34133056727822
 10
-75.73683596041973
 20
6.458236850194026
 10
-75.56144900705497
 20
6.56041473201563
 10
-75.3796960744546
 20
6.651766411598515
 10
-75.19852713898898
 20
6.721284724044636
 10
-77.45566507718898
 20
6.721284724044636
 10
-77.66856162958901
 20
6.712595068844649
 10
-77.87059611298899
 20
6.686526103244688
 10
-78.06611335498904
 20
6.645250241044578
 10
-78.25076852798883
 20
6.590939896044602
 10
-78.42673404578907
 20
6.521422654444592
 10
-78.59400990838889
 20
6.438870930044487
 10
-78.74457817093592
 20
6.343545412500617
 10
-78.88728577138884
 20
6.236836446644502
 10
-79.01272702695949
 20
6.117788170404452
 10
-79.12399197903686
 20
5.989528859652551
 10
-79.22400991038897
 20
5.852319204044562
 10
-79.30656163478897
 20
5.706767479444494
 10
-79.36956163498892
 20
5.552526099644438
 10
-79.4195271523888
 20
5.391767478444563
 10
-79.44776853178881
 20
5.226664029644581
 10
-79.4564581869888
 20
5.052870925644612
 10
-79.44559611798876
 20
4.879077821644415
 10
-79.41518232478891
 20
4.711801959044493
 10
-79.36087197978871
 20
4.551043337844504
 10
-79.29135473818881
 20
4.394629544244509
 10
-79.20228577238866
 20
4.246905405844501
 10
-79.09583749618876
 20
4.105698508844653
 10
-78.97313956476477
 20
3.974484715324507
 10
-78.83694051605651
 20
3.853350921836664
 10
-78.68959611558874
 20
3.742905404244567
 10
-78.52883749438864
 20
3.645146783244655
 10
-78.35321087314149
 20
3.560248851940542
 10
-78.17256163118894
 20
3.486560575844606
 10
-77.98138921678877
 20
3.430077817044576
 10
-77.78152714718884
 20
3.386629541044641
 10
-77.57297542238892
 20
3.360560575444566
 10
-77.36225128378895
 20
3.351870920244579
 10
-75.24308019803628
 20
3.351870920244692
 10
-75.40362406208872
 20
3.414941723979637
 10
-75.58718820589113
 20
3.505561997502383
 10
-75.75565461206132
 20
3.610091690433847
 10
-75.91848750682196
 20
3.725709928859288
 10
-76.06239987519209
 20
3.85549952539921
 10
-76.18983576867639
 20
3.994853208627802
 10
-76.30354112341978
 20
4.145341453340307
 10
-76.35551235486854
 20
4.22952609544464
 10
-77.3839754217888
 20
4.229526095444526
 10
-77.51608424979439
 20
4.23708609546864
 10
-77.64683749158892
 20
4.257419888636633
 10
-77.77500990578868
 20
4.29035368184455
 10
-77.89014783718879
 20
4.335974371644653
 10
-77.99509280303912
 20
4.392457130444569
 10
-78.09324245852325
 20
4.460062647900514
 10
-78.18342370018875
 20
4.538008855044523
 10
-78.25511335558871
 20
4.622732993244568
 10
-76.52759204133007
 20
4.622732993244682
 10
-76.53817650860308
 20
4.655368434002895
 10
-76.57428831656737
 20
4.840742381554065
 10
-76.58633196934919
 20
5.031032095504798
 10
-76.57431029691974
 20
5.225783188859878
 10
-76.53800457524447
 20
5.412152560126315
 10
-76.52140587256962
 20
5.461284720044574
 10
-78.29204439018893
 20
5.461284720044574
 10
-78.22252714858881
 20
5.556870927244546
 10
-78.13997542418881
 20
5.639422651644537
 10
-78.04488452733538
 20
5.709287479452569
 10
-77.94228576838894
 20
5.767595065844631
 10
-77.82359376801217
 20
5.811564721156543
 10
-77.7011478365889
 20
5.843629548844575
 10
-77.56428576718893
 20
5.863181273044602
 10
-77.42090645638881
 20
5.869698514444536
 97
        0
 92
        7
 72
     0
 73
     1
 93
       72
 10
-74.60255582675221
 20
5.855099893708626
 10
-74.4796927918794
 20
5.873174376524644
 10
-74.35563058458886
 20
5.87838816964475
 10
-73.08694092538893
 20
5.87838816964475
 10
-73.93418230738892
 20
5.06373299464488
 10
-72.16800988798876
 20
3.345353678844759
 10
-70.84935471138895
 20
3.345353678844759
 10
-72.56338919958874
 20
5.087629546444787
 10
-70.88194091838885
 20
6.721284724044863
 10
-74.32087196378891
 20
6.721284724044636
 10
-74.52885886100101
 20
6.710509551596743
 10
-74.73557706855375
 20
6.685048861860678
 10
-74.94000989678896
 20
6.645250241044692
 10
-75.13335472498896
 20
6.588767482244662
 10
-75.32018231178902
 20
6.517077826844598
 10
-75.49134245026333
 20
6.431050240364612
 10
-75.65690645078892
 20
6.334595067644642
 10
-75.80897541678881
 20
6.225974377644689
 10
-75.94467307239209
 20
6.10666541174865
 10
-76.06966507278888
 20
5.976146790644662
 10
-76.17828576278906
 20
5.837112307444641
 10
-76.26952714238881
 20
5.689388169044747
 10
-76.34121679778899
 20
5.535146789244691
 10
-76.39552714278896
 20
5.374388168044589
 10
-76.42811334978886
 20
5.207112305444553
 10
-76.4389754187889
 20
5.03114678764453
 10
-76.42811334978886
 20
4.859526097444614
 10
-76.39552714278874
 20
4.692250234844692
 10
-76.34338921158882
 20
4.531491613644703
 10
-76.27387196998892
 20
4.377250233844648
 10
-76.18203100418007
 20
4.228483336820801
 10
-76.07665155556968
 20
4.08901437086061
 10
-75.95864603795347
 20
3.959972991140745
 10
-75.82635472718878
 20
3.840664025244706
 10
-75.67423362325756
 20
3.73265161110865
 10
-75.51569955378885
 20
3.634284714244614
 10
-75.3440788635887
 20
3.549560576044683
 10
-75.16159610438875
 20
3.477870920644619
 10
-74.96736493135834
 20
3.423821265300631
 10
-74.77056162038888
 20
3.380112299644707
 10
-74.56200989558873
 20
3.354043334044746
 10
-74.35128575698875
 20
3.345353678844759
 10
-72.44825126818885
 20
3.345353678844759
 10
-73.3345960985889
 20
4.218664026444713
 10
-74.35128575698875
 20
4.218664026444713
 10
-74.41795279168331
 20
4.222411319384065
 10
-74.51890051614167
 20
4.232393681660624
 10
-74.63903499928163
 20
4.253857130004718
 10
-74.75615417206721
 20
4.28818126804461
 10
-74.85764934480311
 20
4.329109544036697
 10
-74.91378451739523
 20
4.357264026884678
 10
-74.96746920722078
 20
4.3898502338848
 10
-75.10002989729695
 20
4.489172992820641
 10
-75.17363127684074
 20
4.559211613732742
 10
-75.22869762184313
 20
4.627077820844561
 10
-75.27740313923935
 20
4.699636441764624
 10
-75.31676727729539
 20
4.776800579940555
 10
-75.34619044980239
 20
4.858222649164673
 10
-75.36688920848881
 20
4.94537989082076
 10
-75.37440576023685
 20
5.034709546276559
 10
-75.37305017402558
 20
5.097014374060591
 10
-75.36704562228236
 20
5.159145408740556
 10
-75.35488879465764
 20
5.222319202044701
 10
-75.33667527735836
 20
5.284015753964723
 10
-75.29302713928903
 20
5.382730237036554
 10
-75.25149927708797
 20
5.450596444148601
 10
-75.18842106999135
 20
5.528629547844644
 10
-75.05901912962643
 20
5.655152284898377
 10
-74.99975127628885
 20
5.695210238028749
 10
-74.9234561036328
 20
5.73952747954857
 10
-74.83943582750406
 20
5.781672307268678
 10
-74.72289886161682
 20
5.824512307404717
 97
        0
 92
        7
 72
     0
 73
     1
 93
       57
 10
-70.04451884676472
 20
5.833028169500977
 10
-69.9130443635888
 20
5.873000583420918
 10
-69.7783547079889
 20
5.900112307644945
 10
-69.634975397189
 20
5.908801962844819
 10
-68.39452711738885
 20
5.908801962844933
 10
-68.39452711738885
 20
6.734319206844958
 10
-69.62845815578884
 20
6.734319206844844
 10
-69.83918229438881
 20
6.725629551644857
 10
-70.04556160538889
 20
6.697388172244842
 10
-70.24325126118878
 20
6.656112310044846
 10
-70.43225126178889
 20
6.60180196504487
 10
-70.6169064347889
 20
6.53011230964492
 10
-70.78331333186905
 20
6.447473688692781
 10
-70.9421341599593
 20
6.35101851597281
 10
-71.09221319491847
 20
6.241528860452746
 10
-71.22677250569039
 20
6.122306791108854
 10
-71.34683747158895
 20
5.993526101044864
 10
-71.4511133339888
 20
5.854491617844843
 10
-71.53583747218885
 20
5.708939893244775
 10
-71.60752712758903
 20
5.554698513444719
 10
-71.65749264498889
 20
5.393939892244844
 10
-71.69007885198879
 20
5.226664029644922
 10
-71.70094092098882
 20
5.052870925644839
 10
-71.69007885198879
 20
4.87907782164487
 10
-71.65749264498889
 20
4.711801959044834
 10
-71.60535471378897
 20
4.551043337844731
 10
-71.53366505838879
 20
4.39462954424485
 10
-71.4467685063887
 20
4.246905405844842
 10
-71.33792188535356
 20
4.107349543332844
 10
-71.21806547118011
 20
3.977004715332924
 10
-71.08163788453997
 20
3.855697128740786
 10
-70.93407884958877
 20
3.745077818044848
 10
-70.7733202283889
 20
3.647319197044708
 10
-70.59952712438892
 20
3.562595058844891
 10
-70.41487195138869
 20
3.488732989644887
 10
-70.22369953698874
 20
3.432250230844857
 10
-70.02383746738882
 20
3.388801954844922
 10
-69.81745815638872
 20
3.364905403044787
 10
-69.60456160398869
 20
3.3562157478448
 10
-68.39452711738885
 20
3.356215747844913
 10
-68.39452711738885
 20
4.214319198844833
 10
-69.62845815578884
 20
4.214319198844833
 10
-69.7621050527648
 20
4.224659888532784
 10
-69.89436160490867
 20
4.246644716188967
 10
-70.01497401908476
 20
4.280968854228859
 10
-70.13098091600475
 20
4.32893575093297
 10
-70.24064436462889
 20
4.389850233884914
 10
-70.33770781321276
 20
4.457455751340859
 10
-70.42512574452484
 20
4.537226786076899
 10
-70.49959608958873
 20
4.622732993244909
 10
-68.39452711738885
 20
4.622732993244909
 10
-68.39452711738885
 20
5.450422651044874
 10
-70.53652712418896
 20
5.450422651044874
 10
-70.46700988258884
 20
5.548181272044786
 10
-70.38011333058896
 20
5.63725023784471
 10
-70.27896574406075
 20
5.71354541050087
 10
-70.17156160578882
 20
5.780629548644839
 97
        0
 92
        7
 72
     0
 73
     1
 93
        6
 10
-68.16425125458884
 20
6.721284724044977
 10
-68.16425125458884
 20
3.35187092024492
 10
-65.92666504058865
 20
3.351870920245033
 10
-65.92666504058887
 20
4.218664026445054
 10
-67.14104435478883
 20
4.218664026445054
 10
-67.14104435478883
 20
6.721284724044977
 97
        0
 92
        7
 72
     0
 73
     1
 93
        8
 10
-66.908596078189
 20
6.721284724044977
 10
-66.908596078189
 20
5.895767480044952
 10
-65.67466503978879
 20
5.895767480045066
 10
-65.67466503978879
 20
3.345353678844986
 10
-64.64928572618872
 20
3.345353678844986
 10
-64.64928572618894
 20
5.895767480044952
 10
-63.40666503258898
 20
5.895767480045066
 10
-63.40666503258898
 20
6.721284724045091
 97
        0
 75
     0
 76
     1
 47
0.0142553043587597
 98
        5
 10
-77.02135956571372
 20
6.278835054455527
 10
-74.753862352371
 20
6.13628206944989
 10
-70.26165062016956
 20
6.19330324199771
 10
-67.53780153633782
 20
6.435643466690095
 10
-66.12596355411118
 20
6.335856334276769
450
        0
451
        0
460
0.0
461
0.0
452
        0
462
0.0
453
        0
470

  0
LWPOLYLINE
  5
8CEB
330
8BDC
100
AcDbEntity
  8
LW 5016-39-00
 62
     1
100
AcDbPolyline
 90
        8
 70
     1
 43
0.0
 10
-64.64928572618894
 20
5.895767480044952
 10
-64.64928572618872
 20
3.345353678844986
 10
-65.67466503978879
 20
3.345353678844986
 10
-65.67466503978879
 20
5.895767480045066
 10
-66.908596078189
 20
5.895767480044952
 10
-66.908596078189
 20
6.721284724044977
 10
-63.40666503258898
 20
6.721284724045091
 10
-63.40666503258898
 20
5.895767480045066
  0
LWPOLYLINE
  5
8CEC
330
8BDC
100
AcDbEntity
  8
LW 5016-39-00
 62
     1
100
AcDbPolyline
 90
       73
 70
     1
 43
0.0
 10
-74.35128575698875
 20
4.218664026444713
 10
-73.3345960985889
 20
4.218664026444713
 10
-72.44825126818885
 20
3.345353678844759
 10
-74.35128575698875
 20
3.345353678844645
 10
-74.56200989558873
 20
3.354043334044746
 10
-74.77056162038888
 20
3.380112299644707
 10
-74.96736493135834
 20
3.423821265300631
 10
-75.16159610438875
 20
3.477870920644619
 10
-75.3440788635887
 20
3.549560576044683
 10
-75.51569955378885
 20
3.634284714244614
 10
-75.67423362325756
 20
3.73265161110865
 10
-75.82635472718878
 20
3.840664025244706
 10
-75.95864603795369
 20
3.959972991140631
 10
-76.07665155556968
 20
4.08901437086061
 10
-76.18203100418007
 20
4.228483336820687
 10
-76.27387196998892
 20
4.377250233844648
 10
-76.34338921158882
 20
4.531491613644703
 10
-76.39552714278874
 20
4.692250234844692
 10
-76.42811334978886
 20
4.859526097444614
 10
-76.4389754187889
 20
5.031146787644644
 10
-76.42811334978886
 20
5.207112305444553
 10
-76.39552714278896
 20
5.374388168044589
 10
-76.34121679778876
 20
5.535146789244691
 10
-76.26952714238881
 20
5.689388169044633
 10
-76.17828576278883
 20
5.837112307444641
 10
-76.06966507278888
 20
5.976146790644662
 10
-75.94467307239209
 20
6.106665411748764
 10
-75.80897541678904
 20
6.225974377644689
 10
-75.65690645078892
 20
6.334595067644642
 10
-75.49134245026333
 20
6.431050240364612
 10
-75.32018231178902
 20
6.517077826844598
 10
-75.13335472498896
 20
6.588767482244662
 10
-74.94000989678896
 20
6.645250241044806
 10
-74.73557706855375
 20
6.685048861860678
 10
-74.52885886100101
 20
6.710509551596743
 10
-74.32087196378891
 20
6.721284724044636
 10
-70.88194091838885
 20
6.721284724044863
 10
-72.56338919958874
 20
5.087629546444787
 10
-70.84935471138895
 20
3.345353678844759
 10
-72.16800988798876
 20
3.345353678844759
 10
-73.93418230738892
 20
5.06373299464488
 10
-73.08694092538893
 20
5.87838816964475
 10
-74.35563058458886
 20
5.87838816964475
 10
-74.4796927918794
 20
5.873174376524644
 10
-74.60255582675221
 20
5.855099893708626
 10
-74.72289886161682
 20
5.824512307404717
 10
-74.83943582750406
 20
5.781672307268564
 10
-74.92345610363303
 20
5.739527479548684
 10
-74.99975127628885
 20
5.695210238028749
 10
-75.03999306952003
 20
5.668011617252687
 10
-75.07750631101838
 20
5.637076444740642
 10
-75.18842106999135
 20
5.528629547844644
 10
-75.25149927708797
 20
5.450596444148601
 10
-75.29302713928881
 20
5.382730237036668
 10
-75.33667527735836
 20
5.284015753964723
 10
-75.35488879465764
 20
5.222319202044701
 10
-75.36704562228236
 20
5.15914540874067
 10
-75.37305017402558
 20
5.097014374060705
 10
-75.37440576023685
 20
5.034709546276673
 10
-75.36688920848881
 20
4.94537989082076
 10
-75.34619044980239
 20
4.858222649164673
 10
-75.31676727729517
 20
4.776800579940669
 10
-75.27740313923935
 20
4.699636441764624
 10
-75.22869762184335
 20
4.627077820844675
 10
-75.17363127684074
 20
4.559211613732742
 10
-75.10002989729695
 20
4.489172992820641
 10
-74.96746920722078
 20
4.3898502338848
 10
-74.91378451739523
 20
4.357264026884678
 10
-74.85764934480311
 20
4.329109544036697
 10
-74.75615417206721
 20
4.28818126804461
 10
-74.63903499928163
 20
4.253857130004718
 10
-74.51890051614167
 20
4.232393681660624
 10
-74.41795279168331
 20
4.222411319384065
  0
LWPOLYLINE
  5
8CED
330
8BDC
100
AcDbEntity
  8
LW 5016-39-00
 62
     1
100
AcDbPolyline
 90
       76
 70
     1
 43
0.0
 10
-75.56144900705497
 20
6.56041473201563
 10
-75.73683596041973
 20
6.458236850193912
 10
-75.90050475650172
 20
6.34133056727822
 10
-76.04652466296328
 20
6.212946005564873
 10
-76.18100273817593
 20
6.072521875302328
 10
-76.29916086240722
 20
5.9212794762864
 10
-76.33101969178004
 20
5.86969851444465
 10
-77.42090645638881
 20
5.86969851444465
 10
-77.56428576718893
 20
5.863181273044602
 10
-77.7011478365889
 20
5.843629548844575
 10
-77.82359376801217
 20
5.811564721156543
 10
-77.94228576838894
 20
5.767595065844631
 10
-78.04488452733515
 20
5.709287479452569
 10
-78.13997542418881
 20
5.639422651644537
 10
-78.22252714858904
 20
5.556870927244546
 10
-78.29204439018893
 20
5.461284720044574
 10
-76.52140587256962
 20
5.461284720044574
 10
-76.53800457524447
 20
5.412152560126315
 10
-76.57431029691996
 20
5.225783188859651
 10
-76.58633196934919
 20
5.031032095504798
 10
-76.57428831656737
 20
4.840742381554065
 10
-76.53817650860286
 20
4.655368434003008
 10
-76.52759204133007
 20
4.622732993244682
 10
-78.25511335558871
 20
4.622732993244568
 10
-78.18342370018875
 20
4.538008855044523
 10
-78.09324245852325
 20
4.460062647900514
 10
-77.99509280303912
 20
4.392457130444569
 10
-77.89014783718879
 20
4.335974371644653
 10
-77.77500990578868
 20
4.290353681844663
 10
-77.64683749158892
 20
4.257419888636633
 10
-77.51608424979439
 20
4.23708609546864
 10
-77.3839754217888
 20
4.229526095444526
 10
-76.35551235486854
 20
4.22952609544464
 10
-76.30354112341978
 20
4.145341453340307
 10
-76.18983576867639
 20
3.994853208627802
 10
-76.06239987519209
 20
3.85549952539921
 10
-75.91848750682196
 20
3.725709928859515
 10
-75.75565461206132
 20
3.610091690433847
 10
-75.58718820589113
 20
3.505561997502383
 10
-75.40362406208872
 20
3.414941723979637
 10
-75.24308019803628
 20
3.351870920244692
 10
-77.36225128378872
 20
3.351870920244465
 10
-77.57297542238892
 20
3.360560575444566
 10
-77.78152714718884
 20
3.386629541044641
 10
-77.98138921678877
 20
3.430077817044576
 10
-78.17256163118871
 20
3.486560575844492
 10
-78.35321087314172
 20
3.560248851940542
 10
-78.52883749438864
 20
3.645146783244655
 10
-78.68959611558874
 20
3.742905404244567
 10
-78.83694051605651
 20
3.85335092183655
 10
-78.97313956476477
 20
3.974484715324507
 10
-79.09583749618876
 20
4.10569850884454
 10
-79.20228577238889
 20
4.246905405844501
 10
-79.29135473818881
 20
4.394629544244509
 10
-79.36087197978871
 20
4.551043337844504
 10
-79.41518232478891
 20
4.711801959044493
 10
-79.44559611798876
 20
4.879077821644642
 10
-79.4564581869888
 20
5.052870925644498
 10
-79.44776853178904
 20
5.226664029644467
 10
-79.4195271523888
 20
5.391767478444563
 10
-79.36956163498892
 20
5.552526099644438
 10
-79.30656163478897
 20
5.706767479444494
 10
-79.22400991038897
 20
5.852319204044562
 10
-79.12399197903686
 20
5.989528859652551
 10
-79.01272702695949
 20
6.117788170404566
 10
-78.88728577138884
 20
6.236836446644502
 10
-78.74457817093592
 20
6.343545412500617
 10
-78.59400990838889
 20
6.4388709300446
 10
-78.42673404578885
 20
6.521422654444478
 10
-78.25076852798883
 20
6.590939896044602
 10
-78.06611335498882
 20
6.645250241044578
 10
-77.87059611298899
 20
6.686526103244688
 10
-77.66856162958901
 20
6.712595068844649
 10
-77.45566507718898
 20
6.721284724044636
 10
-75.19852713898875
 20
6.72128472404475
 10
-75.3796960744546
 20
6.651766411598515
  0
LWPOLYLINE
  5
8CEE
330
8BDC
100
AcDbEntity
  8
LW 5016-39-00
 62
     1
100
AcDbPolyline
 90
        6
 70
     1
 43
0.0
 10
-65.92666504058865
 20
3.351870920245033
 10
-68.16425125458884
 20
3.35187092024492
 10
-68.16425125458884
 20
6.721284724044977
 10
-67.14104435478883
 20
6.721284724044977
 10
-67.14104435478883
 20
4.218664026445054
 10
-65.92666504058887
 20
4.218664026445054
  0
LWPOLYLINE
  5
8CEF
330
8BDC
100
AcDbEntity
  8
LW 5016-39-00
 62
     1
100
AcDbPolyline
 90
       57
 70
     1
 43
0.0
 10
-71.21806547118011
 20
3.977004715332924
 10
-71.33792188535356
 20
4.10734954333273
 10
-71.44676850638892
 20
4.246905405844728
 10
-71.53366505838879
 20
4.39462954424485
 10
-71.60535471378897
 20
4.551043337844731
 10
-71.65749264498889
 20
4.711801959044834
 10
-71.69007885198879
 20
4.87907782164487
 10
-71.70094092098882
 20
5.052870925644839
 10
-71.69007885198879
 20
5.226664029644808
 10
-71.65749264498889
 20
5.393939892244844
 10
-71.60752712758903
 20
5.554698513444719
 10
-71.53583747218885
 20
5.708939893244888
 10
-71.45111333398903
 20
5.854491617844729
 10
-71.34683747158895
 20
5.993526101044864
 10
-71.22677250569061
 20
6.122306791108741
 10
-71.09221319491847
 20
6.241528860452746
 10
-70.9421341599593
 20
6.35101851597281
 10
-70.78331333186882
 20
6.447473688692895
 10
-70.6169064347889
 20
6.53011230964492
 10
-70.43225126178889
 20
6.60180196504487
 10
-70.24325126118878
 20
6.656112310044846
 10
-70.04556160538889
 20
6.697388172244842
 10
-69.83918229438881
 20
6.725629551644857
 10
-69.62845815578884
 20
6.734319206844844
 10
-68.39452711738885
 20
6.734319206844958
 10
-68.39452711738885
 20
5.908801962844933
 10
-69.63497539718876
 20
5.908801962844819
 10
-69.7783547079889
 20
5.900112307644832
 10
-69.9130443635888
 20
5.873000583420918
 10
-70.04451884676495
 20
5.833028169500863
 10
-70.17156160578882
 20
5.780629548644839
 10
-70.27896574406075
 20
5.71354541050087
 10
-70.38011333058896
 20
5.637250237844938
 10
-70.46700988258884
 20
5.548181272044786
 10
-70.53652712418896
 20
5.450422651044874
 10
-68.39452711738885
 20
5.450422651044874
 10
-68.39452711738885
 20
4.622732993244909
 10
-70.49959608958873
 20
4.622732993244909
 10
-70.42512574452484
 20
4.537226786076899
 10
-70.33770781321276
 20
4.457455751340859
 10
-70.24064436462889
 20
4.389850233884914
 10
-70.13098091600475
 20
4.32893575093297
 10
-70.01497401908476
 20
4.280968854228859
 10
-69.89436160490867
 20
4.246644716188967
 10
-69.7621050527648
 20
4.224659888532784
 10
-69.62845815578884
 20
4.214319198844833
 10
-68.39452711738885
 20
4.214319198844833
 10
-68.39452711738885
 20
3.356215747844913
 10
-69.60456160398869
 20
3.3562157478448
 10
-69.81745815638872
 20
3.364905403044787
 10
-70.02383746738882
 20
3.388801954844922
 10
-70.22369953698874
 20
3.432250230844857
 10
-70.41487195138869
 20
3.488732989644887
 10
-70.59952712438892
 20
3.562595058844891
 10
-70.7733202283889
 20
3.647319197044936
 10
-70.93407884958877
 20
3.745077818044848
 10
-71.08163788453997
 20
3.855697128740786
  0
LINE
  5
8CF0
330
8BDC
100
AcDbEntity
  8
LW 5016-39-00
  6
MITTE2
 62
     3
100
AcDbLine
 10
0.0
 20
37.0
 30
0.0
 11
0.0
 21
-37.00000000000012
 31
0.0
  0
INSERT
  5
8CF1
330
8BDC
100
AcDbEntity
  8
LW 5016-39-00
100
AcDbBlockReference
 66
     1
  2
insertpoint-ECKELT
 10
0.0
 20
0.0
 30
0.0
  0
ATTRIB
  5
8CF2
330
8CF1
100
AcDbEntity
  8
insertpoint_ECKELT
100
AcDbText
 10
-6.93151432469286
 20
0.0
 30
0.0
 40
0.6
  1
LW 5016/39-00
 72
     2
 11
-1.199999999999818
 21
0.0
 31
0.0
100
AcDbAttribute
  2
LINKS
 70
     0
  0
ATTRIB
  5
8CF3
330
8CF1
100
AcDbEntity
  8
insertpoint_ECKELT
100
AcDbText
 10
1.199999999999818
 20
0.0
 30
0.0
 40
0.6
  1

100
AcDbAttribute
  2
RECHTS
 70
     0
  0
SEQEND
  5
8CF4
330
8CF1
100
AcDbEntity
  8
LW 5016-39-00
  0
LINE
  5
8CF5
330
8BDC
100
AcDbEntity
  8
LW 5016-39-00
  6
MITTE2
 62
     3
100
AcDbLine
 10
-88.49999999999999
 20
4.999999999994543
 30
0.0
 11
-133.5
 21
4.999999999994543
 31
0.0
  0
ENDBLK
  5
8BDE
330
8BDC
100
AcDbEntity
  8
0
100
AcDbBlockEnd
  0
ENDSEC
  0
SECTION
  2
ENTITIES
  0
INSERT
  5
8718
330
23
100
AcDbEntity
  8
0
100
AcDbBlockReference
  2
LW 5016-39-00_c
 10
303.6796665410893
 20
207.0345158723449
 30
0.0
  0
INSERT
  5
873C
330
23
100
AcDbEntity
  8
0
100
AcDbBlockReference
  2
LW 5016-39-00_d
 10
-303.6796665407583
 20
207.034515872345
 30
0.0
  0
INSERT
  5
8BDB
330
23
100
AcDbEntity
  8
0
100
AcDbBlockReference
  2
LW 5016-39-00_a
 10
0.0
 20
0.0
 30
0.0
  0
INSERT
  5
8CF6
330
23
100
AcDbEntity
  8
0
100
AcDbBlockReference
  2
LW 5016-39-00_b
 10
0.000000000165528
 20
207.0345158723449
 30
0.0
  0
ENDSEC
  0
SECTION
  2
OBJECTS
  0
DICTIONARY
  5
C
330
0
100
AcDbDictionary
281
     1
  3
ACAD_COLOR
350
1C
  3
ACAD_GROUP
350
D
  3
ACAD_LAYOUT
350
1A
  3
ACAD_MATERIAL
350
1B
  3
ACAD_MLINESTYLE
350
17
  3
ACAD_PLOTSETTINGS
350
19
  3
ACAD_PLOTSTYLENAME
350
E
  3
ACAD_TABLESTYLE
350
1D
  3
AcDbVariableDictionary
350
1064
  0
DICTIONARY
  5
16C1
330
2
100
AcDbDictionary
280
     1
281
     1
  3
ACAD_LAYERFILTERS
360
8372
  3
ACLYDICTIONARY
360
8371
  0
DICTIONARY
  5
15A2
330
23
100
AcDbDictionary
280
     1
281
     1
  3
ACAD_SORTENTS
360
15A3
  0
DICTIONARY
  5
106F
330
106E
100
AcDbDictionary
280
     1
281
     1
  3
ACAD_SORTENTS
360
7828
  0
DICTIONARY
  5
1C
102
{ACAD_REACTORS
330
C
102
}
330
C
100
AcDbDictionary
281
     1
  0
DICTIONARY
  5
D
102
{ACAD_REACTORS
330
C
102
}
330
C
100
AcDbDictionary
281
     1
  0
DICTIONARY
  5
1A
102
{ACAD_REACTORS
330
C
102
}
330
C
100
AcDbDictionary
281
     1
  3
Layout1
350
22
  3
Layout2
350
2A
  3
Model
350
26
  0
DICTIONARY
  5
1B
102
{ACAD_REACTORS
330
C
102
}
330
C
100
AcDbDictionary
281
     1
  0
DICTIONARY
  5
17
102
{ACAD_REACTORS
330
C
102
}
330
C
100
AcDbDictionary
281
     1
  3
Standard
350
18
  0
DICTIONARY
  5
19
102
{ACAD_REACTORS
330
C
102
}
330
C
100
AcDbDictionary
281
     1
  0
ACDBDICTIONARYWDFLT
  5
E
102
{ACAD_REACTORS
330
C
102
}
330
C
100
AcDbDictionary
281
     1
  3
Normal
350
F
100
AcDbDictionaryWithDefault
340
F
  0
DICTIONARY
  5
1D
102
{ACAD_REACTORS
330
C
102
}
330
C
100
AcDbDictionary
281
     1
  3
Standard
350
1E
  0
DICTIONARY
  5
1064
102
{ACAD_REACTORS
330
C
102
}
330
C
100
AcDbDictionary
281
     1
  3
CTABLESTYLE
350
1065
  3
DIMASSOC
350
18F4
  3
HIDETEXT
350
18F3
  3
PROJECTNAME
350
18F5
  0
DICTIONARY
  5
8372
102
{ACAD_REACTORS
330
16C1
102
}
330
16C1
100
AcDbDictionary
281
     1
  0
DICTIONARY
  5
8371
102
{ACAD_REACTORS
330
16C1
102
}
330
16C1
100
AcDbDictionary
281
     1
1001
ACAD
1000
<All
  0
SORTENTSTABLE
  5
15A3
102
{ACAD_REACTORS
330
15A2
102
}
330
15A2
100
AcDbSortentsTable
330
23
331
873C
  5
8A65
331
8718
  5
8A64
  0
SORTENTSTABLE
  5
7828
102
{ACAD_REACTORS
330
106F
102
}
330
106F
100
AcDbSortentsTable
330
106E
  0
LAYOUT
  5
22
102
{ACAD_REACTORS
330
1A
102
}
330
1A
100
AcDbPlotSettings
  1

  2

  4

  6

 40
0.0
 41
0.0
 42
0.0
 43
0.0
 44
0.0
 45
0.0
 46
0.0
 47
0.0
 48
0.0
 49
0.0
140
0.0
141
0.0
142
1.0
143
1.0
 70
   688
 72
     0
 73
     0
 74
     5
  7

 75
    16
147
1.0
 76
     0
 77
     2
 78
   300
148
0.0
149
0.0
100
AcDbLayout
  1
Layout1
 70
     1
 71
     1
 10
0.0
 20
0.0
 11
2100.0
 21
1485.0
 12
0.0
 22
0.0
 32
0.0
 14
0.0
 24
0.0
 34
0.0
 15
2100.0
 25
1485.0
 35
0.0
146
0.0
 13
0.0
 23
0.0
 33
0.0
 16
1.0
 26
0.0
 36
0.0
 17
0.0
 27
1.0
 37
0.0
 76
     0
330
1F
  0
LAYOUT
  5
2A
102
{ACAD_REACTORS
330
1A
102
}
330
1A
100
AcDbPlotSettings
  1

  2

  4

  6

 40
0.0
 41
0.0
 42
0.0
 43
0.0
 44
0.0
 45
0.0
 46
0.0
 47
0.0
 48
0.0
 49
0.0
140
0.0
141
0.0
142
1.0
143
1.0
 70
   688
 72
     0
 73
     0
 74
     5
  7

 75
    16
147
1.0
 76
     0
 77
     2
 78
   300
148
0.0
149
0.0
100
AcDbLayout
  1
Layout2
 70
     1
 71
     2
 10
0.0
 20
0.0
 11
12.0
 21
9.0
 12
0.0
 22
0.0
 32
0.0
 14
0.0
 24
0.0
 34
0.0
 15
0.0
 25
0.0
 35
0.0
146
0.0
 13
0.0
 23
0.0
 33
0.0
 16
1.0
 26
0.0
 36
0.0
 17
0.0
 27
1.0
 37
0.0
 76
     0
330
27
  0
LAYOUT
  5
26
102
{ACAD_REACTORS
330
1A
102
}
330
1A
100
AcDbPlotSettings
  1

  2

  4

  6

 40
0.0
 41
0.0
 42
0.0
 43
0.0
 44
0.0
 45
0.0
 46
0.0
 47
0.0
 48
0.0
 49
0.0
140
0.0
141
0.0
142
1.0
143
1.0
 70
  1712
 72
     0
 73
     0
 74
     0
  7

 75
     0
147
1.0
 76
     0
 77
     2
 78
   300
148
0.0
149
0.0
100
AcDbLayout
  1
Model
 70
     1
 71
     0
 10
0.0
 20
0.0
 11
12.0
 21
9.0
 12
0.0
 22
0.0
 32
0.0
 14
0.0
 24
0.0
 34
0.0
 15
0.0
 25
0.0
 35
0.0
146
0.0
 13
0.0
 23
0.0
 33
0.0
 16
1.0
 26
0.0
 36
0.0
 17
0.0
 27
1.0
 37
0.0
 76
     0
330
23
  0
MLINESTYLE
  5
18
102
{ACAD_REACTORS
330
17
102
}
330
17
100
AcDbMlineStyle
  2
STANDARD
 70
     0
  3

 62
   256
 51
90.0
 52
90.0
 71
     2
 49
0.5
 62
   256
  6
BYLAYER
 49
-0.5
 62
   256
  6
BYLAYER
  0
ACDBPLACEHOLDER
  5
F
102
{ACAD_REACTORS
330
E
102
}
330
E
  0
TABLESTYLE
  5
1E
102
{ACAD_REACTORS
330
1D
102
}
330
1D
100
AcDbTableStyle
  3
Standard
 70
     0
 71
     0
 40
0.06
 41
0.06
280
     0
281
     0
  7
Standard
140
0.18
170
     2
 62
     0
 63
     7
283
     0
274
    -2
284
     1
 64
     0
275
    -2
285
     1
 65
     0
276
    -2
286
     1
 66
     0
277
    -2
287
     1
 67
     0
278
    -2
288
     1
 68
     0
279
    -2
289
     1
 69
     0
  7
Standard
140
0.25
170
     5
 62
     0
 63
     7
283
     0
274
    -2
284
     1
 64
     0
275
    -2
285
     1
 65
     0
276
    -2
286
     1
 66
     0
277
    -2
287
     1
 67
     0
278
    -2
288
     1
 68
     0
279
    -2
289
     1
 69
     0
  7
Standard
140
0.18
170
     5
 62
     0
 63
     7
283
     0
274
    -2
284
     1
 64
     0
275
    -2
285
     1
 65
     0
276
    -2
286
     1
 66
     0
277
    -2
287
     1
 67
     0
278
    -2
288
     1
 68
     0
279
    -2
289
     1
 69
     0
  0
DICTIONARYVAR
  5
1065
102
{ACAD_REACTORS
330
1064
102
}
330
1064
100
DictionaryVariables
280
     0
  1
STANDARD
  0
DICTIONARYVAR
  5
18F4
102
{ACAD_REACTORS
330
1064
102
}
330
1064
100
DictionaryVariables
280
     0
  1
1
  0
DICTIONARYVAR
  5
18F3
102
{ACAD_REACTORS
330
1064
102
}
330
1064
100
DictionaryVariables
280
     0
  1
1
  0
DICTIONARYVAR
  5
18F5
102
{ACAD_REACTORS
330
1064
102
}
330
1064
100
DictionaryVariables
280
     0
  1

  0
ENDSEC
  0
EOF
