  0
SECTION
  2
HEADER
  9
$ACADVER
  1
AC1018
  9
$ACADMAINTVER
 70
    76
  9
$DWGCODEPAGE
  3
ANSI_1252
  9
$AUTHOR
  1
Grandl
  9
$CUSTOMPROPERTYTAG
  1
Manager
  9
$CUSTOMPROPERTY
  1

  9
$CUSTOMPROPERTYTAG
  1
Firma
  9
$CUSTOMPROPERTY
  1

  9
$CUSTOMPROPERTYTAG
  1
Kategorie
  9
$CUSTOMPROPERTY
  1

  9
$CUSTOMPROPERTYTAG
  1
Bauteilnummer
  9
$CUSTOMPROPERTY
  1
3250-40-00
  9
$CUSTOMPROPERTYTAG
  1
Bezeichnung
  9
$CUSTOMPROPERTY
  1

  9
$CUSTOMPROPERTYTAG
  1
Projekt
  9
$CUSTOMPROPERTY
  1

  9
$CUSTOMPROPERTYTAG
  1
Konstrukteur
  9
$CUSTOMPROPERTY
  1
Grandl
  9
$CUSTOMPROPERTYTAG
  1
Ingenieur
  9
$CUSTOMPROPERTY
  1

  9
$CUSTOMPROPERTYTAG
  1
Bevollmächtigter
  9
$CUSTOMPROPERTY
  1

  9
$CUSTOMPROPERTYTAG
  1
Kostenstelle
  9
$CUSTOMPROPERTY
  1

  9
$CUSTOMPROPERTYTAG
  1
Händler
  9
$CUSTOMPROPERTY
  1

  9
$CUSTOMPROPERTYTAG
  1
Benutzerstatus
  9
$CUSTOMPROPERTY
  1

  9
$CUSTOMPROPERTYTAG
  1
Konstruktionsstatus
  9
$CUSTOMPROPERTY
  1
InBearbeitung
  9
$CUSTOMPROPERTYTAG
  1
Überprüft von
  9
$CUSTOMPROPERTY
  1

  9
$CUSTOMPROPERTYTAG
  1
Konstruktion genehmigt von
  9
$CUSTOMPROPERTY
  1

  9
$CUSTOMPROPERTYTAG
  1
Fertigung genehmigt von
  9
$CUSTOMPROPERTY
  1

  9
$INSBASE
 10
0.0
 20
0.0
 30
0.0
  9
$EXTMIN
 10
-340.782355476051
 20
-37.00000000000006
 30
0.0
  9
$EXTMAX
 10
340.744626397649
 20
244.0345158723449
 30
0.0
  9
$LIMMIN
 10
0.0
 20
0.0
  9
$LIMMAX
 10
2100.0
 20
1485.0
  9
$ORTHOMODE
 70
     1
  9
$REGENMODE
 70
     1
  9
$FILLMODE
 70
     1
  9
$QTEXTMODE
 70
     0
  9
$MIRRTEXT
 70
     0
  9
$LTSCALE
 40
0.5
  9
$ATTMODE
 70
     1
  9
$TEXTSIZE
 40
0.2
  9
$TRACEWID
 40
0.05
  9
$TEXTSTYLE
  7
Standard
  9
$CLAYER
  8
0
  9
$CELTYPE
  6
ByLayer
  9
$CECOLOR
 62
   256
  9
$CELTSCALE
 40
1.0
  9
$DISPSILH
 70
     0
  9
$DIMSCALE
 40
1.0
  9
$DIMASZ
 40
0.18
  9
$DIMEXO
 40
0.0625
  9
$DIMDLI
 40
0.38
  9
$DIMRND
 40
0.0
  9
$DIMDLE
 40
0.0
  9
$DIMEXE
 40
0.18
  9
$DIMTP
 40
0.0
  9
$DIMTM
 40
0.0
  9
$DIMTXT
 40
0.18
  9
$DIMCEN
 40
0.09
  9
$DIMTSZ
 40
0.0
  9
$DIMTOL
 70
     0
  9
$DIMLIM
 70
     0
  9
$DIMTIH
 70
     1
  9
$DIMTOH
 70
     1
  9
$DIMSE1
 70
     0
  9
$DIMSE2
 70
     0
  9
$DIMTAD
 70
     0
  9
$DIMZIN
 70
     0
  9
$DIMBLK
  1

  9
$DIMASO
 70
     1
  9
$DIMSHO
 70
     1
  9
$DIMPOST
  1

  9
$DIMAPOST
  1

  9
$DIMALT
 70
     0
  9
$DIMALTD
 70
     2
  9
$DIMALTF
 40
25.4
  9
$DIMLFAC
 40
1.0
  9
$DIMTOFL
 70
     0
  9
$DIMTVP
 40
0.0
  9
$DIMTIX
 70
     0
  9
$DIMSOXD
 70
     0
  9
$DIMSAH
 70
     0
  9
$DIMBLK1
  1

  9
$DIMBLK2
  1

  9
$DIMSTYLE
  2
Standard
  9
$DIMCLRD
 70
     0
  9
$DIMCLRE
 70
     0
  9
$DIMCLRT
 70
     0
  9
$DIMTFAC
 40
1.0
  9
$DIMGAP
 40
0.09
  9
$DIMJUST
 70
     0
  9
$DIMSD1
 70
     0
  9
$DIMSD2
 70
     0
  9
$DIMTOLJ
 70
     1
  9
$DIMTZIN
 70
     0
  9
$DIMALTZ
 70
     0
  9
$DIMALTTZ
 70
     0
  9
$DIMUPT
 70
     0
  9
$DIMDEC
 70
     4
  9
$DIMTDEC
 70
     4
  9
$DIMALTU
 70
     2
  9
$DIMALTTD
 70
     2
  9
$DIMTXSTY
  7
Standard
  9
$DIMAUNIT
 70
     0
  9
$DIMADEC
 70
     0
  9
$DIMALTRND
 40
0.0
  9
$DIMAZIN
 70
     0
  9
$DIMDSEP
 70
    46
  9
$DIMATFIT
 70
     3
  9
$DIMFRAC
 70
     0
  9
$DIMLDRBLK
  1

  9
$DIMLUNIT
 70
     2
  9
$DIMLWD
 70
    -2
  9
$DIMLWE
 70
    -2
  9
$DIMTMOVE
 70
     0
  9
$LUNITS
 70
     2
  9
$LUPREC
 70
     4
  9
$SKETCHINC
 40
0.1
  9
$FILLETRAD
 40
0.0
  9
$AUNITS
 70
     0
  9
$AUPREC
 70
     0
  9
$MENU
  1
.
  9
$ELEVATION
 40
0.0
  9
$PELEVATION
 40
0.0
  9
$THICKNESS
 40
0.0
  9
$LIMCHECK
 70
     0
  9
$CHAMFERA
 40
0.0
  9
$CHAMFERB
 40
0.0
  9
$CHAMFERC
 40
0.0
  9
$CHAMFERD
 40
0.0
  9
$SKPOLY
 70
     0
  9
$TDCREATE
 40
2453712.483610903
  9
$TDUCREATE
 40
2453712.441944236
  9
$TDUPDATE
 40
2453717.683837859
  9
$TDUUPDATE
 40
2453717.642171192
  9
$TDINDWG
 40
0.1457279282
  9
$TDUSRTIMER
 40
0.1457279282
  9
$USRTIMER
 70
     1
  9
$ANGBASE
 50
0.0
  9
$ANGDIR
 70
     0
  9
$PDMODE
 70
     0
  9
$PDSIZE
 40
0.0
  9
$PLINEWID
 40
0.0
  9
$SPLFRAME
 70
     0
  9
$SPLINETYPE
 70
     6
  9
$SPLINESEGS
 70
     8
  9
$HANDSEED
  5
65B2
  9
$SURFTAB1
 70
     6
  9
$SURFTAB2
 70
     6
  9
$SURFTYPE
 70
     6
  9
$SURFU
 70
     6
  9
$SURFV
 70
     6
  9
$UCSBASE
  2

  9
$UCSNAME
  2

  9
$UCSORG
 10
0.0
 20
0.0
 30
0.0
  9
$UCSXDIR
 10
1.0
 20
0.0
 30
0.0
  9
$UCSYDIR
 10
0.0
 20
1.0
 30
0.0
  9
$UCSORTHOREF
  2

  9
$UCSORTHOVIEW
 70
     0
  9
$UCSORGTOP
 10
0.0
 20
0.0
 30
0.0
  9
$UCSORGBOTTOM
 10
0.0
 20
0.0
 30
0.0
  9
$UCSORGLEFT
 10
0.0
 20
0.0
 30
0.0
  9
$UCSORGRIGHT
 10
0.0
 20
0.0
 30
0.0
  9
$UCSORGFRONT
 10
0.0
 20
0.0
 30
0.0
  9
$UCSORGBACK
 10
0.0
 20
0.0
 30
0.0
  9
$PUCSBASE
  2

  9
$PUCSNAME
  2

  9
$PUCSORG
 10
0.0
 20
0.0
 30
0.0
  9
$PUCSXDIR
 10
1.0
 20
0.0
 30
0.0
  9
$PUCSYDIR
 10
0.0
 20
1.0
 30
0.0
  9
$PUCSORTHOREF
  2

  9
$PUCSORTHOVIEW
 70
     0
  9
$PUCSORGTOP
 10
0.0
 20
0.0
 30
0.0
  9
$PUCSORGBOTTOM
 10
0.0
 20
0.0
 30
0.0
  9
$PUCSORGLEFT
 10
0.0
 20
0.0
 30
0.0
  9
$PUCSORGRIGHT
 10
0.0
 20
0.0
 30
0.0
  9
$PUCSORGFRONT
 10
0.0
 20
0.0
 30
0.0
  9
$PUCSORGBACK
 10
0.0
 20
0.0
 30
0.0
  9
$USERI1
 70
     0
  9
$USERI2
 70
     0
  9
$USERI3
 70
     0
  9
$USERI4
 70
     0
  9
$USERI5
 70
     0
  9
$USERR1
 40
0.0
  9
$USERR2
 40
0.0
  9
$USERR3
 40
0.0
  9
$USERR4
 40
0.0
  9
$USERR5
 40
0.0
  9
$WORLDVIEW
 70
     1
  9
$SHADEDGE
 70
     3
  9
$SHADEDIF
 70
    70
  9
$TILEMODE
 70
     1
  9
$MAXACTVP
 70
    64
  9
$PINSBASE
 10
0.0
 20
0.0
 30
0.0
  9
$PLIMCHECK
 70
     0
  9
$PEXTMIN
 10
0.0
 20
0.0
 30
0.0
  9
$PEXTMAX
 10
2100.0
 20
1485.0
 30
0.0
  9
$PLIMMIN
 10
0.0
 20
0.0
  9
$PLIMMAX
 10
2100.0
 20
1485.0
  9
$UNITMODE
 70
     0
  9
$VISRETAIN
 70
     1
  9
$PLINEGEN
 70
     0
  9
$PSLTSCALE
 70
     1
  9
$TREEDEPTH
 70
  3020
  9
$CMLSTYLE
  2
Standard
  9
$CMLJUST
 70
     0
  9
$CMLSCALE
 40
1.0
  9
$PROXYGRAPHICS
 70
     1
  9
$MEASUREMENT
 70
     1
  9
$CELWEIGHT
370
    -1
  9
$ENDCAPS
280
     0
  9
$JOINSTYLE
280
     0
  9
$LWDISPLAY
290
     0
  9
$INSUNITS
 70
     0
  9
$HYPERLINKBASE
  1

  9
$STYLESHEET
  1

  9
$XEDIT
290
     1
  9
$CEPSNTYPE
380
     0
  9
$PSTYLEMODE
290
     1
  9
$FINGERPRINTGUID
  2
{C0D17482-A639-492A-87FF-6D529B9E67CF}
  9
$VERSIONGUID
  2
{4E79BE24-1D3F-4DC9-8C78-7DDDAB46434C}
  9
$EXTNAMES
290
     1
  9
$PSVPSCALE
 40
0.0
  9
$OLESTARTUP
290
     0
  9
$SORTENTS
280
   127
  9
$INDEXCTL
280
     0
  9
$HIDETEXT
280
     1
  9
$XCLIPFRAME
290
     0
  9
$HALOGAP
280
     0
  9
$OBSCOLOR
 70
   257
  9
$OBSLTYPE
280
     0
  9
$INTERSECTIONDISPLAY
280
     0
  9
$INTERSECTIONCOLOR
 70
   257
  9
$DIMASSOC
280
     1
  9
$PROJECTNAME
  1

  0
ENDSEC
  0
SECTION
  2
CLASSES
  0
CLASS
  1
ACDBDICTIONARYWDFLT
  2
AcDbDictionaryWithDefault
  3
ObjectDBX Classes
 90
        0
 91
        1
280
     0
281
     0
  0
CLASS
  1
TABLESTYLE
  2
AcDbTableStyle
  3
ObjectDBX Classes
 90
     2047
 91
        1
280
     0
281
     0
  0
CLASS
  1
DICTIONARYVAR
  2
AcDbDictionaryVar
  3
ObjectDBX Classes
 90
        0
 91
        4
280
     0
281
     0
  0
CLASS
  1
SORTENTSTABLE
  2
AcDbSortentsTable
  3
ObjectDBX Classes
 90
        0
 91
        2
280
     0
281
     0
  0
ENDSEC
  0
SECTION
  2
TABLES
  0
TABLE
  2
VPORT
  5
8
330
0
100
AcDbSymbolTable
 70
     3
  0
VPORT
  5
65B1
330
8
100
AcDbSymbolTableRecord
100
AcDbViewportTableRecord
  2
*Active
 70
     0
 10
0.0
 20
0.0
 11
1.0
 21
1.0
 12
0.0086853253778827
 22
103.5478828570822
 13
0.0
 23
0.0
 14
1.0
 24
1.0
 15
0.0
 25
0.0
 16
0.0
 26
0.0
 36
1.0
 17
0.0
 27
0.0
 37
0.0
 40
386.3100589057749
 41
1.773333333333333
 42
50.0
 43
0.0
 44
0.0
 50
0.0
 51
0.0
 71
     0
 72
   100
 73
     1
 74
     1
 75
     0
 76
     0
 77
     0
 78
     0
281
     0
 65
     1
110
0.0
120
0.0
130
0.0
111
1.0
121
0.0
131
0.0
112
0.0
122
1.0
132
0.0
 79
     0
146
0.0
  0
ENDTAB
  0
TABLE
  2
LTYPE
  5
5
330
0
100
AcDbSymbolTable
 70
     3
  0
LTYPE
  5
14
330
5
100
AcDbSymbolTableRecord
100
AcDbLinetypeTableRecord
  2
ByBlock
 70
     0
  3

 72
    65
 73
     0
 40
0.0
  0
LTYPE
  5
15
330
5
100
AcDbSymbolTableRecord
100
AcDbLinetypeTableRecord
  2
ByLayer
 70
     0
  3

 72
    65
 73
     0
 40
0.0
  0
LTYPE
  5
16
330
5
100
AcDbSymbolTableRecord
100
AcDbLinetypeTableRecord
  2
Continuous
 70
     0
  3
Solid line
 72
    65
 73
     0
 40
0.0
  0
LTYPE
  5
1309
330
5
100
AcDbSymbolTableRecord
100
AcDbLinetypeTableRecord
  2
MITTE2
 70
     0
  3
Mitte (.5x) ___ _ ___ _ ___ _ ___ _ ___ _ ___
 72
    65
 73
     4
 40
28.575
 49
19.05
 74
     0
 49
-3.174999999999999
 74
     0
 49
3.174999999999999
 74
     0
 49
-3.174999999999999
 74
     0
  0
LTYPE
  5
16DC
330
5
100
AcDbSymbolTableRecord
100
AcDbLinetypeTableRecord
  2
VERDECKT
 70
     0
  3
Verdeckt __ __ __ __ __ __ __ __ __ __ __ __ __
 72
    65
 73
     2
 40
9.524999999999998
 49
6.349999999999999
 74
     0
 49
-3.174999999999999
 74
     0
  0
ENDTAB
  0
TABLE
  2
LAYER
  5
2
102
{ACAD_XDICTIONARY
360
16C1
102
}
330
0
100
AcDbSymbolTable
 70
     4
  0
LAYER
  5
10
330
2
100
AcDbSymbolTableRecord
100
AcDbLayerTableRecord
  2
0
 70
     0
 62
     7
  6
Continuous
370
    -3
390
F
  0
LAYER
  5
646
330
2
100
AcDbSymbolTableRecord
100
AcDbLayerTableRecord
  2
Defpoints
 70
     0
 62
     7
  6
Continuous
290
     0
370
    -3
390
F
  0
LAYER
  5
130A
330
2
100
AcDbSymbolTableRecord
100
AcDbLayerTableRecord
  2
LW 5026-06-01
 70
     0
 62
     7
  6
Continuous
370
    -3
390
F
  0
LAYER
  5
130B
330
2
100
AcDbSymbolTableRecord
100
AcDbLayerTableRecord
  2
insertpoint_ECKELT
 70
     0
 62
   141
  6
Continuous
370
    -3
390
F
  0
ENDTAB
  0
TABLE
  2
STYLE
  5
3
330
0
100
AcDbSymbolTable
 70
     1
  0
STYLE
  5
11
330
3
100
AcDbSymbolTableRecord
100
AcDbTextStyleTableRecord
  2
Standard
 70
     0
 40
0.0
 41
1.0
 50
0.0
 71
     0
 42
0.2
  3
ARIAL.TTF
  4

1001
ACAD
1000
Arial
1071
      256
  0
ENDTAB
  0
TABLE
  2
VIEW
  5
6
330
0
100
AcDbSymbolTable
 70
     0
  0
ENDTAB
  0
TABLE
  2
UCS
  5
7
330
0
100
AcDbSymbolTable
 70
     0
  0
ENDTAB
  0
TABLE
  2
APPID
  5
9
330
0
100
AcDbSymbolTable
 70
     2
  0
APPID
  5
12
330
9
100
AcDbSymbolTableRecord
100
AcDbRegAppTableRecord
  2
ACAD
 70
     0
  0
APPID
  5
15AA
330
9
100
AcDbSymbolTableRecord
100
AcDbRegAppTableRecord
  2
ACAD_EXEMPT_FROM_CAD_STANDARDS
 70
     0
  0
ENDTAB
  0
TABLE
  2
DIMSTYLE
  5
A
330
0
100
AcDbSymbolTable
 70
     1
100
AcDbDimStyleTable
 71
     1
340
2B
  0
DIMSTYLE
105
2B
330
A
100
AcDbSymbolTableRecord
100
AcDbDimStyleTableRecord
  2
Standard
 70
     0
340
11
  0
ENDTAB
  0
TABLE
  2
BLOCK_RECORD
  5
1
330
0
100
AcDbSymbolTable
 70
     6
  0
BLOCK_RECORD
  5
23
102
{ACAD_XDICTIONARY
360
15A2
102
}
330
1
100
AcDbSymbolTableRecord
100
AcDbBlockTableRecord
  2
*Model_Space
340
26
  0
BLOCK_RECORD
  5
1F
330
1
100
AcDbSymbolTableRecord
100
AcDbBlockTableRecord
  2
*Paper_Space
340
22
  0
BLOCK_RECORD
  5
27
330
1
100
AcDbSymbolTableRecord
100
AcDbBlockTableRecord
  2
*Paper_Space0
340
2A
  0
BLOCK_RECORD
  5
106E
102
{ACAD_XDICTIONARY
360
106F
102
}
330
1
100
AcDbSymbolTableRecord
100
AcDbBlockTableRecord
  2
insertpoint-ECKELT
340
0
102
{BLKREFS
331
62D2
331
63E3
331
657A
331
659B
102
}
  0
BLOCK_RECORD
  5
6140
330
1
100
AcDbSymbolTableRecord
100
AcDbBlockTableRecord
  2
LW 5026-06-01_a
340
0
310
2800000020000000200000000100080000000000000400000000000000000000000000000000000000000000000080000080000000808000800000008000800080800000C0C0C000C0DCC000F0CAA6000020400000206000002080000020A0000020C0000020E00000400000004020000040400000406000004080000040A0
310
000040C0000040E00000600000006020000060400000606000006080000060A0000060C0000060E00000800000008020000080400000806000008080000080A0000080C0000080E00000A0000000A0200000A0400000A0600000A0800000A0A00000A0C00000A0E00000C0000000C0200000C0400000C0600000C0800000C0
310
A00000C0C00000C0E00000E0000000E0200000E0400000E0600000E0800000E0A00000E0C00000E0E00040000000400020004000400040006000400080004000A0004000C0004000E00040200000402020004020400040206000402080004020A0004020C0004020E000404000004040200040404000404060004040800040
310
40A0004040C0004040E00040600000406020004060400040606000406080004060A0004060C0004060E00040800000408020004080400040806000408080004080A0004080C0004080E00040A0000040A0200040A0400040A0600040A0800040A0A00040A0C00040A0E00040C0000040C0200040C0400040C0600040C08000
310
40C0A00040C0C00040C0E00040E0000040E0200040E0400040E0600040E0800040E0A00040E0C00040E0E00080000000800020008000400080006000800080008000A0008000C0008000E00080200000802020008020400080206000802080008020A0008020C0008020E00080400000804020008040400080406000804080
310
008040A0008040C0008040E00080600000806020008060400080606000806080008060A0008060C0008060E00080800000808020008080400080806000808080008080A0008080C0008080E00080A0000080A0200080A0400080A0600080A0800080A0A00080A0C00080A0E00080C0000080C0200080C0400080C0600080C0
310
800080C0A00080C0C00080C0E00080E0000080E0200080E0400080E0600080E0800080E0A00080E0C00080E0E000C0000000C0002000C0004000C0006000C0008000C000A000C000C000C000E000C0200000C0202000C0204000C0206000C0208000C020A000C020C000C020E000C0400000C0402000C0404000C0406000C0
310
408000C040A000C040C000C040E000C0600000C0602000C0604000C0606000C0608000C060A000C060C000C060E000C0800000C0802000C0804000C0806000C0808000C080A000C080C000C080E000C0A00000C0A02000C0A04000C0A06000C0A08000C0A0A000C0A0C000C0A0E000C0C00000C0C02000C0C04000C0C06000
310
C0C08000C0C0A000F0FBFF00A4A0A000808080000000FF0000FF000000FFFF00FF000000FF00FF00FFFF0000FFFFFF0000000000000000000000000000000000000000000000000000000000000000000000000000000000000000000000000000000000000000000000000000000000000000000000000000000000000000
310
000000000000000000000000000000000000000000000000000000000000000000000000000000000000000000000000000000000000000000000000000000000000000000000000FA00000000000000000000000000000000000000000000000000000000000000FA00000000000000000000000000000000FA0000000000
310
0000000000FFFFFFFFFFFFFFFF00000000000000000000FFFFFFFAFFFFFF000000000000FFFF0000FFFF0000FFFF000000000000000000FF0000FA0000FF000000000000FFFFFF00FFFF00FFFFFF000000000000FFFFFFFF0000FA00FFFFFFFFFFFFFFFFFFFFFF00FFFF00FFFFFF000000000000FF000000FF00FA00FF0000
310
0000000000FFFF0000FFFF0000FFFF0000000000FAFAFAFAFAFAFAFAFAFAFAFAFAFAFAFAFAFAFAFA09FFFFFAFAFAFAFAFAFA000000FFFFFFFF0000FA00FFFFFFFFFFFFFFFFFFFF0000FFFF0000FFFF000000000000000000FF0000FA0000FF000000000000FFFF0000FFFF0000FFFF000000000000000000FF0000FA0000FF
310
000000000000FFFF0000FFFF0000FFFF000000000000000000FFF9F9FA0000FF00000000000000FFFFFFFFFFFFFFFF00000000000000000000FFF9F9FA0000FF0000000000000000000000FA00000000000000000000000000FFF9F9FA0000FF0000000000000000000000FA00000000000000000000000000FF0000FA0000
310
FF00000000000000000000000000000000000000000000000000FF0000FA0000FF00000000000000000000000000000000000000000000000000FF0000FA0000FF00000000000000000000000000000000000000000000000000FDFDFDFDFDFDFD000000000000000000000000000000000000000000000000000000FAFAFA
310
0000000000000000000000000000000000000000000000000000000000FAFAFA000000000000000000000000000000000000000000000000000000000000FA00000000000000000000000000000000000000000000000000000000000000FA00000000000000000000000000000000000000000000000000000000000000FA
310
00000000000000000000000000000000000000000000000000000000000000FA0000000000000000000000000000000000000000000000000000000000000000000000000000000000000000000000000000000000000000000000000000000000000000000000000000000000000000000000000000000000000000000000
310
0000000000000000000000000000000000000000000000000000000000000000000000000000000000000000000000000000000000000000
102
{BLKREFS
331
62D8
102
}
  0
BLOCK_RECORD
  5
62D9
330
1
100
AcDbSymbolTableRecord
100
AcDbBlockTableRecord
  2
LW 5026-06-01_b
340
0
310
2800000020000000200000000100080000000000000400000000000000000000000000000000000000000000000080000080000000808000800000008000800080800000C0C0C000C0DCC000F0CAA6000020400000206000002080000020A0000020C0000020E00000400000004020000040400000406000004080000040A0
310
000040C0000040E00000600000006020000060400000606000006080000060A0000060C0000060E00000800000008020000080400000806000008080000080A0000080C0000080E00000A0000000A0200000A0400000A0600000A0800000A0A00000A0C00000A0E00000C0000000C0200000C0400000C0600000C0800000C0
310
A00000C0C00000C0E00000E0000000E0200000E0400000E0600000E0800000E0A00000E0C00000E0E00040000000400020004000400040006000400080004000A0004000C0004000E00040200000402020004020400040206000402080004020A0004020C0004020E000404000004040200040404000404060004040800040
310
40A0004040C0004040E00040600000406020004060400040606000406080004060A0004060C0004060E00040800000408020004080400040806000408080004080A0004080C0004080E00040A0000040A0200040A0400040A0600040A0800040A0A00040A0C00040A0E00040C0000040C0200040C0400040C0600040C08000
310
40C0A00040C0C00040C0E00040E0000040E0200040E0400040E0600040E0800040E0A00040E0C00040E0E00080000000800020008000400080006000800080008000A0008000C0008000E00080200000802020008020400080206000802080008020A0008020C0008020E00080400000804020008040400080406000804080
310
008040A0008040C0008040E00080600000806020008060400080606000806080008060A0008060C0008060E00080800000808020008080400080806000808080008080A0008080C0008080E00080A0000080A0200080A0400080A0600080A0800080A0A00080A0C00080A0E00080C0000080C0200080C0400080C0600080C0
310
800080C0A00080C0C00080C0E00080E0000080E0200080E0400080E0600080E0800080E0A00080E0C00080E0E000C0000000C0002000C0004000C0006000C0008000C000A000C000C000C000E000C0200000C0202000C0204000C0206000C0208000C020A000C020C000C020E000C0400000C0402000C0404000C0406000C0
310
408000C040A000C040C000C040E000C0600000C0602000C0604000C0606000C0608000C060A000C060C000C060E000C0800000C0802000C0804000C0806000C0808000C080A000C080C000C080E000C0A00000C0A02000C0A04000C0A06000C0A08000C0A0A000C0A0C000C0A0E000C0C00000C0C02000C0C04000C0C06000
310
C0C08000C0C0A000F0FBFF00A4A0A000808080000000FF0000FF000000FFFF00FF000000FF00FF00FFFF0000FFFFFF0000000000000000000000000000000000000000000000000000000000000000000000000000000000000000000000000000000000000000000000000000000000000000000000000000000000000000
310
00000000000000000000000000000000000000000000000000000000000000000000000000000000000000000000000000000000000000000000000000000000000000000000000000000000000000000000000000000000000000000000000000000000000000000000000000000000000000000000000000000000000000
310
000000000000000000000000000000000000000000000000000000000000000000000000000000000000000000000000000000000000000000000000000000000000000000000000000000000000000000000000000000000000000000000000000000000000000000FA000000000000000000000000000000000000000000
310
00000000000000000000FA000000000000000000000000000000000000000000000000000000FFFFFFFFFFFFFFFF00000000000000000000000000FA000000000000000000FFFFFF00FFFF00FFFFFF00000000000000000000FFFFFAFFFF00000000000000FFFF0000FFFF0000FFFF000000000000FFFFFFFFFF00FA00FFFF
310
FFFFFFFFFFFFFFFF0000FFFF0000FFFF000000000000FF0000FF0000FA0000FF000000000000FFFF0000FFFF0000FFFF0000000000FAFAFAFAFAFAFAFAFAFAFAFAF9F9F9FAFAFAFAFA09FFFFFAFAFAFAFAFAFA000000FFFFFFFFFF00FA00FFFFFFF9F9F9FFFFFFFF0000FFFF0000FFFF00000000000000000000FFFFFAFFFF
310
00000000000000FFFF0000FFFF0000FFFF0000000000000000000000FFFA000000000000000000FFFFFF00FFFF00FFFFFF0000000000000000000000000000000000000000000000FFFFFFFFFFFFFFFF00000000000000000000000000000000000000000000000000000000FA000000000000000000000000000000000000
310
00000000000000000000000000FA0000000000000000000000000000000000000000000000000000000000000000000000000000000000000000000000000000000000000000000000000000000000000000000000000000000000000000000000000000000000000000000000000000000000000000000000000000000000
310
00000000000000000000000000000000000000000000000000000000000000000000000000000000000000000000000000000000000000000000000000000000000000000000000000000000000000000000000000000000000000000000000000000000000000000000000000000000000000000000000000000000000000
310
0000000000000000000000000000000000000000000000000000000000000000000000000000000000000000000000000000000000000000
102
{BLKREFS
331
63E9
102
}
  0
BLOCK_RECORD
  5
63EA
330
1
100
AcDbSymbolTableRecord
100
AcDbBlockTableRecord
  2
LW 5026-06-01_c
340
0
310
2800000020000000200000000100080000000000000400000000000000000000000000000000000000000000000080000080000000808000800000008000800080800000C0C0C000C0DCC000F0CAA6000020400000206000002080000020A0000020C0000020E00000400000004020000040400000406000004080000040A0
310
000040C0000040E00000600000006020000060400000606000006080000060A0000060C0000060E00000800000008020000080400000806000008080000080A0000080C0000080E00000A0000000A0200000A0400000A0600000A0800000A0A00000A0C00000A0E00000C0000000C0200000C0400000C0600000C0800000C0
310
A00000C0C00000C0E00000E0000000E0200000E0400000E0600000E0800000E0A00000E0C00000E0E00040000000400020004000400040006000400080004000A0004000C0004000E00040200000402020004020400040206000402080004020A0004020C0004020E000404000004040200040404000404060004040800040
310
40A0004040C0004040E00040600000406020004060400040606000406080004060A0004060C0004060E00040800000408020004080400040806000408080004080A0004080C0004080E00040A0000040A0200040A0400040A0600040A0800040A0A00040A0C00040A0E00040C0000040C0200040C0400040C0600040C08000
310
40C0A00040C0C00040C0E00040E0000040E0200040E0400040E0600040E0800040E0A00040E0C00040E0E00080000000800020008000400080006000800080008000A0008000C0008000E00080200000802020008020400080206000802080008020A0008020C0008020E00080400000804020008040400080406000804080
310
008040A0008040C0008040E00080600000806020008060400080606000806080008060A0008060C0008060E00080800000808020008080400080806000808080008080A0008080C0008080E00080A0000080A0200080A0400080A0600080A0800080A0A00080A0C00080A0E00080C0000080C0200080C0400080C0600080C0
310
800080C0A00080C0C00080C0E00080E0000080E0200080E0400080E0600080E0800080E0A00080E0C00080E0E000C0000000C0002000C0004000C0006000C0008000C000A000C000C000C000E000C0200000C0202000C0204000C0206000C0208000C020A000C020C000C020E000C0400000C0402000C0404000C0406000C0
310
408000C040A000C040C000C040E000C0600000C0602000C0604000C0606000C0608000C060A000C060C000C060E000C0800000C0802000C0804000C0806000C0808000C080A000C080C000C080E000C0A00000C0A02000C0A04000C0A06000C0A08000C0A0A000C0A0C000C0A0E000C0C00000C0C02000C0C04000C0C06000
310
C0C08000C0C0A000F0FBFF00A4A0A000808080000000FF0000FF000000FFFF00FF000000FF00FF00FFFF0000FFFFFF0000000000000000000000000000000000000000000000000000000000000000000000000000000000000000000000000000000000000000000000000000000000000000000000000000000000000000
310
00000000000000000000000000000000000000000000000000000000000000000000000000000000000000000000000000000000000000000000000000000000000000000000000000000000000000000000000000000000000000000000000000000000000000000000000000000000000000000000000000000000000000
310
00000000000000000000000000000000000000000000000000000000000000000000000000000000000000000000000000000000000000000000000000000000000000000000000000000000000000000000000000000000000000000000000000000000000000000000FA0000000000000000000000000000000000000000
310
000000000000FFFFFAFFFDFA00000000000000000000000000FFFFFFFFFFFFFFFFFFFFFFFFFFFFFDFAFFFAFFFF000000000000000000000000FF000000000000000000FD00FD00FDFA00FAFD00FF0000000000000000000000FF000000000000000000FDFD00FFFDFAFAFFFD00FF00000000000000FAFAFAFAFF0000000000
310
00000000FD00FFFFFFFAFFFF00FDFF00000000000000FFFF0000FF0000000000000000FDFAFAFAFAFA09FAFAFAFAFAFAFAFAFA0000FAFAFAFAFAFAFAFAFAFAFAFAFAFAFAFDFDFF09090900FF00FDFF00000000000000FAFAFAFAFF000000000000000000FD00FFFFFFFAFFFF00FDFF0000000000000000000000FF0000F9F9
310
F9F9000000FDFD00FFFDFAFAFFFD00FF0000000000000000000000FF0000F9F9F9F9000000FD00FD00FDFD00FAFD00FF0000000000000000000000FFFFFFFFFFFFFFFFFFFFFFFFFFFFFDFDFFFAFFFF00000000000000000000000000000000000000000000000000FFFFFAFFFFFA0000000000000000000000000000000000
310
0000000000000000000000000000FA00000000000000000000000000000000000000000000000000000000000000000000000000000000000000000000000000000000000000000000000000000000000000000000000000000000000000000000000000000000000000000000000000000000000000000000000000000000
310
00000000000000000000000000000000000000000000000000000000000000000000000000000000000000000000000000000000000000000000000000000000000000000000000000000000000000000000000000000000000000000000000000000000000000000000000000000000000000000000000000000000000000
310
0000000000000000000000000000000000000000000000000000000000000000000000000000000000000000000000000000000000000000
102
{BLKREFS
331
657E
102
}
  0
BLOCK_RECORD
  5
657F
330
1
100
AcDbSymbolTableRecord
100
AcDbBlockTableRecord
  2
LW 5026-06-01_d
340
0
310
2800000020000000200000000100080000000000000400000000000000000000000000000000000000000000000080000080000000808000800000008000800080800000C0C0C000C0DCC000F0CAA6000020400000206000002080000020A0000020C0000020E00000400000004020000040400000406000004080000040A0
310
000040C0000040E00000600000006020000060400000606000006080000060A0000060C0000060E00000800000008020000080400000806000008080000080A0000080C0000080E00000A0000000A0200000A0400000A0600000A0800000A0A00000A0C00000A0E00000C0000000C0200000C0400000C0600000C0800000C0
310
A00000C0C00000C0E00000E0000000E0200000E0400000E0600000E0800000E0A00000E0C00000E0E00040000000400020004000400040006000400080004000A0004000C0004000E00040200000402020004020400040206000402080004020A0004020C0004020E000404000004040200040404000404060004040800040
310
40A0004040C0004040E00040600000406020004060400040606000406080004060A0004060C0004060E00040800000408020004080400040806000408080004080A0004080C0004080E00040A0000040A0200040A0400040A0600040A0800040A0A00040A0C00040A0E00040C0000040C0200040C0400040C0600040C08000
310
40C0A00040C0C00040C0E00040E0000040E0200040E0400040E0600040E0800040E0A00040E0C00040E0E00080000000800020008000400080006000800080008000A0008000C0008000E00080200000802020008020400080206000802080008020A0008020C0008020E00080400000804020008040400080406000804080
310
008040A0008040C0008040E00080600000806020008060400080606000806080008060A0008060C0008060E00080800000808020008080400080806000808080008080A0008080C0008080E00080A0000080A0200080A0400080A0600080A0800080A0A00080A0C00080A0E00080C0000080C0200080C0400080C0600080C0
310
800080C0A00080C0C00080C0E00080E0000080E0200080E0400080E0600080E0800080E0A00080E0C00080E0E000C0000000C0002000C0004000C0006000C0008000C000A000C000C000C000E000C0200000C0202000C0204000C0206000C0208000C020A000C020C000C020E000C0400000C0402000C0404000C0406000C0
310
408000C040A000C040C000C040E000C0600000C0602000C0604000C0606000C0608000C060A000C060C000C060E000C0800000C0802000C0804000C0806000C0808000C080A000C080C000C080E000C0A00000C0A02000C0A04000C0A06000C0A08000C0A0A000C0A0C000C0A0E000C0C00000C0C02000C0C04000C0C06000
310
C0C08000C0C0A000F0FBFF00A4A0A000808080000000FF0000FF000000FFFF00FF000000FF00FF00FFFF0000FFFFFF0000000000000000000000000000000000000000000000000000000000000000000000000000000000000000000000000000000000000000000000000000000000000000000000000000000000000000
310
000000000000000000000000000000000000000000000000000000000000000000000000000000000000000000000000000000000000000000000000000000000000000000000000000000000000000000000000000000000000000000000000000000000000000000000000000000000000000000000000000000FA000000
310
FFFFFFFF00000000000000000000000000000000000000000000000000FFFFFF0000FA00FFFFFF000000000000000000000000000000000000000000FFFA00FDFFFFFA00000000FF00000000000000000000000000000000000000FF00FDFFFF0000FFFFFF000000FF0000000000000000000000000000000000FF0000FFFA
310
000000FA0000FF000000FF000000000000000000000000000000FF0000FF0000FA0000FA000000FFFF0000FF0000000000000000000000000000FF0000FF0000000000FA0000000000FF00FF0000000000000000000000000000FF00FF000000000000FA0000000000FF00FF00000000000000000000000000FF0000FF0000
310
00000000FA000000000000FF00FF00000000000000FAFAFAFAFAFFFAFAFFFAFAFAFAFA0909000000000000FFFDFF000000000000000000000000FF0000FF00000009090909FAFAFAFAFAFAFFFAFFFAFAFAFAFA00000000000000FF0000FF0000000000FA00000000000000FF00FF00000000000000000000000000FF00FF00
310
00F9F9F9F9F9F9F9000000FF0000FF00000000000000000000000000FF0000FF00F9F9F9F9F9F9F9000000FF00FF0000000000000000000000000000FF0000FF0000FA00FA0000000000FF0000FF000000000000000000000000000000FF0000FFFA0000FA000000FFFF0000FF0000000000000000000000000000000000FF
310
00FDFFFF00FA00FFFF000000FF00000000000000000000000000000000000000FFFA00FDFFFFFF00000000FF000000000000000000000000000000000000000000FFFF0000FA0000FFFFFF000000000000000000000000000000000000000000FA0000FFFFFFFFFF0000000000000000000000000000000000000000000000
310
00000000000000000000000000000000000000000000000000000000000000000000000000000000000000000000000000000000000000000000000000000000000000000000000000000000000000000000000000000000000000000000000000000000000000000000000000000000000000000000000000000000000000
310
0000000000000000000000000000000000000000000000000000000000000000000000000000000000000000000000000000000000000000
102
{BLKREFS
331
65A1
102
}
  0
ENDTAB
  0
ENDSEC
  0
SECTION
  2
BLOCKS
  0
BLOCK
  5
24
330
23
100
AcDbEntity
  8
0
100
AcDbBlockBegin
  2
*Model_Space
 70
     0
 10
0.0
 20
0.0
 30
0.0
  3
*Model_Space
  1

  0
ENDBLK
  5
25
330
23
100
AcDbEntity
  8
0
100
AcDbBlockEnd
  0
BLOCK
  5
20
330
1F
100
AcDbEntity
 67
     1
  8
0
100
AcDbBlockBegin
  2
*Paper_Space
 70
     0
 10
0.0
 20
0.0
 30
0.0
  3
*Paper_Space
  1

  0
ENDBLK
  5
21
330
1F
100
AcDbEntity
 67
     1
  8
0
100
AcDbBlockEnd
  0
BLOCK
  5
28
330
27
100
AcDbEntity
 67
     1
  8
0
100
AcDbBlockBegin
  2
*Paper_Space0
 70
     0
 10
0.0
 20
0.0
 30
0.0
  3
*Paper_Space0
  1

  0
ENDBLK
  5
29
330
27
100
AcDbEntity
 67
     1
  8
0
100
AcDbBlockEnd
  0
BLOCK
  5
1071
330
106E
100
AcDbEntity
  8
0
100
AcDbBlockBegin
  2
insertpoint-ECKELT
 70
     2
 10
0.0
 20
0.0
 30
0.0
  3
insertpoint-ECKELT
  1

  0
ATTDEF
  5
1072
330
106E
100
AcDbEntity
  8
insertpoint_ECKELT
100
AcDbText
 10
-2.457298772169167
 20
-0.0000000000000284
 30
0.0
 40
0.6
  1
LW
 72
     2
 11
-1.199999999999999
 21
-0.0000000000000284
 31
0.0
100
AcDbAttributeDefinition
  3
Nr. links
  2
LINKS
 70
     0
  0
ATTDEF
  5
1073
330
106E
100
AcDbEntity
  8
insertpoint_ECKELT
100
AcDbText
 10
1.199999999999999
 20
-0.0000000000000284
 30
0.0
 40
0.6
  1
LW
100
AcDbAttributeDefinition
  3
Nr. rechts
  2
RECHTS
 70
     0
  0
LINE
  5
1074
102
{ACAD_REACTORS
330
1077
102
}
330
106E
100
AcDbEntity
  8
insertpoint_ECKELT
100
AcDbLine
 10
0.0
 20
1.799999999999997
 30
0.0
 11
0.0
 21
-1.799999999999997
 31
0.0
  0
LINE
  5
1075
102
{ACAD_REACTORS
330
1077
102
}
330
106E
100
AcDbEntity
  8
insertpoint_ECKELT
100
AcDbLine
 10
-1.8
 20
-0.0000000000000284
 30
0.0
 11
1.8
 21
-0.0000000000000284
 31
0.0
  0
CIRCLE
  5
1076
102
{ACAD_REACTORS
330
1077
102
}
330
106E
100
AcDbEntity
  8
insertpoint_ECKELT
100
AcDbCircle
 10
0.0
 20
0.0
 30
0.0
 40
1.199999999999999
  0
HATCH
  5
1077
330
106E
100
AcDbEntity
  8
insertpoint_ECKELT
100
AcDbHatch
 10
0.0
 20
0.0
 30
0.0
210
0.0
220
0.0
230
1.0
  2
SOLID
 70
     1
 71
     1
 91
        2
 92
        7
 72
     1
 73
     1
 93
        3
 10
0.0
 20
-0.0000000000000284
 42
0.0
 10
0.0
 20
1.200000000000002
 42
0.4142135623731013
 10
-1.199999999999999
 20
-0.0000000000000284
 42
0.0
 97
        3
330
1076
330
1075
330
1074
 92
        7
 72
     1
 73
     1
 93
        3
 10
1.199999999999999
 20
-0.0000000000000284
 42
0.0
 10
0.0
 20
-0.0000000000000284
 42
0.0
 10
0.0
 20
-1.200000000000002
 42
0.4142135623730888
 97
        3
330
1075
330
1074
330
1076
 75
     0
 76
     1
 47
0.0223086566480813
 98
        2
 10
-0.3163651093721391
 20
0.271413292077348
 10
0.7415965996738798
 20
-0.4513871917946233
450
        0
451
        0
460
0.0
461
0.0
452
        0
462
0.0
453
        0
470

  0
ENDBLK
  5
1078
330
106E
100
AcDbEntity
  8
0
100
AcDbBlockEnd
  0
BLOCK
  5
6141
330
6140
100
AcDbEntity
  8
0
100
AcDbBlockBegin
  2
LW 5026-06-01_a
 70
     0
 10
0.0
 20
0.0
 30
0.0
  3
LW 5026-06-01_a
  1

  0
ELLIPSE
  5
6143
330
6140
100
AcDbEntity
  8
LW 5026-06-01
100
AcDbEllipse
 10
18.00000000000023
 20
-9.499999999999943
 30
0.0
 11
-2.499999999999999
 21
0.0000000000002166
 31
0.0
210
0.0
220
0.0
230
1.0
 40
0.8660254037844381
 41
0.7560039322268093
 42
2.385588721363194
  0
POLYLINE
  5
6144
330
6140
100
AcDbEntity
  8
LW 5026-06-01
100
AcDb2dPolyline
 66
     1
 10
0.0
 20
0.0
 30
0.0
 70
   128
  0
VERTEX
  5
6145
330
6144
100
AcDbEntity
  8
LW 5026-06-01
100
AcDbVertex
100
AcDb2dVertex
 10
20.50000000000023
 20
-12.49999999999994
 30
0.0
  0
VERTEX
  5
6146
330
6144
100
AcDbEntity
  8
LW 5026-06-01
100
AcDbVertex
100
AcDb2dVertex
 10
20.47898697853111
 20
-12.77545213699335
 30
0.0
  0
VERTEX
  5
6147
330
6144
100
AcDbEntity
  8
LW 5026-06-01
100
AcDbVertex
100
AcDb2dVertex
 10
20.41565704345726
 20
-13.05167794227594
 30
0.0
  0
VERTEX
  5
6148
330
6144
100
AcDbEntity
  8
LW 5026-06-01
100
AcDbVertex
100
AcDb2dVertex
 10
20.3095774650576
 20
-13.31962585449213
 30
0.0
  0
VERTEX
  5
6149
330
6144
100
AcDbEntity
  8
LW 5026-06-01
100
AcDbVertex
100
AcDb2dVertex
 10
20.16169476509117
 20
-13.5708856582641
 30
0.0
  0
VERTEX
  5
614A
330
6144
100
AcDbEntity
  8
LW 5026-06-01
100
AcDbVertex
100
AcDb2dVertex
 10
19.97847723960899
 20
-13.79940271377558
 30
0.0
  0
VERTEX
  5
614B
330
6144
100
AcDbEntity
  8
LW 5026-06-01
100
AcDbVertex
100
AcDb2dVertex
 10
19.76776528358482
 20
-13.99964332580561
 30
0.0
  0
VERTEX
  5
614C
330
6144
100
AcDbEntity
  8
LW 5026-06-01
100
AcDbVertex
100
AcDb2dVertex
 10
19.52740001678489
 20
-14.17419910430902
 30
0.0
  0
VERTEX
  5
614D
330
6144
100
AcDbEntity
  8
LW 5026-06-01
100
AcDbVertex
100
AcDb2dVertex
 10
19.25476121902488
 20
-14.32525992393488
 30
0.0
  0
VERTEX
  5
614E
330
6144
100
AcDbEntity
  8
LW 5026-06-01
100
AcDbVertex
100
AcDb2dVertex
 10
18.95699787139915
 20
-14.44669842720026
 30
0.0
  0
VERTEX
  5
614F
330
6144
100
AcDbEntity
  8
LW 5026-06-01
100
AcDbVertex
100
AcDb2dVertex
 10
18.6418311595919
 20
-14.53354954719538
 30
0.0
  0
VERTEX
  5
6150
330
6144
100
AcDbEntity
  8
LW 5026-06-01
100
AcDbVertex
100
AcDb2dVertex
 10
18.31929254531883
 20
-14.58527922630304
 30
0.0
  0
VERTEX
  5
6151
330
6144
100
AcDbEntity
  8
LW 5026-06-01
100
AcDbVertex
100
AcDb2dVertex
 10
18.00000000000023
 20
-14.6024060249328
 30
0.0
  0
VERTEX
  5
6152
330
6144
100
AcDbEntity
  8
LW 5026-06-01
100
AcDbVertex
100
AcDb2dVertex
 10
17.68070745468162
 20
-14.58527922630304
 30
0.0
  0
VERTEX
  5
6153
330
6144
100
AcDbEntity
  8
LW 5026-06-01
100
AcDbVertex
100
AcDb2dVertex
 10
17.35816884040855
 20
-14.53354954719538
 30
0.0
  0
VERTEX
  5
6154
330
6144
100
AcDbEntity
  8
LW 5026-06-01
100
AcDbVertex
100
AcDb2dVertex
 10
17.0430021286013
 20
-14.44669842720026
 30
0.0
  0
VERTEX
  5
6155
330
6144
100
AcDbEntity
  8
LW 5026-06-01
100
AcDbVertex
100
AcDb2dVertex
 10
16.74523878097557
 20
-14.32525992393488
 30
0.0
  0
VERTEX
  5
6156
330
6144
100
AcDbEntity
  8
LW 5026-06-01
100
AcDbVertex
100
AcDb2dVertex
 10
16.47259998321556
 20
-14.17419910430902
 30
0.0
  0
VERTEX
  5
6157
330
6144
100
AcDbEntity
  8
LW 5026-06-01
100
AcDbVertex
100
AcDb2dVertex
 10
16.23223471641563
 20
-13.99964332580561
 30
0.0
  0
VERTEX
  5
6158
330
6144
100
AcDbEntity
  8
LW 5026-06-01
100
AcDbVertex
100
AcDb2dVertex
 10
16.02152276039146
 20
-13.79940271377558
 30
0.0
  0
VERTEX
  5
6159
330
6144
100
AcDbEntity
  8
LW 5026-06-01
100
AcDbVertex
100
AcDb2dVertex
 10
15.83830523490928
 20
-13.5708856582641
 30
0.0
  0
VERTEX
  5
615A
330
6144
100
AcDbEntity
  8
LW 5026-06-01
100
AcDbVertex
100
AcDb2dVertex
 10
15.69042253494285
 20
-13.31962585449213
 30
0.0
  0
VERTEX
  5
615B
330
6144
100
AcDbEntity
  8
LW 5026-06-01
100
AcDbVertex
100
AcDb2dVertex
 10
15.5843429565432
 20
-13.05167794227594
 30
0.0
  0
VERTEX
  5
615C
330
6144
100
AcDbEntity
  8
LW 5026-06-01
100
AcDbVertex
100
AcDb2dVertex
 10
15.52101302146934
 20
-12.77545213699335
 30
0.0
  0
VERTEX
  5
615D
330
6144
100
AcDbEntity
  8
LW 5026-06-01
100
AcDbVertex
100
AcDb2dVertex
 10
15.50000000000023
 20
-12.49999999999994
 30
0.0
  0
SEQEND
  5
615E
330
6144
100
AcDbEntity
  8
LW 5026-06-01
  0
POLYLINE
  5
615F
330
6140
100
AcDbEntity
  8
LW 5026-06-01
100
AcDb2dPolyline
 66
     1
 10
0.0
 20
0.0
 30
0.0
 70
   128
  0
VERTEX
  5
6160
330
615F
100
AcDbEntity
  8
LW 5026-06-01
100
AcDbVertex
100
AcDb2dVertex
 10
15.50000000000023
 20
-12.49999999999994
 30
0.0
  0
VERTEX
  5
6161
330
615F
100
AcDbEntity
  8
LW 5026-06-01
100
AcDbVertex
100
AcDb2dVertex
 10
15.52101302146934
 20
-12.22241878509516
 30
0.0
  0
VERTEX
  5
6162
330
615F
100
AcDbEntity
  8
LW 5026-06-01
100
AcDbVertex
100
AcDb2dVertex
 10
15.5843429565432
 20
-11.93999171257013
 30
0.0
  0
VERTEX
  5
6163
330
615F
100
AcDbEntity
  8
LW 5026-06-01
100
AcDbVertex
100
AcDb2dVertex
 10
15.69042253494285
 20
-11.6620504856109
 30
0.0
  0
VERTEX
  5
6164
330
615F
100
AcDbEntity
  8
LW 5026-06-01
100
AcDbVertex
100
AcDb2dVertex
 10
15.83830523490928
 20
-11.39756798744196
 30
0.0
  0
VERTEX
  5
6165
330
615F
100
AcDbEntity
  8
LW 5026-06-01
100
AcDbVertex
100
AcDb2dVertex
 10
16.02152276039146
 20
-11.15386009216303
 30
0.0
  0
VERTEX
  5
6166
330
615F
100
AcDbEntity
  8
LW 5026-06-01
100
AcDbVertex
100
AcDb2dVertex
 10
16.23223471641563
 20
-10.9377777576446
 30
0.0
  0
VERTEX
  5
6167
330
615F
100
AcDbEntity
  8
LW 5026-06-01
100
AcDbVertex
100
AcDb2dVertex
 10
16.47259998321556
 20
-10.74736952781671
 30
0.0
  0
VERTEX
  5
6168
330
615F
100
AcDbEntity
  8
LW 5026-06-01
100
AcDbVertex
100
AcDb2dVertex
 10
16.74523878097557
 20
-10.58108925819391
 30
0.0
  0
VERTEX
  5
6169
330
615F
100
AcDbEntity
  8
LW 5026-06-01
100
AcDbVertex
100
AcDb2dVertex
 10
17.0430021286013
 20
-10.4463899135589
 30
0.0
  0
VERTEX
  5
616A
330
615F
100
AcDbEntity
  8
LW 5026-06-01
100
AcDbVertex
100
AcDb2dVertex
 10
17.35816884040855
 20
-10.34950613975519
 30
0.0
  0
VERTEX
  5
616B
330
615F
100
AcDbEntity
  8
LW 5026-06-01
100
AcDbVertex
100
AcDb2dVertex
 10
17.68070745468162
 20
-10.2915477752685
 30
0.0
  0
VERTEX
  5
616C
330
615F
100
AcDbEntity
  8
LW 5026-06-01
100
AcDbVertex
100
AcDb2dVertex
 10
18.00000000000023
 20
-10.2722799777984
 30
0.0
  0
VERTEX
  5
616D
330
615F
100
AcDbEntity
  8
LW 5026-06-01
100
AcDbVertex
100
AcDb2dVertex
 10
18.31929254531883
 20
-10.2915477752685
 30
0.0
  0
VERTEX
  5
616E
330
615F
100
AcDbEntity
  8
LW 5026-06-01
100
AcDbVertex
100
AcDb2dVertex
 10
18.6418311595919
 20
-10.34950613975519
 30
0.0
  0
VERTEX
  5
616F
330
615F
100
AcDbEntity
  8
LW 5026-06-01
100
AcDbVertex
100
AcDb2dVertex
 10
18.95699787139915
 20
-10.4463899135589
 30
0.0
  0
VERTEX
  5
6170
330
615F
100
AcDbEntity
  8
LW 5026-06-01
100
AcDbVertex
100
AcDb2dVertex
 10
19.25476121902488
 20
-10.58108925819391
 30
0.0
  0
VERTEX
  5
6171
330
615F
100
AcDbEntity
  8
LW 5026-06-01
100
AcDbVertex
100
AcDb2dVertex
 10
19.52740001678489
 20
-10.74736952781671
 30
0.0
  0
VERTEX
  5
6172
330
615F
100
AcDbEntity
  8
LW 5026-06-01
100
AcDbVertex
100
AcDb2dVertex
 10
19.76776528358482
 20
-10.9377777576446
 30
0.0
  0
VERTEX
  5
6173
330
615F
100
AcDbEntity
  8
LW 5026-06-01
100
AcDbVertex
100
AcDb2dVertex
 10
19.97847723960899
 20
-11.15386009216303
 30
0.0
  0
VERTEX
  5
6174
330
615F
100
AcDbEntity
  8
LW 5026-06-01
100
AcDbVertex
100
AcDb2dVertex
 10
20.16169476509117
 20
-11.39756798744196
 30
0.0
  0
VERTEX
  5
6175
330
615F
100
AcDbEntity
  8
LW 5026-06-01
100
AcDbVertex
100
AcDb2dVertex
 10
20.3095774650576
 20
-11.6620504856109
 30
0.0
  0
VERTEX
  5
6176
330
615F
100
AcDbEntity
  8
LW 5026-06-01
100
AcDbVertex
100
AcDb2dVertex
 10
20.41565704345726
 20
-11.93999171257013
 30
0.0
  0
VERTEX
  5
6177
330
615F
100
AcDbEntity
  8
LW 5026-06-01
100
AcDbVertex
100
AcDb2dVertex
 10
20.47898697853111
 20
-12.22241878509516
 30
0.0
  0
VERTEX
  5
6178
330
615F
100
AcDbEntity
  8
LW 5026-06-01
100
AcDbVertex
100
AcDb2dVertex
 10
20.50000000000023
 20
-12.49999999999994
 30
0.0
  0
SEQEND
  5
6179
330
615F
100
AcDbEntity
  8
LW 5026-06-01
  0
POLYLINE
  5
617A
330
6140
100
AcDbEntity
  8
LW 5026-06-01
100
AcDb2dPolyline
 66
     1
 10
0.0
 20
0.0
 30
0.0
 70
   128
  0
VERTEX
  5
617B
330
617A
100
AcDbEntity
  8
LW 5026-06-01
100
AcDbVertex
100
AcDb2dVertex
 10
20.50000000000023
 20
25.00000000000011
 30
0.0
  0
VERTEX
  5
617C
330
617A
100
AcDbEntity
  8
LW 5026-06-01
100
AcDbVertex
100
AcDb2dVertex
 10
20.47898697853111
 20
24.99787092208874
 30
0.0
  0
VERTEX
  5
617D
330
617A
100
AcDbEntity
  8
LW 5026-06-01
100
AcDbVertex
100
AcDb2dVertex
 10
20.41565704345726
 20
24.99166965484631
 30
0.0
  0
VERTEX
  5
617E
330
617A
100
AcDbEntity
  8
LW 5026-06-01
100
AcDbVertex
100
AcDb2dVertex
 10
20.3095774650576
 20
24.98167514801037
 30
0.0
  0
VERTEX
  5
617F
330
617A
100
AcDbEntity
  8
LW 5026-06-01
100
AcDbVertex
100
AcDb2dVertex
 10
20.16169476509117
 20
24.96845483779919
 30
0.0
  0
VERTEX
  5
6180
330
617A
100
AcDbEntity
  8
LW 5026-06-01
100
AcDbVertex
100
AcDb2dVertex
 10
19.97847723960899
 20
24.95326280593884
 30
0.0
  0
VERTEX
  5
6181
330
617A
100
AcDbEntity
  8
LW 5026-06-01
100
AcDbVertex
100
AcDb2dVertex
 10
19.76776528358482
 20
24.93742227554333
 30
0.0
  0
VERTEX
  5
6182
330
617A
100
AcDbEntity
  8
LW 5026-06-01
100
AcDbVertex
100
AcDb2dVertex
 10
19.52740001678489
 20
24.92156982421886
 30
0.0
  0
VERTEX
  5
6183
330
617A
100
AcDbEntity
  8
LW 5026-06-01
100
AcDbVertex
100
AcDb2dVertex
 10
19.25476121902488
 20
24.90634918212902
 30
0.0
  0
VERTEX
  5
6184
330
617A
100
AcDbEntity
  8
LW 5026-06-01
100
AcDbVertex
100
AcDb2dVertex
 10
18.95699787139915
 20
24.89308834075939
 30
0.0
  0
VERTEX
  5
6185
330
617A
100
AcDbEntity
  8
LW 5026-06-01
100
AcDbVertex
100
AcDb2dVertex
 10
18.6418311595919
 20
24.8830556869508
 30
0.0
  0
VERTEX
  5
6186
330
617A
100
AcDbEntity
  8
LW 5026-06-01
100
AcDbVertex
100
AcDb2dVertex
 10
18.31929254531883
 20
24.87682580947887
 30
0.0
  0
VERTEX
  5
6187
330
617A
100
AcDbEntity
  8
LW 5026-06-01
100
AcDbVertex
100
AcDb2dVertex
 10
18.00000000000023
 20
24.87468481063854
 30
0.0
  0
VERTEX
  5
6188
330
617A
100
AcDbEntity
  8
LW 5026-06-01
100
AcDbVertex
100
AcDb2dVertex
 10
17.68070745468162
 20
24.87682580947887
 30
0.0
  0
VERTEX
  5
6189
330
617A
100
AcDbEntity
  8
LW 5026-06-01
100
AcDbVertex
100
AcDb2dVertex
 10
17.35816884040855
 20
24.8830556869508
 30
0.0
  0
VERTEX
  5
618A
330
617A
100
AcDbEntity
  8
LW 5026-06-01
100
AcDbVertex
100
AcDb2dVertex
 10
17.0430021286013
 20
24.89308834075939
 30
0.0
  0
VERTEX
  5
618B
330
617A
100
AcDbEntity
  8
LW 5026-06-01
100
AcDbVertex
100
AcDb2dVertex
 10
16.74523878097557
 20
24.90634918212902
 30
0.0
  0
VERTEX
  5
618C
330
617A
100
AcDbEntity
  8
LW 5026-06-01
100
AcDbVertex
100
AcDb2dVertex
 10
16.47259998321556
 20
24.92156982421886
 30
0.0
  0
VERTEX
  5
618D
330
617A
100
AcDbEntity
  8
LW 5026-06-01
100
AcDbVertex
100
AcDb2dVertex
 10
16.23223471641563
 20
24.93742227554333
 30
0.0
  0
VERTEX
  5
618E
330
617A
100
AcDbEntity
  8
LW 5026-06-01
100
AcDbVertex
100
AcDb2dVertex
 10
16.02152276039146
 20
24.95326280593884
 30
0.0
  0
VERTEX
  5
618F
330
617A
100
AcDbEntity
  8
LW 5026-06-01
100
AcDbVertex
100
AcDb2dVertex
 10
15.83830523490928
 20
24.96845483779919
 30
0.0
  0
VERTEX
  5
6190
330
617A
100
AcDbEntity
  8
LW 5026-06-01
100
AcDbVertex
100
AcDb2dVertex
 10
15.69042253494285
 20
24.98167514801037
 30
0.0
  0
VERTEX
  5
6191
330
617A
100
AcDbEntity
  8
LW 5026-06-01
100
AcDbVertex
100
AcDb2dVertex
 10
15.5843429565432
 20
24.99166965484631
 30
0.0
  0
VERTEX
  5
6192
330
617A
100
AcDbEntity
  8
LW 5026-06-01
100
AcDbVertex
100
AcDb2dVertex
 10
15.52101302146934
 20
24.99787092208874
 30
0.0
  0
VERTEX
  5
6193
330
617A
100
AcDbEntity
  8
LW 5026-06-01
100
AcDbVertex
100
AcDb2dVertex
 10
15.50000000000023
 20
25.00000000000011
 30
0.0
  0
SEQEND
  5
6194
330
617A
100
AcDbEntity
  8
LW 5026-06-01
  0
LINE
  5
6195
330
6140
100
AcDbEntity
  8
LW 5026-06-01
100
AcDbLine
 10
22.00000000000023
 20
-24.99999999999995
 30
0.0
 11
22.00000000000023
 21
25.00000000000011
 31
0.0
  0
LINE
  5
6196
330
6140
100
AcDbEntity
  8
LW 5026-06-01
100
AcDbLine
 10
28.00000000000023
 20
-18.99999999999989
 30
0.0
 11
28.00000000000023
 21
19.00000000000005
 31
0.0
  0
LINE
  5
6197
330
6140
100
AcDbEntity
  8
LW 5026-06-01
100
AcDbLine
 10
3.000000000000227
 20
25.00000000000011
 30
0.0
 11
15.50000000000023
 21
25.00000000000011
 31
0.0
  0
LINE
  5
6198
330
6140
100
AcDbEntity
  8
LW 5026-06-01
100
AcDbLine
 10
20.50000000000023
 20
25.00000000000011
 30
0.0
 11
22.00000000000023
 21
25.00000000000011
 31
0.0
  0
LINE
  5
6199
330
6140
100
AcDbEntity
  8
LW 5026-06-01
100
AcDbLine
 10
3.000000000000227
 20
-24.99999999999995
 30
0.0
 11
22.00000000000023
 21
-24.99999999999995
 31
0.0
  0
LINE
  5
619A
330
6140
100
AcDbEntity
  8
LW 5026-06-01
100
AcDbLine
 10
28.00000000000023
 20
-18.99999999999989
 30
0.0
 11
22.00000000000023
 21
-24.99999999999995
 31
0.0
  0
LINE
  5
619B
330
6140
100
AcDbEntity
  8
LW 5026-06-01
100
AcDbLine
 10
28.00000000000023
 20
19.00000000000005
 30
0.0
 11
22.00000000000023
 21
25.00000000000011
 31
0.0
  0
ELLIPSE
  5
619C
330
6140
100
AcDbEntity
  8
LW 5026-06-01
100
AcDbEllipse
 10
-17.99999999999977
 20
-9.499999999999943
 30
0.0
 11
-2.499999999999998
 21
0.0000000000002311
 31
0.0
210
0.0
220
0.0
230
1.0
 40
0.866025403784439
 41
0.7560039322268258
 42
2.385588721363201
  0
POLYLINE
  5
619D
330
6140
100
AcDbEntity
  8
LW 5026-06-01
100
AcDb2dPolyline
 66
     1
 10
0.0
 20
0.0
 30
0.0
 70
   128
  0
VERTEX
  5
619E
330
619D
100
AcDbEntity
  8
LW 5026-06-01
100
AcDbVertex
100
AcDb2dVertex
 10
-20.49999999999977
 20
-12.49999999999994
 30
0.0
  0
VERTEX
  5
619F
330
619D
100
AcDbEntity
  8
LW 5026-06-01
100
AcDbVertex
100
AcDb2dVertex
 10
-20.47898697853065
 20
-12.22241878509516
 30
0.0
  0
VERTEX
  5
61A0
330
619D
100
AcDbEntity
  8
LW 5026-06-01
100
AcDbVertex
100
AcDb2dVertex
 10
-20.4156570434568
 20
-11.93999171257013
 30
0.0
  0
VERTEX
  5
61A1
330
619D
100
AcDbEntity
  8
LW 5026-06-01
100
AcDbVertex
100
AcDb2dVertex
 10
-20.30957746505714
 20
-11.6620504856109
 30
0.0
  0
VERTEX
  5
61A2
330
619D
100
AcDbEntity
  8
LW 5026-06-01
100
AcDbVertex
100
AcDb2dVertex
 10
-20.16169476509071
 20
-11.39756798744196
 30
0.0
  0
VERTEX
  5
61A3
330
619D
100
AcDbEntity
  8
LW 5026-06-01
100
AcDbVertex
100
AcDb2dVertex
 10
-19.97847723960854
 20
-11.15386009216303
 30
0.0
  0
VERTEX
  5
61A4
330
619D
100
AcDbEntity
  8
LW 5026-06-01
100
AcDbVertex
100
AcDb2dVertex
 10
-19.76776528358437
 20
-10.9377777576446
 30
0.0
  0
VERTEX
  5
61A5
330
619D
100
AcDbEntity
  8
LW 5026-06-01
100
AcDbVertex
100
AcDb2dVertex
 10
-19.52740001678444
 20
-10.74736952781671
 30
0.0
  0
VERTEX
  5
61A6
330
619D
100
AcDbEntity
  8
LW 5026-06-01
100
AcDbVertex
100
AcDb2dVertex
 10
-19.25476121902443
 20
-10.58108925819391
 30
0.0
  0
VERTEX
  5
61A7
330
619D
100
AcDbEntity
  8
LW 5026-06-01
100
AcDbVertex
100
AcDb2dVertex
 10
-18.9569978713987
 20
-10.4463899135589
 30
0.0
  0
VERTEX
  5
61A8
330
619D
100
AcDbEntity
  8
LW 5026-06-01
100
AcDbVertex
100
AcDb2dVertex
 10
-18.64183115959145
 20
-10.34950613975519
 30
0.0
  0
VERTEX
  5
61A9
330
619D
100
AcDbEntity
  8
LW 5026-06-01
100
AcDbVertex
100
AcDb2dVertex
 10
-18.31929254531837
 20
-10.2915477752685
 30
0.0
  0
VERTEX
  5
61AA
330
619D
100
AcDbEntity
  8
LW 5026-06-01
100
AcDbVertex
100
AcDb2dVertex
 10
-17.99999999999977
 20
-10.2722799777984
 30
0.0
  0
VERTEX
  5
61AB
330
619D
100
AcDbEntity
  8
LW 5026-06-01
100
AcDbVertex
100
AcDb2dVertex
 10
-17.68070745468117
 20
-10.2915477752685
 30
0.0
  0
VERTEX
  5
61AC
330
619D
100
AcDbEntity
  8
LW 5026-06-01
100
AcDbVertex
100
AcDb2dVertex
 10
-17.3581688404081
 20
-10.34950613975519
 30
0.0
  0
VERTEX
  5
61AD
330
619D
100
AcDbEntity
  8
LW 5026-06-01
100
AcDbVertex
100
AcDb2dVertex
 10
-17.04300212860085
 20
-10.4463899135589
 30
0.0
  0
VERTEX
  5
61AE
330
619D
100
AcDbEntity
  8
LW 5026-06-01
100
AcDbVertex
100
AcDb2dVertex
 10
-16.74523878097511
 20
-10.58108925819391
 30
0.0
  0
VERTEX
  5
61AF
330
619D
100
AcDbEntity
  8
LW 5026-06-01
100
AcDbVertex
100
AcDb2dVertex
 10
-16.4725999832151
 20
-10.74736952781671
 30
0.0
  0
VERTEX
  5
61B0
330
619D
100
AcDbEntity
  8
LW 5026-06-01
100
AcDbVertex
100
AcDb2dVertex
 10
-16.23223471641518
 20
-10.9377777576446
 30
0.0
  0
VERTEX
  5
61B1
330
619D
100
AcDbEntity
  8
LW 5026-06-01
100
AcDbVertex
100
AcDb2dVertex
 10
-16.02152276039101
 20
-11.15386009216303
 30
0.0
  0
VERTEX
  5
61B2
330
619D
100
AcDbEntity
  8
LW 5026-06-01
100
AcDbVertex
100
AcDb2dVertex
 10
-15.83830523490883
 20
-11.39756798744196
 30
0.0
  0
VERTEX
  5
61B3
330
619D
100
AcDbEntity
  8
LW 5026-06-01
100
AcDbVertex
100
AcDb2dVertex
 10
-15.6904225349424
 20
-11.6620504856109
 30
0.0
  0
VERTEX
  5
61B4
330
619D
100
AcDbEntity
  8
LW 5026-06-01
100
AcDbVertex
100
AcDb2dVertex
 10
-15.58434295654274
 20
-11.93999171257013
 30
0.0
  0
VERTEX
  5
61B5
330
619D
100
AcDbEntity
  8
LW 5026-06-01
100
AcDbVertex
100
AcDb2dVertex
 10
-15.52101302146889
 20
-12.22241878509516
 30
0.0
  0
VERTEX
  5
61B6
330
619D
100
AcDbEntity
  8
LW 5026-06-01
100
AcDbVertex
100
AcDb2dVertex
 10
-15.49999999999977
 20
-12.49999999999994
 30
0.0
  0
SEQEND
  5
61B7
330
619D
100
AcDbEntity
  8
LW 5026-06-01
  0
POLYLINE
  5
61B8
330
6140
100
AcDbEntity
  8
LW 5026-06-01
100
AcDb2dPolyline
 66
     1
 10
0.0
 20
0.0
 30
0.0
 70
   128
  0
VERTEX
  5
61B9
330
61B8
100
AcDbEntity
  8
LW 5026-06-01
100
AcDbVertex
100
AcDb2dVertex
 10
-15.49999999999977
 20
-12.49999999999994
 30
0.0
  0
VERTEX
  5
61BA
330
61B8
100
AcDbEntity
  8
LW 5026-06-01
100
AcDbVertex
100
AcDb2dVertex
 10
-15.52101302146889
 20
-12.77545213699335
 30
0.0
  0
VERTEX
  5
61BB
330
61B8
100
AcDbEntity
  8
LW 5026-06-01
100
AcDbVertex
100
AcDb2dVertex
 10
-15.58434295654274
 20
-13.05167794227594
 30
0.0
  0
VERTEX
  5
61BC
330
61B8
100
AcDbEntity
  8
LW 5026-06-01
100
AcDbVertex
100
AcDb2dVertex
 10
-15.6904225349424
 20
-13.31962585449213
 30
0.0
  0
VERTEX
  5
61BD
330
61B8
100
AcDbEntity
  8
LW 5026-06-01
100
AcDbVertex
100
AcDb2dVertex
 10
-15.83830523490883
 20
-13.5708856582641
 30
0.0
  0
VERTEX
  5
61BE
330
61B8
100
AcDbEntity
  8
LW 5026-06-01
100
AcDbVertex
100
AcDb2dVertex
 10
-16.02152276039101
 20
-13.79940271377558
 30
0.0
  0
VERTEX
  5
61BF
330
61B8
100
AcDbEntity
  8
LW 5026-06-01
100
AcDbVertex
100
AcDb2dVertex
 10
-16.23223471641518
 20
-13.99964332580561
 30
0.0
  0
VERTEX
  5
61C0
330
61B8
100
AcDbEntity
  8
LW 5026-06-01
100
AcDbVertex
100
AcDb2dVertex
 10
-16.4725999832151
 20
-14.17419910430902
 30
0.0
  0
VERTEX
  5
61C1
330
61B8
100
AcDbEntity
  8
LW 5026-06-01
100
AcDbVertex
100
AcDb2dVertex
 10
-16.74523878097511
 20
-14.32525992393488
 30
0.0
  0
VERTEX
  5
61C2
330
61B8
100
AcDbEntity
  8
LW 5026-06-01
100
AcDbVertex
100
AcDb2dVertex
 10
-17.04300212860085
 20
-14.44669842720026
 30
0.0
  0
VERTEX
  5
61C3
330
61B8
100
AcDbEntity
  8
LW 5026-06-01
100
AcDbVertex
100
AcDb2dVertex
 10
-17.3581688404081
 20
-14.53354954719538
 30
0.0
  0
VERTEX
  5
61C4
330
61B8
100
AcDbEntity
  8
LW 5026-06-01
100
AcDbVertex
100
AcDb2dVertex
 10
-17.68070745468117
 20
-14.58527922630304
 30
0.0
  0
VERTEX
  5
61C5
330
61B8
100
AcDbEntity
  8
LW 5026-06-01
100
AcDbVertex
100
AcDb2dVertex
 10
-17.99999999999977
 20
-14.6024060249328
 30
0.0
  0
VERTEX
  5
61C6
330
61B8
100
AcDbEntity
  8
LW 5026-06-01
100
AcDbVertex
100
AcDb2dVertex
 10
-18.31929254531837
 20
-14.58527922630304
 30
0.0
  0
VERTEX
  5
61C7
330
61B8
100
AcDbEntity
  8
LW 5026-06-01
100
AcDbVertex
100
AcDb2dVertex
 10
-18.64183115959145
 20
-14.53354954719538
 30
0.0
  0
VERTEX
  5
61C8
330
61B8
100
AcDbEntity
  8
LW 5026-06-01
100
AcDbVertex
100
AcDb2dVertex
 10
-18.9569978713987
 20
-14.44669842720026
 30
0.0
  0
VERTEX
  5
61C9
330
61B8
100
AcDbEntity
  8
LW 5026-06-01
100
AcDbVertex
100
AcDb2dVertex
 10
-19.25476121902443
 20
-14.32525992393488
 30
0.0
  0
VERTEX
  5
61CA
330
61B8
100
AcDbEntity
  8
LW 5026-06-01
100
AcDbVertex
100
AcDb2dVertex
 10
-19.52740001678444
 20
-14.17419910430902
 30
0.0
  0
VERTEX
  5
61CB
330
61B8
100
AcDbEntity
  8
LW 5026-06-01
100
AcDbVertex
100
AcDb2dVertex
 10
-19.76776528358437
 20
-13.99964332580561
 30
0.0
  0
VERTEX
  5
61CC
330
61B8
100
AcDbEntity
  8
LW 5026-06-01
100
AcDbVertex
100
AcDb2dVertex
 10
-19.97847723960854
 20
-13.79940271377558
 30
0.0
  0
VERTEX
  5
61CD
330
61B8
100
AcDbEntity
  8
LW 5026-06-01
100
AcDbVertex
100
AcDb2dVertex
 10
-20.16169476509071
 20
-13.5708856582641
 30
0.0
  0
VERTEX
  5
61CE
330
61B8
100
AcDbEntity
  8
LW 5026-06-01
100
AcDbVertex
100
AcDb2dVertex
 10
-20.30957746505714
 20
-13.31962585449213
 30
0.0
  0
VERTEX
  5
61CF
330
61B8
100
AcDbEntity
  8
LW 5026-06-01
100
AcDbVertex
100
AcDb2dVertex
 10
-20.4156570434568
 20
-13.05167794227594
 30
0.0
  0
VERTEX
  5
61D0
330
61B8
100
AcDbEntity
  8
LW 5026-06-01
100
AcDbVertex
100
AcDb2dVertex
 10
-20.47898697853065
 20
-12.77545213699335
 30
0.0
  0
VERTEX
  5
61D1
330
61B8
100
AcDbEntity
  8
LW 5026-06-01
100
AcDbVertex
100
AcDb2dVertex
 10
-20.49999999999977
 20
-12.49999999999994
 30
0.0
  0
SEQEND
  5
61D2
330
61B8
100
AcDbEntity
  8
LW 5026-06-01
  0
POLYLINE
  5
61D3
330
6140
100
AcDbEntity
  8
LW 5026-06-01
100
AcDb2dPolyline
 66
     1
 10
0.0
 20
0.0
 30
0.0
 70
   128
  0
VERTEX
  5
61D4
330
61D3
100
AcDbEntity
  8
LW 5026-06-01
100
AcDbVertex
100
AcDb2dVertex
 10
-15.49999999999977
 20
25.00000000000011
 30
0.0
  0
VERTEX
  5
61D5
330
61D3
100
AcDbEntity
  8
LW 5026-06-01
100
AcDbVertex
100
AcDb2dVertex
 10
-15.52101302146889
 20
24.99787092208874
 30
0.0
  0
VERTEX
  5
61D6
330
61D3
100
AcDbEntity
  8
LW 5026-06-01
100
AcDbVertex
100
AcDb2dVertex
 10
-15.58434295654274
 20
24.99166965484631
 30
0.0
  0
VERTEX
  5
61D7
330
61D3
100
AcDbEntity
  8
LW 5026-06-01
100
AcDbVertex
100
AcDb2dVertex
 10
-15.6904225349424
 20
24.98167514801037
 30
0.0
  0
VERTEX
  5
61D8
330
61D3
100
AcDbEntity
  8
LW 5026-06-01
100
AcDbVertex
100
AcDb2dVertex
 10
-15.83830523490883
 20
24.96845483779919
 30
0.0
  0
VERTEX
  5
61D9
330
61D3
100
AcDbEntity
  8
LW 5026-06-01
100
AcDbVertex
100
AcDb2dVertex
 10
-16.02152276039101
 20
24.95326280593884
 30
0.0
  0
VERTEX
  5
61DA
330
61D3
100
AcDbEntity
  8
LW 5026-06-01
100
AcDbVertex
100
AcDb2dVertex
 10
-16.23223471641518
 20
24.93742227554333
 30
0.0
  0
VERTEX
  5
61DB
330
61D3
100
AcDbEntity
  8
LW 5026-06-01
100
AcDbVertex
100
AcDb2dVertex
 10
-16.4725999832151
 20
24.92156982421886
 30
0.0
  0
VERTEX
  5
61DC
330
61D3
100
AcDbEntity
  8
LW 5026-06-01
100
AcDbVertex
100
AcDb2dVertex
 10
-16.74523878097511
 20
24.90634918212902
 30
0.0
  0
VERTEX
  5
61DD
330
61D3
100
AcDbEntity
  8
LW 5026-06-01
100
AcDbVertex
100
AcDb2dVertex
 10
-17.04300212860085
 20
24.89308834075939
 30
0.0
  0
VERTEX
  5
61DE
330
61D3
100
AcDbEntity
  8
LW 5026-06-01
100
AcDbVertex
100
AcDb2dVertex
 10
-17.3581688404081
 20
24.8830556869508
 30
0.0
  0
VERTEX
  5
61DF
330
61D3
100
AcDbEntity
  8
LW 5026-06-01
100
AcDbVertex
100
AcDb2dVertex
 10
-17.68070745468117
 20
24.87682580947887
 30
0.0
  0
VERTEX
  5
61E0
330
61D3
100
AcDbEntity
  8
LW 5026-06-01
100
AcDbVertex
100
AcDb2dVertex
 10
-17.99999999999977
 20
24.87468481063854
 30
0.0
  0
VERTEX
  5
61E1
330
61D3
100
AcDbEntity
  8
LW 5026-06-01
100
AcDbVertex
100
AcDb2dVertex
 10
-18.31929254531837
 20
24.87682580947887
 30
0.0
  0
VERTEX
  5
61E2
330
61D3
100
AcDbEntity
  8
LW 5026-06-01
100
AcDbVertex
100
AcDb2dVertex
 10
-18.64183115959145
 20
24.8830556869508
 30
0.0
  0
VERTEX
  5
61E3
330
61D3
100
AcDbEntity
  8
LW 5026-06-01
100
AcDbVertex
100
AcDb2dVertex
 10
-18.9569978713987
 20
24.89308834075939
 30
0.0
  0
VERTEX
  5
61E4
330
61D3
100
AcDbEntity
  8
LW 5026-06-01
100
AcDbVertex
100
AcDb2dVertex
 10
-19.25476121902443
 20
24.90634918212902
 30
0.0
  0
VERTEX
  5
61E5
330
61D3
100
AcDbEntity
  8
LW 5026-06-01
100
AcDbVertex
100
AcDb2dVertex
 10
-19.52740001678444
 20
24.92156982421886
 30
0.0
  0
VERTEX
  5
61E6
330
61D3
100
AcDbEntity
  8
LW 5026-06-01
100
AcDbVertex
100
AcDb2dVertex
 10
-19.76776528358437
 20
24.93742227554333
 30
0.0
  0
VERTEX
  5
61E7
330
61D3
100
AcDbEntity
  8
LW 5026-06-01
100
AcDbVertex
100
AcDb2dVertex
 10
-19.97847723960854
 20
24.95326280593884
 30
0.0
  0
VERTEX
  5
61E8
330
61D3
100
AcDbEntity
  8
LW 5026-06-01
100
AcDbVertex
100
AcDb2dVertex
 10
-20.16169476509071
 20
24.96845483779919
 30
0.0
  0
VERTEX
  5
61E9
330
61D3
100
AcDbEntity
  8
LW 5026-06-01
100
AcDbVertex
100
AcDb2dVertex
 10
-20.30957746505714
 20
24.98167514801037
 30
0.0
  0
VERTEX
  5
61EA
330
61D3
100
AcDbEntity
  8
LW 5026-06-01
100
AcDbVertex
100
AcDb2dVertex
 10
-20.4156570434568
 20
24.99166965484631
 30
0.0
  0
VERTEX
  5
61EB
330
61D3
100
AcDbEntity
  8
LW 5026-06-01
100
AcDbVertex
100
AcDb2dVertex
 10
-20.47898697853065
 20
24.99787092208874
 30
0.0
  0
VERTEX
  5
61EC
330
61D3
100
AcDbEntity
  8
LW 5026-06-01
100
AcDbVertex
100
AcDb2dVertex
 10
-20.49999999999977
 20
25.00000000000011
 30
0.0
  0
SEQEND
  5
61ED
330
61D3
100
AcDbEntity
  8
LW 5026-06-01
  0
LINE
  5
61EE
330
6140
100
AcDbEntity
  8
LW 5026-06-01
100
AcDbLine
 10
-21.99999999999977
 20
25.00000000000011
 30
0.0
 11
-21.99999999999977
 21
-24.99999999999995
 31
0.0
  0
LINE
  5
61EF
330
6140
100
AcDbEntity
  8
LW 5026-06-01
100
AcDbLine
 10
-27.99999999999978
 20
19.00000000000005
 30
0.0
 11
-27.99999999999978
 21
-18.99999999999989
 31
0.0
  0
LINE
  5
61F0
330
6140
100
AcDbEntity
  8
LW 5026-06-01
100
AcDbLine
 10
-122.0
 20
10.00000000000011
 30
0.0
 11
-122.0
 21
-9.999999999999943
 31
0.0
  0
LINE
  5
61F1
330
6140
100
AcDbEntity
  8
LW 5026-06-01
100
AcDbLine
 10
-123.0
 20
9.000000000000113
 30
0.0
 11
-123.0
 21
-8.999999999999943
 31
0.0
  0
LINE
  5
61F2
330
6140
100
AcDbEntity
  8
LW 5026-06-01
100
AcDbLine
 10
-2.999999999999772
 20
-24.99999999999995
 30
0.0
 11
-21.99999999999977
 21
-24.99999999999995
 31
0.0
  0
LINE
  5
61F3
330
6140
100
AcDbEntity
  8
LW 5026-06-01
100
AcDbLine
 10
-2.999999999999772
 20
25.00000000000011
 30
0.0
 11
-15.49999999999977
 21
25.00000000000011
 31
0.0
  0
LINE
  5
61F4
330
6140
100
AcDbEntity
  8
LW 5026-06-01
100
AcDbLine
 10
-20.49999999999977
 20
25.00000000000011
 30
0.0
 11
-21.99999999999977
 21
25.00000000000011
 31
0.0
  0
LINE
  5
61F5
330
6140
100
AcDbEntity
  8
LW 5026-06-01
100
AcDbLine
 10
-27.99999999999978
 20
19.00000000000005
 30
0.0
 11
-21.99999999999977
 21
25.00000000000011
 31
0.0
  0
LINE
  5
61F6
330
6140
100
AcDbEntity
  8
LW 5026-06-01
100
AcDbLine
 10
-27.99999999999978
 20
-18.99999999999989
 30
0.0
 11
-21.99999999999977
 21
-24.99999999999995
 31
0.0
  0
ARC
  5
61F7
330
6140
100
AcDbEntity
  8
LW 5026-06-01
100
AcDbCircle
 10
-29.0
 20
11.00000000000011
 30
0.0
 40
1.000000000000002
100
AcDbArc
 50
270.0
 51
0.0
  0
ARC
  5
61F8
330
6140
100
AcDbEntity
  8
LW 5026-06-01
100
AcDbCircle
 10
-29.0
 20
-10.99999999999994
 30
0.0
 40
1.000000000000002
100
AcDbArc
 50
0.0
 51
90.0
  0
LINE
  5
61F9
330
6140
100
AcDbEntity
  8
LW 5026-06-01
100
AcDbLine
 10
-29.0
 20
-9.999999999999943
 30
0.0
 11
-70.83558024260241
 21
-9.999999999999943
 31
0.0
  0
LINE
  5
61FA
330
6140
100
AcDbEntity
  8
LW 5026-06-01
100
AcDbLine
 10
-105.1644197573973
 20
-9.999999999999943
 30
0.0
 11
-122.0
 21
-9.999999999999943
 31
0.0
  0
LINE
  5
61FB
330
6140
100
AcDbEntity
  8
LW 5026-06-01
100
AcDbLine
 10
-29.0
 20
10.00000000000011
 30
0.0
 11
-70.83558024260241
 21
10.00000000000011
 31
0.0
  0
LINE
  5
61FC
330
6140
100
AcDbEntity
  8
LW 5026-06-01
100
AcDbLine
 10
-105.1644197573971
 20
10.00000000000011
 30
0.0
 11
-122.0
 21
10.00000000000011
 31
0.0
  0
LINE
  5
61FD
330
6140
100
AcDbEntity
  8
LW 5026-06-01
100
AcDbLine
 10
-123.0
 20
9.000000000000056
 30
0.0
 11
-122.0
 21
10.00000000000011
 31
0.0
  0
LINE
  5
61FE
330
6140
100
AcDbEntity
  8
LW 5026-06-01
100
AcDbLine
 10
-123.0
 20
-8.999999999999943
 30
0.0
 11
-122.0
 21
-9.999999999999943
 31
0.0
  0
POLYLINE
  5
61FF
330
6140
100
AcDbEntity
  8
LW 5026-06-01
100
AcDb2dPolyline
 66
     1
 10
0.0
 20
0.0
 30
0.0
 70
   128
  0
VERTEX
  5
6200
330
61FF
100
AcDbEntity
  8
LW 5026-06-01
100
AcDbVertex
100
AcDb2dVertex
 10
-70.61466145515419
 20
-10.1000022888183
 30
0.0
  0
VERTEX
  5
6201
330
61FF
100
AcDbEntity
  8
LW 5026-06-01
100
AcDbVertex
100
AcDb2dVertex
 10
-70.70413041114784
 20
-10.07736206054682
 30
0.0
  0
VERTEX
  5
6202
330
61FF
100
AcDbEntity
  8
LW 5026-06-01
100
AcDbVertex
100
AcDb2dVertex
 10
-70.82033085823036
 20
-10.00996589660639
 30
0.0
  0
VERTEX
  5
6203
330
61FF
100
AcDbEntity
  8
LW 5026-06-01
100
AcDbVertex
100
AcDb2dVertex
 10
-70.96185731887795
 20
-9.898595809936466
 30
0.0
  0
VERTEX
  5
6204
330
61FF
100
AcDbEntity
  8
LW 5026-06-01
100
AcDbVertex
100
AcDb2dVertex
 10
-71.127301931381
 20
-9.744029045104923
 30
0.0
  0
VERTEX
  5
6205
330
61FF
100
AcDbEntity
  8
LW 5026-06-01
100
AcDbVertex
100
AcDb2dVertex
 10
-71.31525921821571
 20
-9.547052383422794
 30
0.0
  0
VERTEX
  5
6206
330
61FF
100
AcDbEntity
  8
LW 5026-06-01
100
AcDbVertex
100
AcDb2dVertex
 10
-71.5243213176725
 20
-9.308433532714786
 30
0.0
  0
VERTEX
  5
6207
330
61FF
100
AcDbEntity
  8
LW 5026-06-01
100
AcDbVertex
100
AcDb2dVertex
 10
-71.75239968299843
 20
-9.029560089111271
 30
0.0
  0
VERTEX
  5
6208
330
61FF
100
AcDbEntity
  8
LW 5026-06-01
100
AcDbVertex
100
AcDb2dVertex
 10
-71.99558186531044
 20
-8.71396064758295
 30
0.0
  0
VERTEX
  5
6209
330
61FF
100
AcDbEntity
  8
LW 5026-06-01
100
AcDbVertex
100
AcDb2dVertex
 10
-72.24983859062172
 20
-8.365621566772404
 30
0.0
  0
VERTEX
  5
620A
330
61FF
100
AcDbEntity
  8
LW 5026-06-01
100
AcDbVertex
100
AcDb2dVertex
 10
-72.51114296913124
 20
-7.988529205322208
 30
0.0
  0
VERTEX
  5
620B
330
61FF
100
AcDbEntity
  8
LW 5026-06-01
100
AcDbVertex
100
AcDb2dVertex
 10
-72.77546930313087
 20
-7.586660385131779
 30
0.0
  0
VERTEX
  5
620C
330
61FF
100
AcDbEntity
  8
LW 5026-06-01
100
AcDbVertex
100
AcDb2dVertex
 10
-73.0387907028196
 20
-7.164006233215275
 30
0.0
  0
VERTEX
  5
620D
330
61FF
100
AcDbEntity
  8
LW 5026-06-01
100
AcDbVertex
100
AcDb2dVertex
 10
-73.30210256576515
 20
-6.716151237487736
 30
0.0
  0
VERTEX
  5
620E
330
61FF
100
AcDbEntity
  8
LW 5026-06-01
100
AcDbVertex
100
AcDb2dVertex
 10
-73.56862115859962
 20
-6.232929229736271
 30
0.0
  0
VERTEX
  5
620F
330
61FF
100
AcDbEntity
  8
LW 5026-06-01
100
AcDbVertex
100
AcDb2dVertex
 10
-73.83308696746803
 20
-5.716900825500431
 30
0.0
  0
VERTEX
  5
6210
330
61FF
100
AcDbEntity
  8
LW 5026-06-01
100
AcDbVertex
100
AcDb2dVertex
 10
-74.0901319980619
 20
-5.170793533325138
 30
0.0
  0
VERTEX
  5
6211
330
61FF
100
AcDbEntity
  8
LW 5026-06-01
100
AcDbVertex
100
AcDb2dVertex
 10
-74.33438706397987
 20
-4.597344398498478
 30
0.0
  0
VERTEX
  5
6212
330
61FF
100
AcDbEntity
  8
LW 5026-06-01
100
AcDbVertex
100
AcDb2dVertex
 10
-74.56048536300636
 20
-3.999280929565372
 30
0.0
  0
VERTEX
  5
6213
330
61FF
100
AcDbEntity
  8
LW 5026-06-01
100
AcDbVertex
100
AcDb2dVertex
 10
-74.7629277706144
 20
-3.379426002502384
 30
0.0
  0
VERTEX
  5
6214
330
61FF
100
AcDbEntity
  8
LW 5026-06-01
100
AcDbVertex
100
AcDb2dVertex
 10
-74.93658947944618
 20
-2.74159908294672
 30
0.0
  0
VERTEX
  5
6215
330
61FF
100
AcDbEntity
  8
LW 5026-06-01
100
AcDbVertex
100
AcDb2dVertex
 10
-75.07674741744972
 20
-2.090067863464298
 30
0.0
  0
VERTEX
  5
6216
330
61FF
100
AcDbEntity
  8
LW 5026-06-01
100
AcDbVertex
100
AcDb2dVertex
 10
-75.17899799346901
 20
-1.429209709167423
 30
0.0
  0
VERTEX
  5
6217
330
61FF
100
AcDbEntity
  8
LW 5026-06-01
100
AcDbVertex
100
AcDb2dVertex
 10
-75.24124193191505
 20
-0.7640886306762127
 30
0.0
  0
VERTEX
  5
6218
330
61FF
100
AcDbEntity
  8
LW 5026-06-01
100
AcDbVertex
100
AcDb2dVertex
 10
-75.26226091384865
 20
-0.1000022888183025
 30
0.0
  0
SEQEND
  5
6219
330
61FF
100
AcDbEntity
  8
LW 5026-06-01
  0
POLYLINE
  5
621A
330
6140
100
AcDbEntity
  8
LW 5026-06-01
100
AcDb2dPolyline
 66
     1
 10
0.0
 20
0.0
 30
0.0
 70
   128
  0
VERTEX
  5
621B
330
621A
100
AcDbEntity
  8
LW 5026-06-01
100
AcDbVertex
100
AcDb2dVertex
 10
-100.7377390861509
 20
-0.1000022888183025
 30
0.0
  0
VERTEX
  5
621C
330
621A
100
AcDbEntity
  8
LW 5026-06-01
100
AcDbVertex
100
AcDb2dVertex
 10
-100.7587580680845
 20
-0.7640886306762127
 30
0.0
  0
VERTEX
  5
621D
330
621A
100
AcDbEntity
  8
LW 5026-06-01
100
AcDbVertex
100
AcDb2dVertex
 10
-100.8210020065305
 20
-1.429209709167423
 30
0.0
  0
VERTEX
  5
621E
330
621A
100
AcDbEntity
  8
LW 5026-06-01
100
AcDbVertex
100
AcDb2dVertex
 10
-100.9232525825498
 20
-2.090067863464298
 30
0.0
  0
VERTEX
  5
621F
330
621A
100
AcDbEntity
  8
LW 5026-06-01
100
AcDbVertex
100
AcDb2dVertex
 10
-101.0634105205533
 20
-2.74159908294672
 30
0.0
  0
VERTEX
  5
6220
330
621A
100
AcDbEntity
  8
LW 5026-06-01
100
AcDbVertex
100
AcDb2dVertex
 10
-101.2370722293851
 20
-3.379426002502384
 30
0.0
  0
VERTEX
  5
6221
330
621A
100
AcDbEntity
  8
LW 5026-06-01
100
AcDbVertex
100
AcDb2dVertex
 10
-101.4395146369932
 20
-3.999280929565372
 30
0.0
  0
VERTEX
  5
6222
330
621A
100
AcDbEntity
  8
LW 5026-06-01
100
AcDbVertex
100
AcDb2dVertex
 10
-101.6656129360197
 20
-4.597344398498478
 30
0.0
  0
VERTEX
  5
6223
330
621A
100
AcDbEntity
  8
LW 5026-06-01
100
AcDbVertex
100
AcDb2dVertex
 10
-101.9098680019376
 20
-5.170793533325138
 30
0.0
  0
VERTEX
  5
6224
330
621A
100
AcDbEntity
  8
LW 5026-06-01
100
AcDbVertex
100
AcDb2dVertex
 10
-102.1669130325315
 20
-5.716900825500431
 30
0.0
  0
VERTEX
  5
6225
330
621A
100
AcDbEntity
  8
LW 5026-06-01
100
AcDbVertex
100
AcDb2dVertex
 10
-102.4313788413999
 20
-6.232929229736271
 30
0.0
  0
VERTEX
  5
6226
330
621A
100
AcDbEntity
  8
LW 5026-06-01
100
AcDbVertex
100
AcDb2dVertex
 10
-102.6978974342344
 20
-6.716151237487736
 30
0.0
  0
VERTEX
  5
6227
330
621A
100
AcDbEntity
  8
LW 5026-06-01
100
AcDbVertex
100
AcDb2dVertex
 10
-102.9612092971799
 20
-7.164006233215275
 30
0.0
  0
VERTEX
  5
6228
330
621A
100
AcDbEntity
  8
LW 5026-06-01
100
AcDbVertex
100
AcDb2dVertex
 10
-103.2245306968686
 20
-7.586660385131779
 30
0.0
  0
VERTEX
  5
6229
330
621A
100
AcDbEntity
  8
LW 5026-06-01
100
AcDbVertex
100
AcDb2dVertex
 10
-103.4888570308683
 20
-7.988529205322208
 30
0.0
  0
VERTEX
  5
622A
330
621A
100
AcDbEntity
  8
LW 5026-06-01
100
AcDbVertex
100
AcDb2dVertex
 10
-103.7501614093778
 20
-8.365621566772404
 30
0.0
  0
VERTEX
  5
622B
330
621A
100
AcDbEntity
  8
LW 5026-06-01
100
AcDbVertex
100
AcDb2dVertex
 10
-104.0044181346891
 20
-8.71396064758295
 30
0.0
  0
VERTEX
  5
622C
330
621A
100
AcDbEntity
  8
LW 5026-06-01
100
AcDbVertex
100
AcDb2dVertex
 10
-104.2476003170011
 20
-9.029560089111271
 30
0.0
  0
VERTEX
  5
622D
330
621A
100
AcDbEntity
  8
LW 5026-06-01
100
AcDbVertex
100
AcDb2dVertex
 10
-104.475678682327
 20
-9.308433532714786
 30
0.0
  0
VERTEX
  5
622E
330
621A
100
AcDbEntity
  8
LW 5026-06-01
100
AcDbVertex
100
AcDb2dVertex
 10
-104.6847407817838
 20
-9.547052383422794
 30
0.0
  0
VERTEX
  5
622F
330
621A
100
AcDbEntity
  8
LW 5026-06-01
100
AcDbVertex
100
AcDb2dVertex
 10
-104.8726980686185
 20
-9.744029045104923
 30
0.0
  0
VERTEX
  5
6230
330
621A
100
AcDbEntity
  8
LW 5026-06-01
100
AcDbVertex
100
AcDb2dVertex
 10
-105.0381426811216
 20
-9.898595809936466
 30
0.0
  0
VERTEX
  5
6231
330
621A
100
AcDbEntity
  8
LW 5026-06-01
100
AcDbVertex
100
AcDb2dVertex
 10
-105.1796691417692
 20
-10.00996589660639
 30
0.0
  0
VERTEX
  5
6232
330
621A
100
AcDbEntity
  8
LW 5026-06-01
100
AcDbVertex
100
AcDb2dVertex
 10
-105.2958695888517
 20
-10.07736206054682
 30
0.0
  0
VERTEX
  5
6233
330
621A
100
AcDbEntity
  8
LW 5026-06-01
100
AcDbVertex
100
AcDb2dVertex
 10
-105.3853385448453
 20
-10.1000022888183
 30
0.0
  0
SEQEND
  5
6234
330
621A
100
AcDbEntity
  8
LW 5026-06-01
  0
LINE
  5
6235
330
6140
100
AcDbEntity
  8
LW 5026-06-01
100
AcDbLine
 10
-75.26226079714274
 20
-0.0999999999999659
 30
0.0
 11
-75.26226079714274
 21
0.1000000000000796
 31
0.0
  0
POLYLINE
  5
6236
330
6140
100
AcDbEntity
  8
LW 5026-06-01
100
AcDb2dPolyline
 66
     1
 10
0.0
 20
0.0
 30
0.0
 70
   128
  0
VERTEX
  5
6237
330
6236
100
AcDbEntity
  8
LW 5026-06-01
100
AcDbVertex
100
AcDb2dVertex
 10
-105.3853385448453
 20
10.10000228881847
 30
0.0
  0
VERTEX
  5
6238
330
6236
100
AcDbEntity
  8
LW 5026-06-01
100
AcDbVertex
100
AcDb2dVertex
 10
-105.2958695888517
 20
10.07736206054699
 30
0.0
  0
VERTEX
  5
6239
330
6236
100
AcDbEntity
  8
LW 5026-06-01
100
AcDbVertex
100
AcDb2dVertex
 10
-105.1796691417692
 20
10.00996589660656
 30
0.0
  0
VERTEX
  5
623A
330
6236
100
AcDbEntity
  8
LW 5026-06-01
100
AcDbVertex
100
AcDb2dVertex
 10
-105.0381426811216
 20
9.898595809936637
 30
0.0
  0
VERTEX
  5
623B
330
6236
100
AcDbEntity
  8
LW 5026-06-01
100
AcDbVertex
100
AcDb2dVertex
 10
-104.8726980686185
 20
9.744029045105094
 30
0.0
  0
VERTEX
  5
623C
330
6236
100
AcDbEntity
  8
LW 5026-06-01
100
AcDbVertex
100
AcDb2dVertex
 10
-104.6847407817838
 20
9.547052383422965
 30
0.0
  0
VERTEX
  5
623D
330
6236
100
AcDbEntity
  8
LW 5026-06-01
100
AcDbVertex
100
AcDb2dVertex
 10
-104.475678682327
 20
9.308433532714957
 30
0.0
  0
VERTEX
  5
623E
330
6236
100
AcDbEntity
  8
LW 5026-06-01
100
AcDbVertex
100
AcDb2dVertex
 10
-104.2476003170011
 20
9.029560089111441
 30
0.0
  0
VERTEX
  5
623F
330
6236
100
AcDbEntity
  8
LW 5026-06-01
100
AcDbVertex
100
AcDb2dVertex
 10
-104.0044181346891
 20
8.713960647583121
 30
0.0
  0
VERTEX
  5
6240
330
6236
100
AcDbEntity
  8
LW 5026-06-01
100
AcDbVertex
100
AcDb2dVertex
 10
-103.7501614093778
 20
8.365621566772574
 30
0.0
  0
VERTEX
  5
6241
330
6236
100
AcDbEntity
  8
LW 5026-06-01
100
AcDbVertex
100
AcDb2dVertex
 10
-103.4888570308683
 20
7.988529205322379
 30
0.0
  0
VERTEX
  5
6242
330
6236
100
AcDbEntity
  8
LW 5026-06-01
100
AcDbVertex
100
AcDb2dVertex
 10
-103.2245306968686
 20
7.586660385131949
 30
0.0
  0
VERTEX
  5
6243
330
6236
100
AcDbEntity
  8
LW 5026-06-01
100
AcDbVertex
100
AcDb2dVertex
 10
-102.9612092971799
 20
7.164006233215445
 30
0.0
  0
VERTEX
  5
6244
330
6236
100
AcDbEntity
  8
LW 5026-06-01
100
AcDbVertex
100
AcDb2dVertex
 10
-102.6978974342344
 20
6.716151237487906
 30
0.0
  0
VERTEX
  5
6245
330
6236
100
AcDbEntity
  8
LW 5026-06-01
100
AcDbVertex
100
AcDb2dVertex
 10
-102.4313788413999
 20
6.232929229736441
 30
0.0
  0
VERTEX
  5
6246
330
6236
100
AcDbEntity
  8
LW 5026-06-01
100
AcDbVertex
100
AcDb2dVertex
 10
-102.1669130325315
 20
5.716900825500601
 30
0.0
  0
VERTEX
  5
6247
330
6236
100
AcDbEntity
  8
LW 5026-06-01
100
AcDbVertex
100
AcDb2dVertex
 10
-101.9098680019376
 20
5.170793533325308
 30
0.0
  0
VERTEX
  5
6248
330
6236
100
AcDbEntity
  8
LW 5026-06-01
100
AcDbVertex
100
AcDb2dVertex
 10
-101.6656129360197
 20
4.597344398498648
 30
0.0
  0
VERTEX
  5
6249
330
6236
100
AcDbEntity
  8
LW 5026-06-01
100
AcDbVertex
100
AcDb2dVertex
 10
-101.4395146369932
 20
3.999280929565543
 30
0.0
  0
VERTEX
  5
624A
330
6236
100
AcDbEntity
  8
LW 5026-06-01
100
AcDbVertex
100
AcDb2dVertex
 10
-101.2370722293851
 20
3.379426002502555
 30
0.0
  0
VERTEX
  5
624B
330
6236
100
AcDbEntity
  8
LW 5026-06-01
100
AcDbVertex
100
AcDb2dVertex
 10
-101.0634105205533
 20
2.741599082946891
 30
0.0
  0
VERTEX
  5
624C
330
6236
100
AcDbEntity
  8
LW 5026-06-01
100
AcDbVertex
100
AcDb2dVertex
 10
-100.9232525825498
 20
2.090067863464469
 30
0.0
  0
VERTEX
  5
624D
330
6236
100
AcDbEntity
  8
LW 5026-06-01
100
AcDbVertex
100
AcDb2dVertex
 10
-100.8210020065305
 20
1.429209709167594
 30
0.0
  0
VERTEX
  5
624E
330
6236
100
AcDbEntity
  8
LW 5026-06-01
100
AcDbVertex
100
AcDb2dVertex
 10
-100.7587580680845
 20
0.7640886306763264
 30
0.0
  0
VERTEX
  5
624F
330
6236
100
AcDbEntity
  8
LW 5026-06-01
100
AcDbVertex
100
AcDb2dVertex
 10
-100.7377390861509
 20
0.1000022888184162
 30
0.0
  0
SEQEND
  5
6250
330
6236
100
AcDbEntity
  8
LW 5026-06-01
  0
POLYLINE
  5
6251
330
6140
100
AcDbEntity
  8
LW 5026-06-01
100
AcDb2dPolyline
 66
     1
 10
0.0
 20
0.0
 30
0.0
 70
   128
  0
VERTEX
  5
6252
330
6251
100
AcDbEntity
  8
LW 5026-06-01
100
AcDbVertex
100
AcDb2dVertex
 10
-75.26226091384865
 20
0.1000022888184162
 30
0.0
  0
VERTEX
  5
6253
330
6251
100
AcDbEntity
  8
LW 5026-06-01
100
AcDbVertex
100
AcDb2dVertex
 10
-75.24124193191505
 20
0.7640886306763264
 30
0.0
  0
VERTEX
  5
6254
330
6251
100
AcDbEntity
  8
LW 5026-06-01
100
AcDbVertex
100
AcDb2dVertex
 10
-75.17899799346901
 20
1.429209709167594
 30
0.0
  0
VERTEX
  5
6255
330
6251
100
AcDbEntity
  8
LW 5026-06-01
100
AcDbVertex
100
AcDb2dVertex
 10
-75.07674741744972
 20
2.090067863464469
 30
0.0
  0
VERTEX
  5
6256
330
6251
100
AcDbEntity
  8
LW 5026-06-01
100
AcDbVertex
100
AcDb2dVertex
 10
-74.93658947944618
 20
2.741599082946891
 30
0.0
  0
VERTEX
  5
6257
330
6251
100
AcDbEntity
  8
LW 5026-06-01
100
AcDbVertex
100
AcDb2dVertex
 10
-74.7629277706144
 20
3.379426002502555
 30
0.0
  0
VERTEX
  5
6258
330
6251
100
AcDbEntity
  8
LW 5026-06-01
100
AcDbVertex
100
AcDb2dVertex
 10
-74.56048536300636
 20
3.999280929565543
 30
0.0
  0
VERTEX
  5
6259
330
6251
100
AcDbEntity
  8
LW 5026-06-01
100
AcDbVertex
100
AcDb2dVertex
 10
-74.33438706397987
 20
4.597344398498648
 30
0.0
  0
VERTEX
  5
625A
330
6251
100
AcDbEntity
  8
LW 5026-06-01
100
AcDbVertex
100
AcDb2dVertex
 10
-74.0901319980619
 20
5.170793533325308
 30
0.0
  0
VERTEX
  5
625B
330
6251
100
AcDbEntity
  8
LW 5026-06-01
100
AcDbVertex
100
AcDb2dVertex
 10
-73.83308696746803
 20
5.716900825500601
 30
0.0
  0
VERTEX
  5
625C
330
6251
100
AcDbEntity
  8
LW 5026-06-01
100
AcDbVertex
100
AcDb2dVertex
 10
-73.56862115859962
 20
6.232929229736441
 30
0.0
  0
VERTEX
  5
625D
330
6251
100
AcDbEntity
  8
LW 5026-06-01
100
AcDbVertex
100
AcDb2dVertex
 10
-73.30210256576515
 20
6.716151237487906
 30
0.0
  0
VERTEX
  5
625E
330
6251
100
AcDbEntity
  8
LW 5026-06-01
100
AcDbVertex
100
AcDb2dVertex
 10
-73.0387907028196
 20
7.164006233215445
 30
0.0
  0
VERTEX
  5
625F
330
6251
100
AcDbEntity
  8
LW 5026-06-01
100
AcDbVertex
100
AcDb2dVertex
 10
-72.77546930313087
 20
7.586660385131949
 30
0.0
  0
VERTEX
  5
6260
330
6251
100
AcDbEntity
  8
LW 5026-06-01
100
AcDbVertex
100
AcDb2dVertex
 10
-72.51114296913124
 20
7.988529205322379
 30
0.0
  0
VERTEX
  5
6261
330
6251
100
AcDbEntity
  8
LW 5026-06-01
100
AcDbVertex
100
AcDb2dVertex
 10
-72.24983859062172
 20
8.365621566772574
 30
0.0
  0
VERTEX
  5
6262
330
6251
100
AcDbEntity
  8
LW 5026-06-01
100
AcDbVertex
100
AcDb2dVertex
 10
-71.99558186531044
 20
8.713960647583121
 30
0.0
  0
VERTEX
  5
6263
330
6251
100
AcDbEntity
  8
LW 5026-06-01
100
AcDbVertex
100
AcDb2dVertex
 10
-71.75239968299843
 20
9.029560089111441
 30
0.0
  0
VERTEX
  5
6264
330
6251
100
AcDbEntity
  8
LW 5026-06-01
100
AcDbVertex
100
AcDb2dVertex
 10
-71.5243213176725
 20
9.308433532714957
 30
0.0
  0
VERTEX
  5
6265
330
6251
100
AcDbEntity
  8
LW 5026-06-01
100
AcDbVertex
100
AcDb2dVertex
 10
-71.31525921821571
 20
9.547052383422965
 30
0.0
  0
VERTEX
  5
6266
330
6251
100
AcDbEntity
  8
LW 5026-06-01
100
AcDbVertex
100
AcDb2dVertex
 10
-71.127301931381
 20
9.744029045105094
 30
0.0
  0
VERTEX
  5
6267
330
6251
100
AcDbEntity
  8
LW 5026-06-01
100
AcDbVertex
100
AcDb2dVertex
 10
-70.96185731887795
 20
9.898595809936637
 30
0.0
  0
VERTEX
  5
6268
330
6251
100
AcDbEntity
  8
LW 5026-06-01
100
AcDbVertex
100
AcDb2dVertex
 10
-70.82033085823036
 20
10.00996589660656
 30
0.0
  0
VERTEX
  5
6269
330
6251
100
AcDbEntity
  8
LW 5026-06-01
100
AcDbVertex
100
AcDb2dVertex
 10
-70.70413041114784
 20
10.07736206054699
 30
0.0
  0
VERTEX
  5
626A
330
6251
100
AcDbEntity
  8
LW 5026-06-01
100
AcDbVertex
100
AcDb2dVertex
 10
-70.61466145515419
 20
10.10000228881847
 30
0.0
  0
SEQEND
  5
626B
330
6251
100
AcDbEntity
  8
LW 5026-06-01
  0
LINE
  5
626C
330
6140
100
AcDbEntity
  8
LW 5026-06-01
100
AcDbLine
 10
-100.7377392028568
 20
0.1000000000000796
 30
0.0
 11
-100.7377392028568
 21
-0.0999999999999659
 31
0.0
  0
LINE
  5
626D
330
6140
100
AcDbEntity
  8
LW 5026-06-01
100
AcDbLine
 10
-70.61466134928605
 20
-10.09999999999996
 30
0.0
 11
-70.49999999999977
 21
-10.09999999999996
 31
0.0
  0
LINE
  5
626E
330
6140
100
AcDbEntity
  8
LW 5026-06-01
100
AcDbLine
 10
-105.4999999999997
 20
-10.09999999999996
 30
0.0
 11
-105.3853386507135
 21
-10.09999999999996
 31
0.0
  0
LINE
  5
626F
330
6140
100
AcDbEntity
  8
LW 5026-06-01
100
AcDbLine
 10
-70.49999999999977
 20
10.10000000000008
 30
0.0
 11
-70.61466134928605
 21
10.10000000000008
 31
0.0
  0
LINE
  5
6270
330
6140
100
AcDbEntity
  8
LW 5026-06-01
100
AcDbLine
 10
-105.3853386507135
 20
10.10000000000008
 30
0.0
 11
-105.4999999999997
 21
10.10000000000008
 31
0.0
  0
LINE
  5
6271
330
6140
100
AcDbEntity
  8
LW 5026-06-01
100
AcDbLine
 10
-105.4999999999997
 20
60.87500000000005
 30
0.0
 11
-70.49999999999977
 21
60.87500000000005
 31
0.0
  0
LINE
  5
6272
330
6140
100
AcDbEntity
  8
LW 5026-06-01
100
AcDbLine
 10
-103.9999999999998
 20
-19.99999999999994
 30
0.0
 11
-71.99999999999977
 21
-19.99999999999994
 31
0.0
  0
LINE
  5
6273
330
6140
100
AcDbEntity
  8
LW 5026-06-01
100
AcDbLine
 10
-70.49999999999977
 20
60.87500000000005
 30
0.0
 11
-70.49999999999977
 21
10.10000000000008
 31
0.0
  0
LINE
  5
6274
330
6140
100
AcDbEntity
  8
LW 5026-06-01
100
AcDbLine
 10
-70.49999999999977
 20
-10.09999999999996
 30
0.0
 11
-70.49999999999977
 21
-18.49999999999994
 31
0.0
  0
LINE
  5
6275
330
6140
100
AcDbEntity
  8
LW 5026-06-01
100
AcDbLine
 10
-105.4999999999997
 20
60.87500000000005
 30
0.0
 11
-105.4999999999997
 21
10.10000000000008
 31
0.0
  0
LINE
  5
6276
330
6140
100
AcDbEntity
  8
LW 5026-06-01
100
AcDbLine
 10
-105.4999999999997
 20
-10.09999999999996
 30
0.0
 11
-105.4999999999997
 21
-18.49999999999994
 31
0.0
  0
ARC
  5
6277
330
6140
100
AcDbEntity
  8
LW 5026-06-01
100
AcDbCircle
 10
-103.9999999999998
 20
-18.49999999999994
 30
0.0
 40
1.500000000000012
100
AcDbArc
 50
180.0
 51
270.0
  0
ARC
  5
6278
330
6140
100
AcDbEntity
  8
LW 5026-06-01
100
AcDbCircle
 10
-71.99999999999977
 20
-18.49999999999994
 30
0.0
 40
1.500000000000012
100
AcDbArc
 50
270.0
 51
0.0
  0
POLYLINE
  5
6279
330
6140
100
AcDbEntity
  8
LW 5026-06-01
100
AcDb2dPolyline
 66
     1
 10
0.0
 20
0.0
 30
0.0
 70
   128
  0
VERTEX
  5
627A
330
6279
100
AcDbEntity
  8
LW 5026-06-01
100
AcDbVertex
100
AcDb2dVertex
 10
-89.98928907513596
 20
-2.245292663574161
 30
0.0
  0
VERTEX
  5
627B
330
6279
100
AcDbEntity
  8
LW 5026-06-01
100
AcDbVertex
100
AcDb2dVertex
 10
-89.85252115130402
 20
-2.358942031860294
 30
0.0
  0
VERTEX
  5
627C
330
6279
100
AcDbEntity
  8
LW 5026-06-01
100
AcDbVertex
100
AcDb2dVertex
 10
-89.70742779970146
 20
-2.465748786926212
 30
0.0
  0
VERTEX
  5
627D
330
6279
100
AcDbEntity
  8
LW 5026-06-01
100
AcDbVertex
100
AcDb2dVertex
 10
-89.55483886599518
 20
-2.564802169799747
 30
0.0
  0
VERTEX
  5
627E
330
6279
100
AcDbEntity
  8
LW 5026-06-01
100
AcDbVertex
100
AcDb2dVertex
 10
-89.39558419585205
 20
-2.655181884765568
 30
0.0
  0
VERTEX
  5
627F
330
6279
100
AcDbEntity
  8
LW 5026-06-01
100
AcDbVertex
100
AcDb2dVertex
 10
-89.23049326240994
 20
-2.735972404479923
 30
0.0
  0
VERTEX
  5
6280
330
6279
100
AcDbEntity
  8
LW 5026-06-01
100
AcDbVertex
100
AcDb2dVertex
 10
-89.06040433049179
 20
-2.806267738342228
 30
0.0
  0
VERTEX
  5
6281
330
6279
100
AcDbEntity
  8
LW 5026-06-01
100
AcDbVertex
100
AcDb2dVertex
 10
-88.88635258376575
 20
-2.865643501281681
 30
0.0
  0
VERTEX
  5
6282
330
6279
100
AcDbEntity
  8
LW 5026-06-01
100
AcDbVertex
100
AcDb2dVertex
 10
-88.70957154035545
 20
-2.914128303527775
 30
0.0
  0
VERTEX
  5
6283
330
6279
100
AcDbEntity
  8
LW 5026-06-01
100
AcDbVertex
100
AcDb2dVertex
 10
-88.53130347281672
 20
-2.951765060424747
 30
0.0
  0
VERTEX
  5
6284
330
6279
100
AcDbEntity
  8
LW 5026-06-01
100
AcDbVertex
100
AcDb2dVertex
 10
-88.35279069095827
 20
-2.978591918945255
 30
0.0
  0
VERTEX
  5
6285
330
6279
100
AcDbEntity
  8
LW 5026-06-01
100
AcDbVertex
100
AcDb2dVertex
 10
-88.17527543008305
 20
-2.994656562805118
 30
0.0
  0
VERTEX
  5
6286
330
6279
100
AcDbEntity
  8
LW 5026-06-01
100
AcDbVertex
100
AcDb2dVertex
 10
-87.99999999999977
 20
-3.000001907348575
 30
0.0
  0
VERTEX
  5
6287
330
6279
100
AcDbEntity
  8
LW 5026-06-01
100
AcDbVertex
100
AcDb2dVertex
 10
-87.8247245699165
 20
-2.994656562805118
 30
0.0
  0
VERTEX
  5
6288
330
6279
100
AcDbEntity
  8
LW 5026-06-01
100
AcDbVertex
100
AcDb2dVertex
 10
-87.64720930904127
 20
-2.978591918945255
 30
0.0
  0
VERTEX
  5
6289
330
6279
100
AcDbEntity
  8
LW 5026-06-01
100
AcDbVertex
100
AcDb2dVertex
 10
-87.46869652718283
 20
-2.951765060424747
 30
0.0
  0
VERTEX
  5
628A
330
6279
100
AcDbEntity
  8
LW 5026-06-01
100
AcDbVertex
100
AcDb2dVertex
 10
-87.29042845964409
 20
-2.914128303527775
 30
0.0
  0
VERTEX
  5
628B
330
6279
100
AcDbEntity
  8
LW 5026-06-01
100
AcDbVertex
100
AcDb2dVertex
 10
-87.11364741623379
 20
-2.865643501281681
 30
0.0
  0
VERTEX
  5
628C
330
6279
100
AcDbEntity
  8
LW 5026-06-01
100
AcDbVertex
100
AcDb2dVertex
 10
-86.93959566950775
 20
-2.806267738342228
 30
0.0
  0
VERTEX
  5
628D
330
6279
100
AcDbEntity
  8
LW 5026-06-01
100
AcDbVertex
100
AcDb2dVertex
 10
-86.76950673758961
 20
-2.735972404479923
 30
0.0
  0
VERTEX
  5
628E
330
6279
100
AcDbEntity
  8
LW 5026-06-01
100
AcDbVertex
100
AcDb2dVertex
 10
-86.60441580414749
 20
-2.655181884765568
 30
0.0
  0
VERTEX
  5
628F
330
6279
100
AcDbEntity
  8
LW 5026-06-01
100
AcDbVertex
100
AcDb2dVertex
 10
-86.44516113400436
 20
-2.564802169799747
 30
0.0
  0
VERTEX
  5
6290
330
6279
100
AcDbEntity
  8
LW 5026-06-01
100
AcDbVertex
100
AcDb2dVertex
 10
-86.29257220029808
 20
-2.465748786926212
 30
0.0
  0
VERTEX
  5
6291
330
6279
100
AcDbEntity
  8
LW 5026-06-01
100
AcDbVertex
100
AcDb2dVertex
 10
-86.14747884869553
 20
-2.358942031860294
 30
0.0
  0
VERTEX
  5
6292
330
6279
100
AcDbEntity
  8
LW 5026-06-01
100
AcDbVertex
100
AcDb2dVertex
 10
-86.01071092486359
 20
-2.245292663574161
 30
0.0
  0
SEQEND
  5
6293
330
6279
100
AcDbEntity
  8
LW 5026-06-01
  0
POLYLINE
  5
6294
330
6140
100
AcDbEntity
  8
LW 5026-06-01
100
AcDb2dPolyline
 66
     1
 10
0.0
 20
0.0
 30
0.0
 70
   128
  0
VERTEX
  5
6295
330
6294
100
AcDbEntity
  8
LW 5026-06-01
100
AcDbVertex
100
AcDb2dVertex
 10
-87.47905547916866
 20
2.954421043396109
 30
0.0
  0
VERTEX
  5
6296
330
6294
100
AcDbEntity
  8
LW 5026-06-01
100
AcDbVertex
100
AcDb2dVertex
 10
-87.59025546908356
 20
2.971868515014762
 30
0.0
  0
VERTEX
  5
6297
330
6294
100
AcDbEntity
  8
LW 5026-06-01
100
AcDbVertex
100
AcDb2dVertex
 10
-87.70123874023534
 20
2.985053062439078
 30
0.0
  0
VERTEX
  5
6298
330
6294
100
AcDbEntity
  8
LW 5026-06-01
100
AcDbVertex
100
AcDb2dVertex
 10
-87.81169180944539
 20
2.994055747985953
 30
0.0
  0
VERTEX
  5
6299
330
6294
100
AcDbEntity
  8
LW 5026-06-01
100
AcDbVertex
100
AcDb2dVertex
 10
-87.92130121216155
 20
2.998957633972281
 30
0.0
  0
VERTEX
  5
629A
330
6294
100
AcDbEntity
  8
LW 5026-06-01
100
AcDbVertex
100
AcDb2dVertex
 10
-88.02985737053655
 20
2.999844551086539
 30
0.0
  0
VERTEX
  5
629B
330
6294
100
AcDbEntity
  8
LW 5026-06-01
100
AcDbVertex
100
AcDb2dVertex
 10
-88.13896403834201
 20
2.99663066864025
 30
0.0
  0
VERTEX
  5
629C
330
6294
100
AcDbEntity
  8
LW 5026-06-01
100
AcDbVertex
100
AcDb2dVertex
 10
-88.24903791025258
 20
2.989268302917594
 30
0.0
  0
VERTEX
  5
629D
330
6294
100
AcDbEntity
  8
LW 5026-06-01
100
AcDbVertex
100
AcDb2dVertex
 10
-88.35977926105238
 20
2.977743148803824
 30
0.0
  0
VERTEX
  5
629E
330
6294
100
AcDbEntity
  8
LW 5026-06-01
100
AcDbVertex
100
AcDb2dVertex
 10
-88.47088839113689
 20
2.962045669555777
 30
0.0
  0
VERTEX
  5
629F
330
6294
100
AcDbEntity
  8
LW 5026-06-01
100
AcDbVertex
100
AcDb2dVertex
 10
-88.58206547051645
 20
2.942166328430289
 30
0.0
  0
VERTEX
  5
62A0
330
6294
100
AcDbEntity
  8
LW 5026-06-01
100
AcDbVertex
100
AcDb2dVertex
 10
-88.69301083683945
 20
2.918090820312613
 30
0.0
  0
VERTEX
  5
62A1
330
6294
100
AcDbEntity
  8
LW 5026-06-01
100
AcDbVertex
100
AcDb2dVertex
 10
-88.80342471599556
 20
2.889814376831168
 30
0.0
  0
VERTEX
  5
62A2
330
6294
100
AcDbEntity
  8
LW 5026-06-01
100
AcDbVertex
100
AcDb2dVertex
 10
-88.91300740838028
 20
2.857322692871207
 30
0.0
  0
VERTEX
  5
62A3
330
6294
100
AcDbEntity
  8
LW 5026-06-01
100
AcDbVertex
100
AcDb2dVertex
 10
-89.02145917713619
 20
2.820611000061148
 30
0.0
  0
VERTEX
  5
62A4
330
6294
100
AcDbEntity
  8
LW 5026-06-01
100
AcDbVertex
100
AcDb2dVertex
 10
-89.12848021090008
 20
2.779660224914664
 30
0.0
  0
VERTEX
  5
62A5
330
6294
100
AcDbEntity
  8
LW 5026-06-01
100
AcDbVertex
100
AcDb2dVertex
 10
-89.23378060758091
 20
2.7344846725465
 30
0.0
  0
VERTEX
  5
62A6
330
6294
100
AcDbEntity
  8
LW 5026-06-01
100
AcDbVertex
100
AcDb2dVertex
 10
-89.33713439106918
 20
2.685241699218863
 30
0.0
  0
VERTEX
  5
62A7
330
6294
100
AcDbEntity
  8
LW 5026-06-01
100
AcDbVertex
100
AcDb2dVertex
 10
-89.43834143877007
 20
2.632155418396109
 30
0.0
  0
VERTEX
  5
62A8
330
6294
100
AcDbEntity
  8
LW 5026-06-01
100
AcDbVertex
100
AcDb2dVertex
 10
-89.5372014045713
 20
2.575445175171012
 30
0.0
  0
VERTEX
  5
62A9
330
6294
100
AcDbEntity
  8
LW 5026-06-01
100
AcDbVertex
100
AcDb2dVertex
 10
-89.63351416587807
 20
2.515335083007926
 30
0.0
  0
VERTEX
  5
62AA
330
6294
100
AcDbEntity
  8
LW 5026-06-01
100
AcDbVertex
100
AcDb2dVertex
 10
-89.72707960009552
 20
2.452039718628043
 30
0.0
  0
VERTEX
  5
62AB
330
6294
100
AcDbEntity
  8
LW 5026-06-01
100
AcDbVertex
100
AcDb2dVertex
 10
-89.81769728660561
 20
2.385787963867301
 30
0.0
  0
VERTEX
  5
62AC
330
6294
100
AcDbEntity
  8
LW 5026-06-01
100
AcDbVertex
100
AcDb2dVertex
 10
-89.9051672518251
 20
2.316799163818473
 30
0.0
  0
VERTEX
  5
62AD
330
6294
100
AcDbEntity
  8
LW 5026-06-01
100
AcDbVertex
100
AcDb2dVertex
 10
-89.98928907513596
 20
2.245292663574332
 30
0.0
  0
SEQEND
  5
62AE
330
6294
100
AcDbEntity
  8
LW 5026-06-01
  0
ARC
  5
62AF
330
6140
100
AcDbEntity
  8
LW 5026-06-01
100
AcDbCircle
 10
-87.99999999999977
 20
0.0000000000000568
 30
0.0
 40
3.000000000000003
100
AcDbArc
 50
131.5403479572199
 51
228.4596520427801
  0
ARC
  5
62B0
330
6140
100
AcDbEntity
  8
LW 5026-06-01
100
AcDbCircle
 10
-87.99999999999977
 20
0.0000000000000568
 30
0.0
 40
3.000000000000001
100
AcDbArc
 50
311.5403479572178
 51
48.45965204278008
  0
CIRCLE
  5
62B1
330
6140
100
AcDbEntity
  8
LW 5026-06-01
100
AcDbCircle
 10
-87.99999999999977
 20
0.0000000000000568
 30
0.0
 40
2.645824477365627
  0
LINE
  5
62B2
330
6140
100
AcDbEntity
  8
LW 5026-06-01
100
AcDbLine
 10
-88.32356666283841
 20
-1.701559465519551
 30
0.0
 11
-89.63537705460908
 21
-0.5705627829236733
 31
0.0
  0
LINE
  5
62B3
330
6140
100
AcDbEntity
  8
LW 5026-06-01
100
AcDbLine
 10
-89.63537705460908
 20
-0.5705627829236733
 30
0.0
 11
-89.31181039177046
 21
1.130996682595934
 31
0.0
  0
LINE
  5
62B4
330
6140
100
AcDbEntity
  8
LW 5026-06-01
100
AcDbLine
 10
-89.31181039177046
 20
1.130996682595934
 30
0.0
 11
-87.67643333716113
 21
1.701559465519721
 31
0.0
  0
LINE
  5
62B5
330
6140
100
AcDbEntity
  8
LW 5026-06-01
100
AcDbLine
 10
-87.67643333716113
 20
1.701559465519721
 30
0.0
 11
-86.3646229453907
 21
0.5705627829238438
 31
0.0
  0
LINE
  5
62B6
330
6140
100
AcDbEntity
  8
LW 5026-06-01
100
AcDbLine
 10
-86.68818960822932
 20
-1.130996682595764
 30
0.0
 11
-88.32356666283841
 21
-1.701559465519551
 31
0.0
  0
LINE
  5
62B7
330
6140
100
AcDbEntity
  8
LW 5026-06-01
100
AcDbLine
 10
-86.3646229453907
 20
0.5705627829238438
 30
0.0
 11
-86.68818960822932
 21
-1.130996682595764
 31
0.0
  0
LINE
  5
62B8
330
6140
100
AcDbEntity
  8
LW 5026-06-01
100
AcDbLine
 10
-93.77309999999988
 20
77.00000000000006
 30
0.0
 11
-82.22689999999989
 21
77.00000000000006
 31
0.0
  0
LINE
  5
62B9
330
6140
100
AcDbEntity
  8
LW 5026-06-01
100
AcDbLine
 10
-80.99999999999978
 20
75.77310000000017
 30
0.0
 11
-94.99999999999976
 21
75.77310000000017
 31
0.0
  0
LINE
  5
62BA
330
6140
100
AcDbEntity
  8
LW 5026-06-01
100
AcDbLine
 10
-82.22689999999989
 20
77.00000000000006
 30
0.0
 11
-80.99999999999978
 21
75.77310000000017
 31
0.0
  0
LINE
  5
62BB
330
6140
100
AcDbEntity
  8
LW 5026-06-01
100
AcDbLine
 10
-93.77309999999988
 20
77.00000000000006
 30
0.0
 11
-94.99999999999976
 21
75.77310000000017
 31
0.0
  0
LINE
  5
62BC
330
6140
100
AcDbEntity
  8
LW 5026-06-01
100
AcDbLine
 10
-80.99999999999978
 20
75.77310000000017
 30
0.0
 11
-80.99999999999978
 21
60.87500000000005
 31
0.0
  0
LINE
  5
62BD
330
6140
100
AcDbEntity
  8
LW 5026-06-01
100
AcDbLine
 10
-94.99999999999976
 20
75.77310000000017
 30
0.0
 11
-94.99999999999976
 21
60.87500000000005
 31
0.0
  0
LINE
  5
62BE
330
6140
100
AcDbEntity
  8
LW 5026-06-01
 62
     3
100
AcDbLine
 10
-82.20549999999979
 20
60.87500000000005
 30
0.0
 11
-82.20549999999979
 21
76.97860000000009
 31
0.0
  0
LINE
  5
62BF
330
6140
100
AcDbEntity
  8
LW 5026-06-01
 62
     3
100
AcDbLine
 10
-93.79449999999975
 20
76.97860000000009
 30
0.0
 11
-93.79449999999975
 21
60.87500000000005
 31
0.0
  0
LINE
  5
62C0
330
6140
100
AcDbEntity
  8
LW 5026-06-01
100
AcDbLine
 10
3.000000000000229
 20
-6.999999999999943
 30
0.0
 11
-2.99999999999977
 21
-6.999999999999943
 31
0.0
  0
LINE
  5
62C1
330
6140
100
AcDbEntity
  8
LW 5026-06-01
100
AcDbLine
 10
3.000000000000229
 20
7.000000000000056
 30
0.0
 11
-2.99999999999977
 21
7.000000000000056
 31
0.0
  0
LINE
  5
62C2
330
6140
100
AcDbEntity
  8
LW 5026-06-01
 62
     3
100
AcDbLine
 10
-2.999999999999772
 20
-5.794499999999914
 30
0.0
 11
3.000000000000225
 21
-5.794499999999914
 31
0.0
  0
LINE
  5
62C3
330
6140
100
AcDbEntity
  8
LW 5026-06-01
 62
     3
100
AcDbLine
 10
3.000000000000227
 20
5.794500000000084
 30
0.0
 11
-2.999999999999772
 21
5.794500000000084
 31
0.0
  0
LINE
  5
62C4
330
6140
100
AcDbEntity
  8
LW 5026-06-01
  6
MITTE2
 62
     3
100
AcDbLine
 10
-87.99999999999977
 20
96.48528480478473
 30
0.0
 11
-87.99999999999977
 21
-28.08786257571905
 31
0.0
  0
LINE
  5
62C5
330
6140
100
AcDbEntity
  8
LW 5026-06-01
  6
MITTE2
 62
     3
100
AcDbLine
 10
41.9212863273749
 20
0.0
 30
0.0
 11
-126.9212863273749
 21
0.0
 31
0.0
  0
LINE
  5
62C6
330
6140
100
AcDbEntity
  8
LW 5026-06-01
  6
VERDECKT
 62
     6
100
AcDbLine
 10
-102.660108542738
 20
60.00000000000437
 30
0.0
 11
-73.33989145726196
 21
59.99999999999573
 31
0.0
  0
ARC
  5
62C7
330
6140
100
AcDbEntity
  8
LW 5026-06-01
  6
VERDECKT
 62
     6
100
AcDbCircle
 10
-102.6601085427376
 20
62.00000000000438
 30
0.0
 40
2.0
100
AcDbArc
 50
250.7099537807859
 51
270.0
  0
ARC
  5
62C8
330
6140
100
AcDbEntity
  8
LW 5026-06-01
  6
VERDECKT
 62
     6
100
AcDbCircle
 10
-73.3398914572615
 20
61.99999999999573
 30
0.0
 40
2.0
100
AcDbArc
 50
270.0
 51
289.2900462191729
  0
LINE
  5
62C9
330
6140
100
AcDbEntity
  8
LW 5026-06-01
  6
VERDECKT
 62
     6
100
AcDbLine
 10
-103.3208093921942
 20
60.11228328727276
 30
0.0
 11
-105.4999999999997
 21
60.87500000000528
 31
0.0
  0
LINE
  5
62CA
330
6140
100
AcDbEntity
  8
LW 5026-06-01
  6
VERDECKT
 62
     6
100
AcDbLine
 10
-72.67919060780582
 20
60.11228328726367
 30
0.0
 11
-70.49999999999977
 21
60.87499999999483
 31
0.0
  0
HATCH
  5
62CB
330
6140
100
AcDbEntity
  8
LW 5026-06-01
 62
     1
100
AcDbHatch
 10
0.0
 20
0.0
 30
0.0
210
0.0
220
0.0
230
1.0
  2
SOLID
 70
     1
 71
     0
 91
        5
 92
        7
 72
     0
 73
     1
 93
       76
 10
-96.48498282525451
 20
27.54233513799324
 10
-96.53656378709639
 20
27.57419396736606
 10
-96.68780618611208
 20
27.69235209159734
 10
-96.82823031637463
 20
27.82683016681
 10
-96.9566148780882
 20
27.97285007327156
 10
-97.07352116100402
 20
28.13651886935355
 10
-97.1756990428255
 20
28.3119058227183
 10
-97.26705072240839
 20
28.49365875531868
 10
-97.33656903485462
 20
28.6748276907843
 10
-97.33656903485462
 20
26.41768975258429
 10
-97.3278793796544
 20
26.20479320018427
 10
-97.30181041405467
 20
26.00275871678429
 10
-97.26053455185457
 20
25.80724147478424
 10
-97.20622420685458
 20
25.62258630178445
 10
-97.13670696525447
 20
25.4466207839842
 10
-97.05415524085447
 20
25.27934492138439
 10
-96.95882972331038
 20
25.12877665883735
 10
-96.85212075745448
 20
24.98606905838443
 10
-96.73307248121432
 20
24.86062780281378
 10
-96.60481317046242
 20
24.74936285073642
 10
-96.46760351485454
 20
24.64934491938431
 10
-96.32205179025437
 20
24.56679319498431
 10
-96.16781041045442
 20
24.50379319478435
 10
-96.00705178925455
 20
24.45382767738448
 10
-95.84194834045456
 20
24.42558629798447
 10
-95.66815523645436
 20
24.41689664278448
 10
-95.49436213245417
 20
24.42775871178452
 10
-95.32708626985437
 20
24.45817250498436
 10
-95.16632764865425
 20
24.51248284998456
 10
-95.00991385505448
 20
24.58200009158446
 10
-94.86218971665449
 20
24.67106905738461
 10
-94.72098281965463
 20
24.77751733358451
 10
-94.58976902613448
 20
24.90021526500851
 10
-94.46863523264665
 20
25.03641431371676
 10
-94.35818971505431
 20
25.18375871418454
 10
-94.26043109405464
 20
25.34451733538464
 10
-94.17553316275052
 20
25.52014395663178
 10
-94.10184488665436
 20
25.70079319858434
 10
-94.04536212785433
 20
25.89196561298451
 10
-94.00191385185463
 20
26.09182768258444
 10
-93.97584488625444
 20
26.30037940738436
 10
-93.96715523105445
 20
26.51110354598433
 10
-93.96715523105468
 20
28.630274631737
 10
-94.03022603478939
 20
28.46973076768455
 10
-94.12084630831214
 20
28.28616662388214
 10
-94.22537600124361
 20
28.11770021771196
 10
-94.34099423966927
 20
27.95486732295132
 10
-94.47078383620919
 20
27.81095495458118
 10
-94.61013751943756
 20
27.68351906109689
 10
-94.76062576415007
 20
27.5698137063535
 10
-94.84481040625452
 20
27.51784247490474
 10
-94.84481040625452
 20
26.48937940798447
 10
-94.85237040627863
 20
26.35727057997889
 10
-94.87270419944662
 20
26.22651733818435
 10
-94.90563799265443
 20
26.0983449239846
 10
-94.95125868245441
 20
25.98320699258449
 10
-95.00774144125443
 20
25.87826202673415
 10
-95.07534695871028
 20
25.78011237125003
 10
-95.1532931658544
 20
25.68993112958452
 10
-95.23801730405443
 20
25.61824147418457
 10
-95.23801730405466
 20
27.34576278844321
 10
-95.27065274481264
 20
27.33517832117019
 10
-95.45602669236405
 20
27.2990665132059
 10
-95.64631640631478
 20
27.28702286042409
 10
-95.84106749966986
 20
27.29904453285354
 10
-96.02743687093607
 20
27.3353502545288
 10
-96.07656903085445
 20
27.35194895720366
 10
-96.07656903085445
 20
25.58131043958435
 10
-96.17215523805453
 20
25.65082768118447
 10
-96.25470696245429
 20
25.73337940558446
 10
-96.32457179026232
 20
25.82847030243789
 10
-96.38287937665451
 20
25.93106906138434
 10
-96.42684903196641
 20
26.0497610617611
 10
-96.45891385965434
 20
26.17220699318437
 10
-96.47846558385436
 20
26.30906906258434
 10
-96.48498282525451
 20
26.45244837338447
 97
        0
 92
        7
 72
     0
 73
     1
 93
       72
 10
-96.47038420451849
 20
29.27079900302107
 10
-96.48845868733452
 20
29.39366203789388
 10
-96.49367248045473
 20
29.51772424518441
 10
-96.49367248045473
 20
30.78641390438435
 10
-95.67901730545463
 20
29.93917252238436
 10
-93.96063798965451
 20
31.70534494178452
 10
-93.96063798965451
 20
33.02400011838432
 10
-95.70291385725477
 20
31.30996563018454
 10
-97.33656903485462
 20
32.99141391138443
 10
-97.33656903485462
 20
29.55248286598436
 10
-97.32579386240651
 20
29.34449596877227
 10
-97.30033317267043
 20
29.13777776121952
 10
-97.26053455185457
 20
28.93334493298431
 10
-97.20405179305453
 20
28.74000010478432
 10
-97.13236213765458
 20
28.55317251798425
 10
-97.04633455117438
 20
28.38201237950995
 10
-96.94987937845462
 20
28.21644837898436
 10
-96.84125868845468
 20
28.06437941298447
 10
-96.72194972255852
 20
27.92868175738119
 10
-96.59143110145443
 20
27.8036897569844
 10
-96.45239661825463
 20
27.69506906698422
 10
-96.30467247985462
 20
27.60382768738447
 10
-96.15043110005444
 20
27.53213803198429
 10
-95.98967247885457
 20
27.47782768698431
 10
-95.82239661625454
 20
27.44524147998442
 10
-95.64643109845428
 20
27.43437941098438
 10
-95.47481040825459
 20
27.44524147998442
 10
-95.30753454565456
 20
27.47782768698454
 10
-95.14677592445469
 20
27.52996561818446
 10
-94.99253454465451
 20
27.59948285978436
 10
-94.84376764763055
 20
27.6913238255932
 10
-94.70429868167048
 20
27.7967032742036
 10
-94.57525730195062
 20
27.91470879181981
 10
-94.45594833605445
 20
28.04700010258449
 10
-94.34793592191864
 20
28.19912120651571
 10
-94.24956902505437
 20
28.35765527598443
 10
-94.16484488685455
 20
28.52927596618457
 10
-94.0931552314546
 20
28.71175872538453
 10
-94.03910557611061
 20
28.90598989841493
 10
-93.99539661045446
 20
29.1027932093844
 10
-93.96932764485473
 20
29.31134493418455
 10
-93.96063798965451
 20
29.52206907278452
 10
-93.96063798965451
 20
31.42510356158442
 10
-94.83394833725469
 20
30.53875873118438
 10
-94.83394833725469
 20
29.52206907278452
 10
-94.83769563019405
 20
29.45540203808997
 10
-94.84767799247038
 20
29.35445431363161
 10
-94.86914144081447
 20
29.23431983049165
 10
-94.90346557885459
 20
29.11720065770607
 10
-94.94439385484657
 20
29.01570548497017
 10
-94.97254833769465
 20
28.95957031237805
 10
-95.00513454469455
 20
28.90588562255249
 10
-95.10445730363063
 20
28.77332493247633
 10
-95.1744959245425
 20
28.69972355293254
 10
-95.24236213165432
 20
28.64465720793015
 10
-95.31492075257437
 20
28.59595169053392
 10
-95.39208489075054
 20
28.55658755247788
 10
-95.47350695997465
 20
28.52716437997088
 10
-95.56066420163052
 20
28.50646562128446
 10
-95.64999385708643
 20
28.49894906953642
 10
-95.71229868487035
 20
28.5003046557477
 10
-95.77442971955042
 20
28.50630920749092
 10
-95.83760351285446
 20
28.51846603511564
 10
-95.89930006477471
 20
28.53667955241491
 10
-95.99801454784643
 20
28.58032769048424
 10
-96.06588075495848
 20
28.6218555526853
 10
-96.14391385865452
 20
28.68493375978193
 10
-96.27043659570837
 20
28.81433570014684
 10
-96.3104945488385
 20
28.87360355348443
 10
-96.35481179035833
 20
28.94989872614047
 10
-96.39695661807856
 20
29.03391900226921
 10
-96.43979661821459
 20
29.15045596815645
 97
        0
 92
        7
 72
     0
 73
     1
 93
       57
 10
-96.44831248031096
 20
33.82883598300856
 10
-96.48828489423067
 20
33.96031046618447
 10
-96.51539661845482
 20
34.09500012178438
 10
-96.52408627365458
 20
34.23837943258428
 10
-96.52408627365481
 20
35.47882771238443
 10
-97.34960351765494
 20
35.47882771238443
 10
-97.34960351765472
 20
34.24489667398444
 10
-97.34091386245474
 20
34.03417253538447
 10
-97.31267248305471
 20
33.82779322438438
 10
-97.27139662085484
 20
33.6301035685845
 10
-97.21708627585485
 20
33.44110356798438
 10
-97.1453966204549
 20
33.25644839498437
 10
-97.06275799950255
 20
33.09004149790423
 10
-96.96630282678279
 20
32.93122066981397
 10
-96.85681317126274
 20
32.78114163485481
 10
-96.73759110191873
 20
32.64658232408289
 10
-96.60881041185485
 20
32.52651735818432
 10
-96.46977592865461
 20
32.42224149578448
 10
-96.32422420405465
 20
32.33751735758443
 10
-96.16998282425448
 20
32.26582770218425
 10
-96.0092242030546
 20
32.21586218478439
 10
-95.84194834045479
 20
32.18327597778449
 10
-95.66815523645482
 20
32.17241390878445
 10
-95.49436213245462
 20
32.18327597778449
 10
-95.32708626985458
 20
32.21586218478439
 10
-95.16632764865471
 20
32.26800011598431
 10
-95.00991385505471
 20
32.33968977138449
 10
-94.8621897166547
 20
32.42658632338458
 10
-94.72263385414271
 20
32.53543294441971
 10
-94.59228902614269
 20
32.65528935859317
 10
-94.47098143955054
 20
32.79171694523331
 10
-94.36036212885483
 20
32.93927598018451
 10
-94.26260350785469
 20
33.10003460138438
 10
-94.17787936965487
 20
33.27382770538435
 10
-94.10401730045487
 20
33.45848287838459
 10
-94.04753454165485
 20
33.64965529278453
 10
-94.00408626565468
 20
33.84951736238446
 10
-93.98018971385454
 20
34.05589667338456
 10
-93.97150005865478
 20
34.26879322578458
 10
-93.97150005865478
 20
35.47882771238443
 10
-94.82960350965459
 20
35.47882771238443
 10
-94.82960350965459
 20
34.24489667398444
 10
-94.83994419934266
 20
34.11124977700848
 10
-94.86192902699896
 20
33.97899322486461
 10
-94.89625316503861
 20
33.85838081068852
 10
-94.94422006174273
 20
33.74237391376852
 10
-95.00513454469478
 20
33.63271046514439
 10
-95.07274006215084
 20
33.53564701656052
 10
-95.15251109688689
 20
33.44822908524844
 10
-95.23801730405466
 20
33.37375874018454
 10
-95.23801730405466
 20
35.47882771238443
 10
-96.06570696185464
 20
35.47882771238443
 10
-96.06570696185464
 20
33.33682770558431
 10
-96.16346558285478
 20
33.40634494718444
 10
-96.2525345486547
 20
33.49324149918431
 10
-96.32882972131074
 20
33.59438908571252
 10
-96.39591385945459
 20
33.70179322398445
 97
        0
 92
        7
 72
     0
 73
     1
 93
        6
 10
-97.33656903485485
 20
35.70910357518443
 10
-93.96715523105468
 20
35.70910357518443
 10
-93.96715523105489
 20
37.94668978918463
 10
-94.83394833725492
 20
37.94668978918441
 10
-94.83394833725492
 20
36.73231047498445
 10
-97.33656903485485
 20
36.73231047498445
 97
        0
 92
        7
 72
     0
 73
     1
 93
        8
 10
-97.33656903485485
 20
36.96475875158427
 10
-96.51105179085471
 20
36.96475875158427
 10
-96.51105179085494
 20
38.19868978998449
 10
-93.96063798965498
 20
38.19868978998449
 10
-93.96063798965498
 20
39.22406910358456
 10
-96.51105179085471
 20
39.22406910358433
 10
-96.51105179085494
 20
40.4666897971843
 10
-97.33656903485508
 20
40.4666897971843
 97
        0
 75
     0
 76
     1
 47
0.0142553043587597
 98
        5
 10
-96.89411936526539
 20
26.85199526405956
 10
-96.75156638025965
 20
29.11949247740228
 10
-96.8085875528077
 20
33.61170420960372
 10
-97.05092777749996
 20
36.33555329343546
 10
-96.95114064508652
 20
37.7473912756621
450
        0
451
        0
460
0.0
461
0.0
452
        0
462
0.0
453
        0
470

  0
LWPOLYLINE
  5
62CC
330
6140
100
AcDbEntity
  8
LW 5026-06-01
 62
     1
100
AcDbPolyline
 90
        8
 70
     1
 43
0.0
 10
-96.51105179085471
 20
39.22406910358433
 10
-93.96063798965498
 20
39.22406910358456
 10
-93.96063798965498
 20
38.19868978998449
 10
-96.51105179085494
 20
38.19868978998449
 10
-96.51105179085471
 20
36.96475875158427
 10
-97.33656903485485
 20
36.96475875158427
 10
-97.33656903485508
 20
40.4666897971843
 10
-96.51105179085494
 20
40.4666897971843
  0
LWPOLYLINE
  5
62CD
330
6140
100
AcDbEntity
  8
LW 5026-06-01
 62
     1
100
AcDbPolyline
 90
       73
 70
     1
 43
0.0
 10
-94.83394833725469
 20
29.52206907278452
 10
-94.83394833725469
 20
30.53875873118438
 10
-93.96063798965451
 20
31.42510356158442
 10
-93.96063798965451
 20
29.52206907278452
 10
-93.96932764485473
 20
29.31134493418455
 10
-93.99539661045446
 20
29.1027932093844
 10
-94.03910557611061
 20
28.90598989841493
 10
-94.0931552314546
 20
28.71175872538453
 10
-94.16484488685455
 20
28.52927596618457
 10
-94.24956902505437
 20
28.35765527598443
 10
-94.34793592191864
 20
28.19912120651571
 10
-94.45594833605445
 20
28.04700010258449
 10
-94.57525730195039
 20
27.91470879181958
 10
-94.70429868167048
 20
27.7967032742036
 10
-94.84376764763055
 20
27.6913238255932
 10
-94.99253454465451
 20
27.59948285978436
 10
-95.14677592445469
 20
27.52996561818446
 10
-95.30753454565456
 20
27.47782768698454
 10
-95.47481040825459
 20
27.44524147998442
 10
-95.64643109845452
 20
27.43437941098438
 10
-95.82239661625454
 20
27.44524147998442
 10
-95.98967247885457
 20
27.47782768698431
 10
-96.15043110005444
 20
27.53213803198452
 10
-96.30467247985462
 20
27.60382768738447
 10
-96.45239661825463
 20
27.69506906698445
 10
-96.59143110145443
 20
27.8036897569844
 10
-96.72194972255875
 20
27.92868175738119
 10
-96.84125868845468
 20
28.06437941298424
 10
-96.94987937845462
 20
28.21644837898436
 10
-97.04633455117438
 20
28.38201237950995
 10
-97.13236213765458
 20
28.55317251798425
 10
-97.20405179305453
 20
28.74000010478432
 10
-97.26053455185457
 20
28.93334493298431
 10
-97.30033317267043
 20
29.13777776121952
 10
-97.32579386240651
 20
29.34449596877227
 10
-97.33656903485462
 20
29.55248286598436
 10
-97.33656903485462
 20
32.99141391138443
 10
-95.70291385725477
 20
31.30996563018454
 10
-93.96063798965451
 20
33.02400011838432
 10
-93.96063798965451
 20
31.70534494178452
 10
-95.67901730545463
 20
29.93917252238436
 10
-96.49367248045473
 20
30.78641390438435
 10
-96.49367248045473
 20
29.51772424518441
 10
-96.48845868733452
 20
29.39366203789388
 10
-96.47038420451849
 20
29.27079900302107
 10
-96.43979661821459
 20
29.15045596815645
 10
-96.39695661807856
 20
29.03391900226921
 10
-96.35481179035856
 20
28.94989872614025
 10
-96.3104945488385
 20
28.87360355348443
 10
-96.28329592806267
 20
28.83336176025324
 10
-96.2523607555504
 20
28.7958485187549
 10
-96.14391385865452
 20
28.68493375978193
 10
-96.06588075495848
 20
28.6218555526853
 10
-95.99801454784666
 20
28.58032769048447
 10
-95.89930006477471
 20
28.53667955241491
 10
-95.83760351285446
 20
28.51846603511564
 10
-95.77442971955042
 20
28.50630920749092
 10
-95.71229868487057
 20
28.5003046557477
 10
-95.64999385708643
 20
28.49894906953642
 10
-95.56066420163052
 20
28.50646562128446
 10
-95.47350695997465
 20
28.52716437997088
 10
-95.39208489075054
 20
28.55658755247811
 10
-95.31492075257437
 20
28.59595169053392
 10
-95.24236213165455
 20
28.64465720792992
 10
-95.1744959245425
 20
28.69972355293254
 10
-95.10445730363063
 20
28.77332493247633
 10
-95.00513454469455
 20
28.90588562255249
 10
-94.97254833769465
 20
28.95957031237805
 10
-94.94439385484657
 20
29.01570548497017
 10
-94.90346557885459
 20
29.11720065770607
 10
-94.86914144081447
 20
29.23431983049165
 10
-94.84767799247038
 20
29.35445431363161
 10
-94.83769563019405
 20
29.45540203808997
  0
LWPOLYLINE
  5
62CE
330
6140
100
AcDbEntity
  8
LW 5026-06-01
 62
     1
100
AcDbPolyline
 90
       76
 70
     1
 43
0.0
 10
-97.1756990428255
 20
28.3119058227183
 10
-97.07352116100379
 20
28.13651886935355
 10
-96.9566148780882
 20
27.97285007327156
 10
-96.82823031637463
 20
27.82683016681
 10
-96.68780618611208
 20
27.69235209159734
 10
-96.53656378709639
 20
27.57419396736606
 10
-96.48498282525451
 20
27.54233513799324
 10
-96.48498282525451
 20
26.45244837338447
 10
-96.47846558385436
 20
26.30906906258434
 10
-96.45891385965434
 20
26.17220699318437
 10
-96.42684903196641
 20
26.0497610617611
 10
-96.38287937665451
 20
25.93106906138434
 10
-96.32457179026232
 20
25.82847030243812
 10
-96.25470696245429
 20
25.73337940558446
 10
-96.17215523805453
 20
25.65082768118424
 10
-96.07656903085445
 20
25.58131043958435
 10
-96.07656903085445
 20
27.35194895720366
 10
-96.02743687093607
 20
27.3353502545288
 10
-95.8410674996694
 20
27.29904453285332
 10
-95.64631640631478
 20
27.28702286042409
 10
-95.45602669236405
 20
27.2990665132059
 10
-95.27065274481287
 20
27.33517832117042
 10
-95.23801730405466
 20
27.34576278844321
 10
-95.23801730405443
 20
25.61824147418457
 10
-95.1532931658544
 20
25.68993112958452
 10
-95.07534695871028
 20
25.78011237125003
 10
-95.00774144125443
 20
25.87826202673415
 10
-94.95125868245441
 20
25.98320699258449
 10
-94.90563799265464
 20
26.0983449239846
 10
-94.87270419944662
 20
26.22651733818435
 10
-94.85237040627863
 20
26.35727057997889
 10
-94.84481040625452
 20
26.48937940798447
 10
-94.84481040625452
 20
27.51784247490474
 10
-94.76062576415007
 20
27.5698137063535
 10
-94.61013751943756
 20
27.68351906109689
 10
-94.47078383620919
 20
27.81095495458118
 10
-94.34099423966927
 20
27.95486732295132
 10
-94.22537600124361
 20
28.11770021771196
 10
-94.12084630831214
 20
28.28616662388214
 10
-94.03022603478939
 20
28.46973076768455
 10
-93.96715523105468
 20
28.630274631737
 10
-93.96715523105422
 20
26.51110354598456
 10
-93.97584488625444
 20
26.30037940738436
 10
-94.00191385185463
 20
26.09182768258444
 10
-94.04536212785433
 20
25.89196561298451
 10
-94.10184488665436
 20
25.70079319858456
 10
-94.17553316275052
 20
25.52014395663156
 10
-94.26043109405464
 20
25.34451733538464
 10
-94.35818971505431
 20
25.18375871418454
 10
-94.46863523264642
 20
25.03641431371676
 10
-94.58976902613448
 20
24.90021526500851
 10
-94.72098281965442
 20
24.77751733358451
 10
-94.86218971665449
 20
24.67106905738439
 10
-95.00991385505448
 20
24.58200009158446
 10
-95.16632764865425
 20
24.51248284998456
 10
-95.32708626985437
 20
24.45817250498436
 10
-95.49436213245462
 20
24.42775871178452
 10
-95.66815523645436
 20
24.41689664278448
 10
-95.84194834045433
 20
24.42558629798424
 10
-96.00705178925455
 20
24.45382767738448
 10
-96.16781041045442
 20
24.50379319478435
 10
-96.32205179025437
 20
24.56679319498431
 10
-96.46760351485454
 20
24.64934491938431
 10
-96.60481317046242
 20
24.74936285073642
 10
-96.73307248121455
 20
24.86062780281378
 10
-96.85212075745448
 20
24.98606905838443
 10
-96.95882972331038
 20
25.12877665883735
 10
-97.05415524085447
 20
25.27934492138439
 10
-97.13670696525424
 20
25.44662078398443
 10
-97.20622420685458
 20
25.62258630178445
 10
-97.26053455185457
 20
25.80724147478446
 10
-97.30181041405467
 20
26.00275871678429
 10
-97.3278793796544
 20
26.20479320018427
 10
-97.33656903485462
 20
26.41768975258429
 10
-97.33656903485462
 20
28.67482769078453
 10
-97.26705072240839
 20
28.49365875531868
  0
LWPOLYLINE
  5
62CF
330
6140
100
AcDbEntity
  8
LW 5026-06-01
 62
     1
100
AcDbPolyline
 90
        6
 70
     1
 43
0.0
 10
-93.96715523105489
 20
37.94668978918463
 10
-93.96715523105468
 20
35.70910357518443
 10
-97.33656903485485
 20
35.70910357518443
 10
-97.33656903485485
 20
36.73231047498445
 10
-94.83394833725492
 20
36.73231047498445
 10
-94.83394833725492
 20
37.94668978918441
  0
LWPOLYLINE
  5
62D0
330
6140
100
AcDbEntity
  8
LW 5026-06-01
 62
     1
100
AcDbPolyline
 90
       57
 70
     1
 43
0.0
 10
-94.59228902614269
 20
32.65528935859317
 10
-94.72263385414271
 20
32.53543294441971
 10
-94.86218971665449
 20
32.42658632338436
 10
-95.00991385505471
 20
32.33968977138449
 10
-95.16632764865471
 20
32.26800011598431
 10
-95.32708626985458
 20
32.21586218478439
 10
-95.49436213245462
 20
32.18327597778449
 10
-95.66815523645482
 20
32.17241390878445
 10
-95.84194834045456
 20
32.18327597778449
 10
-96.0092242030546
 20
32.21586218478439
 10
-96.16998282425448
 20
32.26582770218425
 10
-96.32422420405465
 20
32.33751735758443
 10
-96.46977592865461
 20
32.42224149578425
 10
-96.60881041185485
 20
32.52651735818432
 10
-96.7375911019185
 20
32.64658232408266
 10
-96.85681317126274
 20
32.78114163485481
 10
-96.96630282678279
 20
32.93122066981397
 10
-97.06275799950276
 20
33.09004149790445
 10
-97.1453966204549
 20
33.25644839498437
 10
-97.21708627585485
 20
33.44110356798438
 10
-97.27139662085484
 20
33.6301035685845
 10
-97.31267248305471
 20
33.82779322438438
 10
-97.34091386245474
 20
34.03417253538447
 10
-97.34960351765472
 20
34.24489667398444
 10
-97.34960351765494
 20
35.47882771238443
 10
-96.52408627365481
 20
35.47882771238443
 10
-96.52408627365458
 20
34.23837943258451
 10
-96.51539661845482
 20
34.09500012178438
 10
-96.48828489423067
 20
33.96031046618447
 10
-96.44831248031074
 20
33.82883598300833
 10
-96.39591385945459
 20
33.70179322398445
 10
-96.32882972131074
 20
33.59438908571252
 10
-96.2525345486547
 20
33.49324149918431
 10
-96.16346558285478
 20
33.40634494718444
 10
-96.06570696185464
 20
33.33682770558431
 10
-96.06570696185464
 20
35.47882771238443
 10
-95.23801730405466
 20
35.47882771238443
 10
-95.23801730405466
 20
33.37375874018454
 10
-95.15251109688689
 20
33.44822908524844
 10
-95.07274006215084
 20
33.53564701656052
 10
-95.00513454469478
 20
33.63271046514439
 10
-94.94422006174273
 20
33.74237391376852
 10
-94.89625316503861
 20
33.85838081068852
 10
-94.86192902699896
 20
33.97899322486461
 10
-94.83994419934266
 20
34.11124977700848
 10
-94.82960350965459
 20
34.24489667398444
 10
-94.82960350965459
 20
35.47882771238443
 10
-93.97150005865478
 20
35.47882771238443
 10
-93.97150005865478
 20
34.26879322578458
 10
-93.98018971385454
 20
34.05589667338456
 10
-94.00408626565468
 20
33.84951736238446
 10
-94.04753454165485
 20
33.64965529278453
 10
-94.10401730045487
 20
33.45848287838459
 10
-94.17787936965487
 20
33.27382770538435
 10
-94.26260350785469
 20
33.10003460138438
 10
-94.36036212885483
 20
32.93927598018451
 10
-94.47098143955054
 20
32.79171694523331
  0
LINE
  5
62D1
330
6140
100
AcDbEntity
  8
LW 5026-06-01
  6
MITTE2
 62
     3
100
AcDbLine
 10
0.0
 20
37.00000000000006
 30
0.0
 11
0.0
 21
-37.00000000000006
 31
0.0
  0
INSERT
  5
62D2
330
6140
100
AcDbEntity
  8
LW 5026-06-01
100
AcDbBlockReference
 66
     1
  2
insertpoint-ECKELT
 10
0.0
 20
0.0
 30
0.0
  0
ATTRIB
  5
62D3
330
62D2
100
AcDbEntity
  8
insertpoint_ECKELT
100
AcDbText
 10
-6.93151432469286
 20
0.0
 30
0.0
 40
0.6
  1
LW 5026/06-01
 72
     2
 11
-1.199999999999818
 21
0.0
 31
0.0
100
AcDbAttribute
  2
LINKS
 70
     0
  0
ATTRIB
  5
62D4
330
62D2
100
AcDbEntity
  8
insertpoint_ECKELT
100
AcDbText
 10
1.199999999999818
 20
0.0
 30
0.0
 40
0.6
  1

100
AcDbAttribute
  2
RECHTS
 70
     0
  0
SEQEND
  5
62D5
330
62D2
100
AcDbEntity
  8
LW 5026-06-01
  0
LINE
  5
62D6
330
6140
100
AcDbEntity
  8
LW 5026-06-01
100
AcDbLine
 10
3.000000000000227
 20
25.00000000000011
 30
0.0
 11
3.000000000000227
 21
-24.99999999999995
 31
0.0
  0
LINE
  5
62D7
330
6140
100
AcDbEntity
  8
LW 5026-06-01
100
AcDbLine
 10
-2.999999999999772
 20
-24.99999999999995
 30
0.0
 11
-2.999999999999772
 21
25.00000000000011
 31
0.0
  0
ENDBLK
  5
6142
330
6140
100
AcDbEntity
  8
0
100
AcDbBlockEnd
  0
BLOCK
  5
62DA
330
62D9
100
AcDbEntity
  8
0
100
AcDbBlockBegin
  2
LW 5026-06-01_b
 70
     0
 10
0.0
 20
0.0
 30
0.0
  3
LW 5026-06-01_b
  1

  0
POLYLINE
  5
62DC
330
62D9
100
AcDbEntity
  8
LW 5026-06-01
100
AcDb2dPolyline
 66
     1
 10
0.0
 20
0.0
 30
0.0
 70
   128
  0
VERTEX
  5
62DD
330
62DC
100
AcDbEntity
  8
LW 5026-06-01
100
AcDbVertex
100
AcDb2dVertex
 10
20.5
 20
-21.65063619614023
 30
0.0
  0
VERTEX
  5
62DE
330
62DC
100
AcDbEntity
  8
LW 5026-06-01
100
AcDbVertex
100
AcDb2dVertex
 10
20.47898697853089
 20
-21.80843830109006
 30
0.0
  0
VERTEX
  5
62DF
330
62DC
100
AcDbEntity
  8
LW 5026-06-01
100
AcDbVertex
100
AcDb2dVertex
 10
20.41565704345703
 20
-21.96433782577878
 30
0.0
  0
VERTEX
  5
62E0
330
62DC
100
AcDbEntity
  8
LW 5026-06-01
100
AcDbVertex
100
AcDb2dVertex
 10
20.30957746505738
 20
-22.11326599121457
 30
0.0
  0
VERTEX
  5
62E1
330
62DC
100
AcDbEntity
  8
LW 5026-06-01
100
AcDbVertex
100
AcDb2dVertex
 10
20.16169476509094
 20
-22.25069761276586
 30
0.0
  0
VERTEX
  5
62E2
330
62DC
100
AcDbEntity
  8
LW 5026-06-01
100
AcDbVertex
100
AcDb2dVertex
 10
19.97847723960876
 20
-22.37386226654394
 30
0.0
  0
VERTEX
  5
62E3
330
62DC
100
AcDbEntity
  8
LW 5026-06-01
100
AcDbVertex
100
AcDb2dVertex
 10
19.76776528358459
 20
-22.48032569885595
 30
0.0
  0
VERTEX
  5
62E4
330
62DC
100
AcDbEntity
  8
LW 5026-06-01
100
AcDbVertex
100
AcDb2dVertex
 10
19.52740001678467
 20
-22.57195234299024
 30
0.0
  0
VERTEX
  5
62E5
330
62DC
100
AcDbEntity
  8
LW 5026-06-01
100
AcDbVertex
100
AcDb2dVertex
 10
19.25476121902466
 20
-22.6503801345857
 30
0.0
  0
VERTEX
  5
62E6
330
62DC
100
AcDbEntity
  8
LW 5026-06-01
100
AcDbVertex
100
AcDb2dVertex
 10
18.95699787139892
 20
-22.71283626556715
 30
0.0
  0
VERTEX
  5
62E7
330
62DC
100
AcDbEntity
  8
LW 5026-06-01
100
AcDbVertex
100
AcDb2dVertex
 10
18.64183115959167
 20
-22.75718688965162
 30
0.0
  0
VERTEX
  5
62E8
330
62DC
100
AcDbEntity
  8
LW 5026-06-01
100
AcDbVertex
100
AcDb2dVertex
 10
18.3192925453186
 20
-22.78345584869703
 30
0.0
  0
VERTEX
  5
62E9
330
62DC
100
AcDbEntity
  8
LW 5026-06-01
100
AcDbVertex
100
AcDb2dVertex
 10
18.0
 20
-22.79211044311842
 30
0.0
  0
VERTEX
  5
62EA
330
62DC
100
AcDbEntity
  8
LW 5026-06-01
100
AcDbVertex
100
AcDb2dVertex
 10
17.68070745468139
 20
-22.78345584869703
 30
0.0
  0
VERTEX
  5
62EB
330
62DC
100
AcDbEntity
  8
LW 5026-06-01
100
AcDbVertex
100
AcDb2dVertex
 10
17.35816884040832
 20
-22.75718688965162
 30
0.0
  0
VERTEX
  5
62EC
330
62DC
100
AcDbEntity
  8
LW 5026-06-01
100
AcDbVertex
100
AcDb2dVertex
 10
17.04300212860107
 20
-22.71283626556715
 30
0.0
  0
VERTEX
  5
62ED
330
62DC
100
AcDbEntity
  8
LW 5026-06-01
100
AcDbVertex
100
AcDb2dVertex
 10
16.74523878097534
 20
-22.6503801345857
 30
0.0
  0
VERTEX
  5
62EE
330
62DC
100
AcDbEntity
  8
LW 5026-06-01
100
AcDbVertex
100
AcDb2dVertex
 10
16.47259998321533
 20
-22.57195234299024
 30
0.0
  0
VERTEX
  5
62EF
330
62DC
100
AcDbEntity
  8
LW 5026-06-01
100
AcDbVertex
100
AcDb2dVertex
 10
16.2322347164154
 20
-22.48032569885595
 30
0.0
  0
VERTEX
  5
62F0
330
62DC
100
AcDbEntity
  8
LW 5026-06-01
100
AcDbVertex
100
AcDb2dVertex
 10
16.02152276039123
 20
-22.37386226654394
 30
0.0
  0
VERTEX
  5
62F1
330
62DC
100
AcDbEntity
  8
LW 5026-06-01
100
AcDbVertex
100
AcDb2dVertex
 10
15.83830523490906
 20
-22.25069761276586
 30
0.0
  0
VERTEX
  5
62F2
330
62DC
100
AcDbEntity
  8
LW 5026-06-01
100
AcDbVertex
100
AcDb2dVertex
 10
15.69042253494262
 20
-22.11326599121457
 30
0.0
  0
VERTEX
  5
62F3
330
62DC
100
AcDbEntity
  8
LW 5026-06-01
100
AcDbVertex
100
AcDb2dVertex
 10
15.58434295654297
 20
-21.96433782577878
 30
0.0
  0
VERTEX
  5
62F4
330
62DC
100
AcDbEntity
  8
LW 5026-06-01
100
AcDbVertex
100
AcDb2dVertex
 10
15.52101302146911
 20
-21.80843830109006
 30
0.0
  0
VERTEX
  5
62F5
330
62DC
100
AcDbEntity
  8
LW 5026-06-01
100
AcDbVertex
100
AcDb2dVertex
 10
15.5
 20
-21.65063619614023
 30
0.0
  0
SEQEND
  5
62F6
330
62DC
100
AcDbEntity
  8
LW 5026-06-01
  0
POLYLINE
  5
62F7
330
62D9
100
AcDbEntity
  8
LW 5026-06-01
100
AcDb2dPolyline
 66
     1
 10
0.0
 20
0.0
 30
0.0
 70
   128
  0
VERTEX
  5
62F8
330
62F7
100
AcDbEntity
  8
LW 5026-06-01
100
AcDbVertex
100
AcDb2dVertex
 10
15.5
 20
-21.65063619614023
 30
0.0
  0
VERTEX
  5
62F9
330
62F7
100
AcDbEntity
  8
LW 5026-06-01
100
AcDbVertex
100
AcDb2dVertex
 10
15.52101302146911
 20
-21.48914575577169
 30
0.0
  0
VERTEX
  5
62FA
330
62F7
100
AcDbEntity
  8
LW 5026-06-01
100
AcDbVertex
100
AcDb2dVertex
 10
15.58434295654297
 20
-21.32250547409455
 30
0.0
  0
VERTEX
  5
62FB
330
62F7
100
AcDbEntity
  8
LW 5026-06-01
100
AcDbVertex
100
AcDb2dVertex
 10
15.69042253494262
 20
-21.15626573563031
 30
0.0
  0
VERTEX
  5
62FC
330
62F7
100
AcDbEntity
  8
LW 5026-06-01
100
AcDbVertex
100
AcDb2dVertex
 10
15.83830523490906
 20
-20.9959340095561
 30
0.0
  0
VERTEX
  5
62FD
330
62F7
100
AcDbEntity
  8
LW 5026-06-01
100
AcDbVertex
100
AcDb2dVertex
 10
16.02152276039123
 20
-20.84645748138848
 30
0.0
  0
VERTEX
  5
62FE
330
62F7
100
AcDbEntity
  8
LW 5026-06-01
100
AcDbVertex
100
AcDb2dVertex
 10
16.2322347164154
 20
-20.71255683899346
 30
0.0
  0
VERTEX
  5
62FF
330
62F7
100
AcDbEntity
  8
LW 5026-06-01
100
AcDbVertex
100
AcDb2dVertex
 10
16.47259998321533
 20
-20.59347152710393
 30
0.0
  0
VERTEX
  5
6300
330
62F7
100
AcDbEntity
  8
LW 5026-06-01
100
AcDbVertex
100
AcDb2dVertex
 10
16.74523878097534
 20
-20.48868179321721
 30
0.0
  0
VERTEX
  5
6301
330
62F7
100
AcDbEntity
  8
LW 5026-06-01
100
AcDbVertex
100
AcDb2dVertex
 10
17.04300212860107
 20
-20.40325641632512
 30
0.0
  0
VERTEX
  5
6302
330
62F7
100
AcDbEntity
  8
LW 5026-06-01
100
AcDbVertex
100
AcDb2dVertex
 10
17.35816884040832
 20
-20.34152984619573
 30
0.0
  0
VERTEX
  5
6303
330
62F7
100
AcDbEntity
  8
LW 5026-06-01
100
AcDbVertex
100
AcDb2dVertex
 10
17.68070745468139
 20
-20.30447006226018
 30
0.0
  0
VERTEX
  5
6304
330
62F7
100
AcDbEntity
  8
LW 5026-06-01
100
AcDbVertex
100
AcDb2dVertex
 10
18.0
 20
-20.29211044311955
 30
0.0
  0
VERTEX
  5
6305
330
62F7
100
AcDbEntity
  8
LW 5026-06-01
100
AcDbVertex
100
AcDb2dVertex
 10
18.3192925453186
 20
-20.30447006226018
 30
0.0
  0
VERTEX
  5
6306
330
62F7
100
AcDbEntity
  8
LW 5026-06-01
100
AcDbVertex
100
AcDb2dVertex
 10
18.64183115959167
 20
-20.34152984619573
 30
0.0
  0
VERTEX
  5
6307
330
62F7
100
AcDbEntity
  8
LW 5026-06-01
100
AcDbVertex
100
AcDb2dVertex
 10
18.95699787139892
 20
-20.40325641632512
 30
0.0
  0
VERTEX
  5
6308
330
62F7
100
AcDbEntity
  8
LW 5026-06-01
100
AcDbVertex
100
AcDb2dVertex
 10
19.25476121902466
 20
-20.48868179321721
 30
0.0
  0
VERTEX
  5
6309
330
62F7
100
AcDbEntity
  8
LW 5026-06-01
100
AcDbVertex
100
AcDb2dVertex
 10
19.52740001678467
 20
-20.59347152710393
 30
0.0
  0
VERTEX
  5
630A
330
62F7
100
AcDbEntity
  8
LW 5026-06-01
100
AcDbVertex
100
AcDb2dVertex
 10
19.76776528358459
 20
-20.71255683899346
 30
0.0
  0
VERTEX
  5
630B
330
62F7
100
AcDbEntity
  8
LW 5026-06-01
100
AcDbVertex
100
AcDb2dVertex
 10
19.97847723960876
 20
-20.84645748138848
 30
0.0
  0
VERTEX
  5
630C
330
62F7
100
AcDbEntity
  8
LW 5026-06-01
100
AcDbVertex
100
AcDb2dVertex
 10
20.16169476509094
 20
-20.9959340095561
 30
0.0
  0
VERTEX
  5
630D
330
62F7
100
AcDbEntity
  8
LW 5026-06-01
100
AcDbVertex
100
AcDb2dVertex
 10
20.30957746505738
 20
-21.15626573563031
 30
0.0
  0
VERTEX
  5
630E
330
62F7
100
AcDbEntity
  8
LW 5026-06-01
100
AcDbVertex
100
AcDb2dVertex
 10
20.41565704345703
 20
-21.32250547409455
 30
0.0
  0
VERTEX
  5
630F
330
62F7
100
AcDbEntity
  8
LW 5026-06-01
100
AcDbVertex
100
AcDb2dVertex
 10
20.47898697853089
 20
-21.48914575577169
 30
0.0
  0
VERTEX
  5
6310
330
62F7
100
AcDbEntity
  8
LW 5026-06-01
100
AcDbVertex
100
AcDb2dVertex
 10
20.5
 20
-21.65063619614023
 30
0.0
  0
SEQEND
  5
6311
330
62F7
100
AcDbEntity
  8
LW 5026-06-01
  0
POLYLINE
  5
6312
330
62D9
100
AcDbEntity
  8
LW 5026-06-01
100
AcDb2dPolyline
 66
     1
 10
0.0
 20
0.0
 30
0.0
 70
   128
  0
VERTEX
  5
6313
330
6312
100
AcDbEntity
  8
LW 5026-06-01
100
AcDbVertex
100
AcDb2dVertex
 10
20.5
 20
21.65063619613272
 30
0.0
  0
VERTEX
  5
6314
330
6312
100
AcDbEntity
  8
LW 5026-06-01
100
AcDbVertex
100
AcDb2dVertex
 10
20.47898697853089
 20
21.48914575576396
 30
0.0
  0
VERTEX
  5
6315
330
6312
100
AcDbEntity
  8
LW 5026-06-01
100
AcDbVertex
100
AcDb2dVertex
 10
20.41565704345703
 20
21.3225054740866
 30
0.0
  0
VERTEX
  5
6316
330
6312
100
AcDbEntity
  8
LW 5026-06-01
100
AcDbVertex
100
AcDb2dVertex
 10
20.30957746505738
 20
21.15626573562213
 30
0.0
  0
VERTEX
  5
6317
330
6312
100
AcDbEntity
  8
LW 5026-06-01
100
AcDbVertex
100
AcDb2dVertex
 10
20.16169476509094
 20
20.99593400954791
 30
0.0
  0
VERTEX
  5
6318
330
6312
100
AcDbEntity
  8
LW 5026-06-01
100
AcDbVertex
100
AcDb2dVertex
 10
19.97847723960876
 20
20.84645748138007
 30
0.0
  0
VERTEX
  5
6319
330
6312
100
AcDbEntity
  8
LW 5026-06-01
100
AcDbVertex
100
AcDb2dVertex
 10
19.76776528358459
 20
20.71255683898505
 30
0.0
  0
VERTEX
  5
631A
330
6312
100
AcDbEntity
  8
LW 5026-06-01
100
AcDbVertex
100
AcDb2dVertex
 10
19.52740001678467
 20
20.59347152709529
 30
0.0
  0
VERTEX
  5
631B
330
6312
100
AcDbEntity
  8
LW 5026-06-01
100
AcDbVertex
100
AcDb2dVertex
 10
19.25476121902466
 20
20.48868179320857
 30
0.0
  0
VERTEX
  5
631C
330
6312
100
AcDbEntity
  8
LW 5026-06-01
100
AcDbVertex
100
AcDb2dVertex
 10
18.95699787139892
 20
20.40325641631648
 30
0.0
  0
VERTEX
  5
631D
330
6312
100
AcDbEntity
  8
LW 5026-06-01
100
AcDbVertex
100
AcDb2dVertex
 10
18.64183115959167
 20
20.34152984618708
 30
0.0
  0
VERTEX
  5
631E
330
6312
100
AcDbEntity
  8
LW 5026-06-01
100
AcDbVertex
100
AcDb2dVertex
 10
18.3192925453186
 20
20.30447006225154
 30
0.0
  0
VERTEX
  5
631F
330
6312
100
AcDbEntity
  8
LW 5026-06-01
100
AcDbVertex
100
AcDb2dVertex
 10
18.0
 20
20.29211044311091
 30
0.0
  0
VERTEX
  5
6320
330
6312
100
AcDbEntity
  8
LW 5026-06-01
100
AcDbVertex
100
AcDb2dVertex
 10
17.68070745468139
 20
20.30447006225154
 30
0.0
  0
VERTEX
  5
6321
330
6312
100
AcDbEntity
  8
LW 5026-06-01
100
AcDbVertex
100
AcDb2dVertex
 10
17.35816884040832
 20
20.34152984618708
 30
0.0
  0
VERTEX
  5
6322
330
6312
100
AcDbEntity
  8
LW 5026-06-01
100
AcDbVertex
100
AcDb2dVertex
 10
17.04300212860107
 20
20.40325641631648
 30
0.0
  0
VERTEX
  5
6323
330
6312
100
AcDbEntity
  8
LW 5026-06-01
100
AcDbVertex
100
AcDb2dVertex
 10
16.74523878097534
 20
20.48868179320857
 30
0.0
  0
VERTEX
  5
6324
330
6312
100
AcDbEntity
  8
LW 5026-06-01
100
AcDbVertex
100
AcDb2dVertex
 10
16.47259998321533
 20
20.59347152709529
 30
0.0
  0
VERTEX
  5
6325
330
6312
100
AcDbEntity
  8
LW 5026-06-01
100
AcDbVertex
100
AcDb2dVertex
 10
16.2322347164154
 20
20.71255683898505
 30
0.0
  0
VERTEX
  5
6326
330
6312
100
AcDbEntity
  8
LW 5026-06-01
100
AcDbVertex
100
AcDb2dVertex
 10
16.02152276039123
 20
20.84645748138007
 30
0.0
  0
VERTEX
  5
6327
330
6312
100
AcDbEntity
  8
LW 5026-06-01
100
AcDbVertex
100
AcDb2dVertex
 10
15.83830523490906
 20
20.99593400954791
 30
0.0
  0
VERTEX
  5
6328
330
6312
100
AcDbEntity
  8
LW 5026-06-01
100
AcDbVertex
100
AcDb2dVertex
 10
15.69042253494262
 20
21.15626573562213
 30
0.0
  0
VERTEX
  5
6329
330
6312
100
AcDbEntity
  8
LW 5026-06-01
100
AcDbVertex
100
AcDb2dVertex
 10
15.58434295654297
 20
21.3225054740866
 30
0.0
  0
VERTEX
  5
632A
330
6312
100
AcDbEntity
  8
LW 5026-06-01
100
AcDbVertex
100
AcDb2dVertex
 10
15.52101302146911
 20
21.48914575576396
 30
0.0
  0
VERTEX
  5
632B
330
6312
100
AcDbEntity
  8
LW 5026-06-01
100
AcDbVertex
100
AcDb2dVertex
 10
15.5
 20
21.65063619613272
 30
0.0
  0
SEQEND
  5
632C
330
6312
100
AcDbEntity
  8
LW 5026-06-01
  0
POLYLINE
  5
632D
330
62D9
100
AcDbEntity
  8
LW 5026-06-01
100
AcDb2dPolyline
 66
     1
 10
0.0
 20
0.0
 30
0.0
 70
   128
  0
VERTEX
  5
632E
330
632D
100
AcDbEntity
  8
LW 5026-06-01
100
AcDbVertex
100
AcDb2dVertex
 10
15.5
 20
21.65063619613272
 30
0.0
  0
VERTEX
  5
632F
330
632D
100
AcDbEntity
  8
LW 5026-06-01
100
AcDbVertex
100
AcDb2dVertex
 10
15.52101302146911
 20
21.80843830108279
 30
0.0
  0
VERTEX
  5
6330
330
632D
100
AcDbEntity
  8
LW 5026-06-01
100
AcDbVertex
100
AcDb2dVertex
 10
15.58434295654297
 20
21.96433782577151
 30
0.0
  0
VERTEX
  5
6331
330
632D
100
AcDbEntity
  8
LW 5026-06-01
100
AcDbVertex
100
AcDb2dVertex
 10
15.69042253494262
 20
22.1132659912073
 30
0.0
  0
VERTEX
  5
6332
330
632D
100
AcDbEntity
  8
LW 5026-06-01
100
AcDbVertex
100
AcDb2dVertex
 10
15.83830523490906
 20
22.25069761275904
 30
0.0
  0
VERTEX
  5
6333
330
632D
100
AcDbEntity
  8
LW 5026-06-01
100
AcDbVertex
100
AcDb2dVertex
 10
16.02152276039123
 20
22.37386226653712
 30
0.0
  0
VERTEX
  5
6334
330
632D
100
AcDbEntity
  8
LW 5026-06-01
100
AcDbVertex
100
AcDb2dVertex
 10
16.2322347164154
 20
22.48032569884913
 30
0.0
  0
VERTEX
  5
6335
330
632D
100
AcDbEntity
  8
LW 5026-06-01
100
AcDbVertex
100
AcDb2dVertex
 10
16.47259998321533
 20
22.57195234298388
 30
0.0
  0
VERTEX
  5
6336
330
632D
100
AcDbEntity
  8
LW 5026-06-01
100
AcDbVertex
100
AcDb2dVertex
 10
16.74523878097534
 20
22.65038013457933
 30
0.0
  0
VERTEX
  5
6337
330
632D
100
AcDbEntity
  8
LW 5026-06-01
100
AcDbVertex
100
AcDb2dVertex
 10
17.04300212860107
 20
22.71283626556078
 30
0.0
  0
VERTEX
  5
6338
330
632D
100
AcDbEntity
  8
LW 5026-06-01
100
AcDbVertex
100
AcDb2dVertex
 10
17.35816884040832
 20
22.75718688964525
 30
0.0
  0
VERTEX
  5
6339
330
632D
100
AcDbEntity
  8
LW 5026-06-01
100
AcDbVertex
100
AcDb2dVertex
 10
17.68070745468139
 20
22.78345584869066
 30
0.0
  0
VERTEX
  5
633A
330
632D
100
AcDbEntity
  8
LW 5026-06-01
100
AcDbVertex
100
AcDb2dVertex
 10
18.0
 20
22.79211044311205
 30
0.0
  0
VERTEX
  5
633B
330
632D
100
AcDbEntity
  8
LW 5026-06-01
100
AcDbVertex
100
AcDb2dVertex
 10
18.3192925453186
 20
22.78345584869066
 30
0.0
  0
VERTEX
  5
633C
330
632D
100
AcDbEntity
  8
LW 5026-06-01
100
AcDbVertex
100
AcDb2dVertex
 10
18.64183115959167
 20
22.75718688964525
 30
0.0
  0
VERTEX
  5
633D
330
632D
100
AcDbEntity
  8
LW 5026-06-01
100
AcDbVertex
100
AcDb2dVertex
 10
18.95699787139892
 20
22.71283626556078
 30
0.0
  0
VERTEX
  5
633E
330
632D
100
AcDbEntity
  8
LW 5026-06-01
100
AcDbVertex
100
AcDb2dVertex
 10
19.25476121902466
 20
22.65038013457933
 30
0.0
  0
VERTEX
  5
633F
330
632D
100
AcDbEntity
  8
LW 5026-06-01
100
AcDbVertex
100
AcDb2dVertex
 10
19.52740001678467
 20
22.57195234298388
 30
0.0
  0
VERTEX
  5
6340
330
632D
100
AcDbEntity
  8
LW 5026-06-01
100
AcDbVertex
100
AcDb2dVertex
 10
19.76776528358459
 20
22.48032569884913
 30
0.0
  0
VERTEX
  5
6341
330
632D
100
AcDbEntity
  8
LW 5026-06-01
100
AcDbVertex
100
AcDb2dVertex
 10
19.97847723960876
 20
22.37386226653712
 30
0.0
  0
VERTEX
  5
6342
330
632D
100
AcDbEntity
  8
LW 5026-06-01
100
AcDbVertex
100
AcDb2dVertex
 10
20.16169476509094
 20
22.25069761275904
 30
0.0
  0
VERTEX
  5
6343
330
632D
100
AcDbEntity
  8
LW 5026-06-01
100
AcDbVertex
100
AcDb2dVertex
 10
20.30957746505738
 20
22.1132659912073
 30
0.0
  0
VERTEX
  5
6344
330
632D
100
AcDbEntity
  8
LW 5026-06-01
100
AcDbVertex
100
AcDb2dVertex
 10
20.41565704345703
 20
21.96433782577151
 30
0.0
  0
VERTEX
  5
6345
330
632D
100
AcDbEntity
  8
LW 5026-06-01
100
AcDbVertex
100
AcDb2dVertex
 10
20.47898697853089
 20
21.80843830108279
 30
0.0
  0
VERTEX
  5
6346
330
632D
100
AcDbEntity
  8
LW 5026-06-01
100
AcDbVertex
100
AcDb2dVertex
 10
20.5
 20
21.65063619613272
 30
0.0
  0
SEQEND
  5
6347
330
632D
100
AcDbEntity
  8
LW 5026-06-01
  0
LINE
  5
6348
330
62D9
100
AcDbEntity
  8
LW 5026-06-01
100
AcDbLine
 10
22.0
 20
-25.0
 30
0.0
 11
22.0
 21
25.0
 31
0.0
  0
LINE
  5
6349
330
62D9
100
AcDbEntity
  8
LW 5026-06-01
100
AcDbLine
 10
28.0
 20
-19.0
 30
0.0
 11
28.0
 21
19.0
 31
0.0
  0
LINE
  5
634A
330
62D9
100
AcDbEntity
  8
LW 5026-06-01
100
AcDbLine
 10
3.0
 20
25.0
 30
0.0
 11
22.0
 21
25.0
 31
0.0
  0
LINE
  5
634B
330
62D9
100
AcDbEntity
  8
LW 5026-06-01
100
AcDbLine
 10
3.0
 20
-25.0
 30
0.0
 11
22.0
 21
-25.0
 31
0.0
  0
LINE
  5
634C
330
62D9
100
AcDbEntity
  8
LW 5026-06-01
100
AcDbLine
 10
28.0
 20
-19.0
 30
0.0
 11
22.0
 21
-25.0
 31
0.0
  0
LINE
  5
634D
330
62D9
100
AcDbEntity
  8
LW 5026-06-01
100
AcDbLine
 10
28.0
 20
19.0
 30
0.0
 11
22.0
 21
25.0
 31
0.0
  0
POLYLINE
  5
634E
330
62D9
100
AcDbEntity
  8
LW 5026-06-01
100
AcDb2dPolyline
 66
     1
 10
0.0
 20
0.0
 30
0.0
 70
   128
  0
VERTEX
  5
634F
330
634E
100
AcDbEntity
  8
LW 5026-06-01
100
AcDbVertex
100
AcDb2dVertex
 10
-20.5
 20
21.65063619613272
 30
0.0
  0
VERTEX
  5
6350
330
634E
100
AcDbEntity
  8
LW 5026-06-01
100
AcDbVertex
100
AcDb2dVertex
 10
-20.47898697853089
 20
21.80843830108279
 30
0.0
  0
VERTEX
  5
6351
330
634E
100
AcDbEntity
  8
LW 5026-06-01
100
AcDbVertex
100
AcDb2dVertex
 10
-20.41565704345703
 20
21.96433782577151
 30
0.0
  0
VERTEX
  5
6352
330
634E
100
AcDbEntity
  8
LW 5026-06-01
100
AcDbVertex
100
AcDb2dVertex
 10
-20.30957746505738
 20
22.1132659912073
 30
0.0
  0
VERTEX
  5
6353
330
634E
100
AcDbEntity
  8
LW 5026-06-01
100
AcDbVertex
100
AcDb2dVertex
 10
-20.16169476509094
 20
22.25069761275904
 30
0.0
  0
VERTEX
  5
6354
330
634E
100
AcDbEntity
  8
LW 5026-06-01
100
AcDbVertex
100
AcDb2dVertex
 10
-19.97847723960876
 20
22.37386226653712
 30
0.0
  0
VERTEX
  5
6355
330
634E
100
AcDbEntity
  8
LW 5026-06-01
100
AcDbVertex
100
AcDb2dVertex
 10
-19.76776528358459
 20
22.48032569884913
 30
0.0
  0
VERTEX
  5
6356
330
634E
100
AcDbEntity
  8
LW 5026-06-01
100
AcDbVertex
100
AcDb2dVertex
 10
-19.52740001678467
 20
22.57195234298388
 30
0.0
  0
VERTEX
  5
6357
330
634E
100
AcDbEntity
  8
LW 5026-06-01
100
AcDbVertex
100
AcDb2dVertex
 10
-19.25476121902466
 20
22.65038013457933
 30
0.0
  0
VERTEX
  5
6358
330
634E
100
AcDbEntity
  8
LW 5026-06-01
100
AcDbVertex
100
AcDb2dVertex
 10
-18.95699787139892
 20
22.71283626556078
 30
0.0
  0
VERTEX
  5
6359
330
634E
100
AcDbEntity
  8
LW 5026-06-01
100
AcDbVertex
100
AcDb2dVertex
 10
-18.64183115959167
 20
22.75718688964525
 30
0.0
  0
VERTEX
  5
635A
330
634E
100
AcDbEntity
  8
LW 5026-06-01
100
AcDbVertex
100
AcDb2dVertex
 10
-18.3192925453186
 20
22.78345584869066
 30
0.0
  0
VERTEX
  5
635B
330
634E
100
AcDbEntity
  8
LW 5026-06-01
100
AcDbVertex
100
AcDb2dVertex
 10
-18.0
 20
22.79211044311205
 30
0.0
  0
VERTEX
  5
635C
330
634E
100
AcDbEntity
  8
LW 5026-06-01
100
AcDbVertex
100
AcDb2dVertex
 10
-17.68070745468139
 20
22.78345584869066
 30
0.0
  0
VERTEX
  5
635D
330
634E
100
AcDbEntity
  8
LW 5026-06-01
100
AcDbVertex
100
AcDb2dVertex
 10
-17.35816884040832
 20
22.75718688964525
 30
0.0
  0
VERTEX
  5
635E
330
634E
100
AcDbEntity
  8
LW 5026-06-01
100
AcDbVertex
100
AcDb2dVertex
 10
-17.04300212860107
 20
22.71283626556078
 30
0.0
  0
VERTEX
  5
635F
330
634E
100
AcDbEntity
  8
LW 5026-06-01
100
AcDbVertex
100
AcDb2dVertex
 10
-16.74523878097534
 20
22.65038013457933
 30
0.0
  0
VERTEX
  5
6360
330
634E
100
AcDbEntity
  8
LW 5026-06-01
100
AcDbVertex
100
AcDb2dVertex
 10
-16.47259998321533
 20
22.57195234298388
 30
0.0
  0
VERTEX
  5
6361
330
634E
100
AcDbEntity
  8
LW 5026-06-01
100
AcDbVertex
100
AcDb2dVertex
 10
-16.2322347164154
 20
22.48032569884913
 30
0.0
  0
VERTEX
  5
6362
330
634E
100
AcDbEntity
  8
LW 5026-06-01
100
AcDbVertex
100
AcDb2dVertex
 10
-16.02152276039123
 20
22.37386226653712
 30
0.0
  0
VERTEX
  5
6363
330
634E
100
AcDbEntity
  8
LW 5026-06-01
100
AcDbVertex
100
AcDb2dVertex
 10
-15.83830523490906
 20
22.25069761275904
 30
0.0
  0
VERTEX
  5
6364
330
634E
100
AcDbEntity
  8
LW 5026-06-01
100
AcDbVertex
100
AcDb2dVertex
 10
-15.69042253494262
 20
22.1132659912073
 30
0.0
  0
VERTEX
  5
6365
330
634E
100
AcDbEntity
  8
LW 5026-06-01
100
AcDbVertex
100
AcDb2dVertex
 10
-15.58434295654297
 20
21.96433782577151
 30
0.0
  0
VERTEX
  5
6366
330
634E
100
AcDbEntity
  8
LW 5026-06-01
100
AcDbVertex
100
AcDb2dVertex
 10
-15.52101302146911
 20
21.80843830108279
 30
0.0
  0
VERTEX
  5
6367
330
634E
100
AcDbEntity
  8
LW 5026-06-01
100
AcDbVertex
100
AcDb2dVertex
 10
-15.5
 20
21.65063619613272
 30
0.0
  0
SEQEND
  5
6368
330
634E
100
AcDbEntity
  8
LW 5026-06-01
  0
POLYLINE
  5
6369
330
62D9
100
AcDbEntity
  8
LW 5026-06-01
100
AcDb2dPolyline
 66
     1
 10
0.0
 20
0.0
 30
0.0
 70
   128
  0
VERTEX
  5
636A
330
6369
100
AcDbEntity
  8
LW 5026-06-01
100
AcDbVertex
100
AcDb2dVertex
 10
-15.5
 20
21.65063619613272
 30
0.0
  0
VERTEX
  5
636B
330
6369
100
AcDbEntity
  8
LW 5026-06-01
100
AcDbVertex
100
AcDb2dVertex
 10
-15.52101302146911
 20
21.48914575576396
 30
0.0
  0
VERTEX
  5
636C
330
6369
100
AcDbEntity
  8
LW 5026-06-01
100
AcDbVertex
100
AcDb2dVertex
 10
-15.58434295654297
 20
21.3225054740866
 30
0.0
  0
VERTEX
  5
636D
330
6369
100
AcDbEntity
  8
LW 5026-06-01
100
AcDbVertex
100
AcDb2dVertex
 10
-15.69042253494262
 20
21.15626573562213
 30
0.0
  0
VERTEX
  5
636E
330
6369
100
AcDbEntity
  8
LW 5026-06-01
100
AcDbVertex
100
AcDb2dVertex
 10
-15.83830523490906
 20
20.99593400954791
 30
0.0
  0
VERTEX
  5
636F
330
6369
100
AcDbEntity
  8
LW 5026-06-01
100
AcDbVertex
100
AcDb2dVertex
 10
-16.02152276039123
 20
20.84645748138007
 30
0.0
  0
VERTEX
  5
6370
330
6369
100
AcDbEntity
  8
LW 5026-06-01
100
AcDbVertex
100
AcDb2dVertex
 10
-16.2322347164154
 20
20.71255683898494
 30
0.0
  0
VERTEX
  5
6371
330
6369
100
AcDbEntity
  8
LW 5026-06-01
100
AcDbVertex
100
AcDb2dVertex
 10
-16.47259998321533
 20
20.59347152709529
 30
0.0
  0
VERTEX
  5
6372
330
6369
100
AcDbEntity
  8
LW 5026-06-01
100
AcDbVertex
100
AcDb2dVertex
 10
-16.74523878097534
 20
20.48868179320857
 30
0.0
  0
VERTEX
  5
6373
330
6369
100
AcDbEntity
  8
LW 5026-06-01
100
AcDbVertex
100
AcDb2dVertex
 10
-17.04300212860107
 20
20.40325641631648
 30
0.0
  0
VERTEX
  5
6374
330
6369
100
AcDbEntity
  8
LW 5026-06-01
100
AcDbVertex
100
AcDb2dVertex
 10
-17.35816884040832
 20
20.34152984618708
 30
0.0
  0
VERTEX
  5
6375
330
6369
100
AcDbEntity
  8
LW 5026-06-01
100
AcDbVertex
100
AcDb2dVertex
 10
-17.68070745468139
 20
20.30447006225154
 30
0.0
  0
VERTEX
  5
6376
330
6369
100
AcDbEntity
  8
LW 5026-06-01
100
AcDbVertex
100
AcDb2dVertex
 10
-18.0
 20
20.29211044311091
 30
0.0
  0
VERTEX
  5
6377
330
6369
100
AcDbEntity
  8
LW 5026-06-01
100
AcDbVertex
100
AcDb2dVertex
 10
-18.3192925453186
 20
20.30447006225154
 30
0.0
  0
VERTEX
  5
6378
330
6369
100
AcDbEntity
  8
LW 5026-06-01
100
AcDbVertex
100
AcDb2dVertex
 10
-18.64183115959167
 20
20.34152984618708
 30
0.0
  0
VERTEX
  5
6379
330
6369
100
AcDbEntity
  8
LW 5026-06-01
100
AcDbVertex
100
AcDb2dVertex
 10
-18.95699787139892
 20
20.40325641631648
 30
0.0
  0
VERTEX
  5
637A
330
6369
100
AcDbEntity
  8
LW 5026-06-01
100
AcDbVertex
100
AcDb2dVertex
 10
-19.25476121902466
 20
20.48868179320857
 30
0.0
  0
VERTEX
  5
637B
330
6369
100
AcDbEntity
  8
LW 5026-06-01
100
AcDbVertex
100
AcDb2dVertex
 10
-19.52740001678467
 20
20.59347152709529
 30
0.0
  0
VERTEX
  5
637C
330
6369
100
AcDbEntity
  8
LW 5026-06-01
100
AcDbVertex
100
AcDb2dVertex
 10
-19.76776528358459
 20
20.71255683898494
 30
0.0
  0
VERTEX
  5
637D
330
6369
100
AcDbEntity
  8
LW 5026-06-01
100
AcDbVertex
100
AcDb2dVertex
 10
-19.97847723960876
 20
20.84645748138007
 30
0.0
  0
VERTEX
  5
637E
330
6369
100
AcDbEntity
  8
LW 5026-06-01
100
AcDbVertex
100
AcDb2dVertex
 10
-20.16169476509094
 20
20.99593400954791
 30
0.0
  0
VERTEX
  5
637F
330
6369
100
AcDbEntity
  8
LW 5026-06-01
100
AcDbVertex
100
AcDb2dVertex
 10
-20.30957746505738
 20
21.15626573562213
 30
0.0
  0
VERTEX
  5
6380
330
6369
100
AcDbEntity
  8
LW 5026-06-01
100
AcDbVertex
100
AcDb2dVertex
 10
-20.41565704345703
 20
21.3225054740866
 30
0.0
  0
VERTEX
  5
6381
330
6369
100
AcDbEntity
  8
LW 5026-06-01
100
AcDbVertex
100
AcDb2dVertex
 10
-20.47898697853089
 20
21.48914575576396
 30
0.0
  0
VERTEX
  5
6382
330
6369
100
AcDbEntity
  8
LW 5026-06-01
100
AcDbVertex
100
AcDb2dVertex
 10
-20.5
 20
21.65063619613272
 30
0.0
  0
SEQEND
  5
6383
330
6369
100
AcDbEntity
  8
LW 5026-06-01
  0
POLYLINE
  5
6384
330
62D9
100
AcDbEntity
  8
LW 5026-06-01
100
AcDb2dPolyline
 66
     1
 10
0.0
 20
0.0
 30
0.0
 70
   128
  0
VERTEX
  5
6385
330
6384
100
AcDbEntity
  8
LW 5026-06-01
100
AcDbVertex
100
AcDb2dVertex
 10
-20.5
 20
-21.65063619614023
 30
0.0
  0
VERTEX
  5
6386
330
6384
100
AcDbEntity
  8
LW 5026-06-01
100
AcDbVertex
100
AcDb2dVertex
 10
-20.47898697853089
 20
-21.48914575577169
 30
0.0
  0
VERTEX
  5
6387
330
6384
100
AcDbEntity
  8
LW 5026-06-01
100
AcDbVertex
100
AcDb2dVertex
 10
-20.41565704345703
 20
-21.32250547409455
 30
0.0
  0
VERTEX
  5
6388
330
6384
100
AcDbEntity
  8
LW 5026-06-01
100
AcDbVertex
100
AcDb2dVertex
 10
-20.30957746505738
 20
-21.15626573563031
 30
0.0
  0
VERTEX
  5
6389
330
6384
100
AcDbEntity
  8
LW 5026-06-01
100
AcDbVertex
100
AcDb2dVertex
 10
-20.16169476509094
 20
-20.9959340095561
 30
0.0
  0
VERTEX
  5
638A
330
6384
100
AcDbEntity
  8
LW 5026-06-01
100
AcDbVertex
100
AcDb2dVertex
 10
-19.97847723960876
 20
-20.84645748138848
 30
0.0
  0
VERTEX
  5
638B
330
6384
100
AcDbEntity
  8
LW 5026-06-01
100
AcDbVertex
100
AcDb2dVertex
 10
-19.76776528358459
 20
-20.71255683899358
 30
0.0
  0
VERTEX
  5
638C
330
6384
100
AcDbEntity
  8
LW 5026-06-01
100
AcDbVertex
100
AcDb2dVertex
 10
-19.52740001678467
 20
-20.59347152710393
 30
0.0
  0
VERTEX
  5
638D
330
6384
100
AcDbEntity
  8
LW 5026-06-01
100
AcDbVertex
100
AcDb2dVertex
 10
-19.25476121902466
 20
-20.48868179321721
 30
0.0
  0
VERTEX
  5
638E
330
6384
100
AcDbEntity
  8
LW 5026-06-01
100
AcDbVertex
100
AcDb2dVertex
 10
-18.95699787139892
 20
-20.40325641632512
 30
0.0
  0
VERTEX
  5
638F
330
6384
100
AcDbEntity
  8
LW 5026-06-01
100
AcDbVertex
100
AcDb2dVertex
 10
-18.64183115959167
 20
-20.34152984619573
 30
0.0
  0
VERTEX
  5
6390
330
6384
100
AcDbEntity
  8
LW 5026-06-01
100
AcDbVertex
100
AcDb2dVertex
 10
-18.3192925453186
 20
-20.30447006226018
 30
0.0
  0
VERTEX
  5
6391
330
6384
100
AcDbEntity
  8
LW 5026-06-01
100
AcDbVertex
100
AcDb2dVertex
 10
-18.0
 20
-20.29211044311955
 30
0.0
  0
VERTEX
  5
6392
330
6384
100
AcDbEntity
  8
LW 5026-06-01
100
AcDbVertex
100
AcDb2dVertex
 10
-17.68070745468139
 20
-20.30447006226018
 30
0.0
  0
VERTEX
  5
6393
330
6384
100
AcDbEntity
  8
LW 5026-06-01
100
AcDbVertex
100
AcDb2dVertex
 10
-17.35816884040832
 20
-20.34152984619573
 30
0.0
  0
VERTEX
  5
6394
330
6384
100
AcDbEntity
  8
LW 5026-06-01
100
AcDbVertex
100
AcDb2dVertex
 10
-17.04300212860107
 20
-20.40325641632512
 30
0.0
  0
VERTEX
  5
6395
330
6384
100
AcDbEntity
  8
LW 5026-06-01
100
AcDbVertex
100
AcDb2dVertex
 10
-16.74523878097534
 20
-20.48868179321721
 30
0.0
  0
VERTEX
  5
6396
330
6384
100
AcDbEntity
  8
LW 5026-06-01
100
AcDbVertex
100
AcDb2dVertex
 10
-16.47259998321533
 20
-20.59347152710393
 30
0.0
  0
VERTEX
  5
6397
330
6384
100
AcDbEntity
  8
LW 5026-06-01
100
AcDbVertex
100
AcDb2dVertex
 10
-16.2322347164154
 20
-20.71255683899358
 30
0.0
  0
VERTEX
  5
6398
330
6384
100
AcDbEntity
  8
LW 5026-06-01
100
AcDbVertex
100
AcDb2dVertex
 10
-16.02152276039123
 20
-20.84645748138848
 30
0.0
  0
VERTEX
  5
6399
330
6384
100
AcDbEntity
  8
LW 5026-06-01
100
AcDbVertex
100
AcDb2dVertex
 10
-15.83830523490906
 20
-20.9959340095561
 30
0.0
  0
VERTEX
  5
639A
330
6384
100
AcDbEntity
  8
LW 5026-06-01
100
AcDbVertex
100
AcDb2dVertex
 10
-15.69042253494262
 20
-21.15626573563031
 30
0.0
  0
VERTEX
  5
639B
330
6384
100
AcDbEntity
  8
LW 5026-06-01
100
AcDbVertex
100
AcDb2dVertex
 10
-15.58434295654297
 20
-21.32250547409455
 30
0.0
  0
VERTEX
  5
639C
330
6384
100
AcDbEntity
  8
LW 5026-06-01
100
AcDbVertex
100
AcDb2dVertex
 10
-15.52101302146911
 20
-21.48914575577169
 30
0.0
  0
VERTEX
  5
639D
330
6384
100
AcDbEntity
  8
LW 5026-06-01
100
AcDbVertex
100
AcDb2dVertex
 10
-15.5
 20
-21.65063619614023
 30
0.0
  0
SEQEND
  5
639E
330
6384
100
AcDbEntity
  8
LW 5026-06-01
  0
POLYLINE
  5
639F
330
62D9
100
AcDbEntity
  8
LW 5026-06-01
100
AcDb2dPolyline
 66
     1
 10
0.0
 20
0.0
 30
0.0
 70
   128
  0
VERTEX
  5
63A0
330
639F
100
AcDbEntity
  8
LW 5026-06-01
100
AcDbVertex
100
AcDb2dVertex
 10
-15.5
 20
-21.65063619614023
 30
0.0
  0
VERTEX
  5
63A1
330
639F
100
AcDbEntity
  8
LW 5026-06-01
100
AcDbVertex
100
AcDb2dVertex
 10
-15.52101302146911
 20
-21.80843830109006
 30
0.0
  0
VERTEX
  5
63A2
330
639F
100
AcDbEntity
  8
LW 5026-06-01
100
AcDbVertex
100
AcDb2dVertex
 10
-15.58434295654297
 20
-21.96433782577878
 30
0.0
  0
VERTEX
  5
63A3
330
639F
100
AcDbEntity
  8
LW 5026-06-01
100
AcDbVertex
100
AcDb2dVertex
 10
-15.69042253494262
 20
-22.11326599121457
 30
0.0
  0
VERTEX
  5
63A4
330
639F
100
AcDbEntity
  8
LW 5026-06-01
100
AcDbVertex
100
AcDb2dVertex
 10
-15.83830523490906
 20
-22.25069761276586
 30
0.0
  0
VERTEX
  5
63A5
330
639F
100
AcDbEntity
  8
LW 5026-06-01
100
AcDbVertex
100
AcDb2dVertex
 10
-16.02152276039123
 20
-22.37386226654394
 30
0.0
  0
VERTEX
  5
63A6
330
639F
100
AcDbEntity
  8
LW 5026-06-01
100
AcDbVertex
100
AcDb2dVertex
 10
-16.2322347164154
 20
-22.48032569885595
 30
0.0
  0
VERTEX
  5
63A7
330
639F
100
AcDbEntity
  8
LW 5026-06-01
100
AcDbVertex
100
AcDb2dVertex
 10
-16.47259998321533
 20
-22.57195234299024
 30
0.0
  0
VERTEX
  5
63A8
330
639F
100
AcDbEntity
  8
LW 5026-06-01
100
AcDbVertex
100
AcDb2dVertex
 10
-16.74523878097534
 20
-22.6503801345857
 30
0.0
  0
VERTEX
  5
63A9
330
639F
100
AcDbEntity
  8
LW 5026-06-01
100
AcDbVertex
100
AcDb2dVertex
 10
-17.04300212860107
 20
-22.71283626556715
 30
0.0
  0
VERTEX
  5
63AA
330
639F
100
AcDbEntity
  8
LW 5026-06-01
100
AcDbVertex
100
AcDb2dVertex
 10
-17.35816884040832
 20
-22.75718688965162
 30
0.0
  0
VERTEX
  5
63AB
330
639F
100
AcDbEntity
  8
LW 5026-06-01
100
AcDbVertex
100
AcDb2dVertex
 10
-17.68070745468139
 20
-22.78345584869703
 30
0.0
  0
VERTEX
  5
63AC
330
639F
100
AcDbEntity
  8
LW 5026-06-01
100
AcDbVertex
100
AcDb2dVertex
 10
-18.0
 20
-22.79211044311842
 30
0.0
  0
VERTEX
  5
63AD
330
639F
100
AcDbEntity
  8
LW 5026-06-01
100
AcDbVertex
100
AcDb2dVertex
 10
-18.3192925453186
 20
-22.78345584869703
 30
0.0
  0
VERTEX
  5
63AE
330
639F
100
AcDbEntity
  8
LW 5026-06-01
100
AcDbVertex
100
AcDb2dVertex
 10
-18.64183115959167
 20
-22.75718688965162
 30
0.0
  0
VERTEX
  5
63AF
330
639F
100
AcDbEntity
  8
LW 5026-06-01
100
AcDbVertex
100
AcDb2dVertex
 10
-18.95699787139892
 20
-22.71283626556715
 30
0.0
  0
VERTEX
  5
63B0
330
639F
100
AcDbEntity
  8
LW 5026-06-01
100
AcDbVertex
100
AcDb2dVertex
 10
-19.25476121902466
 20
-22.6503801345857
 30
0.0
  0
VERTEX
  5
63B1
330
639F
100
AcDbEntity
  8
LW 5026-06-01
100
AcDbVertex
100
AcDb2dVertex
 10
-19.52740001678467
 20
-22.57195234299024
 30
0.0
  0
VERTEX
  5
63B2
330
639F
100
AcDbEntity
  8
LW 5026-06-01
100
AcDbVertex
100
AcDb2dVertex
 10
-19.76776528358459
 20
-22.48032569885595
 30
0.0
  0
VERTEX
  5
63B3
330
639F
100
AcDbEntity
  8
LW 5026-06-01
100
AcDbVertex
100
AcDb2dVertex
 10
-19.97847723960876
 20
-22.37386226654394
 30
0.0
  0
VERTEX
  5
63B4
330
639F
100
AcDbEntity
  8
LW 5026-06-01
100
AcDbVertex
100
AcDb2dVertex
 10
-20.16169476509094
 20
-22.25069761276586
 30
0.0
  0
VERTEX
  5
63B5
330
639F
100
AcDbEntity
  8
LW 5026-06-01
100
AcDbVertex
100
AcDb2dVertex
 10
-20.30957746505738
 20
-22.11326599121457
 30
0.0
  0
VERTEX
  5
63B6
330
639F
100
AcDbEntity
  8
LW 5026-06-01
100
AcDbVertex
100
AcDb2dVertex
 10
-20.41565704345703
 20
-21.96433782577878
 30
0.0
  0
VERTEX
  5
63B7
330
639F
100
AcDbEntity
  8
LW 5026-06-01
100
AcDbVertex
100
AcDb2dVertex
 10
-20.47898697853089
 20
-21.80843830109006
 30
0.0
  0
VERTEX
  5
63B8
330
639F
100
AcDbEntity
  8
LW 5026-06-01
100
AcDbVertex
100
AcDb2dVertex
 10
-20.5
 20
-21.65063619614023
 30
0.0
  0
SEQEND
  5
63B9
330
639F
100
AcDbEntity
  8
LW 5026-06-01
  0
LINE
  5
63BA
330
62D9
100
AcDbEntity
  8
LW 5026-06-01
100
AcDbLine
 10
-22.0
 20
25.0
 30
0.0
 11
-22.0
 21
-25.0
 31
0.0
  0
LINE
  5
63BB
330
62D9
100
AcDbEntity
  8
LW 5026-06-01
100
AcDbLine
 10
-28.0
 20
19.0
 30
0.0
 11
-28.0
 21
-19.0
 31
0.0
  0
LINE
  5
63BC
330
62D9
100
AcDbEntity
  8
LW 5026-06-01
100
AcDbLine
 10
-122.0
 20
10.0
 30
0.0
 11
-122.0
 21
-10.0
 31
0.0
  0
LINE
  5
63BD
330
62D9
100
AcDbEntity
  8
LW 5026-06-01
100
AcDbLine
 10
-123.0
 20
9.0
 30
0.0
 11
-123.0
 21
-9.0
 31
0.0
  0
LINE
  5
63BE
330
62D9
100
AcDbEntity
  8
LW 5026-06-01
100
AcDbLine
 10
-3.0
 20
-25.0
 30
0.0
 11
-22.0
 21
-25.0
 31
0.0
  0
LINE
  5
63BF
330
62D9
100
AcDbEntity
  8
LW 5026-06-01
100
AcDbLine
 10
-3.0
 20
25.0
 30
0.0
 11
-22.0
 21
25.0
 31
0.0
  0
LINE
  5
63C0
330
62D9
100
AcDbEntity
  8
LW 5026-06-01
100
AcDbLine
 10
-28.0
 20
19.0
 30
0.0
 11
-22.0
 21
25.0
 31
0.0
  0
LINE
  5
63C1
330
62D9
100
AcDbEntity
  8
LW 5026-06-01
100
AcDbLine
 10
-28.0
 20
-19.0
 30
0.0
 11
-22.0
 21
-25.0
 31
0.0
  0
ARC
  5
63C2
330
62D9
100
AcDbEntity
  8
LW 5026-06-01
100
AcDbCircle
 10
-29.0
 20
11.0
 30
0.0
 40
1.000000000000002
100
AcDbArc
 50
270.0
 51
0.0
  0
ARC
  5
63C3
330
62D9
100
AcDbEntity
  8
LW 5026-06-01
100
AcDbCircle
 10
-29.0
 20
-11.0
 30
0.0
 40
1.000000000000002
100
AcDbArc
 50
0.0
 51
90.0
  0
LINE
  5
63C4
330
62D9
100
AcDbEntity
  8
LW 5026-06-01
100
AcDbLine
 10
-29.0
 20
-10.0
 30
0.0
 11
-73.638593383655
 21
-10.0
 31
0.0
  0
LINE
  5
63C5
330
62D9
100
AcDbEntity
  8
LW 5026-06-01
100
AcDbLine
 10
-102.361406616345
 20
-10.0
 30
0.0
 11
-122.0
 21
-10.0
 31
0.0
  0
LINE
  5
63C6
330
62D9
100
AcDbEntity
  8
LW 5026-06-01
100
AcDbLine
 10
-29.0
 20
10.0
 30
0.0
 11
-73.638593383655
 21
10.0
 31
0.0
  0
LINE
  5
63C7
330
62D9
100
AcDbEntity
  8
LW 5026-06-01
100
AcDbLine
 10
-102.3614066163452
 20
10.0
 30
0.0
 11
-122.0
 21
10.0
 31
0.0
  0
LINE
  5
63C8
330
62D9
100
AcDbEntity
  8
LW 5026-06-01
100
AcDbLine
 10
-123.0
 20
9.0
 30
0.0
 11
-122.0
 21
10.0
 31
0.0
  0
LINE
  5
63C9
330
62D9
100
AcDbEntity
  8
LW 5026-06-01
100
AcDbLine
 10
-123.0
 20
-9.0
 30
0.0
 11
-122.0
 21
-10.0
 31
0.0
  0
CIRCLE
  5
63CA
330
62D9
100
AcDbEntity
  8
LW 5026-06-01
100
AcDbCircle
 10
-88.0
 20
-0.000000000005457
 30
0.0
 40
17.50000000000001
  0
LINE
  5
63CB
330
62D9
100
AcDbEntity
  8
LW 5026-06-01
100
AcDbLine
 10
-89.98944190603811
 20
17.38654999999926
 30
0.0
 11
-91.0
 21
17.38654999999994
 31
0.0
  0
LINE
  5
63CC
330
62D9
100
AcDbEntity
  8
LW 5026-06-01
100
AcDbLine
 10
-85.0
 20
17.38654999999994
 30
0.0
 11
-86.01055809396166
 21
17.38654999999926
 31
0.0
  0
LINE
  5
63CD
330
62D9
100
AcDbEntity
  8
LW 5026-06-01
100
AcDbLine
 10
-90.64582447736574
 20
17.99999999999988
 30
0.0
 11
-85.35417552263448
 21
17.99999999999988
 31
0.0
  0
LINE
  5
63CE
330
62D9
100
AcDbEntity
  8
LW 5026-06-01
100
AcDbLine
 10
-85.35417552263448
 20
17.99999999999988
 30
0.0
 11
-85.0
 21
17.38654999999994
 31
0.0
  0
LINE
  5
63CF
330
62D9
100
AcDbEntity
  8
LW 5026-06-01
100
AcDbLine
 10
-90.64582447736574
 20
17.99999999999988
 30
0.0
 11
-91.0
 21
17.38654999999994
 31
0.0
  0
LINE
  5
63D0
330
62D9
100
AcDbEntity
  8
LW 5026-06-01
100
AcDbLine
 10
-91.0
 20
17.2409396495666
 30
0.0
 11
-91.0
 21
17.38654999999994
 31
0.0
  0
LINE
  5
63D1
330
62D9
100
AcDbEntity
  8
LW 5026-06-01
100
AcDbLine
 10
-85.0
 20
17.2409396495666
 30
0.0
 11
-85.0
 21
17.38654999999994
 31
0.0
  0
LINE
  5
63D2
330
62D9
100
AcDbEntity
  8
LW 5026-06-01
100
AcDbLine
 10
-90.40100000000007
 20
17.38654999999994
 30
0.0
 11
-90.40100000000007
 21
17.33450890564825
 31
0.0
  0
LINE
  5
63D3
330
62D9
100
AcDbEntity
  8
LW 5026-06-01
100
AcDbLine
 10
-85.59900000000016
 20
17.33450890564825
 30
0.0
 11
-85.59900000000016
 21
17.38654999999994
 31
0.0
  0
LINE
  5
63D4
330
62D9
100
AcDbEntity
  8
LW 5026-06-01
100
AcDbLine
 10
-89.98944190603811
 20
17.38654999999926
 30
0.0
 11
-91.0
 21
17.38654999999994
 31
0.0
  0
LINE
  5
63D5
330
62D9
100
AcDbEntity
  8
LW 5026-06-01
100
AcDbLine
 10
-85.0
 20
17.38654999999994
 30
0.0
 11
-86.01055809396166
 21
17.38654999999926
 31
0.0
  0
LINE
  5
63D6
330
62D9
100
AcDbEntity
  8
LW 5026-06-01
100
AcDbLine
 10
2.999999999999998
 20
-7.000000000000113
 30
0.0
 11
-3.0
 21
-7.000000000000113
 31
0.0
  0
LINE
  5
63D7
330
62D9
100
AcDbEntity
  8
LW 5026-06-01
100
AcDbLine
 10
3.0
 20
7.000000000000085
 30
0.0
 11
-3.0
 21
7.0
 31
0.0
  0
LINE
  5
63D8
330
62D9
100
AcDbEntity
  8
LW 5026-06-01
 62
     3
100
AcDbLine
 10
-3.0
 20
-5.794500000000084
 30
0.0
 11
3.0
 21
-5.794500000000084
 31
0.0
  0
LINE
  5
63D9
330
62D9
100
AcDbEntity
  8
LW 5026-06-01
 62
     3
100
AcDbLine
 10
3.0
 20
5.794499999999999
 30
0.0
 11
-3.0
 21
5.79449999999997
 31
0.0
  0
LINE
  5
63DA
330
62D9
100
AcDbEntity
  8
LW 5026-06-01
  6
MITTE2
 62
     3
100
AcDbLine
 10
-88.0
 20
22.49999999999454
 30
0.0
 11
-88.0
 21
-22.50000000000546
 31
0.0
  0
LINE
  5
63DB
330
62D9
100
AcDbEntity
  8
LW 5026-06-01
  6
MITTE2
 62
     3
100
AcDbLine
 10
41.3443034851964
 20
0.0
 30
0.0
 11
-126.3443034851966
 21
0.0
 31
0.0
  0
HATCH
  5
63DC
330
62D9
100
AcDbEntity
  8
LW 5026-06-01
 62
     1
100
AcDbHatch
 10
0.0
 20
0.0
 30
0.0
210
0.0
220
0.0
230
1.0
  2
SOLID
 70
     1
 71
     0
 91
        5
 92
        7
 72
     0
 73
     1
 93
       76
 10
-56.51416405934924
 20
5.869698514444621
 10
-56.48230522997642
 20
5.921279476286372
 10
-56.36414710574513
 20
6.0725218753023
 10
-56.22966903053248
 20
6.212946005564845
 10
-56.08364912407092
 20
6.341330567278191
 10
-55.91998032798892
 20
6.458236850193998
 10
-55.74459337462418
 20
6.560414732015601
 10
-55.5628404420238
 20
6.651766411598487
 10
-55.38167150655818
 20
6.721284724044608
 10
-57.63880944475818
 20
6.721284724044608
 10
-57.8517059971582
 20
6.71259506884462
 10
-58.05374048055819
 20
6.686526103244659
 10
-58.24925772255824
 20
6.64525024104455
 10
-58.43391289555802
 20
6.590939896044574
 10
-58.60987841335827
 20
6.521422654444563
 10
-58.77715427595808
 20
6.438870930044458
 10
-58.92772253850512
 20
6.343545412500589
 10
-59.07043013895805
 20
6.236836446644474
 10
-59.19587139452869
 20
6.117788170404423
 10
-59.30713634660605
 20
5.989528859652523
 10
-59.40715427795817
 20
5.852319204044533
 10
-59.48970600235816
 20
5.706767479444465
 10
-59.55270600255812
 20
5.55252609964441
 10
-59.60267151995799
 20
5.391767478444535
 10
-59.63091289935801
 20
5.226664029644553
 10
-59.63960255455799
 20
5.052870925644583
 10
-59.62874048555796
 20
4.879077821644386
 10
-59.59832669235812
 20
4.711801959044464
 10
-59.54401634735791
 20
4.551043337844475
 10
-59.47449910575802
 20
4.39462954424448
 10
-59.38543013995786
 20
4.246905405844472
 10
-59.27898186375796
 20
4.105698508844625
 10
-59.15628393233396
 20
3.974484715324479
 10
-59.02008488362572
 20
3.853350921836636
 10
-58.87274048315794
 20
3.742905404244538
 10
-58.71198186195783
 20
3.645146783244626
 10
-58.53635524071069
 20
3.560248851940514
 10
-58.35570599875814
 20
3.486560575844578
 10
-58.16453358435797
 20
3.430077817044548
 10
-57.96467151475804
 20
3.386629541044612
 10
-57.75611978995812
 20
3.360560575444537
 10
-57.54539565135814
 20
3.35187092024455
 10
-55.42622456560548
 20
3.351870920244664
 10
-55.58676842965792
 20
3.414941723979609
 10
-55.77033257346034
 20
3.505561997502354
 10
-55.93879897963052
 20
3.610091690433819
 10
-56.10163187439116
 20
3.725709928859259
 10
-56.2455442427613
 20
3.855499525399181
 10
-56.37298013624558
 20
3.994853208627773
 10
-56.48668549098897
 20
4.145341453340279
 10
-56.53865672243774
 20
4.229526095444612
 10
-57.567119789358
 20
4.229526095444498
 10
-57.69922861736358
 20
4.237086095468612
 10
-57.82998185915812
 20
4.257419888636604
 10
-57.95815427335788
 20
4.290353681844521
 10
-58.07329220475799
 20
4.335974371644624
 10
-58.17823717060832
 20
4.39245713044454
 10
-58.27638682609245
 20
4.460062647900485
 10
-58.36656806775796
 20
4.538008855044495
 10
-58.4382577231579
 20
4.62273299324454
 10
-56.71073640889926
 20
4.622732993244653
 10
-56.72132087617228
 20
4.655368434002866
 10
-56.75743268413658
 20
4.840742381554036
 10
-56.76947633691838
 20
5.03103209550477
 10
-56.75745466448893
 20
5.22578318885985
 10
-56.72114894281367
 20
5.412152560126287
 10
-56.70455024013882
 20
5.461284720044545
 10
-58.47518875775813
 20
5.461284720044545
 10
-58.405671516158
 20
5.556870927244517
 10
-58.32311979175802
 20
5.639422651644508
 10
-58.22802889490458
 20
5.709287479452541
 10
-58.12543013595814
 20
5.767595065844602
 10
-58.00673813558137
 20
5.811564721156514
 10
-57.8842922041581
 20
5.843629548844546
 10
-57.74743013475813
 20
5.863181273044574
 10
-57.604050823958
 20
5.869698514444507
 97
        0
 92
        7
 72
     0
 73
     1
 93
       72
 10
-54.7857001943214
 20
5.855099893708597
 10
-54.6628371594486
 20
5.873174376524616
 10
-54.53877495215806
 20
5.878388169644722
 10
-53.27008529295813
 20
5.878388169644722
 10
-54.11732667495812
 20
5.063732994644851
 10
-52.35115425555796
 20
3.34535367884473
 10
-51.03249907895815
 20
3.34535367884473
 10
-52.74653356715794
 20
5.087629546444759
 10
-51.06508528595805
 20
6.721284724044835
 10
-54.50401633135811
 20
6.721284724044608
 10
-54.71200322857021
 20
6.710509551596715
 10
-54.91872143612295
 20
6.68504886186065
 10
-55.12315426435816
 20
6.645250241044664
 10
-55.31649909255816
 20
6.588767482244634
 10
-55.50332667935823
 20
6.51707782684457
 10
-55.67448681783253
 20
6.431050240364584
 10
-55.84005081835812
 20
6.334595067644613
 10
-55.99211978435801
 20
6.225974377644661
 10
-56.12781743996129
 20
6.106665411748622
 10
-56.25280944035807
 20
5.976146790644634
 10
-56.36143013035826
 20
5.837112307444613
 10
-56.45267150995801
 20
5.689388169044718
 10
-56.52436116535819
 20
5.535146789244663
 10
-56.57867151035816
 20
5.374388168044561
 10
-56.61125771735806
 20
5.207112305444525
 10
-56.62211978635809
 20
5.031146787644502
 10
-56.61125771735806
 20
4.859526097444586
 10
-56.57867151035794
 20
4.692250234844664
 10
-56.52653357915801
 20
4.531491613644675
 10
-56.45701633755812
 20
4.37725023384462
 10
-56.36517537174928
 20
4.228483336820772
 10
-56.25979592313888
 20
4.089014370860581
 10
-56.14179040552267
 20
3.959972991140716
 10
-56.00949909475798
 20
3.840664025244677
 10
-55.85737799082676
 20
3.732651611108622
 10
-55.69884392135804
 20
3.634284714244586
 10
-55.52722323115791
 20
3.549560576044655
 10
-55.34474047195795
 20
3.477870920644591
 10
-55.15050929892755
 20
3.423821265300603
 10
-54.95370598795807
 20
3.380112299644679
 10
-54.74515426315793
 20
3.354043334044717
 10
-54.53443012455796
 20
3.34535367884473
 10
-52.63139563575805
 20
3.34535367884473
 10
-53.5177404661581
 20
4.218664026444685
 10
-54.53443012455796
 20
4.218664026444685
 10
-54.6010971592525
 20
4.222411319384036
 10
-54.70204488371087
 20
4.232393681660596
 10
-54.82217936685083
 20
4.253857130004689
 10
-54.93929853963641
 20
4.288181268044581
 10
-55.04079371237231
 20
4.329109544036668
 10
-55.09692888496442
 20
4.357264026884649
 10
-55.15061357478998
 20
4.389850233884772
 10
-55.28317426486615
 20
4.489172992820613
 10
-55.35677564440994
 20
4.559211613732713
 10
-55.41184198941232
 20
4.627077820844533
 10
-55.46054750680855
 20
4.699636441764596
 10
-55.4999116448646
 20
4.776800579940527
 10
-55.52933481737159
 20
4.858222649164645
 10
-55.55003357605801
 20
4.945379890820731
 10
-55.55755012780605
 20
5.034709546276531
 10
-55.55619454159478
 20
5.097014374060563
 10
-55.55018998985156
 20
5.159145408740528
 10
-55.53803316222683
 20
5.222319202044673
 10
-55.51981964492757
 20
5.284015753964695
 10
-55.47617150685823
 20
5.382730237036525
 10
-55.43464364465717
 20
5.450596444148573
 10
-55.37156543756054
 20
5.528629547844616
 10
-55.24216349719563
 20
5.655152284898349
 10
-55.18289564385804
 20
5.695210238028721
 10
-55.106600471202
 20
5.739527479548542
 10
-55.02258019507326
 20
5.78167230726865
 10
-54.90604322918603
 20
5.824512307404688
 97
        0
 92
        7
 72
     0
 73
     1
 93
       57
 10
-50.22766321433391
 20
5.833028169500948
 10
-50.09618873115801
 20
5.873000583420889
 10
-49.9614990755581
 20
5.900112307644917
 10
-49.81811976475819
 20
5.90880196284479
 10
-48.57767148495804
 20
5.908801962844904
 10
-48.57767148495804
 20
6.734319206844929
 10
-49.81160252335803
 20
6.734319206844816
 10
-50.022326661958
 20
6.725629551644829
 10
-50.2287059729581
 20
6.697388172244814
 10
-50.42639562875797
 20
6.656112310044818
 10
-50.61539562935809
 20
6.601801965044842
 10
-50.8000508023581
 20
6.530112309644891
 10
-50.96645769943825
 20
6.447473688692753
 10
-51.12527852752851
 20
6.351018515972782
 10
-51.27535756248767
 20
6.241528860452717
 10
-51.40991687325959
 20
6.122306791108826
 10
-51.52998183915816
 20
5.993526101044835
 10
-51.634257701558
 20
5.854491617844814
 10
-51.71898183975804
 20
5.708939893244746
 10
-51.79067149515822
 20
5.554698513444691
 10
-51.84063701255809
 20
5.393939892244816
 10
-51.87322321955798
 20
5.226664029644894
 10
-51.88408528855802
 20
5.05287092564481
 10
-51.87322321955798
 20
4.879077821644841
 10
-51.84063701255809
 20
4.711801959044805
 10
-51.78849908135816
 20
4.551043337844703
 10
-51.71680942595799
 20
4.394629544244821
 10
-51.62991287395789
 20
4.246905405844813
 10
-51.52106625292276
 20
4.107349543332816
 10
-51.40120983874931
 20
3.977004715332896
 10
-51.26478225210917
 20
3.855697128740757
 10
-51.11722321715797
 20
3.745077818044819
 10
-50.95646459595809
 20
3.64731919704468
 10
-50.78267149195813
 20
3.562595058844863
 10
-50.59801631895789
 20
3.488732989644859
 10
-50.40684390455794
 20
3.432250230844829
 10
-50.20698183495801
 20
3.388801954844893
 10
-50.00060252395792
 20
3.364905403044758
 10
-49.7877059715579
 20
3.356215747844771
 10
-48.57767148495804
 20
3.356215747844885
 10
-48.57767148495804
 20
4.214319198844805
 10
-49.81160252335803
 20
4.214319198844805
 10
-49.94524942033399
 20
4.224659888532755
 10
-50.07750597247786
 20
4.246644716188939
 10
-50.19811838665396
 20
4.280968854228831
 10
-50.31412528357396
 20
4.328935750932942
 10
-50.42378873219809
 20
4.389850233884885
 10
-50.52085218078196
 20
4.45745575134083
 10
-50.60827011209403
 20
4.537226786076871
 10
-50.68274045715793
 20
4.622732993244881
 10
-48.57767148495804
 20
4.622732993244881
 10
-48.57767148495804
 20
5.450422651044846
 10
-50.71967149175816
 20
5.450422651044846
 10
-50.65015425015804
 20
5.548181272044757
 10
-50.56325769815817
 20
5.637250237844682
 10
-50.46211011162995
 20
5.713545410500842
 10
-50.35470597335802
 20
5.78062954864481
 97
        0
 92
        7
 72
     0
 73
     1
 93
        6
 10
-48.34739562215805
 20
6.721284724044949
 10
-48.34739562215805
 20
3.351870920244891
 10
-46.10980940815784
 20
3.351870920245005
 10
-46.10980940815807
 20
4.218664026445026
 10
-47.32418872235803
 20
4.218664026445026
 10
-47.32418872235803
 20
6.721284724044949
 97
        0
 92
        7
 72
     0
 73
     1
 93
        8
 10
-47.0917404457582
 20
6.721284724044949
 10
-47.0917404457582
 20
5.895767480044924
 10
-45.85780940735799
 20
5.895767480045037
 10
-45.85780940735799
 20
3.345353678844958
 10
-44.83243009375792
 20
3.345353678844958
 10
-44.83243009375814
 20
5.895767480044924
 10
-43.58980940015817
 20
5.895767480045037
 10
-43.58980940015817
 20
6.721284724045062
 97
        0
 75
     0
 76
     1
 47
0.0142553043587597
 98
        5
 10
-57.20450393328292
 20
6.278835054455498
 10
-54.9370067199402
 20
6.136282069449862
 10
-50.44479498773876
 20
6.193303241997682
 10
-47.72094590390702
 20
6.435643466690066
 10
-46.30910792168037
 20
6.335856334276741
450
        0
451
        0
460
0.0
461
0.0
452
        0
462
0.0
453
        0
470

  0
LWPOLYLINE
  5
63DD
330
62D9
100
AcDbEntity
  8
LW 5026-06-01
 62
     1
100
AcDbPolyline
 90
        8
 70
     1
 43
0.0
 10
-44.83243009375814
 20
5.895767480044924
 10
-44.83243009375792
 20
3.345353678844958
 10
-45.85780940735799
 20
3.345353678844958
 10
-45.85780940735799
 20
5.895767480045037
 10
-47.0917404457582
 20
5.895767480044924
 10
-47.0917404457582
 20
6.721284724044949
 10
-43.58980940015817
 20
6.721284724045062
 10
-43.58980940015817
 20
5.895767480045037
  0
LWPOLYLINE
  5
63DE
330
62D9
100
AcDbEntity
  8
LW 5026-06-01
 62
     1
100
AcDbPolyline
 90
       73
 70
     1
 43
0.0
 10
-54.53443012455796
 20
4.218664026444685
 10
-53.5177404661581
 20
4.218664026444685
 10
-52.63139563575805
 20
3.34535367884473
 10
-54.53443012455796
 20
3.345353678844617
 10
-54.74515426315793
 20
3.354043334044717
 10
-54.95370598795807
 20
3.380112299644679
 10
-55.15050929892755
 20
3.423821265300603
 10
-55.34474047195795
 20
3.477870920644591
 10
-55.52722323115791
 20
3.549560576044655
 10
-55.69884392135804
 20
3.634284714244586
 10
-55.85737799082676
 20
3.732651611108622
 10
-56.00949909475798
 20
3.840664025244677
 10
-56.1417904055229
 20
3.959972991140602
 10
-56.25979592313888
 20
4.089014370860581
 10
-56.36517537174928
 20
4.228483336820659
 10
-56.45701633755812
 20
4.37725023384462
 10
-56.52653357915801
 20
4.531491613644675
 10
-56.57867151035794
 20
4.692250234844664
 10
-56.61125771735806
 20
4.859526097444586
 10
-56.62211978635809
 20
5.031146787644615
 10
-56.61125771735806
 20
5.207112305444525
 10
-56.57867151035816
 20
5.374388168044561
 10
-56.52436116535795
 20
5.535146789244663
 10
-56.45267150995801
 20
5.689388169044605
 10
-56.36143013035803
 20
5.837112307444613
 10
-56.25280944035807
 20
5.976146790644634
 10
-56.12781743996129
 20
6.106665411748736
 10
-55.99211978435824
 20
6.225974377644661
 10
-55.84005081835812
 20
6.334595067644613
 10
-55.67448681783253
 20
6.431050240364584
 10
-55.50332667935823
 20
6.51707782684457
 10
-55.31649909255816
 20
6.588767482244634
 10
-55.12315426435816
 20
6.645250241044777
 10
-54.91872143612295
 20
6.68504886186065
 10
-54.71200322857021
 20
6.710509551596715
 10
-54.50401633135811
 20
6.721284724044608
 10
-51.06508528595805
 20
6.721284724044835
 10
-52.74653356715794
 20
5.087629546444759
 10
-51.03249907895815
 20
3.34535367884473
 10
-52.35115425555796
 20
3.34535367884473
 10
-54.11732667495812
 20
5.063732994644851
 10
-53.27008529295813
 20
5.878388169644722
 10
-54.53877495215806
 20
5.878388169644722
 10
-54.6628371594486
 20
5.873174376524616
 10
-54.7857001943214
 20
5.855099893708597
 10
-54.90604322918603
 20
5.824512307404688
 10
-55.02258019507326
 20
5.781672307268536
 10
-55.10660047120222
 20
5.739527479548655
 10
-55.18289564385804
 20
5.695210238028721
 10
-55.22313743708924
 20
5.668011617252659
 10
-55.26065067858758
 20
5.637076444740614
 10
-55.37156543756054
 20
5.528629547844616
 10
-55.43464364465717
 20
5.450596444148573
 10
-55.47617150685801
 20
5.382730237036639
 10
-55.51981964492757
 20
5.284015753964695
 10
-55.53803316222683
 20
5.222319202044673
 10
-55.55018998985156
 20
5.159145408740641
 10
-55.55619454159478
 20
5.097014374060677
 10
-55.55755012780605
 20
5.034709546276644
 10
-55.55003357605801
 20
4.945379890820731
 10
-55.52933481737159
 20
4.858222649164645
 10
-55.49991164486437
 20
4.776800579940641
 10
-55.46054750680855
 20
4.699636441764596
 10
-55.41184198941255
 20
4.627077820844647
 10
-55.35677564440994
 20
4.559211613732713
 10
-55.28317426486615
 20
4.489172992820613
 10
-55.15061357478998
 20
4.389850233884772
 10
-55.09692888496442
 20
4.357264026884649
 10
-55.04079371237231
 20
4.329109544036668
 10
-54.93929853963641
 20
4.288181268044581
 10
-54.82217936685083
 20
4.253857130004689
 10
-54.70204488371087
 20
4.232393681660596
 10
-54.6010971592525
 20
4.222411319384036
  0
LWPOLYLINE
  5
63DF
330
62D9
100
AcDbEntity
  8
LW 5026-06-01
 62
     1
100
AcDbPolyline
 90
       76
 70
     1
 43
0.0
 10
-55.74459337462418
 20
6.560414732015601
 10
-55.91998032798892
 20
6.458236850193884
 10
-56.08364912407092
 20
6.341330567278191
 10
-56.22966903053248
 20
6.212946005564845
 10
-56.36414710574513
 20
6.0725218753023
 10
-56.48230522997642
 20
5.921279476286372
 10
-56.51416405934924
 20
5.869698514444621
 10
-57.604050823958
 20
5.869698514444621
 10
-57.74743013475813
 20
5.863181273044574
 10
-57.8842922041581
 20
5.843629548844546
 10
-58.00673813558137
 20
5.811564721156514
 10
-58.12543013595814
 20
5.767595065844602
 10
-58.22802889490436
 20
5.709287479452541
 10
-58.32311979175802
 20
5.639422651644508
 10
-58.40567151615823
 20
5.556870927244517
 10
-58.47518875775813
 20
5.461284720044545
 10
-56.70455024013882
 20
5.461284720044545
 10
-56.72114894281367
 20
5.412152560126287
 10
-56.75745466448915
 20
5.225783188859622
 10
-56.76947633691838
 20
5.03103209550477
 10
-56.75743268413658
 20
4.840742381554036
 10
-56.72132087617206
 20
4.65536843400298
 10
-56.71073640889926
 20
4.622732993244653
 10
-58.4382577231579
 20
4.62273299324454
 10
-58.36656806775796
 20
4.538008855044495
 10
-58.27638682609245
 20
4.460062647900485
 10
-58.17823717060832
 20
4.39245713044454
 10
-58.07329220475799
 20
4.335974371644624
 10
-57.95815427335788
 20
4.290353681844635
 10
-57.82998185915812
 20
4.257419888636604
 10
-57.69922861736358
 20
4.237086095468612
 10
-57.567119789358
 20
4.229526095444498
 10
-56.53865672243774
 20
4.229526095444612
 10
-56.48668549098897
 20
4.145341453340279
 10
-56.37298013624558
 20
3.994853208627773
 10
-56.2455442427613
 20
3.855499525399181
 10
-56.10163187439116
 20
3.725709928859487
 10
-55.93879897963052
 20
3.610091690433819
 10
-55.77033257346034
 20
3.505561997502354
 10
-55.58676842965792
 20
3.414941723979609
 10
-55.42622456560548
 20
3.351870920244664
 10
-57.54539565135792
 20
3.351870920244437
 10
-57.75611978995812
 20
3.360560575444537
 10
-57.96467151475804
 20
3.386629541044612
 10
-58.16453358435797
 20
3.430077817044548
 10
-58.35570599875791
 20
3.486560575844464
 10
-58.53635524071092
 20
3.560248851940514
 10
-58.71198186195783
 20
3.645146783244626
 10
-58.87274048315794
 20
3.742905404244538
 10
-59.02008488362572
 20
3.853350921836522
 10
-59.15628393233396
 20
3.974484715324479
 10
-59.27898186375796
 20
4.105698508844511
 10
-59.38543013995809
 20
4.246905405844472
 10
-59.47449910575802
 20
4.39462954424448
 10
-59.54401634735791
 20
4.551043337844475
 10
-59.59832669235812
 20
4.711801959044464
 10
-59.62874048555796
 20
4.879077821644614
 10
-59.63960255455799
 20
5.052870925644469
 10
-59.63091289935824
 20
5.226664029644439
 10
-59.60267151995799
 20
5.391767478444535
 10
-59.55270600255812
 20
5.55252609964441
 10
-59.48970600235816
 20
5.706767479444465
 10
-59.40715427795817
 20
5.852319204044533
 10
-59.30713634660605
 20
5.989528859652523
 10
-59.19587139452869
 20
6.117788170404537
 10
-59.07043013895805
 20
6.236836446644474
 10
-58.92772253850512
 20
6.343545412500589
 10
-58.77715427595808
 20
6.438870930044572
 10
-58.60987841335805
 20
6.52142265444445
 10
-58.43391289555802
 20
6.590939896044574
 10
-58.24925772255801
 20
6.64525024104455
 10
-58.05374048055819
 20
6.686526103244659
 10
-57.8517059971582
 20
6.71259506884462
 10
-57.63880944475818
 20
6.721284724044608
 10
-55.38167150655795
 20
6.721284724044721
 10
-55.5628404420238
 20
6.651766411598487
  0
LWPOLYLINE
  5
63E0
330
62D9
100
AcDbEntity
  8
LW 5026-06-01
 62
     1
100
AcDbPolyline
 90
        6
 70
     1
 43
0.0
 10
-46.10980940815784
 20
3.351870920245005
 10
-48.34739562215805
 20
3.351870920244891
 10
-48.34739562215805
 20
6.721284724044949
 10
-47.32418872235803
 20
6.721284724044949
 10
-47.32418872235803
 20
4.218664026445026
 10
-46.10980940815807
 20
4.218664026445026
  0
LWPOLYLINE
  5
63E1
330
62D9
100
AcDbEntity
  8
LW 5026-06-01
 62
     1
100
AcDbPolyline
 90
       57
 70
     1
 43
0.0
 10
-51.40120983874931
 20
3.977004715332896
 10
-51.52106625292276
 20
4.107349543332702
 10
-51.62991287395811
 20
4.246905405844699
 10
-51.71680942595799
 20
4.394629544244821
 10
-51.78849908135816
 20
4.551043337844703
 10
-51.84063701255809
 20
4.711801959044805
 10
-51.87322321955798
 20
4.879077821644841
 10
-51.88408528855802
 20
5.05287092564481
 10
-51.87322321955798
 20
5.22666402964478
 10
-51.84063701255809
 20
5.393939892244816
 10
-51.79067149515822
 20
5.554698513444691
 10
-51.71898183975804
 20
5.70893989324486
 10
-51.63425770155822
 20
5.854491617844701
 10
-51.52998183915816
 20
5.993526101044835
 10
-51.40991687325982
 20
6.122306791108712
 10
-51.27535756248767
 20
6.241528860452717
 10
-51.12527852752851
 20
6.351018515972782
 10
-50.96645769943802
 20
6.447473688692866
 10
-50.8000508023581
 20
6.530112309644891
 10
-50.61539562935809
 20
6.601801965044842
 10
-50.42639562875797
 20
6.656112310044818
 10
-50.2287059729581
 20
6.697388172244814
 10
-50.022326661958
 20
6.725629551644829
 10
-49.81160252335803
 20
6.734319206844816
 10
-48.57767148495804
 20
6.734319206844929
 10
-48.57767148495804
 20
5.908801962844904
 10
-49.81811976475796
 20
5.90880196284479
 10
-49.9614990755581
 20
5.900112307644803
 10
-50.09618873115801
 20
5.873000583420889
 10
-50.22766321433414
 20
5.833028169500835
 10
-50.35470597335802
 20
5.78062954864481
 10
-50.46211011162995
 20
5.713545410500842
 10
-50.56325769815817
 20
5.637250237844909
 10
-50.65015425015804
 20
5.548181272044757
 10
-50.71967149175816
 20
5.450422651044846
 10
-48.57767148495804
 20
5.450422651044846
 10
-48.57767148495804
 20
4.622732993244881
 10
-50.68274045715793
 20
4.622732993244881
 10
-50.60827011209403
 20
4.537226786076871
 10
-50.52085218078196
 20
4.45745575134083
 10
-50.42378873219809
 20
4.389850233884885
 10
-50.31412528357396
 20
4.328935750932942
 10
-50.19811838665396
 20
4.280968854228831
 10
-50.07750597247786
 20
4.246644716188939
 10
-49.94524942033399
 20
4.224659888532755
 10
-49.81160252335803
 20
4.214319198844805
 10
-48.57767148495804
 20
4.214319198844805
 10
-48.57767148495804
 20
3.356215747844885
 10
-49.7877059715579
 20
3.356215747844771
 10
-50.00060252395792
 20
3.364905403044758
 10
-50.20698183495801
 20
3.388801954844893
 10
-50.40684390455794
 20
3.432250230844829
 10
-50.59801631895789
 20
3.488732989644859
 10
-50.78267149195813
 20
3.562595058844863
 10
-50.95646459595809
 20
3.647319197044907
 10
-51.11722321715797
 20
3.745077818044819
 10
-51.26478225210917
 20
3.855697128740757
  0
LINE
  5
63E2
330
62D9
100
AcDbEntity
  8
LW 5026-06-01
  6
MITTE2
 62
     3
100
AcDbLine
 10
0.0
 20
37.0
 30
0.0
 11
0.0
 21
-37.00000000000012
 31
0.0
  0
INSERT
  5
63E3
330
62D9
100
AcDbEntity
  8
LW 5026-06-01
100
AcDbBlockReference
 66
     1
  2
insertpoint-ECKELT
 10
0.0
 20
0.0
 30
0.0
  0
ATTRIB
  5
63E4
330
63E3
100
AcDbEntity
  8
insertpoint_ECKELT
100
AcDbText
 10
-6.93151432469286
 20
0.0
 30
0.0
 40
0.6
  1
LW 5026/06-01
 72
     2
 11
-1.199999999999818
 21
0.0
 31
0.0
100
AcDbAttribute
  2
LINKS
 70
     0
  0
ATTRIB
  5
63E5
330
63E3
100
AcDbEntity
  8
insertpoint_ECKELT
100
AcDbText
 10
1.199999999999818
 20
0.0
 30
0.0
 40
0.6
  1

100
AcDbAttribute
  2
RECHTS
 70
     0
  0
SEQEND
  5
63E6
330
63E3
100
AcDbEntity
  8
LW 5026-06-01
  0
LINE
  5
63E7
330
62D9
100
AcDbEntity
  8
LW 5026-06-01
100
AcDbLine
 10
-3.0
 20
25.0
 30
0.0
 11
-3.0
 21
-25.0
 31
0.0
  0
LINE
  5
63E8
330
62D9
100
AcDbEntity
  8
LW 5026-06-01
100
AcDbLine
 10
3.0
 20
-25.0
 30
0.0
 11
3.0
 21
25.0
 31
0.0
  0
ENDBLK
  5
62DB
330
62D9
100
AcDbEntity
  8
0
100
AcDbBlockEnd
  0
BLOCK
  5
63EB
330
63EA
100
AcDbEntity
  8
0
100
AcDbBlockBegin
  2
LW 5026-06-01_c
 70
     0
 10
0.0
 20
0.0
 30
0.0
  3
LW 5026-06-01_c
  1

  0
LINE
  5
63ED
330
63EA
100
AcDbEntity
  8
LW 5026-06-01
  6
VERDECKT
 62
     6
100
AcDbLine
 10
7.334936490574818
 20
17.70448267190204
 30
0.0
 11
11.66506350949657
 21
15.2044826719009
 31
0.0
  0
LINE
  5
63EE
330
63EA
100
AcDbEntity
  8
LW 5026-06-01
  6
VERDECKT
 62
     6
100
AcDbLine
 10
11.66506350948748
 20
-15.20448267190795
 30
0.0
 11
7.334936490564359
 21
-17.70448267190659
 31
0.0
  0
LINE
  5
63EF
330
63EA
100
AcDbEntity
  8
LW 5026-06-01
  6
VERDECKT
 62
     6
100
AcDbLine
 10
8.748924226250892
 20
15.1535812713729
 30
0.0
 11
7.334936490574818
 21
17.70448267190204
 31
0.0
  0
LINE
  5
63F0
330
63EA
100
AcDbEntity
  8
LW 5026-06-01
  6
VERDECKT
 62
     6
100
AcDbLine
 10
8.748924226250892
 20
15.1535812713729
 30
0.0
 11
11.66506350949657
 21
15.2044826719009
 31
0.0
  0
LINE
  5
63F1
330
63EA
100
AcDbEntity
  8
LW 5026-06-01
  6
VERDECKT
 62
     6
100
AcDbLine
 10
14.60240647333057
 20
20.29210992451317
 30
0.0
 11
11.66506350949657
 21
15.20448267190068
 31
0.0
  0
LINE
  5
63F2
330
63EA
100
AcDbEntity
  8
LW 5026-06-01
  6
VERDECKT
 62
     6
100
AcDbLine
 10
10.27227945440927
 20
22.79210992451453
 30
0.0
 11
7.334936490574818
 21
17.70448267190204
 31
0.0
  0
LINE
  5
63F3
330
63EA
100
AcDbEntity
  8
LW 5026-06-01
  6
VERDECKT
 62
     6
100
AcDbLine
 10
8.748924226241797
 20
-15.15358127137824
 30
0.0
 11
11.66506350948748
 21
-15.20448267190795
 31
0.0
  0
LINE
  5
63F4
330
63EA
100
AcDbEntity
  8
LW 5026-06-01
  6
VERDECKT
 62
     6
100
AcDbLine
 10
8.748924226241797
 20
-15.15358127137824
 30
0.0
 11
7.334936490564359
 21
-17.70448267190659
 31
0.0
  0
LINE
  5
63F5
330
63EA
100
AcDbEntity
  8
LW 5026-06-01
  6
VERDECKT
 62
     6
100
AcDbLine
 10
10.27227945439563
 20
-22.79210992452068
 30
0.0
 11
7.334936490564359
 21
-17.70448267190659
 31
0.0
  0
LINE
  5
63F6
330
63EA
100
AcDbEntity
  8
LW 5026-06-01
  6
VERDECKT
 62
     6
100
AcDbLine
 10
14.60240647331875
 20
-20.29210992452204
 30
0.0
 11
11.66506350948748
 21
-15.20448267190795
 31
0.0
  0
LINE
  5
63F7
330
63EA
100
AcDbEntity
  8
LW 5026-06-01
  6
VERDECKT
 62
     6
100
AcDbLine
 10
-18.99999999996998
 20
-2.499999999994543
 30
0.0
 11
-18.99999999996862
 21
2.500000000005456
 31
0.0
  0
LINE
  5
63F8
330
63EA
100
AcDbEntity
  8
LW 5026-06-01
  6
VERDECKT
 62
     6
100
AcDbLine
 10
-17.49784845240037
 20
0.0000000000051159
 30
0.0
 11
-18.99999999996998
 21
-2.499999999994543
 31
0.0
  0
LINE
  5
63F9
330
63EA
100
AcDbEntity
  8
LW 5026-06-01
  6
VERDECKT
 62
     6
100
AcDbLine
 10
-17.49784845240037
 20
0.0000000000051159
 30
0.0
 11
-18.99999999996862
 21
2.500000000005456
 31
0.0
  0
LINE
  5
63FA
330
63EA
100
AcDbEntity
  8
LW 5026-06-01
  6
VERDECKT
 62
     6
100
AcDbLine
 10
-24.87468592763389
 20
2.500000000007275
 30
0.0
 11
-18.99999999996862
 21
2.500000000005456
 31
0.0
  0
LINE
  5
63FB
330
63EA
100
AcDbEntity
  8
LW 5026-06-01
  6
VERDECKT
 62
     6
100
AcDbLine
 10
-24.87468592763526
 20
-2.499999999992724
 30
0.0
 11
-18.99999999996998
 21
-2.499999999994543
 31
0.0
  0
ARC
  5
63FC
330
63EA
100
AcDbEntity
  8
LW 5026-06-01
100
AcDbCircle
 10
0.0000000000295586
 20
0.0
 30
0.0
 40
25.0
100
AcDbArc
 50
224.4270040007897
 51
315.5729959991723
  0
ARC
  5
63FD
330
63EA
100
AcDbEntity
  8
LW 5026-06-01
100
AcDbCircle
 10
0.0000000000295586
 20
0.0
 30
0.0
 40
25.0
100
AcDbArc
 50
323.1301023541312
 51
36.86989764582579
  0
ARC
  5
63FE
330
63EA
100
AcDbEntity
  8
LW 5026-06-01
100
AcDbCircle
 10
0.0000000000295586
 20
0.0
 30
0.0
 40
25.0
100
AcDbArc
 50
44.42700400078962
 51
135.5729959991758
  0
ARC
  5
63FF
330
63EA
100
AcDbEntity
  8
LW 5026-06-01
100
AcDbCircle
 10
0.0000000000277396
 20
0.0
 30
0.0
 40
19.00000000000001
100
AcDbArc
 50
247.0804578484147
 51
292.9195421515569
  0
ARC
  5
6400
330
63EA
100
AcDbEntity
  8
LW 5026-06-01
100
AcDbCircle
 10
0.0000000000277396
 20
0.0
 30
0.0
 40
19.0
100
AcDbArc
 50
67.0804578484147
 51
112.9195421515568
  0
CIRCLE
  5
6401
330
63EA
100
AcDbEntity
  8
LW 5026-06-01
100
AcDbCircle
 10
0.0
 20
0.0
 30
0.0
 40
10.00000000000001
  0
CIRCLE
  5
6402
330
63EA
100
AcDbEntity
  8
LW 5026-06-01
100
AcDbCircle
 10
-0.0000000000004547
 20
0.0
 30
0.0
 40
9.000000000000008
  0
ARC
  5
6403
330
63EA
100
AcDbEntity
  8
LW 5026-06-01
  6
VERDECKT
 62
     6
100
AcDbCircle
 10
0.0000000000304681
 20
-0.0000000000005684
 30
0.0
 40
24.99999999999923
100
AcDbArc
 50
315.5729959991723
 51
323.1301023541312
  0
ARC
  5
6404
330
63EA
100
AcDbEntity
  8
LW 5026-06-01
  6
VERDECKT
 62
     6
100
AcDbCircle
 10
0.0000000000300133
 20
0.0000000000002274
 30
0.0
 40
24.99999999999958
100
AcDbArc
 50
36.86989764582579
 51
44.42700400078962
  0
ARC
  5
6405
330
63EA
100
AcDbEntity
  8
LW 5026-06-01
  6
VERDECKT
 62
     6
100
AcDbCircle
 10
0.0000000000295586
 20
0.0
 30
0.0
 40
25.00000000000001
100
AcDbArc
 50
135.5729959991758
 51
224.4270040007897
  0
ARC
  5
6406
330
63EA
100
AcDbEntity
  8
LW 5026-06-01
  6
VERDECKT
 62
     6
100
AcDbCircle
 10
0.0000000000277396
 20
0.0
 30
0.0
 40
19.0
100
AcDbArc
 50
292.9195421515569
 51
67.0804578484147
  0
ARC
  5
6407
330
63EA
100
AcDbEntity
  8
LW 5026-06-01
  6
VERDECKT
 62
     6
100
AcDbCircle
 10
0.0000000000277396
 20
0.0
 30
0.0
 40
19.0
100
AcDbArc
 50
112.9195421515568
 51
247.0804578484147
  0
POLYLINE
  5
6408
330
63EA
100
AcDbEntity
  8
LW 5026-06-01
100
AcDb2dPolyline
 66
     1
 10
0.0
 20
0.0
 30
0.0
 70
   128
  0
VERTEX
  5
6409
330
6408
100
AcDbEntity
  8
LW 5026-06-01
100
AcDbVertex
100
AcDb2dVertex
 10
0.0000000000068212
 20
-17.3264467716217
 30
0.0
  0
VERTEX
  5
640A
330
6408
100
AcDbEntity
  8
LW 5026-06-01
100
AcDbVertex
100
AcDb2dVertex
 10
0.1560449600287939
 20
-17.32719898223877
 30
0.0
  0
VERTEX
  5
640B
330
6408
100
AcDbEntity
  8
LW 5026-06-01
100
AcDbVertex
100
AcDb2dVertex
 10
0.3141689300605321
 20
-17.32942223548912
 30
0.0
  0
VERTEX
  5
640C
330
6408
100
AcDbEntity
  8
LW 5026-06-01
100
AcDbVertex
100
AcDb2dVertex
 10
0.4730701446601416
 20
-17.33306407928489
 30
0.0
  0
VERTEX
  5
640D
330
6408
100
AcDbEntity
  8
LW 5026-06-01
100
AcDbVertex
100
AcDb2dVertex
 10
0.6314468383857275
 20
-17.33807563781761
 30
0.0
  0
VERTEX
  5
640E
330
6408
100
AcDbEntity
  8
LW 5026-06-01
100
AcDbVertex
100
AcDb2dVertex
 10
0.7879877090522314
 20
-17.34440565109276
 30
0.0
  0
VERTEX
  5
640F
330
6408
100
AcDbEntity
  8
LW 5026-06-01
100
AcDbVertex
100
AcDb2dVertex
 10
0.9413909912177587
 20
-17.35200285911594
 30
0.0
  0
VERTEX
  5
6410
330
6408
100
AcDbEntity
  8
LW 5026-06-01
100
AcDbVertex
100
AcDb2dVertex
 10
1.090421676642563
 20
-17.36074566841159
 30
0.0
  0
VERTEX
  5
6411
330
6408
100
AcDbEntity
  8
LW 5026-06-01
100
AcDbVertex
100
AcDb2dVertex
 10
1.234145164496567
 20
-17.37039446830795
 30
0.0
  0
VERTEX
  5
6412
330
6408
100
AcDbEntity
  8
LW 5026-06-01
100
AcDbVertex
100
AcDb2dVertex
 10
1.371684074408676
 20
-17.38071799278305
 30
0.0
  0
VERTEX
  5
6413
330
6408
100
AcDbEntity
  8
LW 5026-06-01
100
AcDbVertex
100
AcDb2dVertex
 10
1.502156257636215
 20
-17.39148736000106
 30
0.0
  0
VERTEX
  5
6414
330
6408
100
AcDbEntity
  8
LW 5026-06-01
100
AcDbVertex
100
AcDb2dVertex
 10
1.624689102179672
 20
-17.40247011184738
 30
0.0
  0
VERTEX
  5
6415
330
6408
100
AcDbEntity
  8
LW 5026-06-01
100
AcDbVertex
100
AcDb2dVertex
 10
1.738414764411118
 20
-17.41343855857906
 30
0.0
  0
VERTEX
  5
6416
330
6408
100
AcDbEntity
  8
LW 5026-06-01
100
AcDbVertex
100
AcDb2dVertex
 10
1.844868659979965
 20
-17.42439985275325
 30
0.0
  0
VERTEX
  5
6417
330
6408
100
AcDbEntity
  8
LW 5026-06-01
100
AcDbVertex
100
AcDb2dVertex
 10
1.945543289191391
 20
-17.43536114692756
 30
0.0
  0
VERTEX
  5
6418
330
6408
100
AcDbEntity
  8
LW 5026-06-01
100
AcDbVertex
100
AcDb2dVertex
 10
2.039465904242661
 20
-17.44609594345161
 30
0.0
  0
VERTEX
  5
6419
330
6408
100
AcDbEntity
  8
LW 5026-06-01
100
AcDbVertex
100
AcDb2dVertex
 10
2.125682830817368
 20
-17.45637536048957
 30
0.0
  0
VERTEX
  5
641A
330
6408
100
AcDbEntity
  8
LW 5026-06-01
100
AcDbVertex
100
AcDb2dVertex
 10
2.203221321112778
 20
-17.46597290039131
 30
0.0
  0
VERTEX
  5
641B
330
6408
100
AcDbEntity
  8
LW 5026-06-01
100
AcDbVertex
100
AcDb2dVertex
 10
2.271118164069321
 20
-17.47466087341377
 30
0.0
  0
VERTEX
  5
641C
330
6408
100
AcDbEntity
  8
LW 5026-06-01
100
AcDbVertex
100
AcDb2dVertex
 10
2.328581810004834
 20
-17.48220205307075
 30
0.0
  0
VERTEX
  5
641D
330
6408
100
AcDbEntity
  8
LW 5026-06-01
100
AcDbVertex
100
AcDb2dVertex
 10
2.375483512885693
 20
-17.4884808063515
 30
0.0
  0
VERTEX
  5
641E
330
6408
100
AcDbEntity
  8
LW 5026-06-01
100
AcDbVertex
100
AcDb2dVertex
 10
2.411880493171338
 20
-17.49344706535419
 30
0.0
  0
VERTEX
  5
641F
330
6408
100
AcDbEntity
  8
LW 5026-06-01
100
AcDbVertex
100
AcDb2dVertex
 10
2.437810897834424
 20
-17.49705553054889
 30
0.0
  0
VERTEX
  5
6420
330
6408
100
AcDbEntity
  8
LW 5026-06-01
100
AcDbVertex
100
AcDb2dVertex
 10
2.453336715705518
 20
-17.499256134034
 30
0.0
  0
VERTEX
  5
6421
330
6408
100
AcDbEntity
  8
LW 5026-06-01
100
AcDbVertex
100
AcDb2dVertex
 10
2.458500862128857
 20
-17.50000000000079
 30
0.0
  0
SEQEND
  5
6422
330
6408
100
AcDbEntity
  8
LW 5026-06-01
  0
POLYLINE
  5
6423
330
63EA
100
AcDbEntity
  8
LW 5026-06-01
100
AcDb2dPolyline
 66
     1
 10
0.0
 20
0.0
 30
0.0
 70
   128
  0
VERTEX
  5
6424
330
6423
100
AcDbEntity
  8
LW 5026-06-01
100
AcDbVertex
100
AcDb2dVertex
 10
-2.458500862114306
 20
-17.49999999999932
 30
0.0
  0
VERTEX
  5
6425
330
6423
100
AcDbEntity
  8
LW 5026-06-01
100
AcDbVertex
100
AcDb2dVertex
 10
-2.453336715690966
 20
-17.49925613403252
 30
0.0
  0
VERTEX
  5
6426
330
6423
100
AcDbEntity
  8
LW 5026-06-01
100
AcDbVertex
100
AcDb2dVertex
 10
-2.437810897819872
 20
-17.49705553054741
 30
0.0
  0
VERTEX
  5
6427
330
6423
100
AcDbEntity
  8
LW 5026-06-01
100
AcDbVertex
100
AcDb2dVertex
 10
-2.411880493156786
 20
-17.49344706535271
 30
0.0
  0
VERTEX
  5
6428
330
6423
100
AcDbEntity
  8
LW 5026-06-01
100
AcDbVertex
100
AcDb2dVertex
 10
-2.375483512871142
 20
-17.48848080635002
 30
0.0
  0
VERTEX
  5
6429
330
6423
100
AcDbEntity
  8
LW 5026-06-01
100
AcDbVertex
100
AcDb2dVertex
 10
-2.328581809990282
 20
-17.48220205306938
 30
0.0
  0
VERTEX
  5
642A
330
6423
100
AcDbEntity
  8
LW 5026-06-01
100
AcDbVertex
100
AcDb2dVertex
 10
-2.271118164055678
 20
-17.4746608734124
 30
0.0
  0
VERTEX
  5
642B
330
6423
100
AcDbEntity
  8
LW 5026-06-01
100
AcDbVertex
100
AcDb2dVertex
 10
-2.203221321099135
 20
-17.46597290038994
 30
0.0
  0
VERTEX
  5
642C
330
6423
100
AcDbEntity
  8
LW 5026-06-01
100
AcDbVertex
100
AcDb2dVertex
 10
-2.125682830803725
 20
-17.45637536048832
 30
0.0
  0
VERTEX
  5
642D
330
6423
100
AcDbEntity
  8
LW 5026-06-01
100
AcDbVertex
100
AcDb2dVertex
 10
-2.039465904229018
 20
-17.44609594345036
 30
0.0
  0
VERTEX
  5
642E
330
6423
100
AcDbEntity
  8
LW 5026-06-01
100
AcDbVertex
100
AcDb2dVertex
 10
-1.945543289177749
 20
-17.43536114692631
 30
0.0
  0
VERTEX
  5
642F
330
6423
100
AcDbEntity
  8
LW 5026-06-01
100
AcDbVertex
100
AcDb2dVertex
 10
-1.844868659966323
 20
-17.42439985275223
 30
0.0
  0
VERTEX
  5
6430
330
6423
100
AcDbEntity
  8
LW 5026-06-01
100
AcDbVertex
100
AcDb2dVertex
 10
-1.738414764397475
 20
-17.41343855857804
 30
0.0
  0
VERTEX
  5
6431
330
6423
100
AcDbEntity
  8
LW 5026-06-01
100
AcDbVertex
100
AcDb2dVertex
 10
-1.62468910216603
 20
-17.40247011184647
 30
0.0
  0
VERTEX
  5
6432
330
6423
100
AcDbEntity
  8
LW 5026-06-01
100
AcDbVertex
100
AcDb2dVertex
 10
-1.502156257622573
 20
-17.39148736000015
 30
0.0
  0
VERTEX
  5
6433
330
6423
100
AcDbEntity
  8
LW 5026-06-01
100
AcDbVertex
100
AcDb2dVertex
 10
-1.371684074395034
 20
-17.38071799278225
 30
0.0
  0
VERTEX
  5
6434
330
6423
100
AcDbEntity
  8
LW 5026-06-01
100
AcDbVertex
100
AcDb2dVertex
 10
-1.234145164482924
 20
-17.37039446830715
 30
0.0
  0
VERTEX
  5
6435
330
6423
100
AcDbEntity
  8
LW 5026-06-01
100
AcDbVertex
100
AcDb2dVertex
 10
-1.09042167662892
 20
-17.36074566841103
 30
0.0
  0
VERTEX
  5
6436
330
6423
100
AcDbEntity
  8
LW 5026-06-01
100
AcDbVertex
100
AcDb2dVertex
 10
-0.9413909912041162
 20
-17.35200285911537
 30
0.0
  0
VERTEX
  5
6437
330
6423
100
AcDbEntity
  8
LW 5026-06-01
100
AcDbVertex
100
AcDb2dVertex
 10
-0.787987709038589
 20
-17.3444056510923
 30
0.0
  0
VERTEX
  5
6438
330
6423
100
AcDbEntity
  8
LW 5026-06-01
100
AcDbVertex
100
AcDb2dVertex
 10
-0.6314468383720851
 20
-17.33807563781715
 30
0.0
  0
VERTEX
  5
6439
330
6423
100
AcDbEntity
  8
LW 5026-06-01
100
AcDbVertex
100
AcDb2dVertex
 10
-0.4730701446464991
 20
-17.33306407928467
 30
0.0
  0
VERTEX
  5
643A
330
6423
100
AcDbEntity
  8
LW 5026-06-01
100
AcDbVertex
100
AcDb2dVertex
 10
-0.3141689300468897
 20
-17.32942223548889
 30
0.0
  0
VERTEX
  5
643B
330
6423
100
AcDbEntity
  8
LW 5026-06-01
100
AcDbVertex
100
AcDb2dVertex
 10
-0.1560449600151514
 20
-17.32719898223877
 30
0.0
  0
VERTEX
  5
643C
330
6423
100
AcDbEntity
  8
LW 5026-06-01
100
AcDbVertex
100
AcDb2dVertex
 10
0.0000000000068212
 20
-17.3264467716217
 30
0.0
  0
SEQEND
  5
643D
330
6423
100
AcDbEntity
  8
LW 5026-06-01
  0
POLYLINE
  5
643E
330
63EA
100
AcDbEntity
  8
LW 5026-06-01
100
AcDb2dPolyline
 66
     1
 10
0.0
 20
0.0
 30
0.0
 70
   128
  0
VERTEX
  5
643F
330
643E
100
AcDbEntity
  8
LW 5026-06-01
100
AcDbVertex
100
AcDb2dVertex
 10
2.458500862139317
 20
17.4999999999992
 30
0.0
  0
VERTEX
  5
6440
330
643E
100
AcDbEntity
  8
LW 5026-06-01
100
AcDbVertex
100
AcDb2dVertex
 10
2.437810897844883
 20
17.4970555305473
 30
0.0
  0
VERTEX
  5
6441
330
643E
100
AcDbEntity
  8
LW 5026-06-01
100
AcDbVertex
100
AcDb2dVertex
 10
2.375483512896153
 20
17.48848080634991
 30
0.0
  0
VERTEX
  5
6442
330
643E
100
AcDbEntity
  8
LW 5026-06-01
100
AcDbVertex
100
AcDb2dVertex
 10
2.27111816407978
 20
17.4746608734124
 30
0.0
  0
VERTEX
  5
6443
330
643E
100
AcDbEntity
  8
LW 5026-06-01
100
AcDbVertex
100
AcDb2dVertex
 10
2.125682830827827
 20
17.45637536048821
 30
0.0
  0
VERTEX
  5
6444
330
643E
100
AcDbEntity
  8
LW 5026-06-01
100
AcDbVertex
100
AcDb2dVertex
 10
1.94554328920185
 20
17.4353611469262
 30
0.0
  0
VERTEX
  5
6445
330
643E
100
AcDbEntity
  8
LW 5026-06-01
100
AcDbVertex
100
AcDb2dVertex
 10
1.738414764421577
 20
17.41343855857792
 30
0.0
  0
VERTEX
  5
6446
330
643E
100
AcDbEntity
  8
LW 5026-06-01
100
AcDbVertex
100
AcDb2dVertex
 10
1.502156257646674
 20
17.39148736000015
 30
0.0
  0
VERTEX
  5
6447
330
643E
100
AcDbEntity
  8
LW 5026-06-01
100
AcDbVertex
100
AcDb2dVertex
 10
1.234145164506571
 20
17.37039446830704
 30
0.0
  0
VERTEX
  5
6448
330
643E
100
AcDbEntity
  8
LW 5026-06-01
100
AcDbVertex
100
AcDb2dVertex
 10
0.9413909912277631
 20
17.35200285911526
 30
0.0
  0
VERTEX
  5
6449
330
643E
100
AcDbEntity
  8
LW 5026-06-01
100
AcDbVertex
100
AcDb2dVertex
 10
0.6314468383957319
 20
17.33807563781715
 30
0.0
  0
VERTEX
  5
644A
330
643E
100
AcDbEntity
  8
LW 5026-06-01
100
AcDbVertex
100
AcDb2dVertex
 10
0.3141689300705366
 20
17.32942223548866
 30
0.0
  0
VERTEX
  5
644B
330
643E
100
AcDbEntity
  8
LW 5026-06-01
100
AcDbVertex
100
AcDb2dVertex
 10
0.0000000000168257
 20
17.3264467716217
 30
0.0
  0
VERTEX
  5
644C
330
643E
100
AcDbEntity
  8
LW 5026-06-01
100
AcDbVertex
100
AcDb2dVertex
 10
-0.3141689300368853
 20
17.32942223548889
 30
0.0
  0
VERTEX
  5
644D
330
643E
100
AcDbEntity
  8
LW 5026-06-01
100
AcDbVertex
100
AcDb2dVertex
 10
-0.6314468383620806
 20
17.33807563781761
 30
0.0
  0
VERTEX
  5
644E
330
643E
100
AcDbEntity
  8
LW 5026-06-01
100
AcDbVertex
100
AcDb2dVertex
 10
-0.9413909911941118
 20
17.35200285911583
 30
0.0
  0
VERTEX
  5
644F
330
643E
100
AcDbEntity
  8
LW 5026-06-01
100
AcDbVertex
100
AcDb2dVertex
 10
-1.23414516447292
 20
17.37039446830783
 30
0.0
  0
VERTEX
  5
6450
330
643E
100
AcDbEntity
  8
LW 5026-06-01
100
AcDbVertex
100
AcDb2dVertex
 10
-1.502156257612114
 20
17.39148736000106
 30
0.0
  0
VERTEX
  5
6451
330
643E
100
AcDbEntity
  8
LW 5026-06-01
100
AcDbVertex
100
AcDb2dVertex
 10
-1.738414764387016
 20
17.41343855857894
 30
0.0
  0
VERTEX
  5
6452
330
643E
100
AcDbEntity
  8
LW 5026-06-01
100
AcDbVertex
100
AcDb2dVertex
 10
-1.945543289167289
 20
17.43536114692745
 30
0.0
  0
VERTEX
  5
6453
330
643E
100
AcDbEntity
  8
LW 5026-06-01
100
AcDbVertex
100
AcDb2dVertex
 10
-2.125682830793266
 20
17.45637536048946
 30
0.0
  0
VERTEX
  5
6454
330
643E
100
AcDbEntity
  8
LW 5026-06-01
100
AcDbVertex
100
AcDb2dVertex
 10
-2.271118164045219
 20
17.47466087341377
 30
0.0
  0
VERTEX
  5
6455
330
643E
100
AcDbEntity
  8
LW 5026-06-01
100
AcDbVertex
100
AcDb2dVertex
 10
-2.375483512860682
 20
17.48848080635139
 30
0.0
  0
VERTEX
  5
6456
330
643E
100
AcDbEntity
  8
LW 5026-06-01
100
AcDbVertex
100
AcDb2dVertex
 10
-2.437810897809413
 20
17.49705553054878
 30
0.0
  0
VERTEX
  5
6457
330
643E
100
AcDbEntity
  8
LW 5026-06-01
100
AcDbVertex
100
AcDb2dVertex
 10
-2.458500862103846
 20
17.50000000000068
 30
0.0
  0
SEQEND
  5
6458
330
643E
100
AcDbEntity
  8
LW 5026-06-01
  0
LINE
  5
6459
330
63EA
100
AcDbEntity
  8
LW 5026-06-01
  6
VERDECKT
 62
     6
100
AcDbLine
 10
-2.458499999992909
 20
-17.49999999999932
 30
0.0
 11
-2.45849999999109
 21
-11.71789471799252
 31
0.0
  0
LINE
  5
645A
330
63EA
100
AcDbEntity
  8
LW 5026-06-01
  6
VERDECKT
 62
     6
100
AcDbLine
 10
2.458500000007461
 20
-17.50000000000079
 30
0.0
 11
2.45850000000928
 21
-11.717894717994
 31
0.0
  0
LINE
  5
645B
330
63EA
100
AcDbEntity
  8
LW 5026-06-01
  6
VERDECKT
 62
     6
100
AcDbLine
 10
-2.458499999983814
 20
11.71789471799388
 30
0.0
 11
-2.458499999981995
 21
17.50000000000068
 31
0.0
  0
LINE
  5
645C
330
63EA
100
AcDbEntity
  8
LW 5026-06-01
  6
VERDECKT
 62
     6
100
AcDbLine
 10
2.458500000016101
 20
11.71789471799252
 30
0.0
 11
2.458500000017465
 21
17.4999999999992
 31
0.0
  0
POLYLINE
  5
645D
330
63EA
100
AcDbEntity
  8
LW 5026-06-01
100
AcDb2dPolyline
 66
     1
 10
0.0
 20
0.0
 30
0.0
 70
   128
  0
VERTEX
  5
645E
330
645D
100
AcDbEntity
  8
LW 5026-06-01
100
AcDbVertex
100
AcDb2dVertex
 10
0.1000022888306375
 20
12.00000047683716
 30
0.0
  0
VERTEX
  5
645F
330
645D
100
AcDbEntity
  8
LW 5026-06-01
100
AcDbVertex
100
AcDb2dVertex
 10
0.7640886306885477
 20
11.97779297828651
 30
0.0
  0
VERTEX
  5
6460
330
645D
100
AcDbEntity
  8
LW 5026-06-01
100
AcDbVertex
100
AcDb2dVertex
 10
1.429209709179758
 20
11.91113829612686
 30
0.0
  0
VERTEX
  5
6461
330
645D
100
AcDbEntity
  8
LW 5026-06-01
100
AcDbVertex
100
AcDb2dVertex
 10
2.090067863476633
 20
11.79998040199211
 30
0.0
  0
VERTEX
  5
6462
330
645D
100
AcDbEntity
  8
LW 5026-06-01
100
AcDbVertex
100
AcDb2dVertex
 10
2.741599082959055
 20
11.64467811584382
 30
0.0
  0
VERTEX
  5
6463
330
645D
100
AcDbEntity
  8
LW 5026-06-01
100
AcDbVertex
100
AcDb2dVertex
 10
3.379426002514719
 20
11.44687294959908
 30
0.0
  0
VERTEX
  5
6464
330
645D
100
AcDbEntity
  8
LW 5026-06-01
100
AcDbVertex
100
AcDb2dVertex
 10
3.999280929577253
 20
11.20844960212594
 30
0.0
  0
VERTEX
  5
6465
330
645D
100
AcDbEntity
  8
LW 5026-06-01
100
AcDbVertex
100
AcDb2dVertex
 10
4.597344398510358
 20
10.93087315559251
 30
0.0
  0
VERTEX
  5
6466
330
645D
100
AcDbEntity
  8
LW 5026-06-01
100
AcDbVertex
100
AcDb2dVertex
 10
5.170793533336563
 20
10.61711549758752
 30
0.0
  0
VERTEX
  5
6467
330
645D
100
AcDbEntity
  8
LW 5026-06-01
100
AcDbVertex
100
AcDb2dVertex
 10
5.716900825511856
 20
10.27107715606519
 30
0.0
  0
VERTEX
  5
6468
330
645D
100
AcDbEntity
  8
LW 5026-06-01
100
AcDbVertex
100
AcDb2dVertex
 10
6.232929229747696
 20
9.896658062932942
 30
0.0
  0
VERTEX
  5
6469
330
645D
100
AcDbEntity
  8
LW 5026-06-01
100
AcDbVertex
100
AcDb2dVertex
 10
6.716151237498706
 20
9.49775576591287
 30
0.0
  0
VERTEX
  5
646A
330
645D
100
AcDbEntity
  8
LW 5026-06-01
100
AcDbVertex
100
AcDb2dVertex
 10
7.164006233225791
 20
9.078100323674789
 30
0.0
  0
VERTEX
  5
646B
330
645D
100
AcDbEntity
  8
LW 5026-06-01
100
AcDbVertex
100
AcDb2dVertex
 10
7.586660385142295
 20
8.628254532811752
 30
0.0
  0
VERTEX
  5
646C
330
645D
100
AcDbEntity
  8
LW 5026-06-01
100
AcDbVertex
100
AcDb2dVertex
 10
7.988529205332724
 20
8.142867088315369
 30
0.0
  0
VERTEX
  5
646D
330
645D
100
AcDbEntity
  8
LW 5026-06-01
100
AcDbVertex
100
AcDb2dVertex
 10
8.36562156678292
 20
7.624608874318482
 30
0.0
  0
VERTEX
  5
646E
330
645D
100
AcDbEntity
  8
LW 5026-06-01
100
AcDbVertex
100
AcDb2dVertex
 10
8.713960647593012
 20
7.076148986813791
 30
0.0
  0
VERTEX
  5
646F
330
645D
100
AcDbEntity
  8
LW 5026-06-01
100
AcDbVertex
100
AcDb2dVertex
 10
9.029560089120877
 20
6.500160098073138
 30
0.0
  0
VERTEX
  5
6470
330
645D
100
AcDbEntity
  8
LW 5026-06-01
100
AcDbVertex
100
AcDb2dVertex
 10
9.308433532724393
 20
5.899311304089678
 30
0.0
  0
VERTEX
  5
6471
330
645D
100
AcDbEntity
  8
LW 5026-06-01
100
AcDbVertex
100
AcDb2dVertex
 10
9.547052383431946
 20
5.276503562924403
 30
0.0
  0
VERTEX
  5
6472
330
645D
100
AcDbEntity
  8
LW 5026-06-01
100
AcDbVertex
100
AcDb2dVertex
 10
9.74402904511362
 20
4.636221230027103
 30
0.0
  0
VERTEX
  5
6473
330
645D
100
AcDbEntity
  8
LW 5026-06-01
100
AcDbVertex
100
AcDb2dVertex
 10
9.898595809945163
 20
3.983446657654667
 30
0.0
  0
VERTEX
  5
6474
330
645D
100
AcDbEntity
  8
LW 5026-06-01
100
AcDbVertex
100
AcDb2dVertex
 10
10.00996589661508
 20
3.323163092133427
 30
0.0
  0
VERTEX
  5
6475
330
645D
100
AcDbEntity
  8
LW 5026-06-01
100
AcDbVertex
100
AcDb2dVertex
 10
10.07736206055506
 20
2.660353183743268
 30
0.0
  0
VERTEX
  5
6476
330
645D
100
AcDbEntity
  8
LW 5026-06-01
100
AcDbVertex
100
AcDb2dVertex
 10
10.10000228882609
 20
2.000000029799252
 30
0.0
  0
SEQEND
  5
6477
330
645D
100
AcDbEntity
  8
LW 5026-06-01
  0
POLYLINE
  5
6478
330
63EA
100
AcDbEntity
  8
LW 5026-06-01
100
AcDb2dPolyline
 66
     1
 10
0.0
 20
0.0
 30
0.0
 70
   128
  0
VERTEX
  5
6479
330
6478
100
AcDbEntity
  8
LW 5026-06-01
100
AcDbVertex
100
AcDb2dVertex
 10
10.10000228882518
 20
-2.000000029805391
 30
0.0
  0
VERTEX
  5
647A
330
6478
100
AcDbEntity
  8
LW 5026-06-01
100
AcDbVertex
100
AcDb2dVertex
 10
10.07736206055369
 20
-2.660353183749407
 30
0.0
  0
VERTEX
  5
647B
330
6478
100
AcDbEntity
  8
LW 5026-06-01
100
AcDbVertex
100
AcDb2dVertex
 10
10.00996589661281
 20
-3.323163092139338
 30
0.0
  0
VERTEX
  5
647C
330
6478
100
AcDbEntity
  8
LW 5026-06-01
100
AcDbVertex
100
AcDb2dVertex
 10
9.898595809942889
 20
-3.983446657660579
 30
0.0
  0
VERTEX
  5
647D
330
6478
100
AcDbEntity
  8
LW 5026-06-01
100
AcDbVertex
100
AcDb2dVertex
 10
9.744029045110892
 20
-4.636221230033015
 30
0.0
  0
VERTEX
  5
647E
330
6478
100
AcDbEntity
  8
LW 5026-06-01
100
AcDbVertex
100
AcDb2dVertex
 10
9.547052383428763
 20
-5.276503562930088
 30
0.0
  0
VERTEX
  5
647F
330
6478
100
AcDbEntity
  8
LW 5026-06-01
100
AcDbVertex
100
AcDb2dVertex
 10
9.308433532720755
 20
-5.899311304095135
 30
0.0
  0
VERTEX
  5
6480
330
6478
100
AcDbEntity
  8
LW 5026-06-01
100
AcDbVertex
100
AcDb2dVertex
 10
9.029560089117239
 20
-6.500160098078595
 30
0.0
  0
VERTEX
  5
6481
330
6478
100
AcDbEntity
  8
LW 5026-06-01
100
AcDbVertex
100
AcDb2dVertex
 10
8.713960647588919
 20
-7.076148986819021
 30
0.0
  0
VERTEX
  5
6482
330
6478
100
AcDbEntity
  8
LW 5026-06-01
100
AcDbVertex
100
AcDb2dVertex
 10
8.365621566778372
 20
-7.624608874323484
 30
0.0
  0
VERTEX
  5
6483
330
6478
100
AcDbEntity
  8
LW 5026-06-01
100
AcDbVertex
100
AcDb2dVertex
 10
7.988529205327722
 20
-8.142867088320372
 30
0.0
  0
VERTEX
  5
6484
330
6478
100
AcDbEntity
  8
LW 5026-06-01
100
AcDbVertex
100
AcDb2dVertex
 10
7.586660385137292
 20
-8.628254532816299
 30
0.0
  0
VERTEX
  5
6485
330
6478
100
AcDbEntity
  8
LW 5026-06-01
100
AcDbVertex
100
AcDb2dVertex
 10
7.164006233220788
 20
-9.078100323679336
 30
0.0
  0
VERTEX
  5
6486
330
6478
100
AcDbEntity
  8
LW 5026-06-01
100
AcDbVertex
100
AcDb2dVertex
 10
6.716151237493249
 20
-9.497755765916963
 30
0.0
  0
VERTEX
  5
6487
330
6478
100
AcDbEntity
  8
LW 5026-06-01
100
AcDbVertex
100
AcDb2dVertex
 10
6.232929229741785
 20
-9.896658062936808
 30
0.0
  0
VERTEX
  5
6488
330
6478
100
AcDbEntity
  8
LW 5026-06-01
100
AcDbVertex
100
AcDb2dVertex
 10
5.716900825505945
 20
-10.2710771560686
 30
0.0
  0
VERTEX
  5
6489
330
6478
100
AcDbEntity
  8
LW 5026-06-01
100
AcDbVertex
100
AcDb2dVertex
 10
5.170793533330197
 20
-10.6171154975907
 30
0.0
  0
VERTEX
  5
648A
330
6478
100
AcDbEntity
  8
LW 5026-06-01
100
AcDbVertex
100
AcDb2dVertex
 10
4.597344398503537
 20
-10.93087315559523
 30
0.0
  0
VERTEX
  5
648B
330
6478
100
AcDbEntity
  8
LW 5026-06-01
100
AcDbVertex
100
AcDb2dVertex
 10
3.999280929570431
 20
-11.20844960212821
 30
0.0
  0
VERTEX
  5
648C
330
6478
100
AcDbEntity
  8
LW 5026-06-01
100
AcDbVertex
100
AcDb2dVertex
 10
3.379426002507443
 20
-11.44687294960135
 30
0.0
  0
VERTEX
  5
648D
330
6478
100
AcDbEntity
  8
LW 5026-06-01
100
AcDbVertex
100
AcDb2dVertex
 10
2.741599082951779
 20
-11.64467811584563
 30
0.0
  0
VERTEX
  5
648E
330
6478
100
AcDbEntity
  8
LW 5026-06-01
100
AcDbVertex
100
AcDb2dVertex
 10
2.090067863469357
 20
-11.79998040199348
 30
0.0
  0
VERTEX
  5
648F
330
6478
100
AcDbEntity
  8
LW 5026-06-01
100
AcDbVertex
100
AcDb2dVertex
 10
1.429209709172482
 20
-11.91113829612777
 30
0.0
  0
VERTEX
  5
6490
330
6478
100
AcDbEntity
  8
LW 5026-06-01
100
AcDbVertex
100
AcDb2dVertex
 10
0.7640886306812718
 20
-11.97779297828697
 30
0.0
  0
VERTEX
  5
6491
330
6478
100
AcDbEntity
  8
LW 5026-06-01
100
AcDbVertex
100
AcDb2dVertex
 10
0.1000022888233616
 20
-12.00000047683716
 30
0.0
  0
SEQEND
  5
6492
330
6478
100
AcDbEntity
  8
LW 5026-06-01
  0
LINE
  5
6493
330
63EA
100
AcDbEntity
  8
LW 5026-06-01
100
AcDbLine
 10
0.100000000005366
 20
-12.00000000000011
 30
0.0
 11
-0.0999999999949069
 21
-12.0
 31
0.0
  0
POLYLINE
  5
6494
330
63EA
100
AcDbEntity
  8
LW 5026-06-01
100
AcDb2dPolyline
 66
     1
 10
0.0
 20
0.0
 30
0.0
 70
   128
  0
VERTEX
  5
6495
330
6494
100
AcDbEntity
  8
LW 5026-06-01
100
AcDbVertex
100
AcDb2dVertex
 10
-10.10000228881063
 20
2.000000029805278
 30
0.0
  0
VERTEX
  5
6496
330
6494
100
AcDbEntity
  8
LW 5026-06-01
100
AcDbVertex
100
AcDb2dVertex
 10
-10.07736206053869
 20
2.660353183749293
 30
0.0
  0
VERTEX
  5
6497
330
6494
100
AcDbEntity
  8
LW 5026-06-01
100
AcDbVertex
100
AcDb2dVertex
 10
-10.0099658965978
 20
3.323163092139338
 30
0.0
  0
VERTEX
  5
6498
330
6494
100
AcDbEntity
  8
LW 5026-06-01
100
AcDbVertex
100
AcDb2dVertex
 10
-9.898595809927883
 20
3.983446657660579
 30
0.0
  0
VERTEX
  5
6499
330
6494
100
AcDbEntity
  8
LW 5026-06-01
100
AcDbVertex
100
AcDb2dVertex
 10
-9.74402904509634
 20
4.636221230032901
 30
0.0
  0
VERTEX
  5
649A
330
6494
100
AcDbEntity
  8
LW 5026-06-01
100
AcDbVertex
100
AcDb2dVertex
 10
-9.547052383413756
 20
5.276503562929974
 30
0.0
  0
VERTEX
  5
649B
330
6494
100
AcDbEntity
  8
LW 5026-06-01
100
AcDbVertex
100
AcDb2dVertex
 10
-9.308433532705294
 20
5.899311304095135
 30
0.0
  0
VERTEX
  5
649C
330
6494
100
AcDbEntity
  8
LW 5026-06-01
100
AcDbVertex
100
AcDb2dVertex
 10
-9.029560089101778
 20
6.500160098078481
 30
0.0
  0
VERTEX
  5
649D
330
6494
100
AcDbEntity
  8
LW 5026-06-01
100
AcDbVertex
100
AcDb2dVertex
 10
-8.713960647573003
 20
7.076148986818907
 30
0.0
  0
VERTEX
  5
649E
330
6494
100
AcDbEntity
  8
LW 5026-06-01
100
AcDbVertex
100
AcDb2dVertex
 10
-8.365621566762456
 20
7.624608874323484
 30
0.0
  0
VERTEX
  5
649F
330
6494
100
AcDbEntity
  8
LW 5026-06-01
100
AcDbVertex
100
AcDb2dVertex
 10
-7.988529205311806
 20
8.142867088320144
 30
0.0
  0
VERTEX
  5
64A0
330
6494
100
AcDbEntity
  8
LW 5026-06-01
100
AcDbVertex
100
AcDb2dVertex
 10
-7.586660385121376
 20
8.628254532816299
 30
0.0
  0
VERTEX
  5
64A1
330
6494
100
AcDbEntity
  8
LW 5026-06-01
100
AcDbVertex
100
AcDb2dVertex
 10
-7.164006233204418
 20
9.078100323679109
 30
0.0
  0
VERTEX
  5
64A2
330
6494
100
AcDbEntity
  8
LW 5026-06-01
100
AcDbVertex
100
AcDb2dVertex
 10
-6.716151237476879
 20
9.497755765916849
 30
0.0
  0
VERTEX
  5
64A3
330
6494
100
AcDbEntity
  8
LW 5026-06-01
100
AcDbVertex
100
AcDb2dVertex
 10
-6.232929229724959
 20
9.896658062936694
 30
0.0
  0
VERTEX
  5
64A4
330
6494
100
AcDbEntity
  8
LW 5026-06-01
100
AcDbVertex
100
AcDb2dVertex
 10
-5.716900825489119
 20
10.27107715606848
 30
0.0
  0
VERTEX
  5
64A5
330
6494
100
AcDbEntity
  8
LW 5026-06-01
100
AcDbVertex
100
AcDb2dVertex
 10
-5.170793533313826
 20
10.61711549759059
 30
0.0
  0
VERTEX
  5
64A6
330
6494
100
AcDbEntity
  8
LW 5026-06-01
100
AcDbVertex
100
AcDb2dVertex
 10
-4.597344398486711
 20
10.93087315559523
 30
0.0
  0
VERTEX
  5
64A7
330
6494
100
AcDbEntity
  8
LW 5026-06-01
100
AcDbVertex
100
AcDb2dVertex
 10
-3.999280929553606
 20
11.20844960212821
 30
0.0
  0
VERTEX
  5
64A8
330
6494
100
AcDbEntity
  8
LW 5026-06-01
100
AcDbVertex
100
AcDb2dVertex
 10
-3.379426002490163
 20
11.44687294960113
 30
0.0
  0
VERTEX
  5
64A9
330
6494
100
AcDbEntity
  8
LW 5026-06-01
100
AcDbVertex
100
AcDb2dVertex
 10
-2.741599082934499
 20
11.64467811584552
 30
0.0
  0
VERTEX
  5
64AA
330
6494
100
AcDbEntity
  8
LW 5026-06-01
100
AcDbVertex
100
AcDb2dVertex
 10
-2.090067863452077
 20
11.79998040199336
 30
0.0
  0
VERTEX
  5
64AB
330
6494
100
AcDbEntity
  8
LW 5026-06-01
100
AcDbVertex
100
AcDb2dVertex
 10
-1.429209709155202
 20
11.91113829612766
 30
0.0
  0
VERTEX
  5
64AC
330
6494
100
AcDbEntity
  8
LW 5026-06-01
100
AcDbVertex
100
AcDb2dVertex
 10
-0.7640886306639914
 20
11.97779297828697
 30
0.0
  0
VERTEX
  5
64AD
330
6494
100
AcDbEntity
  8
LW 5026-06-01
100
AcDbVertex
100
AcDb2dVertex
 10
-0.1000022888060812
 20
12.00000047683716
 30
0.0
  0
SEQEND
  5
64AE
330
6494
100
AcDbEntity
  8
LW 5026-06-01
  0
LINE
  5
64AF
330
63EA
100
AcDbEntity
  8
LW 5026-06-01
100
AcDbLine
 10
-0.0999999999876309
 20
12.0
 30
0.0
 11
0.100000000012642
 21
12.0
 31
0.0
  0
LINE
  5
64B0
330
63EA
100
AcDbEntity
  8
LW 5026-06-01
100
AcDbLine
 10
10.10000000000673
 20
-2.000000000003069
 30
0.0
 11
10.10000000000809
 21
1.999999999996816
 31
0.0
  0
LINE
  5
64B1
330
63EA
100
AcDbEntity
  8
LW 5026-06-01
100
AcDbLine
 10
-10.09999999999172
 20
2.000000000002955
 30
0.0
 11
-10.09999999999309
 21
-1.999999999997044
 31
0.0
  0
POLYLINE
  5
64B2
330
63EA
100
AcDbEntity
  8
LW 5026-06-01
100
AcDb2dPolyline
 66
     1
 10
0.0
 20
0.0
 30
0.0
 70
   128
  0
VERTEX
  5
64B3
330
64B2
100
AcDbEntity
  8
LW 5026-06-01
100
AcDbVertex
100
AcDb2dVertex
 10
-0.1000022888133571
 20
-12.00000047683716
 30
0.0
  0
VERTEX
  5
64B4
330
64B2
100
AcDbEntity
  8
LW 5026-06-01
100
AcDbVertex
100
AcDb2dVertex
 10
-0.7640886306712673
 20
-11.97779297828651
 30
0.0
  0
VERTEX
  5
64B5
330
64B2
100
AcDbEntity
  8
LW 5026-06-01
100
AcDbVertex
100
AcDb2dVertex
 10
-1.429209709162478
 20
-11.91113829612698
 30
0.0
  0
VERTEX
  5
64B6
330
64B2
100
AcDbEntity
  8
LW 5026-06-01
100
AcDbVertex
100
AcDb2dVertex
 10
-2.090067863459353
 20
-11.79998040199223
 30
0.0
  0
VERTEX
  5
64B7
330
64B2
100
AcDbEntity
  8
LW 5026-06-01
100
AcDbVertex
100
AcDb2dVertex
 10
-2.741599082941775
 20
-11.64467811584393
 30
0.0
  0
VERTEX
  5
64B8
330
64B2
100
AcDbEntity
  8
LW 5026-06-01
100
AcDbVertex
100
AcDb2dVertex
 10
-3.379426002497439
 20
-11.44687294959931
 30
0.0
  0
VERTEX
  5
64B9
330
64B2
100
AcDbEntity
  8
LW 5026-06-01
100
AcDbVertex
100
AcDb2dVertex
 10
-3.999280929560427
 20
-11.20844960212594
 30
0.0
  0
VERTEX
  5
64BA
330
64B2
100
AcDbEntity
  8
LW 5026-06-01
100
AcDbVertex
100
AcDb2dVertex
 10
-4.597344398493532
 20
-10.93087315559251
 30
0.0
  0
VERTEX
  5
64BB
330
64B2
100
AcDbEntity
  8
LW 5026-06-01
100
AcDbVertex
100
AcDb2dVertex
 10
-5.170793533320193
 20
-10.61711549758763
 30
0.0
  0
VERTEX
  5
64BC
330
64B2
100
AcDbEntity
  8
LW 5026-06-01
100
AcDbVertex
100
AcDb2dVertex
 10
-5.716900825495486
 20
-10.2710771560653
 30
0.0
  0
VERTEX
  5
64BD
330
64B2
100
AcDbEntity
  8
LW 5026-06-01
100
AcDbVertex
100
AcDb2dVertex
 10
-6.232929229730871
 20
-9.896658062933056
 30
0.0
  0
VERTEX
  5
64BE
330
64B2
100
AcDbEntity
  8
LW 5026-06-01
100
AcDbVertex
100
AcDb2dVertex
 10
-6.716151237482336
 20
-9.497755765912984
 30
0.0
  0
VERTEX
  5
64BF
330
64B2
100
AcDbEntity
  8
LW 5026-06-01
100
AcDbVertex
100
AcDb2dVertex
 10
-7.164006233209875
 20
-9.078100323675016
 30
0.0
  0
VERTEX
  5
64C0
330
64B2
100
AcDbEntity
  8
LW 5026-06-01
100
AcDbVertex
100
AcDb2dVertex
 10
-7.586660385126378
 20
-8.628254532811752
 30
0.0
  0
VERTEX
  5
64C1
330
64B2
100
AcDbEntity
  8
LW 5026-06-01
100
AcDbVertex
100
AcDb2dVertex
 10
-7.988529205316808
 20
-8.142867088315597
 30
0.0
  0
VERTEX
  5
64C2
330
64B2
100
AcDbEntity
  8
LW 5026-06-01
100
AcDbVertex
100
AcDb2dVertex
 10
-8.365621566766549
 20
-7.624608874318482
 30
0.0
  0
VERTEX
  5
64C3
330
64B2
100
AcDbEntity
  8
LW 5026-06-01
100
AcDbVertex
100
AcDb2dVertex
 10
-8.713960647577096
 20
-7.076148986813905
 30
0.0
  0
VERTEX
  5
64C4
330
64B2
100
AcDbEntity
  8
LW 5026-06-01
100
AcDbVertex
100
AcDb2dVertex
 10
-9.029560089105416
 20
-6.500160098073251
 30
0.0
  0
VERTEX
  5
64C5
330
64B2
100
AcDbEntity
  8
LW 5026-06-01
100
AcDbVertex
100
AcDb2dVertex
 10
-9.308433532708932
 20
-5.899311304089678
 30
0.0
  0
VERTEX
  5
64C6
330
64B2
100
AcDbEntity
  8
LW 5026-06-01
100
AcDbVertex
100
AcDb2dVertex
 10
-9.547052383416939
 20
-5.276503562924517
 30
0.0
  0
VERTEX
  5
64C7
330
64B2
100
AcDbEntity
  8
LW 5026-06-01
100
AcDbVertex
100
AcDb2dVertex
 10
-9.744029045099068
 20
-4.636221230027217
 30
0.0
  0
VERTEX
  5
64C8
330
64B2
100
AcDbEntity
  8
LW 5026-06-01
100
AcDbVertex
100
AcDb2dVertex
 10
-9.898595809930156
 20
-3.983446657654667
 30
0.0
  0
VERTEX
  5
64C9
330
64B2
100
AcDbEntity
  8
LW 5026-06-01
100
AcDbVertex
100
AcDb2dVertex
 10
-10.00996589660008
 20
-3.323163092133427
 30
0.0
  0
VERTEX
  5
64CA
330
64B2
100
AcDbEntity
  8
LW 5026-06-01
100
AcDbVertex
100
AcDb2dVertex
 10
-10.07736206054005
 20
-2.660353183743382
 30
0.0
  0
VERTEX
  5
64CB
330
64B2
100
AcDbEntity
  8
LW 5026-06-01
100
AcDbVertex
100
AcDb2dVertex
 10
-10.10000228881154
 20
-2.000000029799366
 30
0.0
  0
SEQEND
  5
64CC
330
64B2
100
AcDbEntity
  8
LW 5026-06-01
  0
LINE
  5
64CD
330
63EA
100
AcDbEntity
  8
LW 5026-06-01
  6
VERDECKT
 62
     6
100
AcDbLine
 10
-59.99999999999181
 20
-14.66010854272019
 30
0.0
 11
-59.99999999998317
 21
14.66010854275578
 31
0.0
  0
ARC
  5
64CE
330
63EA
100
AcDbEntity
  8
LW 5026-06-01
  6
VERDECKT
 62
     6
100
AcDbCircle
 10
-61.99999999999182
 20
-14.66010854271962
 30
0.0
 40
2.0
100
AcDbArc
 50
340.7099537807874
 51
0.0
  0
ARC
  5
64CF
330
63EA
100
AcDbEntity
  8
LW 5026-06-01
  6
VERDECKT
 62
     6
100
AcDbCircle
 10
-61.99999999998317
 20
14.66010854275623
 30
0.0
 40
2.0
100
AcDbArc
 50
0.0
 51
19.29004621917444
  0
LINE
  5
64D0
330
63EA
100
AcDbEntity
  8
LW 5026-06-01
  6
VERDECKT
 62
     6
100
AcDbLine
 10
-60.11228328726019
 20
-15.32080939217644
 30
0.0
 11
-60.87499999999272
 21
-17.49999999998204
 31
0.0
  0
LINE
  5
64D1
330
63EA
100
AcDbEntity
  8
LW 5026-06-01
  6
VERDECKT
 62
     6
100
AcDbLine
 10
-60.1122832872511
 20
15.32080939221191
 30
0.0
 11
-60.87499999998226
 21
17.50000000001796
 31
0.0
  0
LINE
  5
64D2
330
63EA
100
AcDbEntity
  8
LW 5026-06-01
100
AcDbLine
 10
-2.934499611942555
 20
17.50000000000091
 30
0.0
 11
-2.458499999981995
 21
17.50000000000068
 31
0.0
  0
LINE
  5
64D3
330
63EA
100
AcDbEntity
  8
LW 5026-06-01
100
AcDbLine
 10
2.458500000017465
 20
17.49999999999932
 30
0.0
 11
2.934499611978026
 21
17.49999999999909
 31
0.0
  0
LINE
  5
64D4
330
63EA
100
AcDbEntity
  8
LW 5026-06-01
100
AcDbLine
 10
-2.934499611953015
 20
-17.49999999999909
 30
0.0
 11
-2.458499999992909
 21
-17.49999999999932
 31
0.0
  0
LINE
  5
64D5
330
63EA
100
AcDbEntity
  8
LW 5026-06-01
100
AcDbLine
 10
2.458500000007461
 20
-17.50000000000068
 30
0.0
 11
2.934499611967567
 21
-17.50000000000091
 31
0.0
  0
LINE
  5
64D6
330
63EA
100
AcDbEntity
  8
LW 5026-06-01
100
AcDbLine
 10
-60.87499999999272
 20
-17.49999999998204
 30
0.0
 11
-60.87499999998226
 21
17.50000000001796
 31
0.0
  0
LINE
  5
64D7
330
63EA
100
AcDbEntity
  8
LW 5026-06-01
100
AcDbLine
 10
20.00000000000773
 20
-16.00000000000591
 30
0.0
 11
20.00000000001728
 21
15.99999999999409
 31
0.0
  0
LINE
  5
64D8
330
63EA
100
AcDbEntity
  8
LW 5026-06-01
100
AcDbLine
 10
-60.87499999998226
 20
17.50000000001796
 30
0.0
 11
-2.934499611942555
 21
17.50000000000091
 31
0.0
  0
LINE
  5
64D9
330
63EA
100
AcDbEntity
  8
LW 5026-06-01
100
AcDbLine
 10
2.934499611978026
 20
17.49999999999909
 30
0.0
 11
18.50000000001773
 21
17.49999999999454
 31
0.0
  0
LINE
  5
64DA
330
63EA
100
AcDbEntity
  8
LW 5026-06-01
100
AcDbLine
 10
-60.87499999999272
 20
-17.49999999998204
 30
0.0
 11
-2.934499611953015
 21
-17.49999999999909
 31
0.0
  0
LINE
  5
64DB
330
63EA
100
AcDbEntity
  8
LW 5026-06-01
100
AcDbLine
 10
2.934499611967567
 20
-17.50000000000091
 30
0.0
 11
18.50000000000727
 21
-17.50000000000546
 31
0.0
  0
ARC
  5
64DC
330
63EA
100
AcDbEntity
  8
LW 5026-06-01
100
AcDbCircle
 10
18.50000000000773
 20
-16.00000000000546
 30
0.0
 40
1.500000000000012
100
AcDbArc
 50
269.999999999987
 51
0.0
  0
ARC
  5
64DD
330
63EA
100
AcDbEntity
  8
LW 5026-06-01
100
AcDbCircle
 10
18.50000000001728
 20
15.99999999999454
 30
0.0
 40
1.500000000000012
100
AcDbArc
 50
0.0
 51
89.99999999998697
  0
POLYLINE
  5
64DE
330
63EA
100
AcDbEntity
  8
LW 5026-06-01
100
AcDb2dPolyline
 66
     1
 10
0.0
 20
0.0
 30
0.0
 70
   128
  0
VERTEX
  5
64DF
330
64DE
100
AcDbEntity
  8
LW 5026-06-01
100
AcDbVertex
100
AcDb2dVertex
 10
2.458500862193432
 20
17.4999999999992
 30
0.0
  0
VERTEX
  5
64E0
330
64DE
100
AcDbEntity
  8
LW 5026-06-01
100
AcDbVertex
100
AcDb2dVertex
 10
2.437810897898998
 20
17.4970555305473
 30
0.0
  0
VERTEX
  5
64E1
330
64DE
100
AcDbEntity
  8
LW 5026-06-01
100
AcDbVertex
100
AcDb2dVertex
 10
2.375483512950268
 20
17.48848080635002
 30
0.0
  0
VERTEX
  5
64E2
330
64DE
100
AcDbEntity
  8
LW 5026-06-01
100
AcDbVertex
100
AcDb2dVertex
 10
2.27111816413435
 20
17.4746608734124
 30
0.0
  0
VERTEX
  5
64E3
330
64DE
100
AcDbEntity
  8
LW 5026-06-01
100
AcDbVertex
100
AcDb2dVertex
 10
2.125682830881942
 20
17.45637536048821
 30
0.0
  0
VERTEX
  5
64E4
330
64DE
100
AcDbEntity
  8
LW 5026-06-01
100
AcDbVertex
100
AcDb2dVertex
 10
1.945543289255965
 20
17.4353611469262
 30
0.0
  0
VERTEX
  5
64E5
330
64DE
100
AcDbEntity
  8
LW 5026-06-01
100
AcDbVertex
100
AcDb2dVertex
 10
1.738414764475692
 20
17.41343855857792
 30
0.0
  0
VERTEX
  5
64E6
330
64DE
100
AcDbEntity
  8
LW 5026-06-01
100
AcDbVertex
100
AcDb2dVertex
 10
1.502156257700789
 20
17.39148736000015
 30
0.0
  0
VERTEX
  5
64E7
330
64DE
100
AcDbEntity
  8
LW 5026-06-01
100
AcDbVertex
100
AcDb2dVertex
 10
1.234145164561141
 20
17.37039446830704
 30
0.0
  0
VERTEX
  5
64E8
330
64DE
100
AcDbEntity
  8
LW 5026-06-01
100
AcDbVertex
100
AcDb2dVertex
 10
0.9413909912823328
 20
17.35200285911537
 30
0.0
  0
VERTEX
  5
64E9
330
64DE
100
AcDbEntity
  8
LW 5026-06-01
100
AcDbVertex
100
AcDb2dVertex
 10
0.6314468384503016
 20
17.33807563781715
 30
0.0
  0
VERTEX
  5
64EA
330
64DE
100
AcDbEntity
  8
LW 5026-06-01
100
AcDbVertex
100
AcDb2dVertex
 10
0.3141689301251063
 20
17.32942223548866
 30
0.0
  0
VERTEX
  5
64EB
330
64DE
100
AcDbEntity
  8
LW 5026-06-01
100
AcDbVertex
100
AcDb2dVertex
 10
0.0000000000713953
 20
17.3264467716217
 30
0.0
  0
VERTEX
  5
64EC
330
64DE
100
AcDbEntity
  8
LW 5026-06-01
100
AcDbVertex
100
AcDb2dVertex
 10
-0.3141689299823156
 20
17.32942223548889
 30
0.0
  0
VERTEX
  5
64ED
330
64DE
100
AcDbEntity
  8
LW 5026-06-01
100
AcDbVertex
100
AcDb2dVertex
 10
-0.631446838307511
 20
17.33807563781761
 30
0.0
  0
VERTEX
  5
64EE
330
64DE
100
AcDbEntity
  8
LW 5026-06-01
100
AcDbVertex
100
AcDb2dVertex
 10
-0.9413909911395421
 20
17.35200285911583
 30
0.0
  0
VERTEX
  5
64EF
330
64DE
100
AcDbEntity
  8
LW 5026-06-01
100
AcDbVertex
100
AcDb2dVertex
 10
-1.23414516441835
 20
17.37039446830783
 30
0.0
  0
VERTEX
  5
64F0
330
64DE
100
AcDbEntity
  8
LW 5026-06-01
100
AcDbVertex
100
AcDb2dVertex
 10
-1.502156257557999
 20
17.39148736000106
 30
0.0
  0
VERTEX
  5
64F1
330
64DE
100
AcDbEntity
  8
LW 5026-06-01
100
AcDbVertex
100
AcDb2dVertex
 10
-1.738414764332901
 20
17.41343855857894
 30
0.0
  0
VERTEX
  5
64F2
330
64DE
100
AcDbEntity
  8
LW 5026-06-01
100
AcDbVertex
100
AcDb2dVertex
 10
-1.945543289113174
 20
17.43536114692745
 30
0.0
  0
VERTEX
  5
64F3
330
64DE
100
AcDbEntity
  8
LW 5026-06-01
100
AcDbVertex
100
AcDb2dVertex
 10
-2.125682830739151
 20
17.45637536048946
 30
0.0
  0
VERTEX
  5
64F4
330
64DE
100
AcDbEntity
  8
LW 5026-06-01
100
AcDbVertex
100
AcDb2dVertex
 10
-2.271118163990649
 20
17.47466087341377
 30
0.0
  0
VERTEX
  5
64F5
330
64DE
100
AcDbEntity
  8
LW 5026-06-01
100
AcDbVertex
100
AcDb2dVertex
 10
-2.375483512806567
 20
17.48848080635139
 30
0.0
  0
VERTEX
  5
64F6
330
64DE
100
AcDbEntity
  8
LW 5026-06-01
100
AcDbVertex
100
AcDb2dVertex
 10
-2.437810897755298
 20
17.49705553054878
 30
0.0
  0
VERTEX
  5
64F7
330
64DE
100
AcDbEntity
  8
LW 5026-06-01
100
AcDbVertex
100
AcDb2dVertex
 10
-2.458500862049731
 20
17.50000000000068
 30
0.0
  0
SEQEND
  5
64F8
330
64DE
100
AcDbEntity
  8
LW 5026-06-01
  0
LINE
  5
64F9
330
63EA
100
AcDbEntity
  8
LW 5026-06-01
  6
VERDECKT
 62
     6
100
AcDbLine
 10
3.000000000009094
 20
-11.56454189896737
 30
0.0
 11
3.00000000000773
 21
-17.50000000000102
 31
0.0
  0
LINE
  5
64FA
330
63EA
100
AcDbEntity
  8
LW 5026-06-01
  6
VERDECKT
 62
     6
100
AcDbLine
 10
-2.999999999991359
 20
-11.56454189896817
 30
0.0
 11
-2.999999999992724
 21
-17.49999999999898
 31
0.0
  0
LINE
  5
64FB
330
63EA
100
AcDbEntity
  8
LW 5026-06-01
100
AcDbLine
 10
2.000000000015916
 20
11.49999999999931
 30
0.0
 11
-1.999999999984083
 21
11.50000000000045
 31
0.0
  0
LINE
  5
64FC
330
63EA
100
AcDbEntity
  8
LW 5026-06-01
100
AcDbLine
 10
-1.999999999984083
 20
11.50000000000057
 30
0.0
 11
-2.263220606334016
 21
11.76322060635084
 31
0.0
  0
LINE
  5
64FD
330
63EA
100
AcDbEntity
  8
LW 5026-06-01
100
AcDbLine
 10
2.000000000015916
 20
11.49999999999931
 30
0.0
 11
2.263220606366303
 21
11.76322060634948
 31
0.0
  0
LINE
  5
64FE
330
63EA
100
AcDbEntity
  8
LW 5026-06-01
  6
VERDECKT
 62
     6
100
AcDbLine
 10
-2.999999999983629
 20
12.50000000000079
 30
0.0
 11
3.000000000015916
 21
12.49999999999909
 31
0.0
  0
LINE
  5
64FF
330
63EA
100
AcDbEntity
  8
LW 5026-06-01
  6
VERDECKT
 62
     6
100
AcDbLine
 10
-2.263220606334016
 20
11.76322060635084
 30
0.0
 11
-2.999999999983629
 21
12.50000000000079
 31
0.0
  0
LINE
  5
6500
330
63EA
100
AcDbEntity
  8
LW 5026-06-01
  6
VERDECKT
 62
     6
100
AcDbLine
 10
2.263220606366303
 20
11.76322060634948
 30
0.0
 11
3.00000000001637
 21
12.49999999999909
 31
0.0
  0
LINE
  5
6501
330
63EA
100
AcDbEntity
  8
LW 5026-06-01
  6
VERDECKT
 62
     6
100
AcDbLine
 10
-1.439421035178384
 20
17.3865500000004
 30
0.0
 11
-2.999999999982264
 21
17.38655000000085
 31
0.0
  0
LINE
  5
6502
330
63EA
100
AcDbEntity
  8
LW 5026-06-01
  6
VERDECKT
 62
     6
100
AcDbLine
 10
3.000000000017735
 20
17.38654999999903
 30
0.0
 11
1.439421035321174
 21
17.38654999999949
 31
0.0
  0
LINE
  5
6503
330
63EA
100
AcDbEntity
  8
LW 5026-06-01
  6
VERDECKT
 62
     6
100
AcDbLine
 10
2.934499611978026
 20
17.49999999999909
 30
0.0
 11
3.000000000017735
 21
17.38654999999903
 31
0.0
  0
LINE
  5
6504
330
63EA
100
AcDbEntity
  8
LW 5026-06-01
  6
VERDECKT
 62
     6
100
AcDbLine
 10
-2.934499611942555
 20
17.50000000000079
 30
0.0
 11
-2.999999999982264
 21
17.38655000000085
 31
0.0
  0
LINE
  5
6505
330
63EA
100
AcDbEntity
  8
LW 5026-06-01
100
AcDbLine
 10
1.439421035321174
 20
17.38654999999949
 30
0.0
 11
-1.439421035178384
 21
17.3865500000004
 31
0.0
  0
LINE
  5
6506
330
63EA
100
AcDbEntity
  8
LW 5026-06-01
100
AcDbLine
 10
-2.645824477348014
 20
18.00000000000068
 30
0.0
 11
2.645824477383484
 21
17.99999999999909
 31
0.0
  0
LINE
  5
6507
330
63EA
100
AcDbEntity
  8
LW 5026-06-01
100
AcDbLine
 10
2.645824477383484
 20
17.99999999999909
 30
0.0
 11
2.934499611978026
 21
17.49999999999909
 31
0.0
  0
LINE
  5
6508
330
63EA
100
AcDbEntity
  8
LW 5026-06-01
100
AcDbLine
 10
-2.645824477348014
 20
18.00000000000068
 30
0.0
 11
-2.934499611942555
 21
17.50000000000079
 31
0.0
  0
LINE
  5
6509
330
63EA
100
AcDbEntity
  8
LW 5026-06-01
  6
VERDECKT
 62
     6
100
AcDbLine
 10
1.701559465536774
 20
15.99999999999943
 30
0.0
 11
1.701559465537229
 21
17.99999999999932
 31
0.0
  0
LINE
  5
650A
330
63EA
100
AcDbEntity
  8
LW 5026-06-01
  6
VERDECKT
 62
     6
100
AcDbLine
 10
-1.701559465502214
 20
16.00000000000045
 30
0.0
 11
-1.701559465501759
 21
18.00000000000045
 31
0.0
  0
POLYLINE
  5
650B
330
63EA
100
AcDbEntity
  8
LW 5026-06-01
  6
VERDECKT
 62
     6
100
AcDb2dPolyline
 66
     1
 10
0.0
 20
0.0
 30
0.0
 70
   128
  0
VERTEX
  5
650C
330
650B
100
AcDbEntity
  8
LW 5026-06-01
  6
VERDECKT
 62
     6
100
AcDbVertex
100
AcDb2dVertex
 10
-0.5705627565012037
 20
16.00000023841858
 30
0.0
  0
VERTEX
  5
650D
330
650B
100
AcDbEntity
  8
LW 5026-06-01
  6
VERDECKT
 62
     6
100
AcDbVertex
100
AcDb2dVertex
 10
-0.624013756597833
 20
15.97722768783592
 30
0.0
  0
VERTEX
  5
650E
330
650B
100
AcDbEntity
  8
LW 5026-06-01
  6
VERDECKT
 62
     6
100
AcDbVertex
100
AcDb2dVertex
 10
-0.6756932485836842
 20
15.95691502094291
 30
0.0
  0
VERTEX
  5
650F
330
650B
100
AcDbEntity
  8
LW 5026-06-01
  6
VERDECKT
 62
     6
100
AcDbVertex
100
AcDb2dVertex
 10
-0.7258202294819967
 20
15.93891918659233
 30
0.0
  0
VERTEX
  5
6510
330
650B
100
AcDbEntity
  8
LW 5026-06-01
  6
VERDECKT
 62
     6
100
AcDbVertex
100
AcDb2dVertex
 10
-0.7745952731002035
 20
15.92311620712303
 30
0.0
  0
VERTEX
  5
6511
330
650B
100
AcDbEntity
  8
LW 5026-06-01
  6
VERDECKT
 62
     6
100
AcDbVertex
100
AcDb2dVertex
 10
-0.8222031810792032
 20
15.90940058231376
 30
0.0
  0
VERTEX
  5
6512
330
650B
100
AcDbEntity
  8
LW 5026-06-01
  6
VERDECKT
 62
     6
100
AcDbVertex
100
AcDb2dVertex
 10
-0.8688156029907077
 20
15.89768230915092
 30
0.0
  0
VERTEX
  5
6513
330
650B
100
AcDbEntity
  8
LW 5026-06-01
  6
VERDECKT
 62
     6
100
AcDbVertex
100
AcDb2dVertex
 10
-0.9145933636573317
 20
15.88788747787498
 30
0.0
  0
VERTEX
  5
6514
330
650B
100
AcDbEntity
  8
LW 5026-06-01
  6
VERDECKT
 62
     6
100
AcDbVertex
100
AcDb2dVertex
 10
-0.9596883549079393
 20
15.87995409965538
 30
0.0
  0
VERTEX
  5
6515
330
650B
100
AcDbEntity
  8
LW 5026-06-01
  6
VERDECKT
 62
     6
100
AcDbVertex
100
AcDb2dVertex
 10
-1.004245284548687
 20
15.87383270263694
 30
0.0
  0
VERTEX
  5
6516
330
650B
100
AcDbEntity
  8
LW 5026-06-01
  6
VERDECKT
 62
     6
100
AcDbVertex
100
AcDb2dVertex
 10
-1.048403383576896
 20
15.86948692798637
 30
0.0
  0
VERTEX
  5
6517
330
650B
100
AcDbEntity
  8
LW 5026-06-01
  6
VERDECKT
 62
     6
100
AcDbVertex
100
AcDb2dVertex
 10
-1.092297865975524
 20
15.86688935756706
 30
0.0
  0
VERTEX
  5
6518
330
650B
100
AcDbEntity
  8
LW 5026-06-01
  6
VERDECKT
 62
     6
100
AcDbVertex
100
AcDb2dVertex
 10
-1.136061095731747
 20
15.86602568626426
 30
0.0
  0
VERTEX
  5
6519
330
650B
100
AcDbEntity
  8
LW 5026-06-01
  6
VERDECKT
 62
     6
100
AcDbVertex
100
AcDb2dVertex
 10
-1.179824339406422
 20
15.86688935756706
 30
0.0
  0
VERTEX
  5
651A
330
650B
100
AcDbEntity
  8
LW 5026-06-01
  6
VERDECKT
 62
     6
100
AcDbVertex
100
AcDb2dVertex
 10
-1.223718894999365
 20
15.86948692798637
 30
0.0
  0
VERTEX
  5
651B
330
650B
100
AcDbEntity
  8
LW 5026-06-01
  6
VERDECKT
 62
     6
100
AcDbVertex
100
AcDb2dVertex
 10
-1.267876987068575
 20
15.87383270263694
 30
0.0
  0
VERTEX
  5
651C
330
650B
100
AcDbEntity
  8
LW 5026-06-01
  6
VERDECKT
 62
     6
100
AcDbVertex
100
AcDb2dVertex
 10
-1.312433989903183
 20
15.87995409965538
 30
0.0
  0
VERTEX
  5
651D
330
650B
100
AcDbEntity
  8
LW 5026-06-01
  6
VERDECKT
 62
     6
100
AcDbVertex
100
AcDb2dVertex
 10
-1.357528907959476
 20
15.8878874778751
 30
0.0
  0
VERTEX
  5
651E
330
650B
100
AcDbEntity
  8
LW 5026-06-01
  6
VERDECKT
 62
     6
100
AcDbVertex
100
AcDb2dVertex
 10
-1.403306675585099
 20
15.89768230915103
 30
0.0
  0
VERTEX
  5
651F
330
650B
100
AcDbEntity
  8
LW 5026-06-01
  6
VERDECKT
 62
     6
100
AcDbVertex
100
AcDb2dVertex
 10
-1.449919097497058
 20
15.90940058231388
 30
0.0
  0
VERTEX
  5
6520
330
650B
100
AcDbEntity
  8
LW 5026-06-01
  6
VERDECKT
 62
     6
100
AcDbVertex
100
AcDb2dVertex
 10
-1.497526932281743
 20
15.92311620712314
 30
0.0
  0
VERTEX
  5
6521
330
650B
100
AcDbEntity
  8
LW 5026-06-01
  6
VERDECKT
 62
     6
100
AcDbVertex
100
AcDb2dVertex
 10
-1.546301982858949
 20
15.93891918659244
 30
0.0
  0
VERTEX
  5
6522
330
650B
100
AcDbEntity
  8
LW 5026-06-01
  6
VERDECKT
 62
     6
100
AcDbVertex
100
AcDb2dVertex
 10
-1.596429103186437
 20
15.95691502094314
 30
0.0
  0
VERTEX
  5
6523
330
650B
100
AcDbEntity
  8
LW 5026-06-01
  6
VERDECKT
 62
     6
100
AcDbVertex
100
AcDb2dVertex
 10
-1.648108451393909
 20
15.97722768783615
 30
0.0
  0
VERTEX
  5
6524
330
650B
100
AcDbEntity
  8
LW 5026-06-01
  6
VERDECKT
 62
     6
100
AcDbVertex
100
AcDb2dVertex
 10
-1.701559434962291
 20
16.00000023841903
 30
0.0
  0
SEQEND
  5
6525
330
650B
100
AcDbEntity
  8
LW 5026-06-01
  6
VERDECKT
 62
     6
  0
LINE
  5
6526
330
63EA
100
AcDbEntity
  8
LW 5026-06-01
  6
VERDECKT
 62
     6
100
AcDbLine
 10
-0.5705627829051992
 20
18.00000000000011
 30
0.0
 11
-0.5705627829061087
 21
16.0
 31
0.0
  0
POLYLINE
  5
6527
330
63EA
100
AcDbEntity
  8
LW 5026-06-01
  6
VERDECKT
 62
     6
100
AcDb2dPolyline
 66
     1
 10
0.0
 20
0.0
 30
0.0
 70
   128
  0
VERTEX
  5
6528
330
6527
100
AcDbEntity
  8
LW 5026-06-01
  6
VERDECKT
 62
     6
100
AcDbVertex
100
AcDb2dVertex
 10
1.701559434996852
 20
16.00000023841801
 30
0.0
  0
VERTEX
  5
6529
330
6527
100
AcDbEntity
  8
LW 5026-06-01
  6
VERDECKT
 62
     6
100
AcDbVertex
100
AcDb2dVertex
 10
1.674594594792779
 20
15.97722768783512
 30
0.0
  0
VERTEX
  5
652A
330
6527
100
AcDbEntity
  8
LW 5026-06-01
  6
VERDECKT
 62
     6
100
AcDbVertex
100
AcDb2dVertex
 10
1.648523558924352
 20
15.95691502094212
 30
0.0
  0
VERTEX
  5
652B
330
6527
100
AcDbEntity
  8
LW 5026-06-01
  6
VERDECKT
 62
     6
100
AcDbVertex
100
AcDb2dVertex
 10
1.6232354826775
 20
15.93891918659153
 30
0.0
  0
VERTEX
  5
652C
330
6527
100
AcDbEntity
  8
LW 5026-06-01
  6
VERDECKT
 62
     6
100
AcDbVertex
100
AcDb2dVertex
 10
1.598629549665474
 20
15.92311620712223
 30
0.0
  0
VERTEX
  5
652D
330
6527
100
AcDbEntity
  8
LW 5026-06-01
  6
VERDECKT
 62
     6
100
AcDbVertex
100
AcDb2dVertex
 10
1.574612475915273
 20
15.90940058231297
 30
0.0
  0
VERTEX
  5
652E
330
6527
100
AcDbEntity
  8
LW 5026-06-01
  6
VERDECKT
 62
     6
100
AcDbVertex
100
AcDb2dVertex
 10
1.551097542460411
 20
15.89768230915024
 30
0.0
  0
VERTEX
  5
652F
330
6527
100
AcDbEntity
  8
LW 5026-06-01
  6
VERDECKT
 62
     6
100
AcDbVertex
100
AcDb2dVertex
 10
1.528003674277897
 20
15.8878874778743
 30
0.0
  0
VERTEX
  5
6530
330
6527
100
AcDbEntity
  8
LW 5026-06-01
  6
VERDECKT
 62
     6
100
AcDbVertex
100
AcDb2dVertex
 10
1.505254310205145
 20
15.8799540996547
 30
0.0
  0
VERTEX
  5
6531
330
6527
100
AcDbEntity
  8
LW 5026-06-01
  6
VERDECKT
 62
     6
100
AcDbVertex
100
AcDb2dVertex
 10
1.482776265897882
 20
15.87383270263626
 30
0.0
  0
VERTEX
  5
6532
330
6527
100
AcDbEntity
  8
LW 5026-06-01
  6
VERDECKT
 62
     6
100
AcDbVertex
100
AcDb2dVertex
 10
1.460499503199116
 20
15.86948692798569
 30
0.0
  0
VERTEX
  5
6533
330
6527
100
AcDbEntity
  8
LW 5026-06-01
  6
VERDECKT
 62
     6
100
AcDbVertex
100
AcDb2dVertex
 10
1.438355623768529
 20
15.86688935756638
 30
0.0
  0
VERTEX
  5
6534
330
6527
100
AcDbEntity
  8
LW 5026-06-01
  6
VERDECKT
 62
     6
100
AcDbVertex
100
AcDb2dVertex
 10
1.41627805673761
 20
15.86602568626358
 30
0.0
  0
VERTEX
  5
6535
330
6527
100
AcDbEntity
  8
LW 5026-06-01
  6
VERDECKT
 62
     6
100
AcDbVertex
100
AcDb2dVertex
 10
1.394200475788238
 20
15.86688935756638
 30
0.0
  0
VERTEX
  5
6536
330
6527
100
AcDbEntity
  8
LW 5026-06-01
  6
VERDECKT
 62
     6
100
AcDbVertex
100
AcDb2dVertex
 10
1.372056669551511
 20
15.86948692798569
 30
0.0
  0
VERTEX
  5
6537
330
6527
100
AcDbEntity
  8
LW 5026-06-01
  6
VERDECKT
 62
     6
100
AcDbVertex
100
AcDb2dVertex
 10
1.349779913812199
 20
15.87383270263626
 30
0.0
  0
VERTEX
  5
6538
330
6527
100
AcDbEntity
  8
LW 5026-06-01
  6
VERDECKT
 62
     6
100
AcDbVertex
100
AcDb2dVertex
 10
1.32730194269925
 20
15.8799540996547
 30
0.0
  0
VERTEX
  5
6539
330
6527
100
AcDbEntity
  8
LW 5026-06-01
  6
VERDECKT
 62
     6
100
AcDbVertex
100
AcDb2dVertex
 10
1.304552505431729
 20
15.8878874778743
 30
0.0
  0
VERTEX
  5
653A
330
6527
100
AcDbEntity
  8
LW 5026-06-01
  6
VERDECKT
 62
     6
100
AcDbVertex
100
AcDb2dVertex
 10
1.281458630290217
 20
15.89768230915024
 30
0.0
  0
VERTEX
  5
653B
330
6527
100
AcDbEntity
  8
LW 5026-06-01
  6
VERDECKT
 62
     6
100
AcDbVertex
100
AcDb2dVertex
 10
1.257943696835809
 20
15.90940058231308
 30
0.0
  0
VERTEX
  5
653C
330
6527
100
AcDbEntity
  8
LW 5026-06-01
  6
VERDECKT
 62
     6
100
AcDbVertex
100
AcDb2dVertex
 10
1.233926549891293
 20
15.92311620712235
 30
0.0
  0
VERTEX
  5
653D
330
6527
100
AcDbEntity
  8
LW 5026-06-01
  6
VERDECKT
 62
     6
100
AcDbVertex
100
AcDb2dVertex
 10
1.209320609919814
 20
15.93891918659165
 30
0.0
  0
VERTEX
  5
653E
330
6527
100
AcDbEntity
  8
LW 5026-06-01
  6
VERDECKT
 62
     6
100
AcDbVertex
100
AcDb2dVertex
 10
1.184032687020589
 20
15.95691502094223
 30
0.0
  0
VERTEX
  5
653F
330
6527
100
AcDbEntity
  8
LW 5026-06-01
  6
VERDECKT
 62
     6
100
AcDbVertex
100
AcDb2dVertex
 10
1.157961502154194
 20
15.97722768783524
 30
0.0
  0
VERTEX
  5
6540
330
6527
100
AcDbEntity
  8
LW 5026-06-01
  6
VERDECKT
 62
     6
100
AcDbVertex
100
AcDb2dVertex
 10
1.130996678478368
 20
16.00000023841812
 30
0.0
  0
SEQEND
  5
6541
330
6527
100
AcDbEntity
  8
LW 5026-06-01
  6
VERDECKT
 62
     6
  0
POLYLINE
  5
6542
330
63EA
100
AcDbEntity
  8
LW 5026-06-01
  6
VERDECKT
 62
     6
100
AcDb2dPolyline
 66
     1
 10
0.0
 20
0.0
 30
0.0
 70
   128
  0
VERTEX
  5
6543
330
6542
100
AcDbEntity
  8
LW 5026-06-01
  6
VERDECKT
 62
     6
100
AcDbVertex
100
AcDb2dVertex
 10
1.130996678478368
 20
16.00000023841812
 30
0.0
  0
VERTEX
  5
6544
330
6542
100
AcDbEntity
  8
LW 5026-06-01
  6
VERDECKT
 62
     6
100
AcDbVertex
100
AcDb2dVertex
 10
1.050580854706367
 20
15.97722768783535
 30
0.0
  0
VERTEX
  5
6545
330
6542
100
AcDbEntity
  8
LW 5026-06-01
  6
VERDECKT
 62
     6
100
AcDbVertex
100
AcDb2dVertex
 10
0.9728303242418405
 20
15.95691502094235
 30
0.0
  0
VERTEX
  5
6546
330
6542
100
AcDbEntity
  8
LW 5026-06-01
  6
VERDECKT
 62
     6
100
AcDbVertex
100
AcDb2dVertex
 10
0.8974152740561294
 20
15.93891918659176
 30
0.0
  0
VERTEX
  5
6547
330
6542
100
AcDbEntity
  8
LW 5026-06-01
  6
VERDECKT
 62
     6
100
AcDbVertex
100
AcDb2dVertex
 10
0.8240343270636003
 20
15.92311620712257
 30
0.0
  0
VERTEX
  5
6548
330
6542
100
AcDbEntity
  8
LW 5026-06-01
  6
VERDECKT
 62
     6
100
AcDbVertex
100
AcDb2dVertex
 10
0.7524093087372421
 20
15.90940058231331
 30
0.0
  0
VERTEX
  5
6549
330
6542
100
AcDbEntity
  8
LW 5026-06-01
  6
VERDECKT
 62
     6
100
AcDbVertex
100
AcDb2dVertex
 10
0.6822819533708753
 20
15.89768230915047
 30
0.0
  0
VERTEX
  5
654A
330
6542
100
AcDbEntity
  8
LW 5026-06-01
  6
VERDECKT
 62
     6
100
AcDbVertex
100
AcDb2dVertex
 10
0.6134103175627388
 20
15.88788747787453
 30
0.0
  0
VERTEX
  5
654B
330
6542
100
AcDbEntity
  8
LW 5026-06-01
  6
VERDECKT
 62
     6
100
AcDbVertex
100
AcDb2dVertex
 10
0.5455659256422223
 20
15.87995409965492
 30
0.0
  0
VERTEX
  5
654C
330
6542
100
AcDbEntity
  8
LW 5026-06-01
  6
VERDECKT
 62
     6
100
AcDbVertex
100
AcDb2dVertex
 10
0.478530988291368
 20
15.87383270263649
 30
0.0
  0
VERTEX
  5
654D
330
6542
100
AcDbEntity
  8
LW 5026-06-01
  6
VERDECKT
 62
     6
100
AcDbVertex
100
AcDb2dVertex
 10
0.4120960603295316
 20
15.86948692798592
 30
0.0
  0
VERTEX
  5
654E
330
6542
100
AcDbEntity
  8
LW 5026-06-01
  6
VERDECKT
 62
     6
100
AcDbVertex
100
AcDb2dVertex
 10
0.3460578311642166
 20
15.8668893575666
 30
0.0
  0
VERTEX
  5
654F
330
6542
100
AcDbEntity
  8
LW 5026-06-01
  6
VERDECKT
 62
     6
100
AcDbVertex
100
AcDb2dVertex
 10
0.2802169609885823
 20
15.86602568626381
 30
0.0
  0
VERTEX
  5
6550
330
6542
100
AcDbEntity
  8
LW 5026-06-01
  6
VERDECKT
 62
     6
100
AcDbVertex
100
AcDb2dVertex
 10
0.2143760908129479
 20
15.8668893575666
 30
0.0
  0
VERTEX
  5
6551
330
6542
100
AcDbEntity
  8
LW 5026-06-01
  6
VERDECKT
 62
     6
100
AcDbVertex
100
AcDb2dVertex
 10
0.148337861647633
 20
15.86948692798592
 30
0.0
  0
VERTEX
  5
6552
330
6542
100
AcDbEntity
  8
LW 5026-06-01
  6
VERDECKT
 62
     6
100
AcDbVertex
100
AcDb2dVertex
 10
0.0819029336857966
 20
15.87383270263672
 30
0.0
  0
VERTEX
  5
6553
330
6542
100
AcDbEntity
  8
LW 5026-06-01
  6
VERDECKT
 62
     6
100
AcDbVertex
100
AcDb2dVertex
 10
0.0148679963349423
 20
15.87995409965515
 30
0.0
  0
VERTEX
  5
6554
330
6542
100
AcDbEntity
  8
LW 5026-06-01
  6
VERDECKT
 62
     6
100
AcDbVertex
100
AcDb2dVertex
 10
-0.0529763955855742
 20
15.88788747787475
 30
0.0
  0
VERTEX
  5
6555
330
6542
100
AcDbEntity
  8
LW 5026-06-01
  6
VERDECKT
 62
     6
100
AcDbVertex
100
AcDb2dVertex
 10
-0.1218480313937107
 20
15.89768230915069
 30
0.0
  0
VERTEX
  5
6556
330
6542
100
AcDbEntity
  8
LW 5026-06-01
  6
VERDECKT
 62
     6
100
AcDbVertex
100
AcDb2dVertex
 10
-0.1919753867600775
 20
15.90940058231353
 30
0.0
  0
VERTEX
  5
6557
330
6542
100
AcDbEntity
  8
LW 5026-06-01
  6
VERDECKT
 62
     6
100
AcDbVertex
100
AcDb2dVertex
 10
-0.2636004050864358
 20
15.9231162071228
 30
0.0
  0
VERTEX
  5
6558
330
6542
100
AcDbEntity
  8
LW 5026-06-01
  6
VERDECKT
 62
     6
100
AcDbVertex
100
AcDb2dVertex
 10
-0.3369813520789648
 20
15.9389191865921
 30
0.0
  0
VERTEX
  5
6559
330
6542
100
AcDbEntity
  8
LW 5026-06-01
  6
VERDECKT
 62
     6
100
AcDbVertex
100
AcDb2dVertex
 10
-0.412396402264676
 20
15.95691502094269
 30
0.0
  0
VERTEX
  5
655A
330
6542
100
AcDbEntity
  8
LW 5026-06-01
  6
VERDECKT
 62
     6
100
AcDbVertex
100
AcDb2dVertex
 10
-0.4901469327287487
 20
15.97722768783569
 30
0.0
  0
VERTEX
  5
655B
330
6542
100
AcDbEntity
  8
LW 5026-06-01
  6
VERDECKT
 62
     6
100
AcDbVertex
100
AcDb2dVertex
 10
-0.5705627565012037
 20
16.00000023841858
 30
0.0
  0
SEQEND
  5
655C
330
6542
100
AcDbEntity
  8
LW 5026-06-01
  6
VERDECKT
 62
     6
  0
LINE
  5
655D
330
63EA
100
AcDbEntity
  8
LW 5026-06-01
100
AcDbLine
 10
2.000000000015461
 20
9.999999999999317
 30
0.0
 11
-1.999999999984538
 21
10.00000000000045
 31
0.0
  0
LINE
  5
655E
330
63EA
100
AcDbEntity
  8
LW 5026-06-01
100
AcDbLine
 10
-1.999999999984538
 20
10.00000000000045
 30
0.0
 11
-1.999999999984083
 21
11.50000000000057
 31
0.0
  0
LINE
  5
655F
330
63EA
100
AcDbEntity
  8
LW 5026-06-01
100
AcDbLine
 10
2.000000000015461
 20
9.999999999999317
 30
0.0
 11
2.000000000015916
 21
11.49999999999931
 31
0.0
  0
LINE
  5
6560
330
63EA
100
AcDbEntity
  8
LW 5026-06-01
  6
VERDECKT
 62
     6
100
AcDbLine
 10
-2.999999999983629
 20
11.56454189896999
 30
0.0
 11
-2.999999999982719
 21
17.50000000000079
 31
0.0
  0
LINE
  5
6561
330
63EA
100
AcDbEntity
  8
LW 5026-06-01
  6
VERDECKT
 62
     6
100
AcDbLine
 10
3.00000000001637
 20
11.56454189896578
 30
0.0
 11
3.00000000001728
 21
17.49999999999898
 31
0.0
  0
LINE
  5
6562
330
63EA
100
AcDbEntity
  8
LW 5026-06-01
  6
VERDECKT
 62
     6
100
AcDbLine
 10
0.0000000000168257
 20
15.0
 30
0.0
 11
-1.701559465502214
 21
16.00000000000045
 31
0.0
  0
LINE
  5
6563
330
63EA
100
AcDbEntity
  8
LW 5026-06-01
  6
VERDECKT
 62
     6
100
AcDbLine
 10
0.0000000000168257
 20
15.0
 30
0.0
 11
1.588671067665472
 21
15.91721966855994
 31
0.0
  0
LINE
  5
6564
330
63EA
100
AcDbEntity
  8
LW 5026-06-01
  6
VERDECKT
 62
     6
100
AcDbLine
 10
-2.400999999982104
 20
17.38655000000062
 30
0.0
 11
-2.400999999983923
 21
11.90100000000063
 31
0.0
  0
LINE
  5
6565
330
63EA
100
AcDbEntity
  8
LW 5026-06-01
  6
VERDECKT
 62
     6
100
AcDbLine
 10
2.40100000001621
 20
11.90099999999916
 30
0.0
 11
2.401000000017575
 21
17.38654999999926
 31
0.0
  0
LINE
  5
6566
330
63EA
100
AcDbEntity
  8
LW 5026-06-01
100
AcDbLine
 10
-76.99999999998908
 20
-5.773099999977148
 30
0.0
 11
-76.9999999999859
 21
5.77310000002285
 31
0.0
  0
LINE
  5
6567
330
63EA
100
AcDbEntity
  8
LW 5026-06-01
100
AcDbLine
 10
-75.77309999998533
 20
7.000000000022509
 30
0.0
 11
-75.77309999998942
 21
-6.99999999997749
 31
0.0
  0
LINE
  5
6568
330
63EA
100
AcDbEntity
  8
LW 5026-06-01
100
AcDbLine
 10
-76.9999999999859
 20
5.77310000002285
 30
0.0
 11
-75.77309999998533
 21
7.000000000022509
 31
0.0
  0
LINE
  5
6569
330
63EA
100
AcDbEntity
  8
LW 5026-06-01
100
AcDbLine
 10
-76.99999999998908
 20
-5.773099999977148
 30
0.0
 11
-75.77309999998942
 21
-6.99999999997749
 31
0.0
  0
LINE
  5
656A
330
63EA
100
AcDbEntity
  8
LW 5026-06-01
100
AcDbLine
 10
-75.77309999998533
 20
7.000000000022509
 30
0.0
 11
-60.87499999998545
 21
7.000000000017962
 31
0.0
  0
LINE
  5
656B
330
63EA
100
AcDbEntity
  8
LW 5026-06-01
100
AcDbLine
 10
-75.77309999998942
 20
-6.99999999997749
 30
0.0
 11
-60.87499999998954
 21
-6.999999999982037
 31
0.0
  0
LINE
  5
656C
330
63EA
100
AcDbEntity
  8
LW 5026-06-01
 62
     3
100
AcDbLine
 10
-60.8749999999859
 20
5.794500000018047
 30
0.0
 11
-76.97859999998581
 21
5.794500000022821
 31
0.0
  0
LINE
  5
656D
330
63EA
100
AcDbEntity
  8
LW 5026-06-01
 62
     3
100
AcDbLine
 10
-76.978599999989
 20
-5.794499999977233
 30
0.0
 11
-60.87499999998908
 21
-5.794499999982008
 31
0.0
  0
LINE
  5
656E
330
63EA
100
AcDbEntity
  8
LW 5026-06-01
100
AcDbLine
 10
-60.87499999998226
 20
17.50000000001796
 30
0.0
 11
-60.87499999999272
 21
-17.49999999998204
 31
0.0
  0
LINE
  5
656F
330
63EA
100
AcDbEntity
  8
LW 5026-06-01
  6
MITTE2
 62
     3
100
AcDbLine
 10
14.93734296387129
 20
25.87223694343527
 30
0.0
 11
7.00000000003456
 21
12.12435565298006
 31
0.0
  0
LINE
  5
6570
330
63EA
100
AcDbEntity
  8
LW 5026-06-01
  6
MITTE2
 62
     3
100
AcDbLine
 10
14.93734296385582
 20
-25.87223694344425
 30
0.0
 11
7.000000000027284
 21
-12.12435565298426
 31
0.0
  0
LINE
  5
6571
330
63EA
100
AcDbEntity
  8
LW 5026-06-01
  6
MITTE2
 62
     3
100
AcDbLine
 10
-80.5415240363186
 20
0.0000000000238742
 30
0.0
 11
37.06495985655966
 21
-0.0000000000109139
 31
0.0
  0
LINE
  5
6572
330
63EA
100
AcDbEntity
  8
LW 5026-06-01
  6
MITTE2
 62
     3
100
AcDbLine
 10
0.0000000000059117
 20
22.6209724824912
 30
0.0
 11
-0.000000000007276
 21
-22.6209724824912
 31
0.0
  0
LINE
  5
6573
330
63EA
100
AcDbEntity
  8
LW 5026-06-01
  6
VERDECKT
 62
     6
100
AcDbLine
 10
1.130996678479277
 20
17.99999999252213
 30
0.0
 11
1.130996678478368
 21
15.99999999252202
 31
0.0
  0
HATCH
  5
6574
330
63EA
100
AcDbEntity
  8
LW 5026-06-01
 62
     1
100
AcDbHatch
 10
0.0
 20
0.0
 30
0.0
210
0.0
220
0.0
230
1.0
  2
SOLID
 70
     1
 71
     0
 91
        5
 92
        7
 72
     0
 73
     1
 93
       76
 10
-47.24928876594276
 20
13.15603796707853
 10
-47.21742993657016
 20
13.20761892892028
 10
-47.09927181233843
 20
13.35886132793621
 10
-46.964793737126
 20
13.49928545819875
 10
-46.81877383066466
 20
13.6276700199121
 10
-46.65510503458245
 20
13.74457630282791
 10
-46.47971808121792
 20
13.84675418464951
 10
-46.29796514861709
 20
13.9381058642324
 10
-46.1167962131517
 20
14.00762417667852
 10
-48.37393415135148
 20
14.00762417667852
 10
-48.58683070375173
 20
13.99893452147853
 10
-48.78886518715171
 20
13.97286555587857
 10
-48.98438242915154
 20
13.93158969367846
 10
-49.16903760215155
 20
13.87727934867848
 10
-49.34500311995179
 20
13.80776210707847
 10
-49.51227898255138
 20
13.72521038267837
 10
-49.66284724509887
 20
13.6298848651345
 10
-49.80555484555179
 20
13.52317589927838
 10
-49.93099610112222
 20
13.40412762303833
 10
-50.04226105319958
 20
13.27586831228643
 10
-50.14227898455146
 20
13.13865865667844
 10
-50.22483070895169
 20
12.99310693207837
 10
-50.28783070915188
 20
12.83886555227832
 10
-50.33779622655174
 20
12.67810693107844
 10
-50.36603760595153
 20
12.51300348227846
 10
-50.37472726115129
 20
12.33921037827849
 10
-50.36386519215148
 20
12.1654172742783
 10
-50.33345139895164
 20
11.99814141167837
 10
-50.27914105395166
 20
11.83738279047839
 10
-50.20962381235176
 20
11.68096899687839
 10
-50.12055484655139
 20
11.53324485847838
 10
-50.01410657035148
 20
11.39203796147853
 10
-49.89140863892726
 20
11.26082416795839
 10
-49.75520959021924
 20
11.13969037447054
 10
-49.60786518975146
 20
11.02924485687845
 10
-49.44710656855159
 20
10.93148623587854
 10
-49.27147994730422
 20
10.84658830457442
 10
-49.09083070535189
 20
10.77290002847849
 10
-48.89965829095172
 20
10.71641726967846
 10
-48.69979622135133
 20
10.67296899367852
 10
-48.49124449655164
 20
10.64690002807845
 10
-48.28052035795145
 20
10.63821037287846
 10
-46.161349272199
 20
10.63821037287857
 10
-46.32189313625121
 20
10.70128117661352
 10
-46.50545728005408
 20
10.79190145013626
 10
-46.67392368622404
 20
10.89643114306773
 10
-46.83675658098445
 20
11.01204938149317
 10
-46.98066894935482
 20
11.14183897803309
 10
-47.10810484283911
 20
11.28119266126168
 10
-47.22181019758273
 20
11.43168090597419
 10
-47.27378142903126
 20
11.51586554807852
 10
-48.30224449595153
 20
11.51586554807841
 10
-48.43435332395711
 20
11.52342554810252
 10
-48.56510656575165
 20
11.54375934127051
 10
-48.69327897995162
 20
11.57669313447843
 10
-48.80841691135128
 20
11.62231382427853
 10
-48.91336187720162
 20
11.67879658307845
 10
-49.01151153268575
 20
11.74640210053439
 10
-49.1016927743517
 20
11.8243483076784
 10
-49.1733824297512
 20
11.90907244587845
 10
-47.44586111549279
 20
11.90907244587856
 10
-47.4564455827658
 20
11.94170788663678
 10
-47.49255739072987
 20
12.12708183418795
 10
-47.50460104351214
 20
12.31737154813868
 10
-47.49257937108223
 20
12.51212264149376
 10
-47.45627364940719
 20
12.6984920127602
 10
-47.43967494673234
 20
12.74762417267846
 10
-49.21031346435166
 20
12.74762417267846
 10
-49.14079622275176
 20
12.84321037987843
 10
-49.05824449835154
 20
12.92576210427842
 10
-48.9631536014981
 20
12.99562693208645
 10
-48.86055484255166
 20
13.05393451847851
 10
-48.74186284217512
 20
13.09790417379042
 10
-48.61941691075163
 20
13.12996900147846
 10
-48.48255484135143
 20
13.14952072567848
 10
-48.33917553055153
 20
13.15603796707842
 97
        0
 92
        7
 72
     0
 73
     1
 93
       72
 10
-45.52082490091516
 20
13.14143934634251
 10
-45.39796186604189
 20
13.15951382915853
 10
-45.27389965875181
 20
13.16472762227863
 10
-44.00520999955142
 20
13.16472762227863
 10
-44.85245138155142
 20
12.35007244727876
 10
-43.08627896215148
 20
10.63169313147864
 10
-41.76762378555167
 20
10.63169313147864
 10
-43.48165827375169
 20
12.37396899907867
 10
-41.80020999255157
 20
14.00762417667875
 10
-45.23914103795187
 20
14.00762417667852
 10
-45.44712793516374
 20
13.99684900423062
 10
-45.6538461427167
 20
13.97138831449456
 10
-45.85827897095168
 20
13.93158969367857
 10
-46.05162379915191
 20
13.87510693487854
 10
-46.23845138595197
 20
13.80341727947848
 10
-46.40961152442605
 20
13.71738969299849
 10
-46.57517552495164
 20
13.62093452027852
 10
-46.72724449095176
 20
13.51231383027857
 10
-46.86294214655482
 20
13.39300486438253
 10
-46.98793414695183
 20
13.26248624327854
 10
-47.09655483695178
 20
13.12345176007852
 10
-47.1877962165513
 20
12.97572762167863
 10
-47.25948587195171
 20
12.82148624187857
 10
-47.31379621695168
 20
12.66072762067847
 10
-47.34638242395158
 20
12.49345175807843
 10
-47.35724449295185
 20
12.31748624027841
 10
-47.34638242395158
 20
12.1458655500785
 10
-47.31379621695168
 20
11.97858968747857
 10
-47.26165828575131
 20
11.81783106627858
 10
-47.19214104415141
 20
11.66358968647853
 10
-47.10030007834257
 20
11.51482278945468
 10
-46.99492062973241
 20
11.37535382349449
 10
-46.87691511211641
 20
11.24631244377463
 10
-46.74462380135127
 20
11.12700347787859
 10
-46.59250269742051
 20
11.01899106374253
 10
-46.43396862795134
 20
10.92062416687849
 10
-46.2623479377512
 20
10.83590002867856
 10
-46.07986517855124
 20
10.7642103732785
 10
-45.88563400552129
 20
10.71016071793451
 10
-45.6888306945516
 20
10.66645175227859
 10
-45.48027896975145
 20
10.64038278667863
 10
-45.26955483115171
 20
10.63169313147864
 10
-43.36652034235157
 20
10.63169313147864
 10
-44.25286517275162
 20
11.50500347907859
 10
-45.26955483115171
 20
11.50500347907859
 10
-45.33622186584625
 20
11.50875077201795
 10
-45.43716959030416
 20
11.5187331342945
 10
-45.55730407344436
 20
11.5401965826386
 10
-45.67442324623016
 20
11.57452072067849
 10
-45.77591841896583
 20
11.61544899667058
 10
-45.83205359155772
 20
11.64360347951856
 10
-45.88573828138351
 20
11.67618968651868
 10
-46.01829897145989
 20
11.77551244545452
 10
-46.09190035100346
 20
11.84555106636662
 10
-46.14696669600607
 20
11.91341727347844
 10
-46.1956722134023
 20
11.98597589439851
 10
-46.23503635145834
 20
12.06314003257444
 10
-46.26445952396489
 20
12.14456210179855
 10
-46.28515828265153
 20
12.23171934345464
 10
-46.29267483439934
 20
12.32104899891044
 10
-46.2913192481883
 20
12.38335382669447
 10
-46.28531469644485
 20
12.44548486137444
 10
-46.27315786882036
 20
12.50865865467858
 10
-46.25494435152131
 20
12.5703552065986
 10
-46.21129621345199
 20
12.66906968967044
 10
-46.16976835125069
 20
12.73693589678248
 10
-46.10669014415407
 20
12.81496900047853
 10
-45.97728820378915
 20
12.94149173753226
 10
-45.91802035045157
 20
12.98154969066263
 10
-45.84172517779552
 20
13.02586693218245
 10
-45.75770490166678
 20
13.06801175990256
 10
-45.64116793577932
 20
13.1108517600386
 97
        0
 92
        7
 72
     0
 73
     1
 93
       57
 10
-40.96278792092744
 20
13.11936762213486
 10
-40.83131343775176
 20
13.1593400360548
 10
-40.69662378215162
 20
13.18645176027883
 10
-40.55324447135172
 20
13.1951414154787
 10
-39.31279619155157
 20
13.19514141547881
 10
-39.31279619155157
 20
14.02065865947884
 10
-40.54672722995156
 20
14.02065865947873
 10
-40.75745136855175
 20
14.01196900427874
 10
-40.96383067955184
 20
13.98372762487872
 10
-41.16152033535172
 20
13.94245176267873
 10
-41.35052033595139
 20
13.88814141767875
 10
-41.53517550895185
 20
13.8164517622788
 10
-41.70158240603178
 20
13.73381314132666
 10
-41.86040323412226
 20
13.63735796860669
 10
-42.01048226908142
 20
13.52786831308663
 10
-42.14504157985311
 20
13.40864624374274
 10
-42.26510654575167
 20
13.27986555367874
 10
-42.36938240815152
 20
13.14083107047872
 10
-42.45410654635134
 20
12.99527934587866
 10
-42.52579620175175
 20
12.8410379660786
 10
-42.57576171915161
 20
12.68027934487873
 10
-42.60834792615151
 20
12.5130034822788
 10
-42.61920999515178
 20
12.33921037827872
 10
-42.60834792615151
 20
12.16541727427875
 10
-42.57576171915161
 20
11.99814141167871
 10
-42.52362378795169
 20
11.83738279047861
 10
-42.45193413255174
 20
11.68096899687873
 10
-42.36503758055142
 20
11.53324485847872
 10
-42.25619095951651
 20
11.39368899596672
 10
-42.13633454534283
 20
11.2633441679668
 10
-41.99990695870247
 20
11.14203658137467
 10
-41.85234792375149
 20
11.03141727067873
 10
-41.69158930255162
 20
10.93365864967859
 10
-41.51779619855142
 20
10.84893451147877
 10
-41.33314102555141
 20
10.77507244227877
 10
-41.1419686111517
 20
10.71858968347874
 10
-40.94210654155131
 20
10.6751414074788
 10
-40.73572723055121
 20
10.65124485567867
 10
-40.52283067815142
 20
10.64255520047868
 10
-39.31279619155157
 20
10.64255520047879
 10
-39.31279619155157
 20
11.50065865147871
 10
-40.54672722995156
 20
11.50065865147871
 10
-40.68037412692729
 20
11.51099934116667
 10
-40.81263067907139
 20
11.53298416882285
 10
-40.93324309324771
 20
11.56730830686274
 10
-41.04924999016748
 20
11.61527520356685
 10
-41.15891343879184
 20
11.67618968651879
 10
-41.2559768873757
 20
11.74379520397474
 10
-41.34339481868756
 20
11.82356623871078
 10
-41.41786516375169
 20
11.90907244587879
 10
-39.31279619155157
 20
11.90907244587879
 10
-39.31279619155157
 20
12.73676210367876
 10
-41.45479619835168
 20
12.73676210367876
 10
-41.38527895675133
 20
12.83452072467867
 10
-41.29838240475192
 20
12.92358969047859
 10
-41.19723481822347
 20
12.99988486313475
 10
-41.08983067995132
 20
13.06696900127872
 97
        0
 92
        7
 72
     0
 73
     1
 93
        6
 10
-39.0825203287518
 20
14.00762417667886
 10
-39.0825203287518
 20
10.6382103728788
 10
-36.84493411475114
 20
10.63821037287891
 10
-36.84493411475159
 20
11.50500347907893
 10
-38.05931342895155
 20
11.50500347907893
 10
-38.05931342895155
 20
14.00762417667886
 97
        0
 92
        7
 72
     0
 73
     1
 93
        8
 10
-37.82686515235173
 20
14.00762417667886
 10
-37.82686515235173
 20
13.18210693267883
 10
-36.59293411395129
 20
13.18210693267895
 10
-36.59293411395129
 20
10.63169313147887
 10
-35.56755480035145
 20
10.63169313147887
 10
-35.56755480035145
 20
13.18210693267883
 10
-34.3249341067517
 20
13.18210693267895
 10
-34.3249341067517
 20
14.00762417667897
 97
        0
 75
     0
 76
     1
 47
0.0142553043587597
 98
        5
 10
-47.93962863987644
 20
13.56517450708941
 10
-45.67213142653372
 20
13.42262152208377
 10
-41.1799196943325
 20
13.47964269463159
 10
-38.45607061050078
 20
13.72198291932398
 10
-37.04423262827413
 20
13.62219578691065
450
        0
451
        0
460
0.0
461
0.0
452
        0
462
0.0
453
        0
470

  0
LWPOLYLINE
  5
6575
330
63EA
100
AcDbEntity
  8
LW 5026-06-01
 62
     1
100
AcDbPolyline
 90
        8
 70
     1
 43
0.0
 10
-35.56755480035145
 20
13.18210693267883
 10
-35.56755480035145
 20
10.63169313147887
 10
-36.59293411395129
 20
10.63169313147887
 10
-36.59293411395129
 20
13.18210693267895
 10
-37.82686515235173
 20
13.18210693267883
 10
-37.82686515235173
 20
14.00762417667886
 10
-34.3249341067517
 20
14.00762417667897
 10
-34.3249341067517
 20
13.18210693267895
  0
LWPOLYLINE
  5
6576
330
63EA
100
AcDbEntity
  8
LW 5026-06-01
 62
     1
100
AcDbPolyline
 90
       73
 70
     1
 43
0.0
 10
-45.26955483115171
 20
11.50500347907859
 10
-44.25286517275162
 20
11.50500347907859
 10
-43.36652034235157
 20
10.63169313147864
 10
-45.26955483115171
 20
10.63169313147853
 10
-45.48027896975145
 20
10.64038278667863
 10
-45.6888306945516
 20
10.66645175227859
 10
-45.88563400552129
 20
10.71016071793451
 10
-46.07986517855124
 20
10.7642103732785
 10
-46.2623479377512
 20
10.83590002867856
 10
-46.43396862795134
 20
10.92062416687849
 10
-46.59250269742051
 20
11.01899106374253
 10
-46.74462380135127
 20
11.12700347787859
 10
-46.87691511211641
 20
11.24631244377451
 10
-46.99492062973241
 20
11.37535382349449
 10
-47.10030007834257
 20
11.51482278945457
 10
-47.19214104415141
 20
11.66358968647853
 10
-47.26165828575131
 20
11.81783106627858
 10
-47.31379621695168
 20
11.97858968747857
 10
-47.34638242395158
 20
12.1458655500785
 10
-47.35724449295185
 20
12.31748624027853
 10
-47.34638242395158
 20
12.49345175807843
 10
-47.31379621695168
 20
12.66072762067847
 10
-47.25948587195171
 20
12.82148624187857
 10
-47.1877962165513
 20
12.97572762167851
 10
-47.09655483695178
 20
13.12345176007852
 10
-46.98793414695183
 20
13.26248624327854
 10
-46.86294214655482
 20
13.39300486438264
 10
-46.72724449095176
 20
13.51231383027857
 10
-46.57517552495164
 20
13.62093452027852
 10
-46.40961152442605
 20
13.71738969299849
 10
-46.23845138595197
 20
13.80341727947848
 10
-46.05162379915191
 20
13.87510693487854
 10
-45.85827897095168
 20
13.93158969367869
 10
-45.6538461427167
 20
13.97138831449456
 10
-45.44712793516374
 20
13.99684900423062
 10
-45.23914103795187
 20
14.00762417667852
 10
-41.80020999255157
 20
14.00762417667875
 10
-43.48165827375169
 20
12.37396899907867
 10
-41.76762378555167
 20
10.63169313147864
 10
-43.08627896215148
 20
10.63169313147864
 10
-44.85245138155142
 20
12.35007244727876
 10
-44.00520999955142
 20
13.16472762227863
 10
-45.27389965875181
 20
13.16472762227863
 10
-45.39796186604189
 20
13.15951382915853
 10
-45.52082490091516
 20
13.14143934634251
 10
-45.64116793577932
 20
13.1108517600386
 10
-45.75770490166678
 20
13.06801175990244
 10
-45.84172517779598
 20
13.02586693218257
 10
-45.91802035045157
 20
12.98154969066263
 10
-45.95826214368253
 20
12.95435106988657
 10
-45.99577538518087
 20
12.92341589737452
 10
-46.10669014415407
 20
12.81496900047853
 10
-46.16976835125069
 20
12.73693589678248
 10
-46.21129621345153
 20
12.66906968967055
 10
-46.25494435152131
 20
12.5703552065986
 10
-46.27315786882036
 20
12.50865865467858
 10
-46.28531469644485
 20
12.44548486137455
 10
-46.2913192481883
 20
12.38335382669459
 10
-46.29267483439934
 20
12.32104899891055
 10
-46.28515828265153
 20
12.23171934345464
 10
-46.26445952396489
 20
12.14456210179855
 10
-46.23503635145789
 20
12.06314003257455
 10
-46.1956722134023
 20
11.98597589439851
 10
-46.14696669600607
 20
11.91341727347856
 10
-46.09190035100346
 20
11.84555106636662
 10
-46.01829897145989
 20
11.77551244545452
 10
-45.88573828138351
 20
11.67618968651868
 10
-45.83205359155772
 20
11.64360347951856
 10
-45.77591841896583
 20
11.61544899667058
 10
-45.67442324623016
 20
11.57452072067849
 10
-45.55730407344436
 20
11.5401965826386
 10
-45.43716959030416
 20
11.5187331342945
 10
-45.33622186584625
 20
11.50875077201795
  0
LWPOLYLINE
  5
6577
330
63EA
100
AcDbEntity
  8
LW 5026-06-01
 62
     1
100
AcDbPolyline
 90
       76
 70
     1
 43
0.0
 10
-46.47971808121792
 20
13.84675418464951
 10
-46.65510503458245
 20
13.74457630282779
 10
-46.81877383066466
 20
13.6276700199121
 10
-46.964793737126
 20
13.49928545819875
 10
-47.09927181233843
 20
13.35886132793621
 10
-47.21742993657016
 20
13.20761892892028
 10
-47.24928876594276
 20
13.15603796707853
 10
-48.33917553055153
 20
13.15603796707853
 10
-48.48255484135143
 20
13.14952072567848
 10
-48.61941691075163
 20
13.12996900147846
 10
-48.74186284217512
 20
13.09790417379042
 10
-48.86055484255166
 20
13.05393451847851
 10
-48.9631536014981
 20
12.99562693208645
 10
-49.05824449835154
 20
12.92576210427842
 10
-49.14079622275176
 20
12.84321037987843
 10
-49.21031346435166
 20
12.74762417267846
 10
-47.43967494673234
 20
12.74762417267846
 10
-47.45627364940719
 20
12.6984920127602
 10
-47.49257937108268
 20
12.51212264149353
 10
-47.50460104351214
 20
12.31737154813868
 10
-47.49255739072987
 20
12.12708183418795
 10
-47.45644558276535
 20
11.94170788663689
 10
-47.44586111549279
 20
11.90907244587856
 10
-49.1733824297512
 20
11.90907244587845
 10
-49.1016927743517
 20
11.8243483076784
 10
-49.01151153268575
 20
11.74640210053439
 10
-48.91336187720162
 20
11.67879658307845
 10
-48.80841691135128
 20
11.62231382427853
 10
-48.69327897995162
 20
11.57669313447854
 10
-48.56510656575165
 20
11.54375934127051
 10
-48.43435332395711
 20
11.52342554810252
 10
-48.30224449595153
 20
11.51586554807841
 10
-47.27378142903126
 20
11.51586554807852
 10
-47.22181019758273
 20
11.43168090597419
 10
-47.10810484283911
 20
11.28119266126168
 10
-46.98066894935482
 20
11.14183897803309
 10
-46.83675658098445
 20
11.0120493814934
 10
-46.67392368622404
 20
10.89643114306773
 10
-46.50545728005408
 20
10.79190145013626
 10
-46.32189313625121
 20
10.70128117661352
 10
-46.161349272199
 20
10.63821037287857
 10
-48.28052035795145
 20
10.63821037287834
 10
-48.49124449655164
 20
10.64690002807845
 10
-48.69979622135133
 20
10.67296899367852
 10
-48.89965829095172
 20
10.71641726967846
 10
-49.09083070535143
 20
10.77290002847837
 10
-49.27147994730467
 20
10.84658830457442
 10
-49.44710656855159
 20
10.93148623587854
 10
-49.60786518975146
 20
11.02924485687845
 10
-49.75520959021924
 20
11.13969037447043
 10
-49.89140863892726
 20
11.26082416795839
 10
-50.01410657035148
 20
11.39203796147842
 10
-50.12055484655184
 20
11.53324485847838
 10
-50.20962381235176
 20
11.68096899687839
 10
-50.27914105395166
 20
11.83738279047839
 10
-50.33345139895164
 20
11.99814141167837
 10
-50.36386519215148
 20
12.16541727427852
 10
-50.37472726115129
 20
12.33921037827838
 10
-50.36603760595198
 20
12.51300348227835
 10
-50.33779622655174
 20
12.67810693107844
 10
-50.28783070915188
 20
12.83886555227832
 10
-50.22483070895169
 20
12.99310693207837
 10
-50.14227898455146
 20
13.13865865667844
 10
-50.04226105319958
 20
13.27586831228643
 10
-49.93099610112222
 20
13.40412762303845
 10
-49.80555484555179
 20
13.52317589927838
 10
-49.66284724509887
 20
13.6298848651345
 10
-49.51227898255138
 20
13.72521038267848
 10
-49.34500311995134
 20
13.80776210707836
 10
-49.16903760215155
 20
13.87727934867848
 10
-48.98438242915154
 20
13.93158969367846
 10
-48.78886518715171
 20
13.97286555587857
 10
-48.58683070375173
 20
13.99893452147853
 10
-48.37393415135148
 20
14.00762417667852
 10
-46.1167962131517
 20
14.00762417667863
 10
-46.29796514861709
 20
13.9381058642324
  0
LWPOLYLINE
  5
6578
330
63EA
100
AcDbEntity
  8
LW 5026-06-01
 62
     1
100
AcDbPolyline
 90
        6
 70
     1
 43
0.0
 10
-36.84493411475114
 20
10.63821037287891
 10
-39.0825203287518
 20
10.6382103728788
 10
-39.0825203287518
 20
14.00762417667886
 10
-38.05931342895155
 20
14.00762417667886
 10
-38.05931342895155
 20
11.50500347907893
 10
-36.84493411475159
 20
11.50500347907893
  0
LWPOLYLINE
  5
6579
330
63EA
100
AcDbEntity
  8
LW 5026-06-01
 62
     1
100
AcDbPolyline
 90
       57
 70
     1
 43
0.0
 10
-42.13633454534283
 20
11.2633441679668
 10
-42.25619095951651
 20
11.39368899596661
 10
-42.36503758055142
 20
11.53324485847861
 10
-42.45193413255174
 20
11.68096899687873
 10
-42.52362378795169
 20
11.83738279047861
 10
-42.57576171915161
 20
11.99814141167871
 10
-42.60834792615151
 20
12.16541727427875
 10
-42.61920999515178
 20
12.33921037827872
 10
-42.60834792615151
 20
12.51300348227869
 10
-42.57576171915161
 20
12.68027934487873
 10
-42.52579620175175
 20
12.8410379660786
 10
-42.45410654635134
 20
12.99527934587877
 10
-42.36938240815152
 20
13.14083107047861
 10
-42.26510654575167
 20
13.27986555367874
 10
-42.14504157985311
 20
13.40864624374262
 10
-42.01048226908142
 20
13.52786831308663
 10
-41.86040323412226
 20
13.63735796860669
 10
-41.70158240603131
 20
13.73381314132678
 10
-41.53517550895185
 20
13.8164517622788
 10
-41.35052033595139
 20
13.88814141767875
 10
-41.16152033535172
 20
13.94245176267873
 10
-40.96383067955184
 20
13.98372762487872
 10
-40.75745136855175
 20
14.01196900427874
 10
-40.54672722995156
 20
14.02065865947873
 10
-39.31279619155157
 20
14.02065865947884
 10
-39.31279619155157
 20
13.19514141547881
 10
-40.55324447135126
 20
13.1951414154787
 10
-40.69662378215162
 20
13.18645176027871
 10
-40.83131343775176
 20
13.1593400360548
 10
-40.96278792092789
 20
13.11936762213474
 10
-41.08983067995132
 20
13.06696900127872
 10
-41.19723481822347
 20
12.99988486313475
 10
-41.29838240475192
 20
12.92358969047882
 10
-41.38527895675133
 20
12.83452072467867
 10
-41.45479619835168
 20
12.73676210367876
 10
-39.31279619155157
 20
12.73676210367876
 10
-39.31279619155157
 20
11.90907244587879
 10
-41.41786516375169
 20
11.90907244587879
 10
-41.34339481868756
 20
11.82356623871078
 10
-41.2559768873757
 20
11.74379520397474
 10
-41.15891343879184
 20
11.67618968651879
 10
-41.04924999016748
 20
11.61527520356685
 10
-40.93324309324771
 20
11.56730830686274
 10
-40.81263067907139
 20
11.53298416882285
 10
-40.68037412692729
 20
11.51099934116667
 10
-40.54672722995156
 20
11.50065865147871
 10
-39.31279619155157
 20
11.50065865147871
 10
-39.31279619155157
 20
10.64255520047879
 10
-40.52283067815142
 20
10.64255520047868
 10
-40.73572723055121
 20
10.65124485567867
 10
-40.94210654155131
 20
10.6751414074788
 10
-41.1419686111517
 20
10.71858968347874
 10
-41.33314102555141
 20
10.77507244227877
 10
-41.51779619855142
 20
10.84893451147877
 10
-41.69158930255162
 20
10.93365864967882
 10
-41.85234792375149
 20
11.03141727067873
 10
-41.99990695870247
 20
11.14203658137467
  0
INSERT
  5
657A
330
63EA
100
AcDbEntity
  8
LW 5026-06-01
100
AcDbBlockReference
 66
     1
  2
insertpoint-ECKELT
 10
-0.0000000000004547
 20
0.0
 30
0.0
  0
ATTRIB
  5
657B
330
657A
100
AcDbEntity
  8
insertpoint_ECKELT
100
AcDbText
 10
-6.931514324693314
 20
0.0
 30
0.0
 40
0.6
  1
LW 5026/06-01
 72
     2
 11
-1.200000000000272
 21
0.0
 31
0.0
100
AcDbAttribute
  2
LINKS
 70
     0
  0
ATTRIB
  5
657C
330
657A
100
AcDbEntity
  8
insertpoint_ECKELT
100
AcDbText
 10
1.199999999999363
 20
0.0
 30
0.0
 40
0.6
  1

100
AcDbAttribute
  2
RECHTS
 70
     0
  0
SEQEND
  5
657D
330
657A
100
AcDbEntity
  8
LW 5026-06-01
  0
ENDBLK
  5
63EC
330
63EA
100
AcDbEntity
  8
0
100
AcDbBlockEnd
  0
BLOCK
  5
6580
330
657F
100
AcDbEntity
  8
0
100
AcDbBlockBegin
  2
LW 5026-06-01_d
 70
     0
 10
0.0
 20
0.0
 30
0.0
  3
LW 5026-06-01_d
  1

  0
LINE
  5
6582
330
657F
100
AcDbEntity
  8
LW 5026-06-01
  6
VERDECKT
 62
     6
100
AcDbLine
 10
-7.334936490575273
 20
17.70448267190204
 30
0.0
 11
-11.66506350949703
 21
15.2044826719009
 31
0.0
  0
LINE
  5
6583
330
657F
100
AcDbEntity
  8
LW 5026-06-01
  6
VERDECKT
 62
     6
100
AcDbLine
 10
-11.66506350948793
 20
-15.20448267190795
 30
0.0
 11
-7.334936490564814
 21
-17.70448267190659
 31
0.0
  0
LINE
  5
6584
330
657F
100
AcDbEntity
  8
LW 5026-06-01
  6
VERDECKT
 62
     6
100
AcDbLine
 10
-8.748924226251347
 20
15.1535812713729
 30
0.0
 11
-7.334936490575273
 21
17.70448267190204
 31
0.0
  0
LINE
  5
6585
330
657F
100
AcDbEntity
  8
LW 5026-06-01
  6
VERDECKT
 62
     6
100
AcDbLine
 10
-8.748924226251347
 20
15.1535812713729
 30
0.0
 11
-11.66506350949703
 21
15.2044826719009
 31
0.0
  0
LINE
  5
6586
330
657F
100
AcDbEntity
  8
LW 5026-06-01
  6
VERDECKT
 62
     6
100
AcDbLine
 10
-14.60240647333103
 20
20.29210992451317
 30
0.0
 11
-11.66506350949703
 21
15.20448267190068
 31
0.0
  0
LINE
  5
6587
330
657F
100
AcDbEntity
  8
LW 5026-06-01
  6
VERDECKT
 62
     6
100
AcDbLine
 10
-10.27227945440972
 20
22.79210992451453
 30
0.0
 11
-7.334936490575273
 21
17.70448267190204
 31
0.0
  0
LINE
  5
6588
330
657F
100
AcDbEntity
  8
LW 5026-06-01
  6
VERDECKT
 62
     6
100
AcDbLine
 10
-8.748924226242252
 20
-15.15358127137824
 30
0.0
 11
-11.66506350948793
 21
-15.20448267190795
 31
0.0
  0
LINE
  5
6589
330
657F
100
AcDbEntity
  8
LW 5026-06-01
  6
VERDECKT
 62
     6
100
AcDbLine
 10
-8.748924226242252
 20
-15.15358127137824
 30
0.0
 11
-7.334936490564814
 21
-17.70448267190659
 31
0.0
  0
LINE
  5
658A
330
657F
100
AcDbEntity
  8
LW 5026-06-01
  6
VERDECKT
 62
     6
100
AcDbLine
 10
-10.27227945439608
 20
-22.79210992452068
 30
0.0
 11
-7.334936490564814
 21
-17.70448267190659
 31
0.0
  0
LINE
  5
658B
330
657F
100
AcDbEntity
  8
LW 5026-06-01
  6
VERDECKT
 62
     6
100
AcDbLine
 10
-14.6024064733192
 20
-20.29210992452204
 30
0.0
 11
-11.66506350948793
 21
-15.20448267190795
 31
0.0
  0
LINE
  5
658C
330
657F
100
AcDbEntity
  8
LW 5026-06-01
  6
VERDECKT
 62
     6
100
AcDbLine
 10
18.99999999996953
 20
-2.499999999994543
 30
0.0
 11
18.99999999996817
 21
2.500000000005456
 31
0.0
  0
LINE
  5
658D
330
657F
100
AcDbEntity
  8
LW 5026-06-01
  6
VERDECKT
 62
     6
100
AcDbLine
 10
17.49784845239992
 20
0.0000000000051159
 30
0.0
 11
18.99999999996953
 21
-2.499999999994543
 31
0.0
  0
LINE
  5
658E
330
657F
100
AcDbEntity
  8
LW 5026-06-01
  6
VERDECKT
 62
     6
100
AcDbLine
 10
17.49784845239992
 20
0.0000000000051159
 30
0.0
 11
18.99999999996817
 21
2.500000000005456
 31
0.0
  0
LINE
  5
658F
330
657F
100
AcDbEntity
  8
LW 5026-06-01
  6
VERDECKT
 62
     6
100
AcDbLine
 10
24.87468592763344
 20
2.500000000007275
 30
0.0
 11
18.99999999996817
 21
2.500000000005456
 31
0.0
  0
LINE
  5
6590
330
657F
100
AcDbEntity
  8
LW 5026-06-01
  6
VERDECKT
 62
     6
100
AcDbLine
 10
24.8746859276348
 20
-2.499999999992724
 30
0.0
 11
18.99999999996953
 21
-2.499999999994543
 31
0.0
  0
LINE
  5
6591
330
657F
100
AcDbEntity
  8
LW 5026-06-01
  6
MITTE2
 62
     3
100
AcDbLine
 10
-14.93734296387174
 20
25.87223694343527
 30
0.0
 11
-7.000000000035015
 21
12.12435565298006
 31
0.0
  0
LINE
  5
6592
330
657F
100
AcDbEntity
  8
LW 5026-06-01
  6
MITTE2
 62
     3
100
AcDbLine
 10
-14.93734296385628
 20
-25.87223694344425
 30
0.0
 11
-7.000000000027739
 21
-12.12435565298426
 31
0.0
  0
LINE
  5
6593
330
657F
100
AcDbEntity
  8
LW 5026-06-01
  6
MITTE2
 62
     3
100
AcDbLine
 10
37.10268893529315
 20
0.0000000000173941
 30
0.0
 11
-37.10268893529315
 21
-0.0000000000173941
 31
0.0
  0
LINE
  5
6594
330
657F
100
AcDbEntity
  8
LW 5026-06-01
  6
MITTE2
 62
     3
100
AcDbLine
 10
-0.0000000000065938
 20
22.6209724824912
 30
0.0
 11
0.0000000000065938
 21
-22.6209724824912
 31
0.0
  0
HATCH
  5
6595
330
657F
100
AcDbEntity
  8
LW 5026-06-01
 62
     1
100
AcDbHatch
 10
0.0
 20
0.0
 30
0.0
210
0.0
220
0.0
230
1.0
  2
SOLID
 70
     1
 71
     0
 91
        5
 92
        7
 72
     0
 73
     1
 93
       76
 10
-5.057173424229176
 20
8.051816195540595
 10
-5.025314594856581
 20
8.103397157382346
 10
-4.90715647062484
 20
8.254639556398274
 10
-4.772678395412413
 20
8.395063686660819
 10
-4.626658488951079
 20
8.523448248374165
 10
-4.462989692868859
 20
8.640354531289972
 10
-4.287602739504336
 20
8.742532413111575
 10
-4.105849806903506
 20
8.833884092694461
 10
-3.924680871438113
 20
8.903402405140582
 10
-6.181818809637888
 20
8.903402405140582
 10
-6.394715362038141
 20
8.894712749940595
 10
-6.596749845438125
 20
8.868643784340633
 10
-6.792267087437949
 20
8.827367922140524
 10
-6.976922260437959
 20
8.773057577140548
 10
-7.152887778238209
 20
8.703540335540537
 10
-7.32016364083779
 20
8.620988611140433
 10
-7.470731903385285
 20
8.525663093596563
 10
-7.613439503838208
 20
8.418954127740448
 10
-7.73888075940863
 20
8.299905851500398
 10
-7.850145711485993
 20
8.171646540748497
 10
-7.950163642837878
 20
8.034436885140507
 10
-8.032715367238097
 20
7.888885160540439
 10
-8.095715367438288
 20
7.734643780740384
 10
-8.145680884838156
 20
7.573885159540509
 10
-8.173922264237944
 20
7.408781710740527
 10
-8.182611919437704
 20
7.234988606740557
 10
-8.17174985043789
 20
7.061195502740361
 10
-8.141336057238049
 20
6.893919640140438
 10
-8.087025712238073
 20
6.73316101894045
 10
-8.017508470638176
 20
6.576747225340454
 10
-7.928439504837797
 20
6.429023086940446
 10
-7.821991228637898
 20
6.287816189940599
 10
-7.699293297213671
 20
6.156602396420453
 10
-7.563094248505649
 20
6.03546860293261
 10
-7.415749848037876
 20
5.925023085340512
 10
-7.254991226838001
 20
5.827264464340601
 10
-7.079364605590626
 20
5.742366533036488
 10
-6.898715363638302
 20
5.668678256940552
 10
-6.707542949238131
 20
5.612195498140522
 10
-6.507680879637746
 20
5.568747222140586
 10
-6.299129154838055
 20
5.542678256540511
 10
-6.088405016237857
 20
5.533988601340524
 10
-3.969233930485415
 20
5.533988601340638
 10
-4.129777794537631
 20
5.597059405075583
 10
-4.313341938340499
 20
5.687679678598328
 10
-4.481808344510454
 20
5.792209371529793
 10
-4.644641239270868
 20
5.907827609955234
 10
-4.788553607641233
 20
6.037617206495156
 10
-4.915989501125523
 20
6.176970889723747
 10
-5.029694855869138
 20
6.327459134436253
 10
-5.081666087317671
 20
6.411643776540586
 10
-6.110129154237938
 20
6.411643776540472
 10
-6.242237982243523
 20
6.419203776564586
 10
-6.372991224038059
 20
6.439537569732578
 10
-6.50116363823804
 20
6.472471362940495
 10
-6.616301569637698
 20
6.518092052740598
 10
-6.721246535488035
 20
6.574574811540514
 10
-6.819396190972156
 20
6.64218032899646
 10
-6.909577432638116
 20
6.720126536140469
 10
-6.981267088037611
 20
6.804850674340514
 10
-5.253745773779201
 20
6.804850674340627
 10
-5.264330241052221
 20
6.83748611509884
 10
-5.300442049016282
 20
7.022860062650011
 10
-5.31248570179855
 20
7.213149776600744
 10
-5.30046402936864
 20
7.407900869955824
 10
-5.264158307693605
 20
7.594270241222261
 10
-5.24755960501875
 20
7.643402401140519
 10
-7.018198122638068
 20
7.643402401140519
 10
-6.948680881038171
 20
7.738988608340491
 10
-6.866129156637953
 20
7.821540332740482
 10
-6.771038259784518
 20
7.891405160548515
 10
-6.668439500838076
 20
7.949712746940576
 10
-6.549747500461535
 20
7.993682402252488
 10
-6.427301569038036
 20
8.02574722994052
 10
-6.290439499637841
 20
8.045298954140548
 10
-6.14706018883794
 20
8.051816195540482
 97
        0
 92
        7
 72
     0
 73
     1
 93
       72
 10
-3.32870955920157
 20
8.037217574804571
 10
-3.205846524328308
 20
8.05529205762059
 10
-3.081784317038227
 20
8.060505850740696
 10
-1.813094657837837
 20
8.060505850740696
 10
-2.660336039837829
 20
7.245850675740825
 10
-0.8941636204378937
 20
5.527471359940705
 10
0.424491556161911
 20
5.527471359940705
 10
-1.289542932038102
 20
7.269747227540733
 10
0.3919053491620161
 20
8.903402405140809
 10
-3.047025696238279
 20
8.903402405140582
 10
-3.255012593450146
 20
8.892627232692689
 10
-3.461730801003113
 20
8.867166542956624
 10
-3.666163629238099
 20
8.827367922140638
 10
-3.859508457438323
 20
8.770885163340608
 10
-4.046336044238387
 20
8.699195507940544
 10
-4.217496182712466
 20
8.613167921460558
 10
-4.383060183238058
 20
8.516712748740587
 10
-4.535129149238173
 20
8.408092058740635
 10
-4.670826804841226
 20
8.288783092844596
 10
-4.795818805238241
 20
8.158264471740608
 10
-4.904439495238193
 20
8.019229988540587
 10
-4.995680874837717
 20
7.871505850140692
 10
-5.067370530238122
 20
7.717264470340637
 10
-5.121680875238098
 20
7.556505849140535
 10
-5.154267082237993
 20
7.389229986540499
 10
-5.165129151238261
 20
7.213264468740476
 10
-5.154267082237993
 20
7.04164377854056
 10
-5.121680875238098
 20
6.874367915940638
 10
-5.069542944037721
 20
6.713609294740649
 10
-5.000025702437824
 20
6.559367914940594
 10
-4.908184736628982
 20
6.410601017916746
 10
-4.802805288018817
 20
6.271132051956556
 10
-4.684799770402833
 20
6.14209067223669
 10
-4.552508459637692
 20
6.022781706340651
 10
-4.400387355706925
 20
5.914769292204596
 10
-4.241853286237756
 20
5.81640239534056
 10
-4.070232596037612
 20
5.731678257140629
 10
-3.887749836837656
 20
5.659988601740565
 10
-3.693518663807708
 20
5.605938946396577
 10
-3.496715352838009
 20
5.562229980740653
 10
-3.288163628037864
 20
5.536161015140692
 10
-3.07743948943812
 20
5.527471359940705
 10
-1.174405000637989
 20
5.527471359940705
 10
-2.060749831038037
 20
6.400781707540659
 10
-3.07743948943812
 20
6.400781707540659
 10
-3.144106524132666
 20
6.40452900048001
 10
-3.245054248590577
 20
6.41451136275657
 10
-3.365188731730768
 20
6.435974811100663
 10
-3.482307904516574
 20
6.470298949140556
 10
-3.583803077252241
 20
6.511227225132643
 10
-3.639938249844135
 20
6.539381707980624
 10
-3.693622939669921
 20
6.571967914980746
 10
-3.82618362974631
 20
6.671290673916587
 10
-3.899785009289871
 20
6.741329294828688
 10
-3.954851354292486
 20
6.809195501940507
 10
-4.003556871688715
 20
6.88175412286057
 10
-4.042921009744759
 20
6.958918261036501
 10
-4.072344182251299
 20
7.040340330260619
 10
-4.093042940937948
 20
7.127497571916705
 10
-4.100559492685761
 20
7.216827227372505
 10
-4.099203906474713
 20
7.279132055156537
 10
-4.093199354731268
 20
7.341263089836502
 10
-4.081042527106774
 20
7.404436883140647
 10
-4.062829009807728
 20
7.466133435060669
 10
-4.019180871738399
 20
7.5648479181325
 10
-3.977653009537107
 20
7.632714125244547
 10
-3.914574802440483
 20
7.71074722894059
 10
-3.785172862075569
 20
7.837269965994323
 10
-3.725905008737981
 20
7.877327919124695
 10
-3.649609836081936
 20
7.921645160644516
 10
-3.565589559953195
 20
7.963789988364624
 10
-3.449052594065733
 20
8.006629988500662
 97
        0
 92
        7
 72
     0
 73
     1
 93
       57
 10
1.229327420786148
 20
8.015145850596923
 10
1.360801903961828
 20
8.055118264516863
 10
1.495491559561969
 20
8.082229988740891
 10
1.63887087036187
 20
8.090919643940765
 10
2.879319150162018
 20
8.090919643940878
 10
2.879319150162018
 20
8.916436887940903
 10
1.645388111762031
 20
8.91643688794079
 10
1.434663973161832
 20
8.907747232740803
 10
1.22828466216174
 20
8.879505853340788
 10
1.030595006361863
 20
8.838229991140792
 10
0.8415950057622012
 20
8.783919646140816
 10
0.6569398327617364
 20
8.712229990740866
 10
0.4905329356818129
 20
8.629591369788727
 10
0.3317121075913292
 20
8.533136197068756
 10
0.1816330726321667
 20
8.423646541548691
 10
0.0470737618604744
 20
8.3044244722048
 10
-0.0729912040380896
 20
8.175643782140809
 10
-0.1772670664379348
 20
8.036609298940788
 10
-0.2619912046377522
 20
7.89105757434072
 10
-0.3336808600381573
 20
7.736816194540665
 10
-0.3836463774380263
 20
7.57605757334079
 10
-0.4162325844379211
 20
7.408781710740868
 10
-0.4270946534381892
 20
7.234988606740785
 10
-0.4162325844379211
 20
7.061195502740815
 10
-0.3836463774380263
 20
6.893919640140779
 10
-0.3315084462381037
 20
6.733161018940677
 10
-0.2598187908381533
 20
6.576747225340795
 10
-0.1729222388378275
 20
6.429023086940787
 10
-0.0640756178029278
 20
6.28946722442879
 10
0.0557807963707546
 20
6.15912239642887
 10
0.1922083830111205
 20
6.037814809836731
 10
0.3397674179620935
 20
5.927195499140793
 10
0.5005260391619686
 20
5.829436878140654
 10
0.6743191431621654
 20
5.744712739940837
 10
0.8589743161621754
 20
5.670850670740833
 10
1.050146730561891
 20
5.614367911940803
 10
1.250008800162277
 20
5.570919635940867
 10
1.456388111162368
 20
5.547023084140732
 10
1.669284663562166
 20
5.538333428940745
 10
2.879319150162018
 20
5.538333428940859
 10
2.879319150162018
 20
6.396436879940779
 10
1.645388111762031
 20
6.396436879940779
 10
1.511741214786297
 20
6.406777569628729
 10
1.379484662642198
 20
6.428762397284913
 10
1.258872248465877
 20
6.463086535324805
 10
1.142865351546106
 20
6.511053432028916
 10
1.033201902921746
 20
6.571967914980859
 10
0.936138454337879
 20
6.639573432436804
 10
0.8487205230260315
 20
6.719344467172845
 10
0.7742501779619034
 20
6.804850674340855
 10
2.879319150162018
 20
6.804850674340855
 10
2.879319150162018
 20
7.63254033214082
 10
0.7373191433619013
 20
7.63254033214082
 10
0.8068363849622528
 20
7.730298953140732
 10
0.8937329369616691
 20
7.819367918940656
 10
0.9948805234901101
 20
7.895663091596816
 10
1.102284661762269
 20
7.962747229740784
 97
        0
 92
        7
 72
     0
 73
     1
 93
        6
 10
3.10959501296179
 20
8.903402405140923
 10
3.10959501296179
 20
5.533988601340865
 10
5.347181226962447
 20
5.533988601340979
 10
5.347181226961993
 20
6.400781707541
 10
4.132801912762033
 20
6.400781707541
 10
4.132801912762033
 20
8.903402405140923
 97
        0
 92
        7
 72
     0
 73
     1
 93
        8
 10
4.365250189361859
 20
8.903402405140923
 10
4.365250189361859
 20
8.077885161140898
 10
5.599181227762301
 20
8.077885161141011
 10
5.599181227762301
 20
5.527471359940932
 10
6.624560541362143
 20
5.527471359940932
 10
6.624560541362143
 20
8.077885161140898
 10
7.86718123496189
 20
8.077885161141011
 10
7.86718123496189
 20
8.903402405141036
 97
        0
 75
     0
 76
     1
 47
0.0142553043587597
 98
        5
 10
-5.747513298162857
 20
8.460952735551472
 10
-3.480016084820135
 20
8.318399750545836
 10
1.012195647381076
 20
8.375420923093656
 10
3.736044731212814
 20
8.61776114778604
 10
5.147882713439457
 20
8.517974015372715
450
        0
451
        0
460
0.0
461
0.0
452
        0
462
0.0
453
        0
470

  0
LWPOLYLINE
  5
6596
330
657F
100
AcDbEntity
  8
LW 5026-06-01
 62
     1
100
AcDbPolyline
 90
        8
 70
     1
 43
0.0
 10
6.624560541362143
 20
8.077885161140898
 10
6.624560541362143
 20
5.527471359940932
 10
5.599181227762301
 20
5.527471359940932
 10
5.599181227762301
 20
8.077885161141011
 10
4.365250189361859
 20
8.077885161140898
 10
4.365250189361859
 20
8.903402405140923
 10
7.86718123496189
 20
8.903402405141036
 10
7.86718123496189
 20
8.077885161141011
  0
LWPOLYLINE
  5
6597
330
657F
100
AcDbEntity
  8
LW 5026-06-01
 62
     1
100
AcDbPolyline
 90
       73
 70
     1
 43
0.0
 10
-3.07743948943812
 20
6.400781707540659
 10
-2.060749831038037
 20
6.400781707540659
 10
-1.174405000637989
 20
5.527471359940705
 10
-3.07743948943812
 20
5.527471359940591
 10
-3.288163628037864
 20
5.536161015140692
 10
-3.496715352838009
 20
5.562229980740653
 10
-3.693518663807708
 20
5.605938946396577
 10
-3.887749836837656
 20
5.659988601740565
 10
-4.070232596037612
 20
5.731678257140629
 10
-4.241853286237756
 20
5.81640239534056
 10
-4.400387355706925
 20
5.914769292204596
 10
-4.552508459637692
 20
6.022781706340651
 10
-4.684799770402833
 20
6.142090672236577
 10
-4.802805288018817
 20
6.271132051956556
 10
-4.908184736628982
 20
6.410601017916633
 10
-5.000025702437824
 20
6.559367914940594
 10
-5.069542944037721
 20
6.713609294740649
 10
-5.121680875238098
 20
6.874367915940638
 10
-5.154267082237993
 20
7.04164377854056
 10
-5.165129151238261
 20
7.21326446874059
 10
-5.154267082237993
 20
7.389229986540499
 10
-5.121680875238098
 20
7.556505849140535
 10
-5.067370530238122
 20
7.717264470340637
 10
-4.995680874837717
 20
7.871505850140579
 10
-4.904439495238193
 20
8.019229988540587
 10
-4.795818805238241
 20
8.158264471740608
 10
-4.670826804841226
 20
8.28878309284471
 10
-4.535129149238173
 20
8.408092058740635
 10
-4.383060183238058
 20
8.516712748740587
 10
-4.217496182712466
 20
8.613167921460558
 10
-4.046336044238387
 20
8.699195507940544
 10
-3.859508457438323
 20
8.770885163340608
 10
-3.666163629238099
 20
8.827367922140751
 10
-3.461730801003113
 20
8.867166542956624
 10
-3.255012593450146
 20
8.892627232692689
 10
-3.047025696238279
 20
8.903402405140582
 10
0.3919053491620161
 20
8.903402405140809
 10
-1.289542932038102
 20
7.269747227540733
 10
0.424491556161911
 20
5.527471359940705
 10
-0.8941636204378937
 20
5.527471359940705
 10
-2.660336039837829
 20
7.245850675740825
 10
-1.813094657837837
 20
8.060505850740696
 10
-3.081784317038227
 20
8.060505850740696
 10
-3.205846524328308
 20
8.05529205762059
 10
-3.32870955920157
 20
8.037217574804571
 10
-3.449052594065733
 20
8.006629988500662
 10
-3.565589559953195
 20
7.96378998836451
 10
-3.64960983608239
 20
7.921645160644629
 10
-3.725905008737981
 20
7.877327919124695
 10
-3.766146801968943
 20
7.850129298348633
 10
-3.803660043467289
 20
7.819194125836588
 10
-3.914574802440483
 20
7.71074722894059
 10
-3.977653009537107
 20
7.632714125244547
 10
-4.019180871737944
 20
7.564847918132613
 10
-4.062829009807728
 20
7.466133435060669
 10
-4.081042527106774
 20
7.404436883140647
 10
-4.093199354731268
 20
7.341263089836616
 10
-4.099203906474713
 20
7.279132055156651
 10
-4.100559492685761
 20
7.216827227372618
 10
-4.093042940937948
 20
7.127497571916705
 10
-4.072344182251299
 20
7.040340330260619
 10
-4.042921009744304
 20
6.958918261036615
 10
-4.003556871688715
 20
6.88175412286057
 10
-3.954851354292486
 20
6.809195501940621
 10
-3.899785009289871
 20
6.741329294828688
 10
-3.82618362974631
 20
6.671290673916587
 10
-3.693622939669921
 20
6.571967914980746
 10
-3.639938249844135
 20
6.539381707980624
 10
-3.583803077252241
 20
6.511227225132643
 10
-3.482307904516574
 20
6.470298949140556
 10
-3.365188731730768
 20
6.435974811100663
 10
-3.245054248590577
 20
6.41451136275657
 10
-3.144106524132666
 20
6.40452900048001
  0
LWPOLYLINE
  5
6598
330
657F
100
AcDbEntity
  8
LW 5026-06-01
 62
     1
100
AcDbPolyline
 90
       76
 70
     1
 43
0.0
 10
-4.287602739504336
 20
8.742532413111575
 10
-4.462989692868859
 20
8.640354531289858
 10
-4.626658488951079
 20
8.523448248374165
 10
-4.772678395412413
 20
8.395063686660819
 10
-4.90715647062484
 20
8.254639556398274
 10
-5.025314594856581
 20
8.103397157382346
 10
-5.057173424229176
 20
8.051816195540595
 10
-6.14706018883794
 20
8.051816195540595
 10
-6.290439499637841
 20
8.045298954140548
 10
-6.427301569038036
 20
8.02574722994052
 10
-6.549747500461535
 20
7.993682402252488
 10
-6.668439500838076
 20
7.949712746940576
 10
-6.771038259784518
 20
7.891405160548515
 10
-6.866129156637953
 20
7.821540332740482
 10
-6.948680881038171
 20
7.738988608340491
 10
-7.018198122638068
 20
7.643402401140519
 10
-5.24755960501875
 20
7.643402401140519
 10
-5.264158307693605
 20
7.594270241222261
 10
-5.300464029369095
 20
7.407900869955597
 10
-5.31248570179855
 20
7.213149776600744
 10
-5.300442049016282
 20
7.022860062650011
 10
-5.264330241051766
 20
6.837486115098954
 10
-5.253745773779201
 20
6.804850674340627
 10
-6.981267088037611
 20
6.804850674340514
 10
-6.909577432638116
 20
6.720126536140469
 10
-6.819396190972156
 20
6.64218032899646
 10
-6.721246535488035
 20
6.574574811540514
 10
-6.616301569637698
 20
6.518092052740598
 10
-6.50116363823804
 20
6.472471362940609
 10
-6.372991224038059
 20
6.439537569732578
 10
-6.242237982243523
 20
6.419203776564586
 10
-6.110129154237938
 20
6.411643776540472
 10
-5.081666087317671
 20
6.411643776540586
 10
-5.029694855869138
 20
6.327459134436253
 10
-4.915989501125523
 20
6.176970889723747
 10
-4.788553607641233
 20
6.037617206495156
 10
-4.644641239270868
 20
5.907827609955461
 10
-4.481808344510454
 20
5.792209371529793
 10
-4.313341938340499
 20
5.687679678598328
 10
-4.129777794537631
 20
5.597059405075583
 10
-3.969233930485415
 20
5.533988601340638
 10
-6.088405016237857
 20
5.533988601340411
 10
-6.299129154838055
 20
5.542678256540511
 10
-6.507680879637746
 20
5.568747222140586
 10
-6.707542949238131
 20
5.612195498140522
 10
-6.898715363637847
 20
5.668678256940438
 10
-7.079364605591081
 20
5.742366533036488
 10
-7.254991226838001
 20
5.827264464340601
 10
-7.415749848037876
 20
5.925023085340512
 10
-7.563094248505649
 20
6.035468602932496
 10
-7.699293297213671
 20
6.156602396420453
 10
-7.821991228637898
 20
6.287816189940485
 10
-7.928439504838252
 20
6.429023086940446
 10
-8.017508470638176
 20
6.576747225340454
 10
-8.087025712238073
 20
6.73316101894045
 10
-8.141336057238049
 20
6.893919640140438
 10
-8.17174985043789
 20
7.061195502740588
 10
-8.182611919437704
 20
7.234988606740444
 10
-8.173922264238399
 20
7.408781710740413
 10
-8.145680884838156
 20
7.573885159540509
 10
-8.095715367438288
 20
7.734643780740384
 10
-8.032715367238097
 20
7.888885160540439
 10
-7.950163642837878
 20
8.034436885140507
 10
-7.850145711485993
 20
8.171646540748497
 10
-7.73888075940863
 20
8.299905851500511
 10
-7.613439503838208
 20
8.418954127740448
 10
-7.470731903385285
 20
8.525663093596563
 10
-7.32016364083779
 20
8.620988611140546
 10
-7.152887778237754
 20
8.703540335540424
 10
-6.976922260437959
 20
8.773057577140548
 10
-6.792267087437949
 20
8.827367922140524
 10
-6.596749845438125
 20
8.868643784340633
 10
-6.394715362038141
 20
8.894712749940595
 10
-6.181818809637888
 20
8.903402405140582
 10
-3.924680871438113
 20
8.903402405140695
 10
-4.105849806903506
 20
8.833884092694461
  0
LWPOLYLINE
  5
6599
330
657F
100
AcDbEntity
  8
LW 5026-06-01
 62
     1
100
AcDbPolyline
 90
        6
 70
     1
 43
0.0
 10
5.347181226962447
 20
5.533988601340979
 10
3.10959501296179
 20
5.533988601340865
 10
3.10959501296179
 20
8.903402405140923
 10
4.132801912762033
 20
8.903402405140923
 10
4.132801912762033
 20
6.400781707541
 10
5.347181226961993
 20
6.400781707541
  0
LWPOLYLINE
  5
659A
330
657F
100
AcDbEntity
  8
LW 5026-06-01
 62
     1
100
AcDbPolyline
 90
       57
 70
     1
 43
0.0
 10
0.0557807963707546
 20
6.15912239642887
 10
-0.0640756178029278
 20
6.289467224428676
 10
-0.1729222388378275
 20
6.429023086940674
 10
-0.2598187908381533
 20
6.576747225340795
 10
-0.3315084462381037
 20
6.733161018940677
 10
-0.3836463774380263
 20
6.893919640140779
 10
-0.4162325844379211
 20
7.061195502740815
 10
-0.4270946534381892
 20
7.234988606740785
 10
-0.4162325844379211
 20
7.408781710740754
 10
-0.3836463774380263
 20
7.57605757334079
 10
-0.3336808600381573
 20
7.736816194540665
 10
-0.2619912046377522
 20
7.891057574340834
 10
-0.1772670664379348
 20
8.036609298940675
 10
-0.0729912040380896
 20
8.175643782140809
 10
0.0470737618604744
 20
8.304424472204686
 10
0.1816330726321667
 20
8.423646541548691
 10
0.3317121075913292
 20
8.533136197068756
 10
0.4905329356822677
 20
8.62959136978884
 10
0.6569398327617364
 20
8.712229990740866
 10
0.8415950057622012
 20
8.783919646140816
 10
1.030595006361863
 20
8.838229991140792
 10
1.22828466216174
 20
8.879505853340788
 10
1.434663973161832
 20
8.907747232740803
 10
1.645388111762031
 20
8.91643688794079
 10
2.879319150162018
 20
8.916436887940903
 10
2.879319150162018
 20
8.090919643940878
 10
1.638870870362325
 20
8.090919643940765
 10
1.495491559561969
 20
8.082229988740778
 10
1.360801903961828
 20
8.055118264516863
 10
1.229327420785693
 20
8.015145850596809
 10
1.102284661762269
 20
7.962747229740784
 10
0.9948805234901101
 20
7.895663091596816
 10
0.8937329369616691
 20
7.819367918940884
 10
0.8068363849622528
 20
7.730298953140732
 10
0.7373191433619013
 20
7.63254033214082
 10
2.879319150162018
 20
7.63254033214082
 10
2.879319150162018
 20
6.804850674340855
 10
0.7742501779619034
 20
6.804850674340855
 10
0.8487205230260315
 20
6.719344467172845
 10
0.936138454337879
 20
6.639573432436804
 10
1.033201902921746
 20
6.571967914980859
 10
1.142865351546106
 20
6.511053432028916
 10
1.258872248465877
 20
6.463086535324805
 10
1.379484662642198
 20
6.428762397284913
 10
1.511741214786297
 20
6.406777569628729
 10
1.645388111762031
 20
6.396436879940779
 10
2.879319150162018
 20
6.396436879940779
 10
2.879319150162018
 20
5.538333428940859
 10
1.669284663562166
 20
5.538333428940745
 10
1.456388111162368
 20
5.547023084140732
 10
1.250008800162277
 20
5.570919635940867
 10
1.050146730561891
 20
5.614367911940803
 10
0.8589743161621754
 20
5.670850670740833
 10
0.6743191431621654
 20
5.744712739940837
 10
0.5005260391619686
 20
5.829436878140882
 10
0.3397674179620935
 20
5.927195499140793
 10
0.1922083830111205
 20
6.037814809836731
  0
INSERT
  5
659B
330
657F
100
AcDbEntity
  8
LW 5026-06-01
100
AcDbBlockReference
 66
     1
  2
insertpoint-ECKELT
 10
0.0
 20
0.0
 30
0.0
  0
ATTRIB
  5
659C
330
659B
100
AcDbEntity
  8
insertpoint_ECKELT
100
AcDbText
 10
-6.93151432469286
 20
0.0
 30
0.0
 40
0.6
  1
LW 5026/06-01
 72
     2
 11
-1.199999999999818
 21
0.0
 31
0.0
100
AcDbAttribute
  2
LINKS
 70
     0
  0
ATTRIB
  5
659D
330
659B
100
AcDbEntity
  8
insertpoint_ECKELT
100
AcDbText
 10
1.199999999999818
 20
0.0
 30
0.0
 40
0.6
  1

100
AcDbAttribute
  2
RECHTS
 70
     0
  0
SEQEND
  5
659E
330
659B
100
AcDbEntity
  8
LW 5026-06-01
  0
CIRCLE
  5
659F
330
657F
100
AcDbEntity
  8
LW 5026-06-01
100
AcDbCircle
 10
0.0
 20
0.0
 30
0.0
 40
18.99999999998902
  0
CIRCLE
  5
65A0
330
657F
100
AcDbEntity
  8
LW 5026-06-01
100
AcDbCircle
 10
0.0
 20
0.0
 30
0.0
 40
24.99999999997855
  0
ENDBLK
  5
6581
330
657F
100
AcDbEntity
  8
0
100
AcDbBlockEnd
  0
ENDSEC
  0
SECTION
  2
ENTITIES
  0
INSERT
  5
62D8
330
23
100
AcDbEntity
  8
0
100
AcDbBlockReference
  2
LW 5026-06-01_a
 10
0.0
 20
0.0
 30
0.0
  0
INSERT
  5
63E9
330
23
100
AcDbEntity
  8
0
100
AcDbBlockReference
  2
LW 5026-06-01_b
 10
0.000000000165528
 20
207.0345158723449
 30
0.0
  0
INSERT
  5
657E
330
23
100
AcDbEntity
  8
0
100
AcDbBlockReference
  2
LW 5026-06-01_c
 10
303.6796665410893
 20
207.0345158723449
 30
0.0
  0
INSERT
  5
65A1
330
23
100
AcDbEntity
  8
0
100
AcDbBlockReference
  2
LW 5026-06-01_d
 10
-303.6796665407578
 20
207.0345158723449
 30
0.0
  0
ENDSEC
  0
SECTION
  2
OBJECTS
  0
DICTIONARY
  5
C
330
0
100
AcDbDictionary
281
     1
  3
ACAD_COLOR
350
1C
  3
ACAD_GROUP
350
D
  3
ACAD_LAYOUT
350
1A
  3
ACAD_MATERIAL
350
1B
  3
ACAD_MLINESTYLE
350
17
  3
ACAD_PLOTSETTINGS
350
19
  3
ACAD_PLOTSTYLENAME
350
E
  3
ACAD_TABLESTYLE
350
1D
  3
AcDbVariableDictionary
350
1064
  0
DICTIONARY
  5
16C1
330
2
100
AcDbDictionary
280
     1
281
     1
  3
ACAD_LAYERFILTERS
360
613D
  3
ACLYDICTIONARY
360
613C
  0
DICTIONARY
  5
15A2
330
23
100
AcDbDictionary
280
     1
281
     1
  3
ACAD_SORTENTS
360
15A3
  0
DICTIONARY
  5
106F
330
106E
100
AcDbDictionary
280
     1
281
     1
  3
ACAD_SORTENTS
360
5742
  0
DICTIONARY
  5
1C
102
{ACAD_REACTORS
330
C
102
}
330
C
100
AcDbDictionary
281
     1
  0
DICTIONARY
  5
D
102
{ACAD_REACTORS
330
C
102
}
330
C
100
AcDbDictionary
281
     1
  0
DICTIONARY
  5
1A
102
{ACAD_REACTORS
330
C
102
}
330
C
100
AcDbDictionary
281
     1
  3
Layout1
350
22
  3
Layout2
350
2A
  3
Model
350
26
  0
DICTIONARY
  5
1B
102
{ACAD_REACTORS
330
C
102
}
330
C
100
AcDbDictionary
281
     1
  0
DICTIONARY
  5
17
102
{ACAD_REACTORS
330
C
102
}
330
C
100
AcDbDictionary
281
     1
  3
Standard
350
18
  0
DICTIONARY
  5
19
102
{ACAD_REACTORS
330
C
102
}
330
C
100
AcDbDictionary
281
     1
  0
ACDBDICTIONARYWDFLT
  5
E
102
{ACAD_REACTORS
330
C
102
}
330
C
100
AcDbDictionary
281
     1
  3
Normal
350
F
100
AcDbDictionaryWithDefault
340
F
  0
DICTIONARY
  5
1D
102
{ACAD_REACTORS
330
C
102
}
330
C
100
AcDbDictionary
281
     1
  3
Standard
350
1E
  0
DICTIONARY
  5
1064
102
{ACAD_REACTORS
330
C
102
}
330
C
100
AcDbDictionary
281
     1
  3
CTABLESTYLE
350
1065
  3
DIMASSOC
350
18F4
  3
HIDETEXT
350
18F3
  3
PROJECTNAME
350
18F5
  0
DICTIONARY
  5
613D
102
{ACAD_REACTORS
330
16C1
102
}
330
16C1
100
AcDbDictionary
281
     1
  0
DICTIONARY
  5
613C
102
{ACAD_REACTORS
330
16C1
102
}
330
16C1
100
AcDbDictionary
281
     1
1001
ACAD
1000
<All
  0
SORTENTSTABLE
  5
15A3
102
{ACAD_REACTORS
330
15A2
102
}
330
15A2
100
AcDbSortentsTable
330
23
  0
SORTENTSTABLE
  5
5742
102
{ACAD_REACTORS
330
106F
102
}
330
106F
100
AcDbSortentsTable
330
106E
  0
LAYOUT
  5
22
102
{ACAD_REACTORS
330
1A
102
}
330
1A
100
AcDbPlotSettings
  1

  2

  4

  6

 40
0.0
 41
0.0
 42
0.0
 43
0.0
 44
0.0
 45
0.0
 46
0.0
 47
0.0
 48
0.0
 49
0.0
140
0.0
141
0.0
142
1.0
143
1.0
 70
   688
 72
     0
 73
     0
 74
     5
  7

 75
    16
147
1.0
 76
     0
 77
     2
 78
   300
148
0.0
149
0.0
100
AcDbLayout
  1
Layout1
 70
     1
 71
     1
 10
0.0
 20
0.0
 11
2100.0
 21
1485.0
 12
0.0
 22
0.0
 32
0.0
 14
0.0
 24
0.0
 34
0.0
 15
2100.0
 25
1485.0
 35
0.0
146
0.0
 13
0.0
 23
0.0
 33
0.0
 16
1.0
 26
0.0
 36
0.0
 17
0.0
 27
1.0
 37
0.0
 76
     0
330
1F
  0
LAYOUT
  5
2A
102
{ACAD_REACTORS
330
1A
102
}
330
1A
100
AcDbPlotSettings
  1

  2

  4

  6

 40
0.0
 41
0.0
 42
0.0
 43
0.0
 44
0.0
 45
0.0
 46
0.0
 47
0.0
 48
0.0
 49
0.0
140
0.0
141
0.0
142
1.0
143
1.0
 70
   688
 72
     0
 73
     0
 74
     5
  7

 75
    16
147
1.0
 76
     0
 77
     2
 78
   300
148
0.0
149
0.0
100
AcDbLayout
  1
Layout2
 70
     1
 71
     2
 10
0.0
 20
0.0
 11
12.0
 21
9.0
 12
0.0
 22
0.0
 32
0.0
 14
0.0
 24
0.0
 34
0.0
 15
0.0
 25
0.0
 35
0.0
146
0.0
 13
0.0
 23
0.0
 33
0.0
 16
1.0
 26
0.0
 36
0.0
 17
0.0
 27
1.0
 37
0.0
 76
     0
330
27
  0
LAYOUT
  5
26
102
{ACAD_REACTORS
330
1A
102
}
330
1A
100
AcDbPlotSettings
  1

  2

  4

  6

 40
0.0
 41
0.0
 42
0.0
 43
0.0
 44
0.0
 45
0.0
 46
0.0
 47
0.0
 48
0.0
 49
0.0
140
0.0
141
0.0
142
1.0
143
1.0
 70
  1712
 72
     0
 73
     0
 74
     0
  7

 75
     0
147
1.0
 76
     0
 77
     2
 78
   300
148
0.0
149
0.0
100
AcDbLayout
  1
Model
 70
     1
 71
     0
 10
0.0
 20
0.0
 11
12.0
 21
9.0
 12
0.0
 22
0.0
 32
0.0
 14
0.0
 24
0.0
 34
0.0
 15
0.0
 25
0.0
 35
0.0
146
0.0
 13
0.0
 23
0.0
 33
0.0
 16
1.0
 26
0.0
 36
0.0
 17
0.0
 27
1.0
 37
0.0
 76
     0
330
23
  0
MLINESTYLE
  5
18
102
{ACAD_REACTORS
330
17
102
}
330
17
100
AcDbMlineStyle
  2
STANDARD
 70
     0
  3

 62
   256
 51
90.0
 52
90.0
 71
     2
 49
0.5
 62
   256
  6
BYLAYER
 49
-0.5
 62
   256
  6
BYLAYER
  0
ACDBPLACEHOLDER
  5
F
102
{ACAD_REACTORS
330
E
102
}
330
E
  0
TABLESTYLE
  5
1E
102
{ACAD_REACTORS
330
1D
102
}
330
1D
100
AcDbTableStyle
  3
Standard
 70
     0
 71
     0
 40
0.06
 41
0.06
280
     0
281
     0
  7
Standard
140
0.18
170
     2
 62
     0
 63
     7
283
     0
274
    -2
284
     1
 64
     0
275
    -2
285
     1
 65
     0
276
    -2
286
     1
 66
     0
277
    -2
287
     1
 67
     0
278
    -2
288
     1
 68
     0
279
    -2
289
     1
 69
     0
  7
Standard
140
0.25
170
     5
 62
     0
 63
     7
283
     0
274
    -2
284
     1
 64
     0
275
    -2
285
     1
 65
     0
276
    -2
286
     1
 66
     0
277
    -2
287
     1
 67
     0
278
    -2
288
     1
 68
     0
279
    -2
289
     1
 69
     0
  7
Standard
140
0.18
170
     5
 62
     0
 63
     7
283
     0
274
    -2
284
     1
 64
     0
275
    -2
285
     1
 65
     0
276
    -2
286
     1
 66
     0
277
    -2
287
     1
 67
     0
278
    -2
288
     1
 68
     0
279
    -2
289
     1
 69
     0
  0
DICTIONARYVAR
  5
1065
102
{ACAD_REACTORS
330
1064
102
}
330
1064
100
DictionaryVariables
280
     0
  1
STANDARD
  0
DICTIONARYVAR
  5
18F4
102
{ACAD_REACTORS
330
1064
102
}
330
1064
100
DictionaryVariables
280
     0
  1
1
  0
DICTIONARYVAR
  5
18F3
102
{ACAD_REACTORS
330
1064
102
}
330
1064
100
DictionaryVariables
280
     0
  1
1
  0
DICTIONARYVAR
  5
18F5
102
{ACAD_REACTORS
330
1064
102
}
330
1064
100
DictionaryVariables
280
     0
  1

  0
ENDSEC
  0
EOF
