  0
SECTION
  2
HEADER
  9
$ACADVER
  1
AC1018
  9
$ACADMAINTVER
 70
    76
  9
$DWGCODEPAGE
  3
ANSI_1252
  9
$AUTHOR
  1
Grandl
  9
$CUSTOMPROPERTYTAG
  1
Manager
  9
$CUSTOMPROPERTY
  1

  9
$CUSTOMPROPERTYTAG
  1
Firma
  9
$CUSTOMPROPERTY
  1

  9
$CUSTOMPROPERTYTAG
  1
Kategorie
  9
$CUSTOMPROPERTY
  1

  9
$CUSTOMPROPERTYTAG
  1
Bauteilnummer
  9
$CUSTOMPROPERTY
  1
3250-40-00
  9
$CUSTOMPROPERTYTAG
  1
Bezeichnung
  9
$CUSTOMPROPERTY
  1

  9
$CUSTOMPROPERTYTAG
  1
Projekt
  9
$CUSTOMPROPERTY
  1

  9
$CUSTOMPROPERTYTAG
  1
Konstrukteur
  9
$CUSTOMPROPERTY
  1
Grandl
  9
$CUSTOMPROPERTYTAG
  1
Ingenieur
  9
$CUSTOMPROPERTY
  1

  9
$CUSTOMPROPERTYTAG
  1
Bevollmächtigter
  9
$CUSTOMPROPERTY
  1

  9
$CUSTOMPROPERTYTAG
  1
Kostenstelle
  9
$CUSTOMPROPERTY
  1

  9
$CUSTOMPROPERTYTAG
  1
Händler
  9
$CUSTOMPROPERTY
  1

  9
$CUSTOMPROPERTYTAG
  1
Benutzerstatus
  9
$CUSTOMPROPERTY
  1

  9
$CUSTOMPROPERTYTAG
  1
Konstruktionsstatus
  9
$CUSTOMPROPERTY
  1
InBearbeitung
  9
$CUSTOMPROPERTYTAG
  1
Überprüft von
  9
$CUSTOMPROPERTY
  1

  9
$CUSTOMPROPERTYTAG
  1
Konstruktion genehmigt von
  9
$CUSTOMPROPERTY
  1

  9
$CUSTOMPROPERTYTAG
  1
Fertigung genehmigt von
  9
$CUSTOMPROPERTY
  1

  9
$INSBASE
 10
0.0
 20
0.0
 30
0.0
  9
$EXTMIN
 10
-340.7823554760869
 20
-37.00000000000006
 30
0.0
  9
$EXTMAX
 10
340.744626397649
 20
244.0345158723449
 30
0.0
  9
$LIMMIN
 10
0.0
 20
0.0
  9
$LIMMAX
 10
2100.0
 20
1485.0
  9
$ORTHOMODE
 70
     1
  9
$REGENMODE
 70
     1
  9
$FILLMODE
 70
     1
  9
$QTEXTMODE
 70
     0
  9
$MIRRTEXT
 70
     0
  9
$LTSCALE
 40
0.5
  9
$ATTMODE
 70
     1
  9
$TEXTSIZE
 40
0.2
  9
$TRACEWID
 40
0.05
  9
$TEXTSTYLE
  7
Standard
  9
$CLAYER
  8
0
  9
$CELTYPE
  6
ByLayer
  9
$CECOLOR
 62
   256
  9
$CELTSCALE
 40
1.0
  9
$DISPSILH
 70
     0
  9
$DIMSCALE
 40
1.0
  9
$DIMASZ
 40
0.18
  9
$DIMEXO
 40
0.0625
  9
$DIMDLI
 40
0.38
  9
$DIMRND
 40
0.0
  9
$DIMDLE
 40
0.0
  9
$DIMEXE
 40
0.18
  9
$DIMTP
 40
0.0
  9
$DIMTM
 40
0.0
  9
$DIMTXT
 40
0.18
  9
$DIMCEN
 40
0.09
  9
$DIMTSZ
 40
0.0
  9
$DIMTOL
 70
     0
  9
$DIMLIM
 70
     0
  9
$DIMTIH
 70
     1
  9
$DIMTOH
 70
     1
  9
$DIMSE1
 70
     0
  9
$DIMSE2
 70
     0
  9
$DIMTAD
 70
     0
  9
$DIMZIN
 70
     0
  9
$DIMBLK
  1

  9
$DIMASO
 70
     1
  9
$DIMSHO
 70
     1
  9
$DIMPOST
  1

  9
$DIMAPOST
  1

  9
$DIMALT
 70
     0
  9
$DIMALTD
 70
     2
  9
$DIMALTF
 40
25.4
  9
$DIMLFAC
 40
1.0
  9
$DIMTOFL
 70
     0
  9
$DIMTVP
 40
0.0
  9
$DIMTIX
 70
     0
  9
$DIMSOXD
 70
     0
  9
$DIMSAH
 70
     0
  9
$DIMBLK1
  1

  9
$DIMBLK2
  1

  9
$DIMSTYLE
  2
Standard
  9
$DIMCLRD
 70
     0
  9
$DIMCLRE
 70
     0
  9
$DIMCLRT
 70
     0
  9
$DIMTFAC
 40
1.0
  9
$DIMGAP
 40
0.09
  9
$DIMJUST
 70
     0
  9
$DIMSD1
 70
     0
  9
$DIMSD2
 70
     0
  9
$DIMTOLJ
 70
     1
  9
$DIMTZIN
 70
     0
  9
$DIMALTZ
 70
     0
  9
$DIMALTTZ
 70
     0
  9
$DIMUPT
 70
     0
  9
$DIMDEC
 70
     4
  9
$DIMTDEC
 70
     4
  9
$DIMALTU
 70
     2
  9
$DIMALTTD
 70
     2
  9
$DIMTXSTY
  7
Standard
  9
$DIMAUNIT
 70
     0
  9
$DIMADEC
 70
     0
  9
$DIMALTRND
 40
0.0
  9
$DIMAZIN
 70
     0
  9
$DIMDSEP
 70
    46
  9
$DIMATFIT
 70
     3
  9
$DIMFRAC
 70
     0
  9
$DIMLDRBLK
  1

  9
$DIMLUNIT
 70
     2
  9
$DIMLWD
 70
    -2
  9
$DIMLWE
 70
    -2
  9
$DIMTMOVE
 70
     0
  9
$LUNITS
 70
     2
  9
$LUPREC
 70
     4
  9
$SKETCHINC
 40
0.1
  9
$FILLETRAD
 40
0.0
  9
$AUNITS
 70
     0
  9
$AUPREC
 70
     0
  9
$MENU
  1
.
  9
$ELEVATION
 40
0.0
  9
$PELEVATION
 40
0.0
  9
$THICKNESS
 40
0.0
  9
$LIMCHECK
 70
     0
  9
$CHAMFERA
 40
0.0
  9
$CHAMFERB
 40
0.0
  9
$CHAMFERC
 40
0.0
  9
$CHAMFERD
 40
0.0
  9
$SKPOLY
 70
     0
  9
$TDCREATE
 40
2453712.483610903
  9
$TDUCREATE
 40
2453712.441944236
  9
$TDUPDATE
 40
2453717.683286470
  9
$TDUUPDATE
 40
2453717.641619804
  9
$TDINDWG
 40
0.1714888426
  9
$TDUSRTIMER
 40
0.1714888426
  9
$USRTIMER
 70
     1
  9
$ANGBASE
 50
0.0
  9
$ANGDIR
 70
     0
  9
$PDMODE
 70
     0
  9
$PDSIZE
 40
0.0
  9
$PLINEWID
 40
0.0
  9
$SPLFRAME
 70
     0
  9
$SPLINETYPE
 70
     6
  9
$SPLINESEGS
 70
     8
  9
$HANDSEED
  5
6668
  9
$SURFTAB1
 70
     6
  9
$SURFTAB2
 70
     6
  9
$SURFTYPE
 70
     6
  9
$SURFU
 70
     6
  9
$SURFV
 70
     6
  9
$UCSBASE
  2

  9
$UCSNAME
  2

  9
$UCSORG
 10
0.0
 20
0.0
 30
0.0
  9
$UCSXDIR
 10
1.0
 20
0.0
 30
0.0
  9
$UCSYDIR
 10
0.0
 20
1.0
 30
0.0
  9
$UCSORTHOREF
  2

  9
$UCSORTHOVIEW
 70
     0
  9
$UCSORGTOP
 10
0.0
 20
0.0
 30
0.0
  9
$UCSORGBOTTOM
 10
0.0
 20
0.0
 30
0.0
  9
$UCSORGLEFT
 10
0.0
 20
0.0
 30
0.0
  9
$UCSORGRIGHT
 10
0.0
 20
0.0
 30
0.0
  9
$UCSORGFRONT
 10
0.0
 20
0.0
 30
0.0
  9
$UCSORGBACK
 10
0.0
 20
0.0
 30
0.0
  9
$PUCSBASE
  2

  9
$PUCSNAME
  2

  9
$PUCSORG
 10
0.0
 20
0.0
 30
0.0
  9
$PUCSXDIR
 10
1.0
 20
0.0
 30
0.0
  9
$PUCSYDIR
 10
0.0
 20
1.0
 30
0.0
  9
$PUCSORTHOREF
  2

  9
$PUCSORTHOVIEW
 70
     0
  9
$PUCSORGTOP
 10
0.0
 20
0.0
 30
0.0
  9
$PUCSORGBOTTOM
 10
0.0
 20
0.0
 30
0.0
  9
$PUCSORGLEFT
 10
0.0
 20
0.0
 30
0.0
  9
$PUCSORGRIGHT
 10
0.0
 20
0.0
 30
0.0
  9
$PUCSORGFRONT
 10
0.0
 20
0.0
 30
0.0
  9
$PUCSORGBACK
 10
0.0
 20
0.0
 30
0.0
  9
$USERI1
 70
     0
  9
$USERI2
 70
     0
  9
$USERI3
 70
     0
  9
$USERI4
 70
     0
  9
$USERI5
 70
     0
  9
$USERR1
 40
0.0
  9
$USERR2
 40
0.0
  9
$USERR3
 40
0.0
  9
$USERR4
 40
0.0
  9
$USERR5
 40
0.0
  9
$WORLDVIEW
 70
     1
  9
$SHADEDGE
 70
     3
  9
$SHADEDIF
 70
    70
  9
$TILEMODE
 70
     1
  9
$MAXACTVP
 70
    64
  9
$PINSBASE
 10
0.0
 20
0.0
 30
0.0
  9
$PLIMCHECK
 70
     0
  9
$PEXTMIN
 10
0.0
 20
0.0
 30
0.0
  9
$PEXTMAX
 10
2100.0
 20
1485.0
 30
0.0
  9
$PLIMMIN
 10
0.0
 20
0.0
  9
$PLIMMAX
 10
2100.0
 20
1485.0
  9
$UNITMODE
 70
     0
  9
$VISRETAIN
 70
     1
  9
$PLINEGEN
 70
     0
  9
$PSLTSCALE
 70
     1
  9
$TREEDEPTH
 70
  3020
  9
$CMLSTYLE
  2
Standard
  9
$CMLJUST
 70
     0
  9
$CMLSCALE
 40
1.0
  9
$PROXYGRAPHICS
 70
     1
  9
$MEASUREMENT
 70
     1
  9
$CELWEIGHT
370
    -1
  9
$ENDCAPS
280
     0
  9
$JOINSTYLE
280
     0
  9
$LWDISPLAY
290
     0
  9
$INSUNITS
 70
     0
  9
$HYPERLINKBASE
  1

  9
$STYLESHEET
  1

  9
$XEDIT
290
     1
  9
$CEPSNTYPE
380
     0
  9
$PSTYLEMODE
290
     1
  9
$FINGERPRINTGUID
  2
{C0D17482-A639-492A-87FF-6D529B9E67CF}
  9
$VERSIONGUID
  2
{2F8034BF-9792-4A45-9CC1-3B3334CE50A2}
  9
$EXTNAMES
290
     1
  9
$PSVPSCALE
 40
0.0
  9
$OLESTARTUP
290
     0
  9
$SORTENTS
280
   127
  9
$INDEXCTL
280
     0
  9
$HIDETEXT
280
     1
  9
$XCLIPFRAME
290
     0
  9
$HALOGAP
280
     0
  9
$OBSCOLOR
 70
   257
  9
$OBSLTYPE
280
     0
  9
$INTERSECTIONDISPLAY
280
     0
  9
$INTERSECTIONCOLOR
 70
   257
  9
$DIMASSOC
280
     1
  9
$PROJECTNAME
  1

  0
ENDSEC
  0
SECTION
  2
CLASSES
  0
CLASS
  1
ACDBDICTIONARYWDFLT
  2
AcDbDictionaryWithDefault
  3
ObjectDBX Classes
 90
        0
 91
        1
280
     0
281
     0
  0
CLASS
  1
TABLESTYLE
  2
AcDbTableStyle
  3
ObjectDBX Classes
 90
     2047
 91
        1
280
     0
281
     0
  0
CLASS
  1
DICTIONARYVAR
  2
AcDbDictionaryVar
  3
ObjectDBX Classes
 90
        0
 91
        4
280
     0
281
     0
  0
CLASS
  1
SORTENTSTABLE
  2
AcDbSortentsTable
  3
ObjectDBX Classes
 90
        0
 91
        2
280
     0
281
     0
  0
ENDSEC
  0
SECTION
  2
TABLES
  0
TABLE
  2
VPORT
  5
8
330
0
100
AcDbSymbolTable
 70
     3
  0
VPORT
  5
6667
330
8
100
AcDbSymbolTableRecord
100
AcDbViewportTableRecord
  2
*Active
 70
     0
 10
0.0
 20
0.0
 11
1.0
 21
1.0
 12
-0.0824757531877367
 22
103.5478828570822
 13
0.0
 23
0.0
 14
1.0
 24
1.0
 15
0.0
 25
0.0
 16
0.0
 26
0.0
 36
1.0
 17
0.0
 27
0.0
 37
0.0
 40
386.4910515380509
 41
1.773333333333333
 42
50.0
 43
0.0
 44
0.0
 50
0.0
 51
0.0
 71
     0
 72
   100
 73
     1
 74
     1
 75
     0
 76
     0
 77
     0
 78
     0
281
     0
 65
     1
110
0.0
120
0.0
130
0.0
111
1.0
121
0.0
131
0.0
112
0.0
122
1.0
132
0.0
 79
     0
146
0.0
  0
ENDTAB
  0
TABLE
  2
LTYPE
  5
5
330
0
100
AcDbSymbolTable
 70
     3
  0
LTYPE
  5
14
330
5
100
AcDbSymbolTableRecord
100
AcDbLinetypeTableRecord
  2
ByBlock
 70
     0
  3

 72
    65
 73
     0
 40
0.0
  0
LTYPE
  5
15
330
5
100
AcDbSymbolTableRecord
100
AcDbLinetypeTableRecord
  2
ByLayer
 70
     0
  3

 72
    65
 73
     0
 40
0.0
  0
LTYPE
  5
16
330
5
100
AcDbSymbolTableRecord
100
AcDbLinetypeTableRecord
  2
Continuous
 70
     0
  3
Solid line
 72
    65
 73
     0
 40
0.0
  0
LTYPE
  5
1309
330
5
100
AcDbSymbolTableRecord
100
AcDbLinetypeTableRecord
  2
MITTE2
 70
     0
  3
Mitte (.5x) ___ _ ___ _ ___ _ ___ _ ___ _ ___
 72
    65
 73
     4
 40
28.575
 49
19.05
 74
     0
 49
-3.174999999999999
 74
     0
 49
3.174999999999999
 74
     0
 49
-3.174999999999999
 74
     0
  0
LTYPE
  5
16DC
330
5
100
AcDbSymbolTableRecord
100
AcDbLinetypeTableRecord
  2
VERDECKT
 70
     0
  3
Verdeckt __ __ __ __ __ __ __ __ __ __ __ __ __
 72
    65
 73
     2
 40
9.524999999999998
 49
6.349999999999999
 74
     0
 49
-3.174999999999999
 74
     0
  0
ENDTAB
  0
TABLE
  2
LAYER
  5
2
102
{ACAD_XDICTIONARY
360
16C1
102
}
330
0
100
AcDbSymbolTable
 70
     4
  0
LAYER
  5
10
330
2
100
AcDbSymbolTableRecord
100
AcDbLayerTableRecord
  2
0
 70
     0
 62
     7
  6
Continuous
370
    -3
390
F
  0
LAYER
  5
646
330
2
100
AcDbSymbolTableRecord
100
AcDbLayerTableRecord
  2
Defpoints
 70
     0
 62
     7
  6
Continuous
290
     0
370
    -3
390
F
  0
LAYER
  5
130A
330
2
100
AcDbSymbolTableRecord
100
AcDbLayerTableRecord
  2
LW 5026-32-00
 70
     0
 62
     7
  6
Continuous
370
    -3
390
F
  0
LAYER
  5
130B
330
2
100
AcDbSymbolTableRecord
100
AcDbLayerTableRecord
  2
insertpoint_ECKELT
 70
     0
 62
   141
  6
Continuous
370
    -3
390
F
  0
ENDTAB
  0
TABLE
  2
STYLE
  5
3
330
0
100
AcDbSymbolTable
 70
     1
  0
STYLE
  5
11
330
3
100
AcDbSymbolTableRecord
100
AcDbTextStyleTableRecord
  2
Standard
 70
     0
 40
0.0
 41
1.0
 50
0.0
 71
     0
 42
0.2
  3
ARIAL.TTF
  4

1001
ACAD
1000
Arial
1071
      256
  0
ENDTAB
  0
TABLE
  2
VIEW
  5
6
330
0
100
AcDbSymbolTable
 70
     0
  0
ENDTAB
  0
TABLE
  2
UCS
  5
7
330
0
100
AcDbSymbolTable
 70
     0
  0
ENDTAB
  0
TABLE
  2
APPID
  5
9
330
0
100
AcDbSymbolTable
 70
     2
  0
APPID
  5
12
330
9
100
AcDbSymbolTableRecord
100
AcDbRegAppTableRecord
  2
ACAD
 70
     0
  0
APPID
  5
15AA
330
9
100
AcDbSymbolTableRecord
100
AcDbRegAppTableRecord
  2
ACAD_EXEMPT_FROM_CAD_STANDARDS
 70
     0
  0
ENDTAB
  0
TABLE
  2
DIMSTYLE
  5
A
330
0
100
AcDbSymbolTable
 70
     1
100
AcDbDimStyleTable
 71
     1
340
2B
  0
DIMSTYLE
105
2B
330
A
100
AcDbSymbolTableRecord
100
AcDbDimStyleTableRecord
  2
Standard
 70
     0
340
11
  0
ENDTAB
  0
TABLE
  2
BLOCK_RECORD
  5
1
330
0
100
AcDbSymbolTable
 70
     6
  0
BLOCK_RECORD
  5
23
102
{ACAD_XDICTIONARY
360
15A2
102
}
330
1
100
AcDbSymbolTableRecord
100
AcDbBlockTableRecord
  2
*Model_Space
340
26
  0
BLOCK_RECORD
  5
1F
330
1
100
AcDbSymbolTableRecord
100
AcDbBlockTableRecord
  2
*Paper_Space
340
22
  0
BLOCK_RECORD
  5
27
330
1
100
AcDbSymbolTableRecord
100
AcDbBlockTableRecord
  2
*Paper_Space0
340
2A
  0
BLOCK_RECORD
  5
106E
102
{ACAD_XDICTIONARY
360
106F
102
}
330
1
100
AcDbSymbolTableRecord
100
AcDbBlockTableRecord
  2
insertpoint-ECKELT
340
0
102
{BLKREFS
331
6372
331
6497
331
662E
331
6651
102
}
  0
BLOCK_RECORD
  5
61CA
330
1
100
AcDbSymbolTableRecord
100
AcDbBlockTableRecord
  2
LW 5026-32-00_a
340
0
310
2800000020000000200000000100080000000000000400000000000000000000000000000000000000000000000080000080000000808000800000008000800080800000C0C0C000C0DCC000F0CAA6000020400000206000002080000020A0000020C0000020E00000400000004020000040400000406000004080000040A0
310
000040C0000040E00000600000006020000060400000606000006080000060A0000060C0000060E00000800000008020000080400000806000008080000080A0000080C0000080E00000A0000000A0200000A0400000A0600000A0800000A0A00000A0C00000A0E00000C0000000C0200000C0400000C0600000C0800000C0
310
A00000C0C00000C0E00000E0000000E0200000E0400000E0600000E0800000E0A00000E0C00000E0E00040000000400020004000400040006000400080004000A0004000C0004000E00040200000402020004020400040206000402080004020A0004020C0004020E000404000004040200040404000404060004040800040
310
40A0004040C0004040E00040600000406020004060400040606000406080004060A0004060C0004060E00040800000408020004080400040806000408080004080A0004080C0004080E00040A0000040A0200040A0400040A0600040A0800040A0A00040A0C00040A0E00040C0000040C0200040C0400040C0600040C08000
310
40C0A00040C0C00040C0E00040E0000040E0200040E0400040E0600040E0800040E0A00040E0C00040E0E00080000000800020008000400080006000800080008000A0008000C0008000E00080200000802020008020400080206000802080008020A0008020C0008020E00080400000804020008040400080406000804080
310
008040A0008040C0008040E00080600000806020008060400080606000806080008060A0008060C0008060E00080800000808020008080400080806000808080008080A0008080C0008080E00080A0000080A0200080A0400080A0600080A0800080A0A00080A0C00080A0E00080C0000080C0200080C0400080C0600080C0
310
800080C0A00080C0C00080C0E00080E0000080E0200080E0400080E0600080E0800080E0A00080E0C00080E0E000C0000000C0002000C0004000C0006000C0008000C000A000C000C000C000E000C0200000C0202000C0204000C0206000C0208000C020A000C020C000C020E000C0400000C0402000C0404000C0406000C0
310
408000C040A000C040C000C040E000C0600000C0602000C0604000C0606000C0608000C060A000C060C000C060E000C0800000C0802000C0804000C0806000C0808000C080A000C080C000C080E000C0A00000C0A02000C0A04000C0A06000C0A08000C0A0A000C0A0C000C0A0E000C0C00000C0C02000C0C04000C0C06000
310
C0C08000C0C0A000F0FBFF00A4A0A000808080000000FF0000FF000000FFFF00FF000000FF00FF00FFFF0000FFFFFF0000000000000000000000000000000000000000000000000000000000000000000000000000000000000000000000000000000000000000000000000000000000000000000000000000000000000000
310
00000000000000000000000000000000000000000000000000000000000000000000000000000000000000000000000000000000000000000000000000000000000000000000000000000000000000000000000000000000000000000000000000000000000000000000000000000000000000000000000000000000000000
310
00000000000000FA00000000000000000000000000000000000000000000000000000000FFFF00FA0000FF0000000000000000000000000000FA0000000000000000FFFFFFFF00FA0000FFFFFFFF0000000000000000FFFFFFFAFFFF0000000000FFFF00FFFF00FA0000FF00FFFFFF0000000000FFFFFFFF00FA00FFFFFFFF
310
FFFFFFFFFFFFFFFFFAFFFFFF00FFFFFF00000000FAFAFAFAFAFAFAFAFAFAFAFAFAFAFAFAFAFAFA090909FAFAFAFAFAFAFAFA000000FF0000FFFFFAFFFF0000000000FFFF00FFFA090900FAFA0000FFFF0000000000FFFFFFFF00FA00FFFFFFFFFFFFFFFF00FFFFFFFAFFFFFF0000FFFF00000000000000FF0000FA00FF0000
310
000000FFFF00FFFF00FA0000FF0000FFFF00000000000000FFF9F9FA00FF000000000000FFFFFFFF00FA0000FFFFFFFF0000000000000000FFF9F9FA00FF0000000000000000FFFF00FA0000FF0000000000000000000000FFF9F9FA00FF0000000000000000000000000000000000000000000000000000FF0000FA00FF00
310
00000000000000000000000000000000000000000000000000FF0000FA00FF0000000000000000000000000000000000000000000000000000FDFDFDFDFDFD00000000000000000000000000000000000000000000000000000000FAFAFF0000000000000000000000000000000000000000000000000000000000FAFAFF00
310
0000000000000000000000000000000000000000000000000000000000FA00000000000000000000000000000000000000000000000000000000000000FA00000000000000000000000000000000000000000000000000000000000000FA000000000000000000000000000000000000000000000000000000000000000000
310
00000000000000000000000000000000000000000000000000000000000000000000000000000000000000000000000000000000000000000000000000000000000000000000000000000000000000000000000000000000000000000000000000000000000000000000000000000000000000000000000000000000000000
310
0000000000000000000000000000000000000000000000000000000000000000000000000000000000000000000000000000000000000000
102
{BLKREFS
331
6376
102
}
  0
BLOCK_RECORD
  5
6377
330
1
100
AcDbSymbolTableRecord
100
AcDbBlockTableRecord
  2
LW 5026-32-00_b
340
0
310
2800000020000000200000000100080000000000000400000000000000000000000000000000000000000000000080000080000000808000800000008000800080800000C0C0C000C0DCC000F0CAA6000020400000206000002080000020A0000020C0000020E00000400000004020000040400000406000004080000040A0
310
000040C0000040E00000600000006020000060400000606000006080000060A0000060C0000060E00000800000008020000080400000806000008080000080A0000080C0000080E00000A0000000A0200000A0400000A0600000A0800000A0A00000A0C00000A0E00000C0000000C0200000C0400000C0600000C0800000C0
310
A00000C0C00000C0E00000E0000000E0200000E0400000E0600000E0800000E0A00000E0C00000E0E00040000000400020004000400040006000400080004000A0004000C0004000E00040200000402020004020400040206000402080004020A0004020C0004020E000404000004040200040404000404060004040800040
310
40A0004040C0004040E00040600000406020004060400040606000406080004060A0004060C0004060E00040800000408020004080400040806000408080004080A0004080C0004080E00040A0000040A0200040A0400040A0600040A0800040A0A00040A0C00040A0E00040C0000040C0200040C0400040C0600040C08000
310
40C0A00040C0C00040C0E00040E0000040E0200040E0400040E0600040E0800040E0A00040E0C00040E0E00080000000800020008000400080006000800080008000A0008000C0008000E00080200000802020008020400080206000802080008020A0008020C0008020E00080400000804020008040400080406000804080
310
008040A0008040C0008040E00080600000806020008060400080606000806080008060A0008060C0008060E00080800000808020008080400080806000808080008080A0008080C0008080E00080A0000080A0200080A0400080A0600080A0800080A0A00080A0C00080A0E00080C0000080C0200080C0400080C0600080C0
310
800080C0A00080C0C00080C0E00080E0000080E0200080E0400080E0600080E0800080E0A00080E0C00080E0E000C0000000C0002000C0004000C0006000C0008000C000A000C000C000C000E000C0200000C0202000C0204000C0206000C0208000C020A000C020C000C020E000C0400000C0402000C0404000C0406000C0
310
408000C040A000C040C000C040E000C0600000C0602000C0604000C0606000C0608000C060A000C060C000C060E000C0800000C0802000C0804000C0806000C0808000C080A000C080C000C080E000C0A00000C0A02000C0A04000C0A06000C0A08000C0A0A000C0A0C000C0A0E000C0C00000C0C02000C0C04000C0C06000
310
C0C08000C0C0A000F0FBFF00A4A0A000808080000000FF0000FF000000FFFF00FF000000FF00FF00FFFF0000FFFFFF0000000000000000000000000000000000000000000000000000000000000000000000000000000000000000000000000000000000000000000000000000000000000000000000000000000000000000
310
00000000000000000000000000000000000000000000000000000000000000000000000000000000000000000000000000000000000000000000000000000000000000000000000000000000000000000000000000000000000000000000000000000000000000000000000000000000000000000000000000000000000000
310
00000000000000000000000000000000000000000000000000000000000000000000000000000000000000000000000000000000000000000000000000000000000000000000000000000000000000000000000000000000000000000000000000000000000000000000000000000000000000000000000000000000000000
310
0000000000000000FA00000000000000000000000000000000000000000000000000000000FFFF00FA0000FF0000000000000000000000000000FA0000000000000000FFFFFFFF00FA0000FFFFFFFF0000000000000000000000FA00000000000000FFFFFFFFFF00FA0000FF00FFFFFF0000000000FFFFFFFFFFFAFFFFFFFF
310
FFFFFFFFFF00FFFFFFFAFFFFFF0000FFFF0000000000FF00FF0000FA00FF0000000000FFFF00FFFA000900FAFA0000FFFF00000000FAFAFAFAFAFAFAFAFAFAF9F9F9FAFAFAFAFAFA090909FAFAFAFAFAFAFAFA000000FFFFFFFF00FAFFFFFFFFFFFFFFFFFF00FFFFFFFAFFFFFF0000FFFF000000000000000000FFFA000000
310
00000000FFFFFFFFFF00FA0000FF00FFFFFF00000000000000000000FA0000000000000000FFFFFFFF00FA0000FFFFFFFF00000000000000000000000000000000000000000000FFFF00FA0000FF00000000000000000000000000000000000000000000000000000000FA0000000000000000000000000000000000000000
310
00000000000000000000000000000000000000000000000000000000000000000000000000000000000000000000000000000000000000000000000000000000000000000000000000000000000000000000000000000000000000000000000000000000000000000000000000000000000000000000000000000000000000
310
00000000000000000000000000000000000000000000000000000000000000000000000000000000000000000000000000000000000000000000000000000000000000000000000000000000000000000000000000000000000000000000000000000000000000000000000000000000000000000000000000000000000000
310
0000000000000000000000000000000000000000000000000000000000000000000000000000000000000000000000000000000000000000
102
{BLKREFS
331
649B
102
}
  0
BLOCK_RECORD
  5
649C
330
1
100
AcDbSymbolTableRecord
100
AcDbBlockTableRecord
  2
LW 5026-32-00_c
340
0
310
2800000020000000200000000100080000000000000400000000000000000000000000000000000000000000000080000080000000808000800000008000800080800000C0C0C000C0DCC000F0CAA6000020400000206000002080000020A0000020C0000020E00000400000004020000040400000406000004080000040A0
310
000040C0000040E00000600000006020000060400000606000006080000060A0000060C0000060E00000800000008020000080400000806000008080000080A0000080C0000080E00000A0000000A0200000A0400000A0600000A0800000A0A00000A0C00000A0E00000C0000000C0200000C0400000C0600000C0800000C0
310
A00000C0C00000C0E00000E0000000E0200000E0400000E0600000E0800000E0A00000E0C00000E0E00040000000400020004000400040006000400080004000A0004000C0004000E00040200000402020004020400040206000402080004020A0004020C0004020E000404000004040200040404000404060004040800040
310
40A0004040C0004040E00040600000406020004060400040606000406080004060A0004060C0004060E00040800000408020004080400040806000408080004080A0004080C0004080E00040A0000040A0200040A0400040A0600040A0800040A0A00040A0C00040A0E00040C0000040C0200040C0400040C0600040C08000
310
40C0A00040C0C00040C0E00040E0000040E0200040E0400040E0600040E0800040E0A00040E0C00040E0E00080000000800020008000400080006000800080008000A0008000C0008000E00080200000802020008020400080206000802080008020A0008020C0008020E00080400000804020008040400080406000804080
310
008040A0008040C0008040E00080600000806020008060400080606000806080008060A0008060C0008060E00080800000808020008080400080806000808080008080A0008080C0008080E00080A0000080A0200080A0400080A0600080A0800080A0A00080A0C00080A0E00080C0000080C0200080C0400080C0600080C0
310
800080C0A00080C0C00080C0E00080E0000080E0200080E0400080E0600080E0800080E0A00080E0C00080E0E000C0000000C0002000C0004000C0006000C0008000C000A000C000C000C000E000C0200000C0202000C0204000C0206000C0208000C020A000C020C000C020E000C0400000C0402000C0404000C0406000C0
310
408000C040A000C040C000C040E000C0600000C0602000C0604000C0606000C0608000C060A000C060C000C060E000C0800000C0802000C0804000C0806000C0808000C080A000C080C000C080E000C0A00000C0A02000C0A04000C0A06000C0A08000C0A0A000C0A0C000C0A0E000C0C00000C0C02000C0C04000C0C06000
310
C0C08000C0C0A000F0FBFF00A4A0A000808080000000FF0000FF000000FFFF00FF000000FF00FF00FFFF0000FFFFFF0000000000000000000000000000000000000000000000000000000000000000000000000000000000000000000000000000000000000000000000000000000000000000000000000000000000000000
310
00000000000000000000000000000000000000000000000000000000000000000000000000000000000000000000000000000000000000000000000000000000000000000000000000000000000000000000000000000000000000000000000000000000000000000000000000000000000000000000000000000000000000
310
00000000000000000000000000000000000000000000000000000000000000000000000000000000000000000000000000000000000000000000000000000000000000000000FFFFFF0000000000000000000000000000000000000000000000000000FFFFFF000000FFFAFF00000000000000000000000000000000000000
310
0000FFFF0000FFFFFAFFFDFA00FF0000000000000000000000FFFFFFFFFFFFFFFFFFFFFFFFFFFFFDFAFFFAFFFFFF0000000000000000000000FF00000000000000FD00FD00FD00FDFA00FAFD00FFFF00000000000000000000FF00000000000000FD00FDFD00FFFDFAFAFFFD00FFFF000000000000FAFAFAFAFF0000000000
310
0000FDFDFD00FFFFFFFAFFFF00FDFF00FF0000000000FFFF0000FF00000000000000FDFDFAFAFAFA0909FAFAFAFAFAFAFAFAFA0000FAFAFAFAFAFAFAFAFAFAFAFAFAFAFAFDFDFF09090900FF00FDFF00FF0000000000FAFAFAFAFF00000000000000FDFDFD00FFFFFFFAFFFF00FDFF00FF000000000000000000FF0000F9F9
310
F9F900FD00FDFD00FFFDFAFAFFFD00FFFF00000000000000000000FF0000F9F9F9F900FD00FD00FD00FDFD00FAFD00FFFF00000000000000000000FFFFFFFFFFFFFFFFFFFFFFFFFFFFFDFDFFFAFFFFFF0000000000000000000000000000000000000000FFFF0000FFFFFAFFFFFA00FF000000000000000000000000000000
310
00000000000000FFFF0000000000FAFF00000000000000000000000000000000000000000000000000FFFFFFFFFF000000000000000000000000000000000000000000000000000000000000000000000000000000000000000000000000000000000000000000000000000000000000000000000000000000000000000000
310
00000000000000000000000000000000000000000000000000000000000000000000000000000000000000000000000000000000000000000000000000000000000000000000000000000000000000000000000000000000000000000000000000000000000000000000000000000000000000000000000000000000000000
310
0000000000000000000000000000000000000000000000000000000000000000000000000000000000000000000000000000000000000000
102
{BLKREFS
331
6632
102
}
  0
BLOCK_RECORD
  5
6635
330
1
100
AcDbSymbolTableRecord
100
AcDbBlockTableRecord
  2
LW 5026-32-00_d
340
0
310
2800000020000000200000000100080000000000000400000000000000000000000000000000000000000000000080000080000000808000800000008000800080800000C0C0C000C0DCC000F0CAA6000020400000206000002080000020A0000020C0000020E00000400000004020000040400000406000004080000040A0
310
000040C0000040E00000600000006020000060400000606000006080000060A0000060C0000060E00000800000008020000080400000806000008080000080A0000080C0000080E00000A0000000A0200000A0400000A0600000A0800000A0A00000A0C00000A0E00000C0000000C0200000C0400000C0600000C0800000C0
310
A00000C0C00000C0E00000E0000000E0200000E0400000E0600000E0800000E0A00000E0C00000E0E00040000000400020004000400040006000400080004000A0004000C0004000E00040200000402020004020400040206000402080004020A0004020C0004020E000404000004040200040404000404060004040800040
310
40A0004040C0004040E00040600000406020004060400040606000406080004060A0004060C0004060E00040800000408020004080400040806000408080004080A0004080C0004080E00040A0000040A0200040A0400040A0600040A0800040A0A00040A0C00040A0E00040C0000040C0200040C0400040C0600040C08000
310
40C0A00040C0C00040C0E00040E0000040E0200040E0400040E0600040E0800040E0A00040E0C00040E0E00080000000800020008000400080006000800080008000A0008000C0008000E00080200000802020008020400080206000802080008020A0008020C0008020E00080400000804020008040400080406000804080
310
008040A0008040C0008040E00080600000806020008060400080606000806080008060A0008060C0008060E00080800000808020008080400080806000808080008080A0008080C0008080E00080A0000080A0200080A0400080A0600080A0800080A0A00080A0C00080A0E00080C0000080C0200080C0400080C0600080C0
310
800080C0A00080C0C00080C0E00080E0000080E0200080E0400080E0600080E0800080E0A00080E0C00080E0E000C0000000C0002000C0004000C0006000C0008000C000A000C000C000C000E000C0200000C0202000C0204000C0206000C0208000C020A000C020C000C020E000C0400000C0402000C0404000C0406000C0
310
408000C040A000C040C000C040E000C0600000C0602000C0604000C0606000C0608000C060A000C060C000C060E000C0800000C0802000C0804000C0806000C0808000C080A000C080C000C080E000C0A00000C0A02000C0A04000C0A06000C0A08000C0A0A000C0A0C000C0A0E000C0C00000C0C02000C0C04000C0C06000
310
C0C08000C0C0A000F0FBFF00A4A0A000808080000000FF0000FF000000FFFF00FF000000FF00FF00FFFF0000FFFFFF0000000000000000000000000000000000000000000000000000000000000000000000000000000000000000000000000000000000000000000000000000000000000000000000000000000000000000
310
000000000000000000000000000000000000000000000000000000000000FFFFFFFFFFFF000000000000000000000000000000000000000000000000FFFF000000000000FFFF0000000000000000000000000000000000000000FFFF00000000000000000000FFFF0000000000000000000000000000000000FF00FA000000
310
00FFFFFF0000000000FF000000000000000000000000000000FF000000FAFFFFFF00FA00FFFF00000000FF00000000000000000000000000FF000000FFFF00FDFFFFFA000000FFFF000000FF0000000000000000000000FF0000FFFF00FDFFFF0000FFFFFF000000FF000000FF000000000000000000FF000000FF0000FFFA
310
000000FA0000FF000000FF000000FF0000000000000000FF0000FF0000FF0000FA0000FA000000FFFF0000FF0000FF0000000000000000FF0000FF0000FF0000000000FA0000000000FF00FF0000FF00000000000000FF0000FF0000FF000000000000FA0000000000FF00FF0000FF00000000000000FF0000FF0000FF0000
310
00000000FA000000000000FF00FF0000FF00000000FAFAFFFAFAFFFAFAFFFAFAFAFAFA0909000000000000FFFDFF0000FF000000000000FF0000FF0000FF00000009090909FAFAFAFAFAFAFFFAFFFAFAFFFAFA00000000FF0000FF0000FF0000000000FA00000000000000FF00FF0000FF000000000000FF0000FF0000FF00
310
00F9F9F9F9F9F9F9000000FF0000FF0000FF00000000000000FF0000FF0000FF00F9F9F9F9F9F9F9000000FF00FF0000FF0000000000000000FF0000FF0000FF0000FA00FA0000000000FF0000FF0000FF0000000000000000FF000000FF0000FFFA0000FA000000FFFF0000FF000000FF000000000000000000FF0000FF00
310
00FDFFFF00FA00FFFF000000FF000000FF0000000000000000000000FF0000FFFFFA00FDFFFFFF00000000FF000000FF00000000000000000000000000FF000000FFFFFFFFFA000000FFFF000000FF000000000000000000000000000000FF00FA00000000FFFFFFFF00000000FF0000000000000000000000000000000000
310
FFFF00000000000000000000FFFF0000000000000000000000000000000000000000FFFF000000000000FFFF000000000000000000000000000000000000000000000000FFFFFFFFFFFF0000000000000000000000000000000000000000000000000000000000000000000000000000000000000000000000000000000000
310
0000000000000000000000000000000000000000000000000000000000000000000000000000000000000000000000000000000000000000
102
{BLKREFS
331
6658
102
}
  0
ENDTAB
  0
ENDSEC
  0
SECTION
  2
BLOCKS
  0
BLOCK
  5
24
330
23
100
AcDbEntity
  8
0
100
AcDbBlockBegin
  2
*Model_Space
 70
     0
 10
0.0
 20
0.0
 30
0.0
  3
*Model_Space
  1

  0
ENDBLK
  5
25
330
23
100
AcDbEntity
  8
0
100
AcDbBlockEnd
  0
BLOCK
  5
20
330
1F
100
AcDbEntity
 67
     1
  8
0
100
AcDbBlockBegin
  2
*Paper_Space
 70
     0
 10
0.0
 20
0.0
 30
0.0
  3
*Paper_Space
  1

  0
ENDBLK
  5
21
330
1F
100
AcDbEntity
 67
     1
  8
0
100
AcDbBlockEnd
  0
BLOCK
  5
28
330
27
100
AcDbEntity
 67
     1
  8
0
100
AcDbBlockBegin
  2
*Paper_Space0
 70
     0
 10
0.0
 20
0.0
 30
0.0
  3
*Paper_Space0
  1

  0
ENDBLK
  5
29
330
27
100
AcDbEntity
 67
     1
  8
0
100
AcDbBlockEnd
  0
BLOCK
  5
1071
330
106E
100
AcDbEntity
  8
0
100
AcDbBlockBegin
  2
insertpoint-ECKELT
 70
     2
 10
0.0
 20
0.0
 30
0.0
  3
insertpoint-ECKELT
  1

  0
ATTDEF
  5
1072
330
106E
100
AcDbEntity
  8
insertpoint_ECKELT
100
AcDbText
 10
-2.457298772169167
 20
-0.0000000000000284
 30
0.0
 40
0.6
  1
LW
 72
     2
 11
-1.199999999999999
 21
-0.0000000000000284
 31
0.0
100
AcDbAttributeDefinition
  3
Nr. links
  2
LINKS
 70
     0
  0
ATTDEF
  5
1073
330
106E
100
AcDbEntity
  8
insertpoint_ECKELT
100
AcDbText
 10
1.199999999999999
 20
-0.0000000000000284
 30
0.0
 40
0.6
  1
LW
100
AcDbAttributeDefinition
  3
Nr. rechts
  2
RECHTS
 70
     0
  0
LINE
  5
1074
102
{ACAD_REACTORS
330
1077
102
}
330
106E
100
AcDbEntity
  8
insertpoint_ECKELT
100
AcDbLine
 10
0.0
 20
1.799999999999997
 30
0.0
 11
0.0
 21
-1.799999999999997
 31
0.0
  0
LINE
  5
1075
102
{ACAD_REACTORS
330
1077
102
}
330
106E
100
AcDbEntity
  8
insertpoint_ECKELT
100
AcDbLine
 10
-1.8
 20
-0.0000000000000284
 30
0.0
 11
1.8
 21
-0.0000000000000284
 31
0.0
  0
CIRCLE
  5
1076
102
{ACAD_REACTORS
330
1077
102
}
330
106E
100
AcDbEntity
  8
insertpoint_ECKELT
100
AcDbCircle
 10
0.0
 20
0.0
 30
0.0
 40
1.199999999999999
  0
HATCH
  5
1077
330
106E
100
AcDbEntity
  8
insertpoint_ECKELT
100
AcDbHatch
 10
0.0
 20
0.0
 30
0.0
210
0.0
220
0.0
230
1.0
  2
SOLID
 70
     1
 71
     1
 91
        2
 92
        7
 72
     1
 73
     1
 93
        3
 10
0.0
 20
-0.0000000000000284
 42
0.0
 10
0.0
 20
1.200000000000002
 42
0.4142135623731013
 10
-1.199999999999999
 20
-0.0000000000000284
 42
0.0
 97
        3
330
1076
330
1075
330
1074
 92
        7
 72
     1
 73
     1
 93
        3
 10
1.199999999999999
 20
-0.0000000000000284
 42
0.0
 10
0.0
 20
-0.0000000000000284
 42
0.0
 10
0.0
 20
-1.200000000000002
 42
0.4142135623730888
 97
        3
330
1075
330
1074
330
1076
 75
     0
 76
     1
 47
0.0223086566480813
 98
        2
 10
-0.3163651093721391
 20
0.271413292077348
 10
0.7415965996738798
 20
-0.4513871917946233
450
        0
451
        0
460
0.0
461
0.0
452
        0
462
0.0
453
        0
470

  0
ENDBLK
  5
1078
330
106E
100
AcDbEntity
  8
0
100
AcDbBlockEnd
  0
BLOCK
  5
61CB
330
61CA
100
AcDbEntity
  8
0
100
AcDbBlockBegin
  2
LW 5026-32-00_a
 70
     0
 10
0.0
 20
0.0
 30
0.0
  3
LW 5026-32-00_a
  1

  0
ELLIPSE
  5
61CD
330
61CA
100
AcDbEntity
  8
LW 5026-32-00
100
AcDbEllipse
 10
37.52000000000022
 20
-9.499999999999943
 30
0.0
 11
-2.500000000000001
 21
0.000000000000225
 31
0.0
210
0.0
220
0.0
230
1.0
 40
0.8660254037844376
 41
0.7560039322268129
 42
2.385588721363197
  0
POLYLINE
  5
61CE
330
61CA
100
AcDbEntity
  8
LW 5026-32-00
100
AcDb2dPolyline
 66
     1
 10
0.0
 20
0.0
 30
0.0
 70
   128
  0
VERTEX
  5
61CF
330
61CE
100
AcDbEntity
  8
LW 5026-32-00
100
AcDbVertex
100
AcDb2dVertex
 10
40.02000000000022
 20
-12.49999999999994
 30
0.0
  0
VERTEX
  5
61D0
330
61CE
100
AcDbEntity
  8
LW 5026-32-00
100
AcDbVertex
100
AcDb2dVertex
 10
39.99898697853111
 20
-12.77545213699335
 30
0.0
  0
VERTEX
  5
61D1
330
61CE
100
AcDbEntity
  8
LW 5026-32-00
100
AcDbVertex
100
AcDb2dVertex
 10
39.93565704345725
 20
-13.05167794227594
 30
0.0
  0
VERTEX
  5
61D2
330
61CE
100
AcDbEntity
  8
LW 5026-32-00
100
AcDbVertex
100
AcDb2dVertex
 10
39.8295774650576
 20
-13.31962585449213
 30
0.0
  0
VERTEX
  5
61D3
330
61CE
100
AcDbEntity
  8
LW 5026-32-00
100
AcDbVertex
100
AcDb2dVertex
 10
39.68169476509117
 20
-13.5708856582641
 30
0.0
  0
VERTEX
  5
61D4
330
61CE
100
AcDbEntity
  8
LW 5026-32-00
100
AcDbVertex
100
AcDb2dVertex
 10
39.49847723960899
 20
-13.79940271377558
 30
0.0
  0
VERTEX
  5
61D5
330
61CE
100
AcDbEntity
  8
LW 5026-32-00
100
AcDbVertex
100
AcDb2dVertex
 10
39.28776528358482
 20
-13.99964332580561
 30
0.0
  0
VERTEX
  5
61D6
330
61CE
100
AcDbEntity
  8
LW 5026-32-00
100
AcDbVertex
100
AcDb2dVertex
 10
39.04740001678489
 20
-14.17419910430902
 30
0.0
  0
VERTEX
  5
61D7
330
61CE
100
AcDbEntity
  8
LW 5026-32-00
100
AcDbVertex
100
AcDb2dVertex
 10
38.77476121902488
 20
-14.32525992393488
 30
0.0
  0
VERTEX
  5
61D8
330
61CE
100
AcDbEntity
  8
LW 5026-32-00
100
AcDbVertex
100
AcDb2dVertex
 10
38.47699787139915
 20
-14.44669842720026
 30
0.0
  0
VERTEX
  5
61D9
330
61CE
100
AcDbEntity
  8
LW 5026-32-00
100
AcDbVertex
100
AcDb2dVertex
 10
38.1618311595919
 20
-14.53354954719538
 30
0.0
  0
VERTEX
  5
61DA
330
61CE
100
AcDbEntity
  8
LW 5026-32-00
100
AcDbVertex
100
AcDb2dVertex
 10
37.83929254531883
 20
-14.58527922630304
 30
0.0
  0
VERTEX
  5
61DB
330
61CE
100
AcDbEntity
  8
LW 5026-32-00
100
AcDbVertex
100
AcDb2dVertex
 10
37.52000000000022
 20
-14.6024060249328
 30
0.0
  0
VERTEX
  5
61DC
330
61CE
100
AcDbEntity
  8
LW 5026-32-00
100
AcDbVertex
100
AcDb2dVertex
 10
37.20070745468162
 20
-14.58527922630304
 30
0.0
  0
VERTEX
  5
61DD
330
61CE
100
AcDbEntity
  8
LW 5026-32-00
100
AcDbVertex
100
AcDb2dVertex
 10
36.87816884040855
 20
-14.53354954719538
 30
0.0
  0
VERTEX
  5
61DE
330
61CE
100
AcDbEntity
  8
LW 5026-32-00
100
AcDbVertex
100
AcDb2dVertex
 10
36.5630021286013
 20
-14.44669842720026
 30
0.0
  0
VERTEX
  5
61DF
330
61CE
100
AcDbEntity
  8
LW 5026-32-00
100
AcDbVertex
100
AcDb2dVertex
 10
36.26523878097557
 20
-14.32525992393488
 30
0.0
  0
VERTEX
  5
61E0
330
61CE
100
AcDbEntity
  8
LW 5026-32-00
100
AcDbVertex
100
AcDb2dVertex
 10
35.99259998321556
 20
-14.17419910430902
 30
0.0
  0
VERTEX
  5
61E1
330
61CE
100
AcDbEntity
  8
LW 5026-32-00
100
AcDbVertex
100
AcDb2dVertex
 10
35.75223471641563
 20
-13.99964332580561
 30
0.0
  0
VERTEX
  5
61E2
330
61CE
100
AcDbEntity
  8
LW 5026-32-00
100
AcDbVertex
100
AcDb2dVertex
 10
35.54152276039146
 20
-13.79940271377558
 30
0.0
  0
VERTEX
  5
61E3
330
61CE
100
AcDbEntity
  8
LW 5026-32-00
100
AcDbVertex
100
AcDb2dVertex
 10
35.35830523490928
 20
-13.5708856582641
 30
0.0
  0
VERTEX
  5
61E4
330
61CE
100
AcDbEntity
  8
LW 5026-32-00
100
AcDbVertex
100
AcDb2dVertex
 10
35.21042253494285
 20
-13.31962585449213
 30
0.0
  0
VERTEX
  5
61E5
330
61CE
100
AcDbEntity
  8
LW 5026-32-00
100
AcDbVertex
100
AcDb2dVertex
 10
35.10434295654319
 20
-13.05167794227594
 30
0.0
  0
VERTEX
  5
61E6
330
61CE
100
AcDbEntity
  8
LW 5026-32-00
100
AcDbVertex
100
AcDb2dVertex
 10
35.04101302146934
 20
-12.77545213699335
 30
0.0
  0
VERTEX
  5
61E7
330
61CE
100
AcDbEntity
  8
LW 5026-32-00
100
AcDbVertex
100
AcDb2dVertex
 10
35.02000000000022
 20
-12.49999999999994
 30
0.0
  0
SEQEND
  5
61E8
330
61CE
100
AcDbEntity
  8
LW 5026-32-00
  0
POLYLINE
  5
61E9
330
61CA
100
AcDbEntity
  8
LW 5026-32-00
100
AcDb2dPolyline
 66
     1
 10
0.0
 20
0.0
 30
0.0
 70
   128
  0
VERTEX
  5
61EA
330
61E9
100
AcDbEntity
  8
LW 5026-32-00
100
AcDbVertex
100
AcDb2dVertex
 10
35.02000000000022
 20
-12.49999999999994
 30
0.0
  0
VERTEX
  5
61EB
330
61E9
100
AcDbEntity
  8
LW 5026-32-00
100
AcDbVertex
100
AcDb2dVertex
 10
35.04101302146934
 20
-12.22241878509516
 30
0.0
  0
VERTEX
  5
61EC
330
61E9
100
AcDbEntity
  8
LW 5026-32-00
100
AcDbVertex
100
AcDb2dVertex
 10
35.10434295654319
 20
-11.93999171257013
 30
0.0
  0
VERTEX
  5
61ED
330
61E9
100
AcDbEntity
  8
LW 5026-32-00
100
AcDbVertex
100
AcDb2dVertex
 10
35.21042253494285
 20
-11.6620504856109
 30
0.0
  0
VERTEX
  5
61EE
330
61E9
100
AcDbEntity
  8
LW 5026-32-00
100
AcDbVertex
100
AcDb2dVertex
 10
35.35830523490928
 20
-11.39756798744196
 30
0.0
  0
VERTEX
  5
61EF
330
61E9
100
AcDbEntity
  8
LW 5026-32-00
100
AcDbVertex
100
AcDb2dVertex
 10
35.54152276039146
 20
-11.15386009216303
 30
0.0
  0
VERTEX
  5
61F0
330
61E9
100
AcDbEntity
  8
LW 5026-32-00
100
AcDbVertex
100
AcDb2dVertex
 10
35.75223471641563
 20
-10.9377777576446
 30
0.0
  0
VERTEX
  5
61F1
330
61E9
100
AcDbEntity
  8
LW 5026-32-00
100
AcDbVertex
100
AcDb2dVertex
 10
35.99259998321556
 20
-10.74736952781671
 30
0.0
  0
VERTEX
  5
61F2
330
61E9
100
AcDbEntity
  8
LW 5026-32-00
100
AcDbVertex
100
AcDb2dVertex
 10
36.26523878097557
 20
-10.58108925819391
 30
0.0
  0
VERTEX
  5
61F3
330
61E9
100
AcDbEntity
  8
LW 5026-32-00
100
AcDbVertex
100
AcDb2dVertex
 10
36.5630021286013
 20
-10.4463899135589
 30
0.0
  0
VERTEX
  5
61F4
330
61E9
100
AcDbEntity
  8
LW 5026-32-00
100
AcDbVertex
100
AcDb2dVertex
 10
36.87816884040855
 20
-10.34950613975519
 30
0.0
  0
VERTEX
  5
61F5
330
61E9
100
AcDbEntity
  8
LW 5026-32-00
100
AcDbVertex
100
AcDb2dVertex
 10
37.20070745468162
 20
-10.2915477752685
 30
0.0
  0
VERTEX
  5
61F6
330
61E9
100
AcDbEntity
  8
LW 5026-32-00
100
AcDbVertex
100
AcDb2dVertex
 10
37.52000000000022
 20
-10.2722799777984
 30
0.0
  0
VERTEX
  5
61F7
330
61E9
100
AcDbEntity
  8
LW 5026-32-00
100
AcDbVertex
100
AcDb2dVertex
 10
37.83929254531883
 20
-10.2915477752685
 30
0.0
  0
VERTEX
  5
61F8
330
61E9
100
AcDbEntity
  8
LW 5026-32-00
100
AcDbVertex
100
AcDb2dVertex
 10
38.1618311595919
 20
-10.34950613975519
 30
0.0
  0
VERTEX
  5
61F9
330
61E9
100
AcDbEntity
  8
LW 5026-32-00
100
AcDbVertex
100
AcDb2dVertex
 10
38.47699787139915
 20
-10.4463899135589
 30
0.0
  0
VERTEX
  5
61FA
330
61E9
100
AcDbEntity
  8
LW 5026-32-00
100
AcDbVertex
100
AcDb2dVertex
 10
38.77476121902488
 20
-10.58108925819391
 30
0.0
  0
VERTEX
  5
61FB
330
61E9
100
AcDbEntity
  8
LW 5026-32-00
100
AcDbVertex
100
AcDb2dVertex
 10
39.04740001678489
 20
-10.74736952781671
 30
0.0
  0
VERTEX
  5
61FC
330
61E9
100
AcDbEntity
  8
LW 5026-32-00
100
AcDbVertex
100
AcDb2dVertex
 10
39.28776528358482
 20
-10.9377777576446
 30
0.0
  0
VERTEX
  5
61FD
330
61E9
100
AcDbEntity
  8
LW 5026-32-00
100
AcDbVertex
100
AcDb2dVertex
 10
39.49847723960899
 20
-11.15386009216303
 30
0.0
  0
VERTEX
  5
61FE
330
61E9
100
AcDbEntity
  8
LW 5026-32-00
100
AcDbVertex
100
AcDb2dVertex
 10
39.68169476509117
 20
-11.39756798744196
 30
0.0
  0
VERTEX
  5
61FF
330
61E9
100
AcDbEntity
  8
LW 5026-32-00
100
AcDbVertex
100
AcDb2dVertex
 10
39.8295774650576
 20
-11.6620504856109
 30
0.0
  0
VERTEX
  5
6200
330
61E9
100
AcDbEntity
  8
LW 5026-32-00
100
AcDbVertex
100
AcDb2dVertex
 10
39.93565704345725
 20
-11.93999171257013
 30
0.0
  0
VERTEX
  5
6201
330
61E9
100
AcDbEntity
  8
LW 5026-32-00
100
AcDbVertex
100
AcDb2dVertex
 10
39.99898697853111
 20
-12.22241878509516
 30
0.0
  0
VERTEX
  5
6202
330
61E9
100
AcDbEntity
  8
LW 5026-32-00
100
AcDbVertex
100
AcDb2dVertex
 10
40.02000000000022
 20
-12.49999999999994
 30
0.0
  0
SEQEND
  5
6203
330
61E9
100
AcDbEntity
  8
LW 5026-32-00
  0
POLYLINE
  5
6204
330
61CA
100
AcDbEntity
  8
LW 5026-32-00
100
AcDb2dPolyline
 66
     1
 10
0.0
 20
0.0
 30
0.0
 70
   128
  0
VERTEX
  5
6205
330
6204
100
AcDbEntity
  8
LW 5026-32-00
100
AcDbVertex
100
AcDb2dVertex
 10
40.02000000000022
 20
25.00000000000011
 30
0.0
  0
VERTEX
  5
6206
330
6204
100
AcDbEntity
  8
LW 5026-32-00
100
AcDbVertex
100
AcDb2dVertex
 10
39.99898697853111
 20
24.99787092208874
 30
0.0
  0
VERTEX
  5
6207
330
6204
100
AcDbEntity
  8
LW 5026-32-00
100
AcDbVertex
100
AcDb2dVertex
 10
39.93565704345725
 20
24.99166965484631
 30
0.0
  0
VERTEX
  5
6208
330
6204
100
AcDbEntity
  8
LW 5026-32-00
100
AcDbVertex
100
AcDb2dVertex
 10
39.8295774650576
 20
24.98167514801037
 30
0.0
  0
VERTEX
  5
6209
330
6204
100
AcDbEntity
  8
LW 5026-32-00
100
AcDbVertex
100
AcDb2dVertex
 10
39.68169476509117
 20
24.96845483779919
 30
0.0
  0
VERTEX
  5
620A
330
6204
100
AcDbEntity
  8
LW 5026-32-00
100
AcDbVertex
100
AcDb2dVertex
 10
39.49847723960899
 20
24.95326280593884
 30
0.0
  0
VERTEX
  5
620B
330
6204
100
AcDbEntity
  8
LW 5026-32-00
100
AcDbVertex
100
AcDb2dVertex
 10
39.28776528358482
 20
24.93742227554333
 30
0.0
  0
VERTEX
  5
620C
330
6204
100
AcDbEntity
  8
LW 5026-32-00
100
AcDbVertex
100
AcDb2dVertex
 10
39.04740001678489
 20
24.92156982421886
 30
0.0
  0
VERTEX
  5
620D
330
6204
100
AcDbEntity
  8
LW 5026-32-00
100
AcDbVertex
100
AcDb2dVertex
 10
38.77476121902488
 20
24.90634918212902
 30
0.0
  0
VERTEX
  5
620E
330
6204
100
AcDbEntity
  8
LW 5026-32-00
100
AcDbVertex
100
AcDb2dVertex
 10
38.47699787139915
 20
24.89308834075939
 30
0.0
  0
VERTEX
  5
620F
330
6204
100
AcDbEntity
  8
LW 5026-32-00
100
AcDbVertex
100
AcDb2dVertex
 10
38.1618311595919
 20
24.8830556869508
 30
0.0
  0
VERTEX
  5
6210
330
6204
100
AcDbEntity
  8
LW 5026-32-00
100
AcDbVertex
100
AcDb2dVertex
 10
37.83929254531883
 20
24.87682580947887
 30
0.0
  0
VERTEX
  5
6211
330
6204
100
AcDbEntity
  8
LW 5026-32-00
100
AcDbVertex
100
AcDb2dVertex
 10
37.52000000000022
 20
24.87468481063854
 30
0.0
  0
VERTEX
  5
6212
330
6204
100
AcDbEntity
  8
LW 5026-32-00
100
AcDbVertex
100
AcDb2dVertex
 10
37.20070745468162
 20
24.87682580947887
 30
0.0
  0
VERTEX
  5
6213
330
6204
100
AcDbEntity
  8
LW 5026-32-00
100
AcDbVertex
100
AcDb2dVertex
 10
36.87816884040855
 20
24.8830556869508
 30
0.0
  0
VERTEX
  5
6214
330
6204
100
AcDbEntity
  8
LW 5026-32-00
100
AcDbVertex
100
AcDb2dVertex
 10
36.5630021286013
 20
24.89308834075939
 30
0.0
  0
VERTEX
  5
6215
330
6204
100
AcDbEntity
  8
LW 5026-32-00
100
AcDbVertex
100
AcDb2dVertex
 10
36.26523878097557
 20
24.90634918212902
 30
0.0
  0
VERTEX
  5
6216
330
6204
100
AcDbEntity
  8
LW 5026-32-00
100
AcDbVertex
100
AcDb2dVertex
 10
35.99259998321556
 20
24.92156982421886
 30
0.0
  0
VERTEX
  5
6217
330
6204
100
AcDbEntity
  8
LW 5026-32-00
100
AcDbVertex
100
AcDb2dVertex
 10
35.75223471641563
 20
24.93742227554333
 30
0.0
  0
VERTEX
  5
6218
330
6204
100
AcDbEntity
  8
LW 5026-32-00
100
AcDbVertex
100
AcDb2dVertex
 10
35.54152276039146
 20
24.95326280593884
 30
0.0
  0
VERTEX
  5
6219
330
6204
100
AcDbEntity
  8
LW 5026-32-00
100
AcDbVertex
100
AcDb2dVertex
 10
35.35830523490928
 20
24.96845483779919
 30
0.0
  0
VERTEX
  5
621A
330
6204
100
AcDbEntity
  8
LW 5026-32-00
100
AcDbVertex
100
AcDb2dVertex
 10
35.21042253494285
 20
24.98167514801037
 30
0.0
  0
VERTEX
  5
621B
330
6204
100
AcDbEntity
  8
LW 5026-32-00
100
AcDbVertex
100
AcDb2dVertex
 10
35.10434295654319
 20
24.99166965484631
 30
0.0
  0
VERTEX
  5
621C
330
6204
100
AcDbEntity
  8
LW 5026-32-00
100
AcDbVertex
100
AcDb2dVertex
 10
35.04101302146934
 20
24.99787092208874
 30
0.0
  0
VERTEX
  5
621D
330
6204
100
AcDbEntity
  8
LW 5026-32-00
100
AcDbVertex
100
AcDb2dVertex
 10
35.02000000000022
 20
25.00000000000011
 30
0.0
  0
SEQEND
  5
621E
330
6204
100
AcDbEntity
  8
LW 5026-32-00
  0
LINE
  5
621F
330
61CA
100
AcDbEntity
  8
LW 5026-32-00
100
AcDbLine
 10
41.52000000000022
 20
-24.99999999999995
 30
0.0
 11
41.52000000000022
 21
25.00000000000011
 31
0.0
  0
LINE
  5
6220
330
61CA
100
AcDbEntity
  8
LW 5026-32-00
100
AcDbLine
 10
47.52000000000022
 20
-18.99999999999989
 30
0.0
 11
47.52000000000022
 21
19.00000000000005
 31
0.0
  0
LINE
  5
6221
330
61CA
100
AcDbEntity
  8
LW 5026-32-00
100
AcDbLine
 10
22.52000000000022
 20
25.00000000000011
 30
0.0
 11
35.02000000000022
 21
25.00000000000011
 31
0.0
  0
LINE
  5
6222
330
61CA
100
AcDbEntity
  8
LW 5026-32-00
100
AcDbLine
 10
40.02000000000022
 20
25.00000000000011
 30
0.0
 11
41.52000000000022
 21
25.00000000000011
 31
0.0
  0
LINE
  5
6223
330
61CA
100
AcDbEntity
  8
LW 5026-32-00
100
AcDbLine
 10
22.52000000000022
 20
-24.99999999999995
 30
0.0
 11
41.52000000000022
 21
-24.99999999999995
 31
0.0
  0
LINE
  5
6224
330
61CA
100
AcDbEntity
  8
LW 5026-32-00
100
AcDbLine
 10
47.52000000000022
 20
-18.99999999999989
 30
0.0
 11
41.52000000000022
 21
-24.99999999999995
 31
0.0
  0
LINE
  5
6225
330
61CA
100
AcDbEntity
  8
LW 5026-32-00
100
AcDbLine
 10
47.52000000000022
 20
19.00000000000005
 30
0.0
 11
41.52000000000022
 21
25.00000000000011
 31
0.0
  0
ELLIPSE
  5
6226
330
61CA
100
AcDbEntity
  8
LW 5026-32-00
100
AcDbEllipse
 10
-37.51999999999977
 20
-9.499999999999943
 30
0.0
 11
-2.499999999999998
 21
0.0000000000002194
 31
0.0
210
0.0
220
0.0
230
1.0
 40
0.866025403784439
 41
0.7560039322268218
 42
2.385588721363197
  0
POLYLINE
  5
6227
330
61CA
100
AcDbEntity
  8
LW 5026-32-00
100
AcDb2dPolyline
 66
     1
 10
0.0
 20
0.0
 30
0.0
 70
   128
  0
VERTEX
  5
6228
330
6227
100
AcDbEntity
  8
LW 5026-32-00
100
AcDbVertex
100
AcDb2dVertex
 10
-40.01999999999976
 20
-12.49999999999994
 30
0.0
  0
VERTEX
  5
6229
330
6227
100
AcDbEntity
  8
LW 5026-32-00
100
AcDbVertex
100
AcDb2dVertex
 10
-39.99898697853065
 20
-12.22241878509516
 30
0.0
  0
VERTEX
  5
622A
330
6227
100
AcDbEntity
  8
LW 5026-32-00
100
AcDbVertex
100
AcDb2dVertex
 10
-39.9356570434568
 20
-11.93999171257013
 30
0.0
  0
VERTEX
  5
622B
330
6227
100
AcDbEntity
  8
LW 5026-32-00
100
AcDbVertex
100
AcDb2dVertex
 10
-39.82957746505714
 20
-11.6620504856109
 30
0.0
  0
VERTEX
  5
622C
330
6227
100
AcDbEntity
  8
LW 5026-32-00
100
AcDbVertex
100
AcDb2dVertex
 10
-39.68169476509071
 20
-11.39756798744196
 30
0.0
  0
VERTEX
  5
622D
330
6227
100
AcDbEntity
  8
LW 5026-32-00
100
AcDbVertex
100
AcDb2dVertex
 10
-39.49847723960854
 20
-11.15386009216303
 30
0.0
  0
VERTEX
  5
622E
330
6227
100
AcDbEntity
  8
LW 5026-32-00
100
AcDbVertex
100
AcDb2dVertex
 10
-39.28776528358437
 20
-10.9377777576446
 30
0.0
  0
VERTEX
  5
622F
330
6227
100
AcDbEntity
  8
LW 5026-32-00
100
AcDbVertex
100
AcDb2dVertex
 10
-39.04740001678444
 20
-10.74736952781671
 30
0.0
  0
VERTEX
  5
6230
330
6227
100
AcDbEntity
  8
LW 5026-32-00
100
AcDbVertex
100
AcDb2dVertex
 10
-38.77476121902443
 20
-10.58108925819391
 30
0.0
  0
VERTEX
  5
6231
330
6227
100
AcDbEntity
  8
LW 5026-32-00
100
AcDbVertex
100
AcDb2dVertex
 10
-38.4769978713987
 20
-10.4463899135589
 30
0.0
  0
VERTEX
  5
6232
330
6227
100
AcDbEntity
  8
LW 5026-32-00
100
AcDbVertex
100
AcDb2dVertex
 10
-38.16183115959145
 20
-10.34950613975519
 30
0.0
  0
VERTEX
  5
6233
330
6227
100
AcDbEntity
  8
LW 5026-32-00
100
AcDbVertex
100
AcDb2dVertex
 10
-37.83929254531837
 20
-10.2915477752685
 30
0.0
  0
VERTEX
  5
6234
330
6227
100
AcDbEntity
  8
LW 5026-32-00
100
AcDbVertex
100
AcDb2dVertex
 10
-37.51999999999977
 20
-10.2722799777984
 30
0.0
  0
VERTEX
  5
6235
330
6227
100
AcDbEntity
  8
LW 5026-32-00
100
AcDbVertex
100
AcDb2dVertex
 10
-37.20070745468117
 20
-10.2915477752685
 30
0.0
  0
VERTEX
  5
6236
330
6227
100
AcDbEntity
  8
LW 5026-32-00
100
AcDbVertex
100
AcDb2dVertex
 10
-36.8781688404081
 20
-10.34950613975519
 30
0.0
  0
VERTEX
  5
6237
330
6227
100
AcDbEntity
  8
LW 5026-32-00
100
AcDbVertex
100
AcDb2dVertex
 10
-36.56300212860084
 20
-10.4463899135589
 30
0.0
  0
VERTEX
  5
6238
330
6227
100
AcDbEntity
  8
LW 5026-32-00
100
AcDbVertex
100
AcDb2dVertex
 10
-36.26523878097511
 20
-10.58108925819391
 30
0.0
  0
VERTEX
  5
6239
330
6227
100
AcDbEntity
  8
LW 5026-32-00
100
AcDbVertex
100
AcDb2dVertex
 10
-35.9925999832151
 20
-10.74736952781671
 30
0.0
  0
VERTEX
  5
623A
330
6227
100
AcDbEntity
  8
LW 5026-32-00
100
AcDbVertex
100
AcDb2dVertex
 10
-35.75223471641518
 20
-10.9377777576446
 30
0.0
  0
VERTEX
  5
623B
330
6227
100
AcDbEntity
  8
LW 5026-32-00
100
AcDbVertex
100
AcDb2dVertex
 10
-35.54152276039101
 20
-11.15386009216303
 30
0.0
  0
VERTEX
  5
623C
330
6227
100
AcDbEntity
  8
LW 5026-32-00
100
AcDbVertex
100
AcDb2dVertex
 10
-35.35830523490883
 20
-11.39756798744196
 30
0.0
  0
VERTEX
  5
623D
330
6227
100
AcDbEntity
  8
LW 5026-32-00
100
AcDbVertex
100
AcDb2dVertex
 10
-35.2104225349424
 20
-11.6620504856109
 30
0.0
  0
VERTEX
  5
623E
330
6227
100
AcDbEntity
  8
LW 5026-32-00
100
AcDbVertex
100
AcDb2dVertex
 10
-35.10434295654274
 20
-11.93999171257013
 30
0.0
  0
VERTEX
  5
623F
330
6227
100
AcDbEntity
  8
LW 5026-32-00
100
AcDbVertex
100
AcDb2dVertex
 10
-35.04101302146889
 20
-12.22241878509516
 30
0.0
  0
VERTEX
  5
6240
330
6227
100
AcDbEntity
  8
LW 5026-32-00
100
AcDbVertex
100
AcDb2dVertex
 10
-35.01999999999977
 20
-12.49999999999994
 30
0.0
  0
SEQEND
  5
6241
330
6227
100
AcDbEntity
  8
LW 5026-32-00
  0
POLYLINE
  5
6242
330
61CA
100
AcDbEntity
  8
LW 5026-32-00
100
AcDb2dPolyline
 66
     1
 10
0.0
 20
0.0
 30
0.0
 70
   128
  0
VERTEX
  5
6243
330
6242
100
AcDbEntity
  8
LW 5026-32-00
100
AcDbVertex
100
AcDb2dVertex
 10
-35.01999999999977
 20
-12.49999999999994
 30
0.0
  0
VERTEX
  5
6244
330
6242
100
AcDbEntity
  8
LW 5026-32-00
100
AcDbVertex
100
AcDb2dVertex
 10
-35.04101302146889
 20
-12.77545213699335
 30
0.0
  0
VERTEX
  5
6245
330
6242
100
AcDbEntity
  8
LW 5026-32-00
100
AcDbVertex
100
AcDb2dVertex
 10
-35.10434295654274
 20
-13.05167794227594
 30
0.0
  0
VERTEX
  5
6246
330
6242
100
AcDbEntity
  8
LW 5026-32-00
100
AcDbVertex
100
AcDb2dVertex
 10
-35.2104225349424
 20
-13.31962585449213
 30
0.0
  0
VERTEX
  5
6247
330
6242
100
AcDbEntity
  8
LW 5026-32-00
100
AcDbVertex
100
AcDb2dVertex
 10
-35.35830523490883
 20
-13.5708856582641
 30
0.0
  0
VERTEX
  5
6248
330
6242
100
AcDbEntity
  8
LW 5026-32-00
100
AcDbVertex
100
AcDb2dVertex
 10
-35.54152276039101
 20
-13.79940271377558
 30
0.0
  0
VERTEX
  5
6249
330
6242
100
AcDbEntity
  8
LW 5026-32-00
100
AcDbVertex
100
AcDb2dVertex
 10
-35.75223471641518
 20
-13.99964332580561
 30
0.0
  0
VERTEX
  5
624A
330
6242
100
AcDbEntity
  8
LW 5026-32-00
100
AcDbVertex
100
AcDb2dVertex
 10
-35.9925999832151
 20
-14.17419910430902
 30
0.0
  0
VERTEX
  5
624B
330
6242
100
AcDbEntity
  8
LW 5026-32-00
100
AcDbVertex
100
AcDb2dVertex
 10
-36.26523878097511
 20
-14.32525992393488
 30
0.0
  0
VERTEX
  5
624C
330
6242
100
AcDbEntity
  8
LW 5026-32-00
100
AcDbVertex
100
AcDb2dVertex
 10
-36.56300212860084
 20
-14.44669842720026
 30
0.0
  0
VERTEX
  5
624D
330
6242
100
AcDbEntity
  8
LW 5026-32-00
100
AcDbVertex
100
AcDb2dVertex
 10
-36.8781688404081
 20
-14.53354954719538
 30
0.0
  0
VERTEX
  5
624E
330
6242
100
AcDbEntity
  8
LW 5026-32-00
100
AcDbVertex
100
AcDb2dVertex
 10
-37.20070745468117
 20
-14.58527922630304
 30
0.0
  0
VERTEX
  5
624F
330
6242
100
AcDbEntity
  8
LW 5026-32-00
100
AcDbVertex
100
AcDb2dVertex
 10
-37.51999999999977
 20
-14.6024060249328
 30
0.0
  0
VERTEX
  5
6250
330
6242
100
AcDbEntity
  8
LW 5026-32-00
100
AcDbVertex
100
AcDb2dVertex
 10
-37.83929254531837
 20
-14.58527922630304
 30
0.0
  0
VERTEX
  5
6251
330
6242
100
AcDbEntity
  8
LW 5026-32-00
100
AcDbVertex
100
AcDb2dVertex
 10
-38.16183115959145
 20
-14.53354954719538
 30
0.0
  0
VERTEX
  5
6252
330
6242
100
AcDbEntity
  8
LW 5026-32-00
100
AcDbVertex
100
AcDb2dVertex
 10
-38.4769978713987
 20
-14.44669842720026
 30
0.0
  0
VERTEX
  5
6253
330
6242
100
AcDbEntity
  8
LW 5026-32-00
100
AcDbVertex
100
AcDb2dVertex
 10
-38.77476121902443
 20
-14.32525992393488
 30
0.0
  0
VERTEX
  5
6254
330
6242
100
AcDbEntity
  8
LW 5026-32-00
100
AcDbVertex
100
AcDb2dVertex
 10
-39.04740001678444
 20
-14.17419910430902
 30
0.0
  0
VERTEX
  5
6255
330
6242
100
AcDbEntity
  8
LW 5026-32-00
100
AcDbVertex
100
AcDb2dVertex
 10
-39.28776528358437
 20
-13.99964332580561
 30
0.0
  0
VERTEX
  5
6256
330
6242
100
AcDbEntity
  8
LW 5026-32-00
100
AcDbVertex
100
AcDb2dVertex
 10
-39.49847723960854
 20
-13.79940271377558
 30
0.0
  0
VERTEX
  5
6257
330
6242
100
AcDbEntity
  8
LW 5026-32-00
100
AcDbVertex
100
AcDb2dVertex
 10
-39.68169476509071
 20
-13.5708856582641
 30
0.0
  0
VERTEX
  5
6258
330
6242
100
AcDbEntity
  8
LW 5026-32-00
100
AcDbVertex
100
AcDb2dVertex
 10
-39.82957746505714
 20
-13.31962585449213
 30
0.0
  0
VERTEX
  5
6259
330
6242
100
AcDbEntity
  8
LW 5026-32-00
100
AcDbVertex
100
AcDb2dVertex
 10
-39.9356570434568
 20
-13.05167794227594
 30
0.0
  0
VERTEX
  5
625A
330
6242
100
AcDbEntity
  8
LW 5026-32-00
100
AcDbVertex
100
AcDb2dVertex
 10
-39.99898697853065
 20
-12.77545213699335
 30
0.0
  0
VERTEX
  5
625B
330
6242
100
AcDbEntity
  8
LW 5026-32-00
100
AcDbVertex
100
AcDb2dVertex
 10
-40.01999999999976
 20
-12.49999999999994
 30
0.0
  0
SEQEND
  5
625C
330
6242
100
AcDbEntity
  8
LW 5026-32-00
  0
POLYLINE
  5
625D
330
61CA
100
AcDbEntity
  8
LW 5026-32-00
100
AcDb2dPolyline
 66
     1
 10
0.0
 20
0.0
 30
0.0
 70
   128
  0
VERTEX
  5
625E
330
625D
100
AcDbEntity
  8
LW 5026-32-00
100
AcDbVertex
100
AcDb2dVertex
 10
-35.01999999999977
 20
25.00000000000011
 30
0.0
  0
VERTEX
  5
625F
330
625D
100
AcDbEntity
  8
LW 5026-32-00
100
AcDbVertex
100
AcDb2dVertex
 10
-35.04101302146889
 20
24.99787092208874
 30
0.0
  0
VERTEX
  5
6260
330
625D
100
AcDbEntity
  8
LW 5026-32-00
100
AcDbVertex
100
AcDb2dVertex
 10
-35.10434295654274
 20
24.99166965484631
 30
0.0
  0
VERTEX
  5
6261
330
625D
100
AcDbEntity
  8
LW 5026-32-00
100
AcDbVertex
100
AcDb2dVertex
 10
-35.2104225349424
 20
24.98167514801037
 30
0.0
  0
VERTEX
  5
6262
330
625D
100
AcDbEntity
  8
LW 5026-32-00
100
AcDbVertex
100
AcDb2dVertex
 10
-35.35830523490883
 20
24.96845483779919
 30
0.0
  0
VERTEX
  5
6263
330
625D
100
AcDbEntity
  8
LW 5026-32-00
100
AcDbVertex
100
AcDb2dVertex
 10
-35.54152276039101
 20
24.95326280593884
 30
0.0
  0
VERTEX
  5
6264
330
625D
100
AcDbEntity
  8
LW 5026-32-00
100
AcDbVertex
100
AcDb2dVertex
 10
-35.75223471641518
 20
24.93742227554333
 30
0.0
  0
VERTEX
  5
6265
330
625D
100
AcDbEntity
  8
LW 5026-32-00
100
AcDbVertex
100
AcDb2dVertex
 10
-35.9925999832151
 20
24.92156982421886
 30
0.0
  0
VERTEX
  5
6266
330
625D
100
AcDbEntity
  8
LW 5026-32-00
100
AcDbVertex
100
AcDb2dVertex
 10
-36.26523878097511
 20
24.90634918212902
 30
0.0
  0
VERTEX
  5
6267
330
625D
100
AcDbEntity
  8
LW 5026-32-00
100
AcDbVertex
100
AcDb2dVertex
 10
-36.56300212860084
 20
24.89308834075939
 30
0.0
  0
VERTEX
  5
6268
330
625D
100
AcDbEntity
  8
LW 5026-32-00
100
AcDbVertex
100
AcDb2dVertex
 10
-36.8781688404081
 20
24.8830556869508
 30
0.0
  0
VERTEX
  5
6269
330
625D
100
AcDbEntity
  8
LW 5026-32-00
100
AcDbVertex
100
AcDb2dVertex
 10
-37.20070745468117
 20
24.87682580947887
 30
0.0
  0
VERTEX
  5
626A
330
625D
100
AcDbEntity
  8
LW 5026-32-00
100
AcDbVertex
100
AcDb2dVertex
 10
-37.51999999999977
 20
24.87468481063854
 30
0.0
  0
VERTEX
  5
626B
330
625D
100
AcDbEntity
  8
LW 5026-32-00
100
AcDbVertex
100
AcDb2dVertex
 10
-37.83929254531837
 20
24.87682580947887
 30
0.0
  0
VERTEX
  5
626C
330
625D
100
AcDbEntity
  8
LW 5026-32-00
100
AcDbVertex
100
AcDb2dVertex
 10
-38.16183115959145
 20
24.8830556869508
 30
0.0
  0
VERTEX
  5
626D
330
625D
100
AcDbEntity
  8
LW 5026-32-00
100
AcDbVertex
100
AcDb2dVertex
 10
-38.4769978713987
 20
24.89308834075939
 30
0.0
  0
VERTEX
  5
626E
330
625D
100
AcDbEntity
  8
LW 5026-32-00
100
AcDbVertex
100
AcDb2dVertex
 10
-38.77476121902443
 20
24.90634918212902
 30
0.0
  0
VERTEX
  5
626F
330
625D
100
AcDbEntity
  8
LW 5026-32-00
100
AcDbVertex
100
AcDb2dVertex
 10
-39.04740001678444
 20
24.92156982421886
 30
0.0
  0
VERTEX
  5
6270
330
625D
100
AcDbEntity
  8
LW 5026-32-00
100
AcDbVertex
100
AcDb2dVertex
 10
-39.28776528358437
 20
24.93742227554333
 30
0.0
  0
VERTEX
  5
6271
330
625D
100
AcDbEntity
  8
LW 5026-32-00
100
AcDbVertex
100
AcDb2dVertex
 10
-39.49847723960854
 20
24.95326280593884
 30
0.0
  0
VERTEX
  5
6272
330
625D
100
AcDbEntity
  8
LW 5026-32-00
100
AcDbVertex
100
AcDb2dVertex
 10
-39.68169476509071
 20
24.96845483779919
 30
0.0
  0
VERTEX
  5
6273
330
625D
100
AcDbEntity
  8
LW 5026-32-00
100
AcDbVertex
100
AcDb2dVertex
 10
-39.82957746505714
 20
24.98167514801037
 30
0.0
  0
VERTEX
  5
6274
330
625D
100
AcDbEntity
  8
LW 5026-32-00
100
AcDbVertex
100
AcDb2dVertex
 10
-39.9356570434568
 20
24.99166965484631
 30
0.0
  0
VERTEX
  5
6275
330
625D
100
AcDbEntity
  8
LW 5026-32-00
100
AcDbVertex
100
AcDb2dVertex
 10
-39.99898697853065
 20
24.99787092208874
 30
0.0
  0
VERTEX
  5
6276
330
625D
100
AcDbEntity
  8
LW 5026-32-00
100
AcDbVertex
100
AcDb2dVertex
 10
-40.01999999999976
 20
25.00000000000011
 30
0.0
  0
SEQEND
  5
6277
330
625D
100
AcDbEntity
  8
LW 5026-32-00
  0
LINE
  5
6278
330
61CA
100
AcDbEntity
  8
LW 5026-32-00
100
AcDbLine
 10
-41.51999999999977
 20
25.00000000000011
 30
0.0
 11
-41.51999999999977
 21
-24.99999999999995
 31
0.0
  0
LINE
  5
6279
330
61CA
100
AcDbEntity
  8
LW 5026-32-00
100
AcDbLine
 10
-47.51999999999976
 20
19.00000000000005
 30
0.0
 11
-47.51999999999976
 21
-18.99999999999989
 31
0.0
  0
LINE
  5
627A
330
61CA
100
AcDbEntity
  8
LW 5026-32-00
100
AcDbLine
 10
-141.52
 20
10.00000000000011
 30
0.0
 11
-141.52
 21
-9.999999999999943
 31
0.0
  0
LINE
  5
627B
330
61CA
100
AcDbEntity
  8
LW 5026-32-00
100
AcDbLine
 10
-142.52
 20
9.000000000000113
 30
0.0
 11
-142.52
 21
-8.999999999999943
 31
0.0
  0
LINE
  5
627C
330
61CA
100
AcDbEntity
  8
LW 5026-32-00
100
AcDbLine
 10
-22.51999999999977
 20
-24.99999999999995
 30
0.0
 11
-41.51999999999977
 21
-24.99999999999995
 31
0.0
  0
LINE
  5
627D
330
61CA
100
AcDbEntity
  8
LW 5026-32-00
100
AcDbLine
 10
-22.51999999999977
 20
25.00000000000011
 30
0.0
 11
-35.01999999999977
 21
25.00000000000011
 31
0.0
  0
LINE
  5
627E
330
61CA
100
AcDbEntity
  8
LW 5026-32-00
100
AcDbLine
 10
-40.01999999999976
 20
25.00000000000011
 30
0.0
 11
-41.51999999999977
 21
25.00000000000011
 31
0.0
  0
LINE
  5
627F
330
61CA
100
AcDbEntity
  8
LW 5026-32-00
100
AcDbLine
 10
-47.51999999999976
 20
19.00000000000005
 30
0.0
 11
-41.51999999999977
 21
25.00000000000011
 31
0.0
  0
LINE
  5
6280
330
61CA
100
AcDbEntity
  8
LW 5026-32-00
100
AcDbLine
 10
-47.51999999999976
 20
-18.99999999999989
 30
0.0
 11
-41.51999999999977
 21
-24.99999999999995
 31
0.0
  0
ARC
  5
6281
330
61CA
100
AcDbEntity
  8
LW 5026-32-00
100
AcDbCircle
 10
-48.52
 20
11.00000000000011
 30
0.0
 40
1.000000000000002
100
AcDbArc
 50
270.0
 51
0.0
  0
ARC
  5
6282
330
61CA
100
AcDbEntity
  8
LW 5026-32-00
100
AcDbCircle
 10
-48.52
 20
-10.99999999999994
 30
0.0
 40
1.000000000000002
100
AcDbArc
 50
0.0
 51
90.0
  0
LINE
  5
6283
330
61CA
100
AcDbEntity
  8
LW 5026-32-00
100
AcDbLine
 10
-48.52
 20
-9.999999999999943
 30
0.0
 11
-90.33558024260241
 21
-9.999999999999943
 31
0.0
  0
LINE
  5
6284
330
61CA
100
AcDbEntity
  8
LW 5026-32-00
100
AcDbLine
 10
-124.6644197573973
 20
-9.999999999999943
 30
0.0
 11
-141.52
 21
-9.999999999999943
 31
0.0
  0
LINE
  5
6285
330
61CA
100
AcDbEntity
  8
LW 5026-32-00
100
AcDbLine
 10
-48.52
 20
10.00000000000011
 30
0.0
 11
-90.33558024260241
 21
10.00000000000011
 31
0.0
  0
LINE
  5
6286
330
61CA
100
AcDbEntity
  8
LW 5026-32-00
100
AcDbLine
 10
-124.6644197573971
 20
10.00000000000011
 30
0.0
 11
-141.52
 21
10.00000000000011
 31
0.0
  0
LINE
  5
6287
330
61CA
100
AcDbEntity
  8
LW 5026-32-00
100
AcDbLine
 10
-142.52
 20
9.000000000000056
 30
0.0
 11
-141.52
 21
10.00000000000011
 31
0.0
  0
LINE
  5
6288
330
61CA
100
AcDbEntity
  8
LW 5026-32-00
100
AcDbLine
 10
-142.52
 20
-8.999999999999943
 30
0.0
 11
-141.52
 21
-9.999999999999943
 31
0.0
  0
POLYLINE
  5
6289
330
61CA
100
AcDbEntity
  8
LW 5026-32-00
100
AcDb2dPolyline
 66
     1
 10
0.0
 20
0.0
 30
0.0
 70
   128
  0
VERTEX
  5
628A
330
6289
100
AcDbEntity
  8
LW 5026-32-00
100
AcDbVertex
100
AcDb2dVertex
 10
-90.11466145515418
 20
-10.1000022888183
 30
0.0
  0
VERTEX
  5
628B
330
6289
100
AcDbEntity
  8
LW 5026-32-00
100
AcDbVertex
100
AcDb2dVertex
 10
-90.20413041114784
 20
-10.07736206054682
 30
0.0
  0
VERTEX
  5
628C
330
6289
100
AcDbEntity
  8
LW 5026-32-00
100
AcDbVertex
100
AcDb2dVertex
 10
-90.32033085823035
 20
-10.00996589660639
 30
0.0
  0
VERTEX
  5
628D
330
6289
100
AcDbEntity
  8
LW 5026-32-00
100
AcDbVertex
100
AcDb2dVertex
 10
-90.46185731887794
 20
-9.898595809936466
 30
0.0
  0
VERTEX
  5
628E
330
6289
100
AcDbEntity
  8
LW 5026-32-00
100
AcDbVertex
100
AcDb2dVertex
 10
-90.62730193138099
 20
-9.744029045104923
 30
0.0
  0
VERTEX
  5
628F
330
6289
100
AcDbEntity
  8
LW 5026-32-00
100
AcDbVertex
100
AcDb2dVertex
 10
-90.81525921821571
 20
-9.547052383422794
 30
0.0
  0
VERTEX
  5
6290
330
6289
100
AcDbEntity
  8
LW 5026-32-00
100
AcDbVertex
100
AcDb2dVertex
 10
-91.02432131767249
 20
-9.308433532714786
 30
0.0
  0
VERTEX
  5
6291
330
6289
100
AcDbEntity
  8
LW 5026-32-00
100
AcDbVertex
100
AcDb2dVertex
 10
-91.25239968299842
 20
-9.029560089111271
 30
0.0
  0
VERTEX
  5
6292
330
6289
100
AcDbEntity
  8
LW 5026-32-00
100
AcDbVertex
100
AcDb2dVertex
 10
-91.49558186531043
 20
-8.71396064758295
 30
0.0
  0
VERTEX
  5
6293
330
6289
100
AcDbEntity
  8
LW 5026-32-00
100
AcDbVertex
100
AcDb2dVertex
 10
-91.74983859062171
 20
-8.365621566772404
 30
0.0
  0
VERTEX
  5
6294
330
6289
100
AcDbEntity
  8
LW 5026-32-00
100
AcDbVertex
100
AcDb2dVertex
 10
-92.01114296913123
 20
-7.988529205322208
 30
0.0
  0
VERTEX
  5
6295
330
6289
100
AcDbEntity
  8
LW 5026-32-00
100
AcDbVertex
100
AcDb2dVertex
 10
-92.27546930313087
 20
-7.586660385131779
 30
0.0
  0
VERTEX
  5
6296
330
6289
100
AcDbEntity
  8
LW 5026-32-00
100
AcDbVertex
100
AcDb2dVertex
 10
-92.53879070281959
 20
-7.164006233215275
 30
0.0
  0
VERTEX
  5
6297
330
6289
100
AcDbEntity
  8
LW 5026-32-00
100
AcDbVertex
100
AcDb2dVertex
 10
-92.80210256576514
 20
-6.716151237487736
 30
0.0
  0
VERTEX
  5
6298
330
6289
100
AcDbEntity
  8
LW 5026-32-00
100
AcDbVertex
100
AcDb2dVertex
 10
-93.06862115859962
 20
-6.232929229736271
 30
0.0
  0
VERTEX
  5
6299
330
6289
100
AcDbEntity
  8
LW 5026-32-00
100
AcDbVertex
100
AcDb2dVertex
 10
-93.33308696746803
 20
-5.716900825500431
 30
0.0
  0
VERTEX
  5
629A
330
6289
100
AcDbEntity
  8
LW 5026-32-00
100
AcDbVertex
100
AcDb2dVertex
 10
-93.5901319980619
 20
-5.170793533325138
 30
0.0
  0
VERTEX
  5
629B
330
6289
100
AcDbEntity
  8
LW 5026-32-00
100
AcDbVertex
100
AcDb2dVertex
 10
-93.83438706397987
 20
-4.597344398498478
 30
0.0
  0
VERTEX
  5
629C
330
6289
100
AcDbEntity
  8
LW 5026-32-00
100
AcDbVertex
100
AcDb2dVertex
 10
-94.06048536300636
 20
-3.999280929565372
 30
0.0
  0
VERTEX
  5
629D
330
6289
100
AcDbEntity
  8
LW 5026-32-00
100
AcDbVertex
100
AcDb2dVertex
 10
-94.26292777061439
 20
-3.379426002502384
 30
0.0
  0
VERTEX
  5
629E
330
6289
100
AcDbEntity
  8
LW 5026-32-00
100
AcDbVertex
100
AcDb2dVertex
 10
-94.43658947944618
 20
-2.74159908294672
 30
0.0
  0
VERTEX
  5
629F
330
6289
100
AcDbEntity
  8
LW 5026-32-00
100
AcDbVertex
100
AcDb2dVertex
 10
-94.57674741744972
 20
-2.090067863464298
 30
0.0
  0
VERTEX
  5
62A0
330
6289
100
AcDbEntity
  8
LW 5026-32-00
100
AcDbVertex
100
AcDb2dVertex
 10
-94.678997993469
 20
-1.429209709167423
 30
0.0
  0
VERTEX
  5
62A1
330
6289
100
AcDbEntity
  8
LW 5026-32-00
100
AcDbVertex
100
AcDb2dVertex
 10
-94.74124193191505
 20
-0.7640886306762127
 30
0.0
  0
VERTEX
  5
62A2
330
6289
100
AcDbEntity
  8
LW 5026-32-00
100
AcDbVertex
100
AcDb2dVertex
 10
-94.76226091384864
 20
-0.1000022888183025
 30
0.0
  0
SEQEND
  5
62A3
330
6289
100
AcDbEntity
  8
LW 5026-32-00
  0
POLYLINE
  5
62A4
330
61CA
100
AcDbEntity
  8
LW 5026-32-00
100
AcDb2dPolyline
 66
     1
 10
0.0
 20
0.0
 30
0.0
 70
   128
  0
VERTEX
  5
62A5
330
62A4
100
AcDbEntity
  8
LW 5026-32-00
100
AcDbVertex
100
AcDb2dVertex
 10
-120.2377390861508
 20
-0.1000022888183025
 30
0.0
  0
VERTEX
  5
62A6
330
62A4
100
AcDbEntity
  8
LW 5026-32-00
100
AcDbVertex
100
AcDb2dVertex
 10
-120.2587580680845
 20
-0.7640886306762127
 30
0.0
  0
VERTEX
  5
62A7
330
62A4
100
AcDbEntity
  8
LW 5026-32-00
100
AcDbVertex
100
AcDb2dVertex
 10
-120.3210020065305
 20
-1.429209709167423
 30
0.0
  0
VERTEX
  5
62A8
330
62A4
100
AcDbEntity
  8
LW 5026-32-00
100
AcDbVertex
100
AcDb2dVertex
 10
-120.4232525825498
 20
-2.090067863464298
 30
0.0
  0
VERTEX
  5
62A9
330
62A4
100
AcDbEntity
  8
LW 5026-32-00
100
AcDbVertex
100
AcDb2dVertex
 10
-120.5634105205533
 20
-2.74159908294672
 30
0.0
  0
VERTEX
  5
62AA
330
62A4
100
AcDbEntity
  8
LW 5026-32-00
100
AcDbVertex
100
AcDb2dVertex
 10
-120.7370722293851
 20
-3.379426002502384
 30
0.0
  0
VERTEX
  5
62AB
330
62A4
100
AcDbEntity
  8
LW 5026-32-00
100
AcDbVertex
100
AcDb2dVertex
 10
-120.9395146369931
 20
-3.999280929565372
 30
0.0
  0
VERTEX
  5
62AC
330
62A4
100
AcDbEntity
  8
LW 5026-32-00
100
AcDbVertex
100
AcDb2dVertex
 10
-121.1656129360196
 20
-4.597344398498478
 30
0.0
  0
VERTEX
  5
62AD
330
62A4
100
AcDbEntity
  8
LW 5026-32-00
100
AcDbVertex
100
AcDb2dVertex
 10
-121.4098680019376
 20
-5.170793533325138
 30
0.0
  0
VERTEX
  5
62AE
330
62A4
100
AcDbEntity
  8
LW 5026-32-00
100
AcDbVertex
100
AcDb2dVertex
 10
-121.6669130325315
 20
-5.716900825500431
 30
0.0
  0
VERTEX
  5
62AF
330
62A4
100
AcDbEntity
  8
LW 5026-32-00
100
AcDbVertex
100
AcDb2dVertex
 10
-121.9313788413999
 20
-6.232929229736271
 30
0.0
  0
VERTEX
  5
62B0
330
62A4
100
AcDbEntity
  8
LW 5026-32-00
100
AcDbVertex
100
AcDb2dVertex
 10
-122.1978974342343
 20
-6.716151237487736
 30
0.0
  0
VERTEX
  5
62B1
330
62A4
100
AcDbEntity
  8
LW 5026-32-00
100
AcDbVertex
100
AcDb2dVertex
 10
-122.4612092971799
 20
-7.164006233215275
 30
0.0
  0
VERTEX
  5
62B2
330
62A4
100
AcDbEntity
  8
LW 5026-32-00
100
AcDbVertex
100
AcDb2dVertex
 10
-122.7245306968686
 20
-7.586660385131779
 30
0.0
  0
VERTEX
  5
62B3
330
62A4
100
AcDbEntity
  8
LW 5026-32-00
100
AcDbVertex
100
AcDb2dVertex
 10
-122.9888570308683
 20
-7.988529205322208
 30
0.0
  0
VERTEX
  5
62B4
330
62A4
100
AcDbEntity
  8
LW 5026-32-00
100
AcDbVertex
100
AcDb2dVertex
 10
-123.2501614093778
 20
-8.365621566772404
 30
0.0
  0
VERTEX
  5
62B5
330
62A4
100
AcDbEntity
  8
LW 5026-32-00
100
AcDbVertex
100
AcDb2dVertex
 10
-123.5044181346891
 20
-8.71396064758295
 30
0.0
  0
VERTEX
  5
62B6
330
62A4
100
AcDbEntity
  8
LW 5026-32-00
100
AcDbVertex
100
AcDb2dVertex
 10
-123.7476003170011
 20
-9.029560089111271
 30
0.0
  0
VERTEX
  5
62B7
330
62A4
100
AcDbEntity
  8
LW 5026-32-00
100
AcDbVertex
100
AcDb2dVertex
 10
-123.975678682327
 20
-9.308433532714786
 30
0.0
  0
VERTEX
  5
62B8
330
62A4
100
AcDbEntity
  8
LW 5026-32-00
100
AcDbVertex
100
AcDb2dVertex
 10
-124.1847407817838
 20
-9.547052383422794
 30
0.0
  0
VERTEX
  5
62B9
330
62A4
100
AcDbEntity
  8
LW 5026-32-00
100
AcDbVertex
100
AcDb2dVertex
 10
-124.3726980686185
 20
-9.744029045104923
 30
0.0
  0
VERTEX
  5
62BA
330
62A4
100
AcDbEntity
  8
LW 5026-32-00
100
AcDbVertex
100
AcDb2dVertex
 10
-124.5381426811215
 20
-9.898595809936466
 30
0.0
  0
VERTEX
  5
62BB
330
62A4
100
AcDbEntity
  8
LW 5026-32-00
100
AcDbVertex
100
AcDb2dVertex
 10
-124.6796691417692
 20
-10.00996589660639
 30
0.0
  0
VERTEX
  5
62BC
330
62A4
100
AcDbEntity
  8
LW 5026-32-00
100
AcDbVertex
100
AcDb2dVertex
 10
-124.7958695888517
 20
-10.07736206054682
 30
0.0
  0
VERTEX
  5
62BD
330
62A4
100
AcDbEntity
  8
LW 5026-32-00
100
AcDbVertex
100
AcDb2dVertex
 10
-124.8853385448453
 20
-10.1000022888183
 30
0.0
  0
SEQEND
  5
62BE
330
62A4
100
AcDbEntity
  8
LW 5026-32-00
  0
LINE
  5
62BF
330
61CA
100
AcDbEntity
  8
LW 5026-32-00
100
AcDbLine
 10
-94.76226079714272
 20
-0.0999999999999659
 30
0.0
 11
-94.76226079714272
 21
0.1000000000000796
 31
0.0
  0
POLYLINE
  5
62C0
330
61CA
100
AcDbEntity
  8
LW 5026-32-00
100
AcDb2dPolyline
 66
     1
 10
0.0
 20
0.0
 30
0.0
 70
   128
  0
VERTEX
  5
62C1
330
62C0
100
AcDbEntity
  8
LW 5026-32-00
100
AcDbVertex
100
AcDb2dVertex
 10
-124.8853385448453
 20
10.10000228881847
 30
0.0
  0
VERTEX
  5
62C2
330
62C0
100
AcDbEntity
  8
LW 5026-32-00
100
AcDbVertex
100
AcDb2dVertex
 10
-124.7958695888517
 20
10.07736206054699
 30
0.0
  0
VERTEX
  5
62C3
330
62C0
100
AcDbEntity
  8
LW 5026-32-00
100
AcDbVertex
100
AcDb2dVertex
 10
-124.6796691417692
 20
10.00996589660656
 30
0.0
  0
VERTEX
  5
62C4
330
62C0
100
AcDbEntity
  8
LW 5026-32-00
100
AcDbVertex
100
AcDb2dVertex
 10
-124.5381426811215
 20
9.898595809936637
 30
0.0
  0
VERTEX
  5
62C5
330
62C0
100
AcDbEntity
  8
LW 5026-32-00
100
AcDbVertex
100
AcDb2dVertex
 10
-124.3726980686185
 20
9.744029045105094
 30
0.0
  0
VERTEX
  5
62C6
330
62C0
100
AcDbEntity
  8
LW 5026-32-00
100
AcDbVertex
100
AcDb2dVertex
 10
-124.1847407817838
 20
9.547052383422965
 30
0.0
  0
VERTEX
  5
62C7
330
62C0
100
AcDbEntity
  8
LW 5026-32-00
100
AcDbVertex
100
AcDb2dVertex
 10
-123.975678682327
 20
9.308433532714957
 30
0.0
  0
VERTEX
  5
62C8
330
62C0
100
AcDbEntity
  8
LW 5026-32-00
100
AcDbVertex
100
AcDb2dVertex
 10
-123.7476003170011
 20
9.029560089111441
 30
0.0
  0
VERTEX
  5
62C9
330
62C0
100
AcDbEntity
  8
LW 5026-32-00
100
AcDbVertex
100
AcDb2dVertex
 10
-123.5044181346891
 20
8.713960647583121
 30
0.0
  0
VERTEX
  5
62CA
330
62C0
100
AcDbEntity
  8
LW 5026-32-00
100
AcDbVertex
100
AcDb2dVertex
 10
-123.2501614093778
 20
8.365621566772574
 30
0.0
  0
VERTEX
  5
62CB
330
62C0
100
AcDbEntity
  8
LW 5026-32-00
100
AcDbVertex
100
AcDb2dVertex
 10
-122.9888570308683
 20
7.988529205322379
 30
0.0
  0
VERTEX
  5
62CC
330
62C0
100
AcDbEntity
  8
LW 5026-32-00
100
AcDbVertex
100
AcDb2dVertex
 10
-122.7245306968686
 20
7.586660385131949
 30
0.0
  0
VERTEX
  5
62CD
330
62C0
100
AcDbEntity
  8
LW 5026-32-00
100
AcDbVertex
100
AcDb2dVertex
 10
-122.4612092971799
 20
7.164006233215445
 30
0.0
  0
VERTEX
  5
62CE
330
62C0
100
AcDbEntity
  8
LW 5026-32-00
100
AcDbVertex
100
AcDb2dVertex
 10
-122.1978974342343
 20
6.716151237487906
 30
0.0
  0
VERTEX
  5
62CF
330
62C0
100
AcDbEntity
  8
LW 5026-32-00
100
AcDbVertex
100
AcDb2dVertex
 10
-121.9313788413999
 20
6.232929229736441
 30
0.0
  0
VERTEX
  5
62D0
330
62C0
100
AcDbEntity
  8
LW 5026-32-00
100
AcDbVertex
100
AcDb2dVertex
 10
-121.6669130325315
 20
5.716900825500601
 30
0.0
  0
VERTEX
  5
62D1
330
62C0
100
AcDbEntity
  8
LW 5026-32-00
100
AcDbVertex
100
AcDb2dVertex
 10
-121.4098680019376
 20
5.170793533325308
 30
0.0
  0
VERTEX
  5
62D2
330
62C0
100
AcDbEntity
  8
LW 5026-32-00
100
AcDbVertex
100
AcDb2dVertex
 10
-121.1656129360196
 20
4.597344398498648
 30
0.0
  0
VERTEX
  5
62D3
330
62C0
100
AcDbEntity
  8
LW 5026-32-00
100
AcDbVertex
100
AcDb2dVertex
 10
-120.9395146369931
 20
3.999280929565543
 30
0.0
  0
VERTEX
  5
62D4
330
62C0
100
AcDbEntity
  8
LW 5026-32-00
100
AcDbVertex
100
AcDb2dVertex
 10
-120.7370722293851
 20
3.379426002502555
 30
0.0
  0
VERTEX
  5
62D5
330
62C0
100
AcDbEntity
  8
LW 5026-32-00
100
AcDbVertex
100
AcDb2dVertex
 10
-120.5634105205533
 20
2.741599082946891
 30
0.0
  0
VERTEX
  5
62D6
330
62C0
100
AcDbEntity
  8
LW 5026-32-00
100
AcDbVertex
100
AcDb2dVertex
 10
-120.4232525825498
 20
2.090067863464469
 30
0.0
  0
VERTEX
  5
62D7
330
62C0
100
AcDbEntity
  8
LW 5026-32-00
100
AcDbVertex
100
AcDb2dVertex
 10
-120.3210020065305
 20
1.429209709167594
 30
0.0
  0
VERTEX
  5
62D8
330
62C0
100
AcDbEntity
  8
LW 5026-32-00
100
AcDbVertex
100
AcDb2dVertex
 10
-120.2587580680845
 20
0.7640886306763264
 30
0.0
  0
VERTEX
  5
62D9
330
62C0
100
AcDbEntity
  8
LW 5026-32-00
100
AcDbVertex
100
AcDb2dVertex
 10
-120.2377390861508
 20
0.1000022888184162
 30
0.0
  0
SEQEND
  5
62DA
330
62C0
100
AcDbEntity
  8
LW 5026-32-00
  0
POLYLINE
  5
62DB
330
61CA
100
AcDbEntity
  8
LW 5026-32-00
100
AcDb2dPolyline
 66
     1
 10
0.0
 20
0.0
 30
0.0
 70
   128
  0
VERTEX
  5
62DC
330
62DB
100
AcDbEntity
  8
LW 5026-32-00
100
AcDbVertex
100
AcDb2dVertex
 10
-94.76226091384864
 20
0.1000022888184162
 30
0.0
  0
VERTEX
  5
62DD
330
62DB
100
AcDbEntity
  8
LW 5026-32-00
100
AcDbVertex
100
AcDb2dVertex
 10
-94.74124193191505
 20
0.7640886306763264
 30
0.0
  0
VERTEX
  5
62DE
330
62DB
100
AcDbEntity
  8
LW 5026-32-00
100
AcDbVertex
100
AcDb2dVertex
 10
-94.678997993469
 20
1.429209709167594
 30
0.0
  0
VERTEX
  5
62DF
330
62DB
100
AcDbEntity
  8
LW 5026-32-00
100
AcDbVertex
100
AcDb2dVertex
 10
-94.57674741744972
 20
2.090067863464469
 30
0.0
  0
VERTEX
  5
62E0
330
62DB
100
AcDbEntity
  8
LW 5026-32-00
100
AcDbVertex
100
AcDb2dVertex
 10
-94.43658947944618
 20
2.741599082946891
 30
0.0
  0
VERTEX
  5
62E1
330
62DB
100
AcDbEntity
  8
LW 5026-32-00
100
AcDbVertex
100
AcDb2dVertex
 10
-94.26292777061439
 20
3.379426002502555
 30
0.0
  0
VERTEX
  5
62E2
330
62DB
100
AcDbEntity
  8
LW 5026-32-00
100
AcDbVertex
100
AcDb2dVertex
 10
-94.06048536300636
 20
3.999280929565543
 30
0.0
  0
VERTEX
  5
62E3
330
62DB
100
AcDbEntity
  8
LW 5026-32-00
100
AcDbVertex
100
AcDb2dVertex
 10
-93.83438706397987
 20
4.597344398498648
 30
0.0
  0
VERTEX
  5
62E4
330
62DB
100
AcDbEntity
  8
LW 5026-32-00
100
AcDbVertex
100
AcDb2dVertex
 10
-93.5901319980619
 20
5.170793533325308
 30
0.0
  0
VERTEX
  5
62E5
330
62DB
100
AcDbEntity
  8
LW 5026-32-00
100
AcDbVertex
100
AcDb2dVertex
 10
-93.33308696746803
 20
5.716900825500601
 30
0.0
  0
VERTEX
  5
62E6
330
62DB
100
AcDbEntity
  8
LW 5026-32-00
100
AcDbVertex
100
AcDb2dVertex
 10
-93.06862115859962
 20
6.232929229736441
 30
0.0
  0
VERTEX
  5
62E7
330
62DB
100
AcDbEntity
  8
LW 5026-32-00
100
AcDbVertex
100
AcDb2dVertex
 10
-92.80210256576514
 20
6.716151237487906
 30
0.0
  0
VERTEX
  5
62E8
330
62DB
100
AcDbEntity
  8
LW 5026-32-00
100
AcDbVertex
100
AcDb2dVertex
 10
-92.53879070281959
 20
7.164006233215445
 30
0.0
  0
VERTEX
  5
62E9
330
62DB
100
AcDbEntity
  8
LW 5026-32-00
100
AcDbVertex
100
AcDb2dVertex
 10
-92.27546930313087
 20
7.586660385131949
 30
0.0
  0
VERTEX
  5
62EA
330
62DB
100
AcDbEntity
  8
LW 5026-32-00
100
AcDbVertex
100
AcDb2dVertex
 10
-92.01114296913123
 20
7.988529205322379
 30
0.0
  0
VERTEX
  5
62EB
330
62DB
100
AcDbEntity
  8
LW 5026-32-00
100
AcDbVertex
100
AcDb2dVertex
 10
-91.74983859062171
 20
8.365621566772574
 30
0.0
  0
VERTEX
  5
62EC
330
62DB
100
AcDbEntity
  8
LW 5026-32-00
100
AcDbVertex
100
AcDb2dVertex
 10
-91.49558186531043
 20
8.713960647583121
 30
0.0
  0
VERTEX
  5
62ED
330
62DB
100
AcDbEntity
  8
LW 5026-32-00
100
AcDbVertex
100
AcDb2dVertex
 10
-91.25239968299842
 20
9.029560089111441
 30
0.0
  0
VERTEX
  5
62EE
330
62DB
100
AcDbEntity
  8
LW 5026-32-00
100
AcDbVertex
100
AcDb2dVertex
 10
-91.02432131767249
 20
9.308433532714957
 30
0.0
  0
VERTEX
  5
62EF
330
62DB
100
AcDbEntity
  8
LW 5026-32-00
100
AcDbVertex
100
AcDb2dVertex
 10
-90.81525921821571
 20
9.547052383422965
 30
0.0
  0
VERTEX
  5
62F0
330
62DB
100
AcDbEntity
  8
LW 5026-32-00
100
AcDbVertex
100
AcDb2dVertex
 10
-90.62730193138099
 20
9.744029045105094
 30
0.0
  0
VERTEX
  5
62F1
330
62DB
100
AcDbEntity
  8
LW 5026-32-00
100
AcDbVertex
100
AcDb2dVertex
 10
-90.46185731887794
 20
9.898595809936637
 30
0.0
  0
VERTEX
  5
62F2
330
62DB
100
AcDbEntity
  8
LW 5026-32-00
100
AcDbVertex
100
AcDb2dVertex
 10
-90.32033085823035
 20
10.00996589660656
 30
0.0
  0
VERTEX
  5
62F3
330
62DB
100
AcDbEntity
  8
LW 5026-32-00
100
AcDbVertex
100
AcDb2dVertex
 10
-90.20413041114784
 20
10.07736206054699
 30
0.0
  0
VERTEX
  5
62F4
330
62DB
100
AcDbEntity
  8
LW 5026-32-00
100
AcDbVertex
100
AcDb2dVertex
 10
-90.11466145515418
 20
10.10000228881847
 30
0.0
  0
SEQEND
  5
62F5
330
62DB
100
AcDbEntity
  8
LW 5026-32-00
  0
LINE
  5
62F6
330
61CA
100
AcDbEntity
  8
LW 5026-32-00
100
AcDbLine
 10
-120.2377392028568
 20
0.1000000000000796
 30
0.0
 11
-120.2377392028568
 21
-0.0999999999999659
 31
0.0
  0
LINE
  5
62F7
330
61CA
100
AcDbEntity
  8
LW 5026-32-00
100
AcDbLine
 10
-90.11466134928603
 20
-10.09999999999996
 30
0.0
 11
-89.99999999999976
 21
-10.09999999999996
 31
0.0
  0
LINE
  5
62F8
330
61CA
100
AcDbEntity
  8
LW 5026-32-00
100
AcDbLine
 10
-124.9999999999997
 20
-10.09999999999996
 30
0.0
 11
-124.8853386507134
 21
-10.09999999999996
 31
0.0
  0
LINE
  5
62F9
330
61CA
100
AcDbEntity
  8
LW 5026-32-00
100
AcDbLine
 10
-89.99999999999976
 20
10.10000000000008
 30
0.0
 11
-90.11466134928603
 21
10.10000000000008
 31
0.0
  0
LINE
  5
62FA
330
61CA
100
AcDbEntity
  8
LW 5026-32-00
100
AcDbLine
 10
-124.8853386507134
 20
10.10000000000008
 30
0.0
 11
-124.9999999999997
 21
10.10000000000008
 31
0.0
  0
LINE
  5
62FB
330
61CA
100
AcDbEntity
  8
LW 5026-32-00
100
AcDbLine
 10
-124.9999999999997
 20
60.87500000000005
 30
0.0
 11
-89.99999999999976
 21
60.87500000000005
 31
0.0
  0
LINE
  5
62FC
330
61CA
100
AcDbEntity
  8
LW 5026-32-00
100
AcDbLine
 10
-123.4999999999997
 20
-19.99999999999994
 30
0.0
 11
-91.49999999999975
 21
-19.99999999999994
 31
0.0
  0
LINE
  5
62FD
330
61CA
100
AcDbEntity
  8
LW 5026-32-00
100
AcDbLine
 10
-89.99999999999976
 20
60.87500000000005
 30
0.0
 11
-89.99999999999976
 21
10.10000000000008
 31
0.0
  0
LINE
  5
62FE
330
61CA
100
AcDbEntity
  8
LW 5026-32-00
100
AcDbLine
 10
-89.99999999999976
 20
-10.09999999999996
 30
0.0
 11
-89.99999999999976
 21
-18.49999999999994
 31
0.0
  0
LINE
  5
62FF
330
61CA
100
AcDbEntity
  8
LW 5026-32-00
100
AcDbLine
 10
-124.9999999999997
 20
60.87500000000005
 30
0.0
 11
-124.9999999999997
 21
10.10000000000008
 31
0.0
  0
LINE
  5
6300
330
61CA
100
AcDbEntity
  8
LW 5026-32-00
100
AcDbLine
 10
-124.9999999999997
 20
-10.09999999999996
 30
0.0
 11
-124.9999999999997
 21
-18.49999999999994
 31
0.0
  0
ARC
  5
6301
330
61CA
100
AcDbEntity
  8
LW 5026-32-00
100
AcDbCircle
 10
-123.4999999999997
 20
-18.49999999999994
 30
0.0
 40
1.500000000000012
100
AcDbArc
 50
180.0
 51
270.0
  0
ARC
  5
6302
330
61CA
100
AcDbEntity
  8
LW 5026-32-00
100
AcDbCircle
 10
-91.49999999999975
 20
-18.49999999999994
 30
0.0
 40
1.500000000000012
100
AcDbArc
 50
270.0
 51
0.0
  0
POLYLINE
  5
6303
330
61CA
100
AcDbEntity
  8
LW 5026-32-00
100
AcDb2dPolyline
 66
     1
 10
0.0
 20
0.0
 30
0.0
 70
   128
  0
VERTEX
  5
6304
330
6303
100
AcDbEntity
  8
LW 5026-32-00
100
AcDbVertex
100
AcDb2dVertex
 10
-109.4892890751359
 20
-2.245292663574161
 30
0.0
  0
VERTEX
  5
6305
330
6303
100
AcDbEntity
  8
LW 5026-32-00
100
AcDbVertex
100
AcDb2dVertex
 10
-109.352521151304
 20
-2.358942031860294
 30
0.0
  0
VERTEX
  5
6306
330
6303
100
AcDbEntity
  8
LW 5026-32-00
100
AcDbVertex
100
AcDb2dVertex
 10
-109.2074277997014
 20
-2.465748786926212
 30
0.0
  0
VERTEX
  5
6307
330
6303
100
AcDbEntity
  8
LW 5026-32-00
100
AcDbVertex
100
AcDb2dVertex
 10
-109.0548388659951
 20
-2.564802169799747
 30
0.0
  0
VERTEX
  5
6308
330
6303
100
AcDbEntity
  8
LW 5026-32-00
100
AcDbVertex
100
AcDb2dVertex
 10
-108.895584195852
 20
-2.655181884765568
 30
0.0
  0
VERTEX
  5
6309
330
6303
100
AcDbEntity
  8
LW 5026-32-00
100
AcDbVertex
100
AcDb2dVertex
 10
-108.7304932624099
 20
-2.735972404479923
 30
0.0
  0
VERTEX
  5
630A
330
6303
100
AcDbEntity
  8
LW 5026-32-00
100
AcDbVertex
100
AcDb2dVertex
 10
-108.5604043304918
 20
-2.806267738342228
 30
0.0
  0
VERTEX
  5
630B
330
6303
100
AcDbEntity
  8
LW 5026-32-00
100
AcDbVertex
100
AcDb2dVertex
 10
-108.3863525837657
 20
-2.865643501281681
 30
0.0
  0
VERTEX
  5
630C
330
6303
100
AcDbEntity
  8
LW 5026-32-00
100
AcDbVertex
100
AcDb2dVertex
 10
-108.2095715403554
 20
-2.914128303527775
 30
0.0
  0
VERTEX
  5
630D
330
6303
100
AcDbEntity
  8
LW 5026-32-00
100
AcDbVertex
100
AcDb2dVertex
 10
-108.0313034728167
 20
-2.951765060424747
 30
0.0
  0
VERTEX
  5
630E
330
6303
100
AcDbEntity
  8
LW 5026-32-00
100
AcDbVertex
100
AcDb2dVertex
 10
-107.8527906909582
 20
-2.978591918945255
 30
0.0
  0
VERTEX
  5
630F
330
6303
100
AcDbEntity
  8
LW 5026-32-00
100
AcDbVertex
100
AcDb2dVertex
 10
-107.675275430083
 20
-2.994656562805118
 30
0.0
  0
VERTEX
  5
6310
330
6303
100
AcDbEntity
  8
LW 5026-32-00
100
AcDbVertex
100
AcDb2dVertex
 10
-107.4999999999997
 20
-3.000001907348575
 30
0.0
  0
VERTEX
  5
6311
330
6303
100
AcDbEntity
  8
LW 5026-32-00
100
AcDbVertex
100
AcDb2dVertex
 10
-107.3247245699165
 20
-2.994656562805118
 30
0.0
  0
VERTEX
  5
6312
330
6303
100
AcDbEntity
  8
LW 5026-32-00
100
AcDbVertex
100
AcDb2dVertex
 10
-107.1472093090412
 20
-2.978591918945255
 30
0.0
  0
VERTEX
  5
6313
330
6303
100
AcDbEntity
  8
LW 5026-32-00
100
AcDbVertex
100
AcDb2dVertex
 10
-106.9686965271828
 20
-2.951765060424747
 30
0.0
  0
VERTEX
  5
6314
330
6303
100
AcDbEntity
  8
LW 5026-32-00
100
AcDbVertex
100
AcDb2dVertex
 10
-106.7904284596441
 20
-2.914128303527775
 30
0.0
  0
VERTEX
  5
6315
330
6303
100
AcDbEntity
  8
LW 5026-32-00
100
AcDbVertex
100
AcDb2dVertex
 10
-106.6136474162338
 20
-2.865643501281681
 30
0.0
  0
VERTEX
  5
6316
330
6303
100
AcDbEntity
  8
LW 5026-32-00
100
AcDbVertex
100
AcDb2dVertex
 10
-106.4395956695077
 20
-2.806267738342228
 30
0.0
  0
VERTEX
  5
6317
330
6303
100
AcDbEntity
  8
LW 5026-32-00
100
AcDbVertex
100
AcDb2dVertex
 10
-106.2695067375896
 20
-2.735972404479923
 30
0.0
  0
VERTEX
  5
6318
330
6303
100
AcDbEntity
  8
LW 5026-32-00
100
AcDbVertex
100
AcDb2dVertex
 10
-106.1044158041475
 20
-2.655181884765568
 30
0.0
  0
VERTEX
  5
6319
330
6303
100
AcDbEntity
  8
LW 5026-32-00
100
AcDbVertex
100
AcDb2dVertex
 10
-105.9451611340043
 20
-2.564802169799747
 30
0.0
  0
VERTEX
  5
631A
330
6303
100
AcDbEntity
  8
LW 5026-32-00
100
AcDbVertex
100
AcDb2dVertex
 10
-105.792572200298
 20
-2.465748786926212
 30
0.0
  0
VERTEX
  5
631B
330
6303
100
AcDbEntity
  8
LW 5026-32-00
100
AcDbVertex
100
AcDb2dVertex
 10
-105.6474788486955
 20
-2.358942031860294
 30
0.0
  0
VERTEX
  5
631C
330
6303
100
AcDbEntity
  8
LW 5026-32-00
100
AcDbVertex
100
AcDb2dVertex
 10
-105.5107109248635
 20
-2.245292663574161
 30
0.0
  0
SEQEND
  5
631D
330
6303
100
AcDbEntity
  8
LW 5026-32-00
  0
POLYLINE
  5
631E
330
61CA
100
AcDbEntity
  8
LW 5026-32-00
100
AcDb2dPolyline
 66
     1
 10
0.0
 20
0.0
 30
0.0
 70
   128
  0
VERTEX
  5
631F
330
631E
100
AcDbEntity
  8
LW 5026-32-00
100
AcDbVertex
100
AcDb2dVertex
 10
-106.9790554791686
 20
2.954421043396109
 30
0.0
  0
VERTEX
  5
6320
330
631E
100
AcDbEntity
  8
LW 5026-32-00
100
AcDbVertex
100
AcDb2dVertex
 10
-107.0902554690835
 20
2.971868515014762
 30
0.0
  0
VERTEX
  5
6321
330
631E
100
AcDbEntity
  8
LW 5026-32-00
100
AcDbVertex
100
AcDb2dVertex
 10
-107.2012387402353
 20
2.985053062439078
 30
0.0
  0
VERTEX
  5
6322
330
631E
100
AcDbEntity
  8
LW 5026-32-00
100
AcDbVertex
100
AcDb2dVertex
 10
-107.3116918094453
 20
2.994055747985953
 30
0.0
  0
VERTEX
  5
6323
330
631E
100
AcDbEntity
  8
LW 5026-32-00
100
AcDbVertex
100
AcDb2dVertex
 10
-107.4213012121615
 20
2.998957633972281
 30
0.0
  0
VERTEX
  5
6324
330
631E
100
AcDbEntity
  8
LW 5026-32-00
100
AcDbVertex
100
AcDb2dVertex
 10
-107.5298573705365
 20
2.999844551086539
 30
0.0
  0
VERTEX
  5
6325
330
631E
100
AcDbEntity
  8
LW 5026-32-00
100
AcDbVertex
100
AcDb2dVertex
 10
-107.638964038342
 20
2.99663066864025
 30
0.0
  0
VERTEX
  5
6326
330
631E
100
AcDbEntity
  8
LW 5026-32-00
100
AcDbVertex
100
AcDb2dVertex
 10
-107.7490379102525
 20
2.989268302917594
 30
0.0
  0
VERTEX
  5
6327
330
631E
100
AcDbEntity
  8
LW 5026-32-00
100
AcDbVertex
100
AcDb2dVertex
 10
-107.8597792610523
 20
2.977743148803824
 30
0.0
  0
VERTEX
  5
6328
330
631E
100
AcDbEntity
  8
LW 5026-32-00
100
AcDbVertex
100
AcDb2dVertex
 10
-107.9708883911369
 20
2.962045669555777
 30
0.0
  0
VERTEX
  5
6329
330
631E
100
AcDbEntity
  8
LW 5026-32-00
100
AcDbVertex
100
AcDb2dVertex
 10
-108.0820654705164
 20
2.942166328430289
 30
0.0
  0
VERTEX
  5
632A
330
631E
100
AcDbEntity
  8
LW 5026-32-00
100
AcDbVertex
100
AcDb2dVertex
 10
-108.1930108368394
 20
2.918090820312613
 30
0.0
  0
VERTEX
  5
632B
330
631E
100
AcDbEntity
  8
LW 5026-32-00
100
AcDbVertex
100
AcDb2dVertex
 10
-108.3034247159955
 20
2.889814376831168
 30
0.0
  0
VERTEX
  5
632C
330
631E
100
AcDbEntity
  8
LW 5026-32-00
100
AcDbVertex
100
AcDb2dVertex
 10
-108.4130074083802
 20
2.857322692871207
 30
0.0
  0
VERTEX
  5
632D
330
631E
100
AcDbEntity
  8
LW 5026-32-00
100
AcDbVertex
100
AcDb2dVertex
 10
-108.5214591771362
 20
2.820611000061148
 30
0.0
  0
VERTEX
  5
632E
330
631E
100
AcDbEntity
  8
LW 5026-32-00
100
AcDbVertex
100
AcDb2dVertex
 10
-108.6284802109
 20
2.779660224914664
 30
0.0
  0
VERTEX
  5
632F
330
631E
100
AcDbEntity
  8
LW 5026-32-00
100
AcDbVertex
100
AcDb2dVertex
 10
-108.7337806075809
 20
2.7344846725465
 30
0.0
  0
VERTEX
  5
6330
330
631E
100
AcDbEntity
  8
LW 5026-32-00
100
AcDbVertex
100
AcDb2dVertex
 10
-108.8371343910691
 20
2.685241699218863
 30
0.0
  0
VERTEX
  5
6331
330
631E
100
AcDbEntity
  8
LW 5026-32-00
100
AcDbVertex
100
AcDb2dVertex
 10
-108.93834143877
 20
2.632155418396109
 30
0.0
  0
VERTEX
  5
6332
330
631E
100
AcDbEntity
  8
LW 5026-32-00
100
AcDbVertex
100
AcDb2dVertex
 10
-109.0372014045713
 20
2.575445175171012
 30
0.0
  0
VERTEX
  5
6333
330
631E
100
AcDbEntity
  8
LW 5026-32-00
100
AcDbVertex
100
AcDb2dVertex
 10
-109.133514165878
 20
2.515335083007926
 30
0.0
  0
VERTEX
  5
6334
330
631E
100
AcDbEntity
  8
LW 5026-32-00
100
AcDbVertex
100
AcDb2dVertex
 10
-109.2270796000955
 20
2.452039718628043
 30
0.0
  0
VERTEX
  5
6335
330
631E
100
AcDbEntity
  8
LW 5026-32-00
100
AcDbVertex
100
AcDb2dVertex
 10
-109.3176972866056
 20
2.385787963867301
 30
0.0
  0
VERTEX
  5
6336
330
631E
100
AcDbEntity
  8
LW 5026-32-00
100
AcDbVertex
100
AcDb2dVertex
 10
-109.4051672518251
 20
2.316799163818473
 30
0.0
  0
VERTEX
  5
6337
330
631E
100
AcDbEntity
  8
LW 5026-32-00
100
AcDbVertex
100
AcDb2dVertex
 10
-109.4892890751359
 20
2.245292663574332
 30
0.0
  0
SEQEND
  5
6338
330
631E
100
AcDbEntity
  8
LW 5026-32-00
  0
ARC
  5
6339
330
61CA
100
AcDbEntity
  8
LW 5026-32-00
100
AcDbCircle
 10
-107.4999999999997
 20
0.0000000000000568
 30
0.0
 40
3.000000000000003
100
AcDbArc
 50
131.5403479572199
 51
228.4596520427801
  0
ARC
  5
633A
330
61CA
100
AcDbEntity
  8
LW 5026-32-00
100
AcDbCircle
 10
-107.4999999999997
 20
0.0000000000000568
 30
0.0
 40
3.000000000000001
100
AcDbArc
 50
311.5403479572178
 51
48.45965204278008
  0
CIRCLE
  5
633B
330
61CA
100
AcDbEntity
  8
LW 5026-32-00
100
AcDbCircle
 10
-107.4999999999997
 20
0.0000000000000568
 30
0.0
 40
2.645824477365627
  0
LINE
  5
633C
330
61CA
100
AcDbEntity
  8
LW 5026-32-00
100
AcDbLine
 10
-107.8235666628384
 20
-1.701559465519551
 30
0.0
 11
-109.135377054609
 21
-0.5705627829236733
 31
0.0
  0
LINE
  5
633D
330
61CA
100
AcDbEntity
  8
LW 5026-32-00
100
AcDbLine
 10
-109.135377054609
 20
-0.5705627829236733
 30
0.0
 11
-108.8118103917704
 21
1.130996682595934
 31
0.0
  0
LINE
  5
633E
330
61CA
100
AcDbEntity
  8
LW 5026-32-00
100
AcDbLine
 10
-108.8118103917704
 20
1.130996682595934
 30
0.0
 11
-107.1764333371611
 21
1.701559465519721
 31
0.0
  0
LINE
  5
633F
330
61CA
100
AcDbEntity
  8
LW 5026-32-00
100
AcDbLine
 10
-107.1764333371611
 20
1.701559465519721
 30
0.0
 11
-105.8646229453906
 21
0.5705627829238438
 31
0.0
  0
LINE
  5
6340
330
61CA
100
AcDbEntity
  8
LW 5026-32-00
100
AcDbLine
 10
-106.1881896082293
 20
-1.130996682595764
 30
0.0
 11
-107.8235666628384
 21
-1.701559465519551
 31
0.0
  0
LINE
  5
6341
330
61CA
100
AcDbEntity
  8
LW 5026-32-00
100
AcDbLine
 10
-105.8646229453906
 20
0.5705627829238438
 30
0.0
 11
-106.1881896082293
 21
-1.130996682595764
 31
0.0
  0
LINE
  5
6342
330
61CA
100
AcDbEntity
  8
LW 5026-32-00
100
AcDbLine
 10
-113.2730999999999
 20
77.00000000000006
 30
0.0
 11
-101.7268999999998
 21
77.00000000000006
 31
0.0
  0
LINE
  5
6343
330
61CA
100
AcDbEntity
  8
LW 5026-32-00
100
AcDbLine
 10
-100.4999999999997
 20
75.77310000000017
 30
0.0
 11
-114.4999999999997
 21
75.77310000000017
 31
0.0
  0
LINE
  5
6344
330
61CA
100
AcDbEntity
  8
LW 5026-32-00
100
AcDbLine
 10
-101.7268999999998
 20
77.00000000000006
 30
0.0
 11
-100.4999999999997
 21
75.77310000000017
 31
0.0
  0
LINE
  5
6345
330
61CA
100
AcDbEntity
  8
LW 5026-32-00
100
AcDbLine
 10
-113.2730999999999
 20
77.00000000000006
 30
0.0
 11
-114.4999999999997
 21
75.77310000000017
 31
0.0
  0
LINE
  5
6346
330
61CA
100
AcDbEntity
  8
LW 5026-32-00
100
AcDbLine
 10
-100.4999999999997
 20
75.77310000000017
 30
0.0
 11
-100.4999999999997
 21
60.87500000000005
 31
0.0
  0
LINE
  5
6347
330
61CA
100
AcDbEntity
  8
LW 5026-32-00
100
AcDbLine
 10
-114.4999999999997
 20
75.77310000000017
 30
0.0
 11
-114.4999999999997
 21
60.87500000000005
 31
0.0
  0
LINE
  5
6348
330
61CA
100
AcDbEntity
  8
LW 5026-32-00
 62
     3
100
AcDbLine
 10
-101.7054999999998
 20
60.87500000000005
 30
0.0
 11
-101.7054999999998
 21
76.97860000000009
 31
0.0
  0
LINE
  5
6349
330
61CA
100
AcDbEntity
  8
LW 5026-32-00
 62
     3
100
AcDbLine
 10
-113.2944999999997
 20
76.97860000000009
 30
0.0
 11
-113.2944999999997
 21
60.87500000000005
 31
0.0
  0
LINE
  5
634A
330
61CA
100
AcDbEntity
  8
LW 5026-32-00
100
AcDbLine
 10
16.0
 20
12.00000000000005
 30
0.0
 11
16.0
 21
-11.99999999999994
 31
0.0
  0
LINE
  5
634B
330
61CA
100
AcDbEntity
  8
LW 5026-32-00
100
AcDbLine
 10
-16.0
 20
12.00000000000005
 30
0.0
 11
-16.0
 21
-11.99999999999994
 31
0.0
  0
LINE
  5
634C
330
61CA
100
AcDbEntity
  8
LW 5026-32-00
100
AcDbLine
 10
-16.0
 20
12.00000000000005
 30
0.0
 11
16.0
 21
12.00000000000005
 31
0.0
  0
LINE
  5
634D
330
61CA
100
AcDbEntity
  8
LW 5026-32-00
100
AcDbLine
 10
-16.0
 20
-11.99999999999994
 30
0.0
 11
16.0
 21
-11.99999999999994
 31
0.0
  0
LINE
  5
634E
330
61CA
100
AcDbEntity
  8
LW 5026-32-00
100
AcDbLine
 10
-19.51999999999977
 20
32.50000000000006
 30
0.0
 11
-19.51999999999977
 21
-32.49999999999995
 31
0.0
  0
LINE
  5
634F
330
61CA
100
AcDbEntity
  8
LW 5026-32-00
100
AcDbLine
 10
-22.51999999999977
 20
32.50000000000006
 30
0.0
 11
-22.51999999999977
 21
-32.49999999999995
 31
0.0
  0
LINE
  5
6350
330
61CA
100
AcDbEntity
  8
LW 5026-32-00
100
AcDbLine
 10
-22.51999999999977
 20
32.50000000000006
 30
0.0
 11
-19.51999999999977
 21
32.50000000000006
 31
0.0
  0
LINE
  5
6351
330
61CA
100
AcDbEntity
  8
LW 5026-32-00
100
AcDbLine
 10
-22.51999999999977
 20
-32.49999999999995
 30
0.0
 11
-19.51999999999977
 21
-32.49999999999995
 31
0.0
  0
LINE
  5
6352
330
61CA
100
AcDbEntity
  8
LW 5026-32-00
100
AcDbLine
 10
19.52000000000022
 20
-32.49999999999995
 30
0.0
 11
19.52000000000022
 21
32.50000000000006
 31
0.0
  0
LINE
  5
6353
330
61CA
100
AcDbEntity
  8
LW 5026-32-00
100
AcDbLine
 10
22.52000000000022
 20
-32.49999999999995
 30
0.0
 11
22.52000000000022
 21
32.50000000000006
 31
0.0
  0
LINE
  5
6354
330
61CA
100
AcDbEntity
  8
LW 5026-32-00
100
AcDbLine
 10
22.52000000000022
 20
-32.49999999999995
 30
0.0
 11
19.52000000000022
 21
-32.49999999999995
 31
0.0
  0
LINE
  5
6355
330
61CA
100
AcDbEntity
  8
LW 5026-32-00
100
AcDbLine
 10
22.52000000000022
 20
32.50000000000006
 30
0.0
 11
19.52000000000022
 21
32.50000000000006
 31
0.0
  0
LINE
  5
6356
330
61CA
100
AcDbEntity
  8
LW 5026-32-00
100
AcDbLine
 10
-17.51999999999977
 20
32.00000000000006
 30
0.0
 11
-17.51999999999977
 21
-31.99999999999994
 31
0.0
  0
LINE
  5
6357
330
61CA
100
AcDbEntity
  8
LW 5026-32-00
100
AcDbLine
 10
-19.51999999999977
 20
32.00000000000006
 30
0.0
 11
-17.51999999999977
 21
32.00000000000006
 31
0.0
  0
LINE
  5
6358
330
61CA
100
AcDbEntity
  8
LW 5026-32-00
100
AcDbLine
 10
-19.51999999999977
 20
-31.99999999999994
 30
0.0
 11
-17.51999999999977
 21
-31.99999999999994
 31
0.0
  0
LINE
  5
6359
330
61CA
100
AcDbEntity
  8
LW 5026-32-00
100
AcDbLine
 10
17.52000000000022
 20
-31.99999999999994
 30
0.0
 11
17.52000000000022
 21
32.00000000000006
 31
0.0
  0
LINE
  5
635A
330
61CA
100
AcDbEntity
  8
LW 5026-32-00
100
AcDbLine
 10
19.52000000000022
 20
-31.99999999999994
 30
0.0
 11
17.52000000000022
 21
-31.99999999999994
 31
0.0
  0
LINE
  5
635B
330
61CA
100
AcDbEntity
  8
LW 5026-32-00
100
AcDbLine
 10
19.52000000000022
 20
32.00000000000006
 30
0.0
 11
17.52000000000022
 21
32.00000000000006
 31
0.0
  0
LINE
  5
635C
330
61CA
100
AcDbEntity
  8
LW 5026-32-00
100
AcDbLine
 10
17.52000000000022
 20
-6.999999999999943
 30
0.0
 11
16.0
 21
-6.999999999999943
 31
0.0
  0
LINE
  5
635D
330
61CA
100
AcDbEntity
  8
LW 5026-32-00
100
AcDbLine
 10
-15.99999999999977
 20
-6.999999999999943
 30
0.0
 11
-17.51999999999977
 21
-6.999999999999943
 31
0.0
  0
LINE
  5
635E
330
61CA
100
AcDbEntity
  8
LW 5026-32-00
100
AcDbLine
 10
17.52000000000022
 20
7.000000000000056
 30
0.0
 11
16.0
 21
7.000000000000056
 31
0.0
  0
LINE
  5
635F
330
61CA
100
AcDbEntity
  8
LW 5026-32-00
100
AcDbLine
 10
-15.99999999999977
 20
7.000000000000056
 30
0.0
 11
-17.51999999999977
 21
7.000000000000056
 31
0.0
  0
LINE
  5
6360
330
61CA
100
AcDbEntity
  8
LW 5026-32-00
 62
     3
100
AcDbLine
 10
-17.51999999999977
 20
-5.794499999999914
 30
0.0
 11
-15.99999999999977
 21
-5.794499999999914
 31
0.0
  0
LINE
  5
6361
330
61CA
100
AcDbEntity
  8
LW 5026-32-00
 62
     3
100
AcDbLine
 10
16.0
 20
-5.794499999999914
 30
0.0
 11
17.52000000000022
 21
-5.794499999999914
 31
0.0
  0
LINE
  5
6362
330
61CA
100
AcDbEntity
  8
LW 5026-32-00
 62
     3
100
AcDbLine
 10
17.52000000000022
 20
5.794500000000084
 30
0.0
 11
16.0
 21
5.794500000000084
 31
0.0
  0
LINE
  5
6363
330
61CA
100
AcDbEntity
  8
LW 5026-32-00
 62
     3
100
AcDbLine
 10
-16.0
 20
5.794500000000084
 30
0.0
 11
-17.51999999999977
 21
5.794500000000084
 31
0.0
  0
LINE
  5
6364
330
61CA
100
AcDbEntity
  8
LW 5026-32-00
  6
MITTE2
 62
     3
100
AcDbLine
 10
-107.4999999999997
 20
96.48528480478473
 30
0.0
 11
-107.4999999999997
 21
-28.08786257571905
 31
0.0
  0
LINE
  5
6365
330
61CA
100
AcDbEntity
  8
LW 5026-32-00
  6
MITTE2
 62
     3
100
AcDbLine
 10
61.44128632737488
 20
0.0
 30
0.0
 11
-146.4412863273748
 21
0.0
 31
0.0
  0
LINE
  5
6366
330
61CA
100
AcDbEntity
  8
LW 5026-32-00
  6
VERDECKT
 62
     6
100
AcDbLine
 10
-122.160108542738
 20
60.00000000000437
 30
0.0
 11
-92.83989145726193
 21
59.99999999999573
 31
0.0
  0
ARC
  5
6367
330
61CA
100
AcDbEntity
  8
LW 5026-32-00
  6
VERDECKT
 62
     6
100
AcDbCircle
 10
-122.1601085427375
 20
62.00000000000438
 30
0.0
 40
2.0
100
AcDbArc
 50
250.7099537807859
 51
270.0
  0
ARC
  5
6368
330
61CA
100
AcDbEntity
  8
LW 5026-32-00
  6
VERDECKT
 62
     6
100
AcDbCircle
 10
-92.83989145726149
 20
61.99999999999573
 30
0.0
 40
2.0
100
AcDbArc
 50
270.0
 51
289.2900462191729
  0
LINE
  5
6369
330
61CA
100
AcDbEntity
  8
LW 5026-32-00
  6
VERDECKT
 62
     6
100
AcDbLine
 10
-122.8208093921941
 20
60.11228328727276
 30
0.0
 11
-124.9999999999997
 21
60.87500000000528
 31
0.0
  0
LINE
  5
636A
330
61CA
100
AcDbEntity
  8
LW 5026-32-00
  6
VERDECKT
 62
     6
100
AcDbLine
 10
-92.1791906078058
 20
60.11228328726367
 30
0.0
 11
-89.99999999999976
 21
60.87499999999483
 31
0.0
  0
HATCH
  5
636B
330
61CA
100
AcDbEntity
  8
LW 5026-32-00
 62
     1
100
AcDbHatch
 10
0.0
 20
0.0
 30
0.0
210
0.0
220
0.0
230
1.0
  2
SOLID
 70
     1
 71
     0
 91
        5
 92
        7
 72
     0
 73
     1
 93
       76
 10
-115.9849828252545
 20
27.54233513799324
 10
-116.0365637870963
 20
27.57419396736606
 10
-116.187806186112
 20
27.69235209159734
 10
-116.3282303163746
 20
27.82683016681
 10
-116.4566148780882
 20
27.97285007327156
 10
-116.573521161004
 20
28.13651886935355
 10
-116.6756990428255
 20
28.3119058227183
 10
-116.7670507224084
 20
28.49365875531868
 10
-116.8365690348546
 20
28.6748276907843
 10
-116.8365690348546
 20
26.41768975258429
 10
-116.8278793796544
 20
26.20479320018427
 10
-116.8018104140546
 20
26.00275871678429
 10
-116.7605345518545
 20
25.80724147478424
 10
-116.7062242068545
 20
25.62258630178445
 10
-116.6367069652544
 20
25.4466207839842
 10
-116.5541552408544
 20
25.27934492138439
 10
-116.4588297233103
 20
25.12877665883735
 10
-116.3521207574544
 20
24.98606905838443
 10
-116.2330724812143
 20
24.86062780281378
 10
-116.1048131704624
 20
24.74936285073642
 10
-115.9676035148545
 20
24.64934491938431
 10
-115.8220517902543
 20
24.56679319498431
 10
-115.6678104104544
 20
24.50379319478435
 10
-115.5070517892545
 20
24.45382767738448
 10
-115.3419483404545
 20
24.42558629798447
 10
-115.1681552364543
 20
24.41689664278448
 10
-114.9943621324541
 20
24.42775871178452
 10
-114.8270862698543
 20
24.45817250498436
 10
-114.6663276486542
 20
24.51248284998456
 10
-114.5099138550545
 20
24.58200009158446
 10
-114.3621897166545
 20
24.67106905738461
 10
-114.2209828196546
 20
24.77751733358451
 10
-114.0897690261345
 20
24.90021526500851
 10
-113.9686352326466
 20
25.03641431371676
 10
-113.8581897150543
 20
25.18375871418454
 10
-113.7604310940546
 20
25.34451733538464
 10
-113.6755331627505
 20
25.52014395663178
 10
-113.6018448866543
 20
25.70079319858434
 10
-113.5453621278543
 20
25.89196561298451
 10
-113.5019138518546
 20
26.09182768258444
 10
-113.4758448862544
 20
26.30037940738436
 10
-113.4671552310544
 20
26.51110354598433
 10
-113.4671552310546
 20
28.630274631737
 10
-113.5302260347893
 20
28.46973076768455
 10
-113.6208463083121
 20
28.28616662388214
 10
-113.7253760012436
 20
28.11770021771196
 10
-113.8409942396692
 20
27.95486732295132
 10
-113.9707838362091
 20
27.81095495458118
 10
-114.1101375194375
 20
27.68351906109689
 10
-114.26062576415
 20
27.5698137063535
 10
-114.3448104062545
 20
27.51784247490474
 10
-114.3448104062545
 20
26.48937940798447
 10
-114.3523704062786
 20
26.35727057997889
 10
-114.3727041994466
 20
26.22651733818435
 10
-114.4056379926544
 20
26.0983449239846
 10
-114.4512586824544
 20
25.98320699258449
 10
-114.5077414412544
 20
25.87826202673415
 10
-114.5753469587102
 20
25.78011237125003
 10
-114.6532931658543
 20
25.68993112958452
 10
-114.7380173040544
 20
25.61824147418457
 10
-114.7380173040546
 20
27.34576278844321
 10
-114.7706527448126
 20
27.33517832117019
 10
-114.956026692364
 20
27.2990665132059
 10
-115.1463164063147
 20
27.28702286042409
 10
-115.3410674996698
 20
27.29904453285354
 10
-115.527436870936
 20
27.3353502545288
 10
-115.5765690308544
 20
27.35194895720366
 10
-115.5765690308544
 20
25.58131043958435
 10
-115.6721552380545
 20
25.65082768118447
 10
-115.7547069624543
 20
25.73337940558446
 10
-115.8245717902623
 20
25.82847030243789
 10
-115.8828793766545
 20
25.93106906138434
 10
-115.9268490319664
 20
26.0497610617611
 10
-115.9589138596543
 20
26.17220699318437
 10
-115.9784655838543
 20
26.30906906258434
 10
-115.9849828252545
 20
26.45244837338447
 97
        0
 92
        7
 72
     0
 73
     1
 93
       72
 10
-115.9703842045185
 20
29.27079900302107
 10
-115.9884586873345
 20
29.39366203789388
 10
-115.9936724804547
 20
29.51772424518441
 10
-115.9936724804547
 20
30.78641390438435
 10
-115.1790173054546
 20
29.93917252238436
 10
-113.4606379896545
 20
31.70534494178452
 10
-113.4606379896545
 20
33.02400011838432
 10
-115.2029138572547
 20
31.30996563018454
 10
-116.8365690348546
 20
32.99141391138443
 10
-116.8365690348546
 20
29.55248286598436
 10
-116.8257938624065
 20
29.34449596877227
 10
-116.8003331726704
 20
29.13777776121952
 10
-116.7605345518545
 20
28.93334493298431
 10
-116.7040517930545
 20
28.74000010478432
 10
-116.6323621376545
 20
28.55317251798425
 10
-116.5463345511743
 20
28.38201237950995
 10
-116.4498793784546
 20
28.21644837898436
 10
-116.3412586884546
 20
28.06437941298447
 10
-116.2219497225585
 20
27.92868175738119
 10
-116.0914311014544
 20
27.8036897569844
 10
-115.9523966182546
 20
27.69506906698422
 10
-115.8046724798546
 20
27.60382768738447
 10
-115.6504311000544
 20
27.53213803198429
 10
-115.4896724788545
 20
27.47782768698431
 10
-115.3223966162545
 20
27.44524147998442
 10
-115.1464310984543
 20
27.43437941098438
 10
-114.9748104082546
 20
27.44524147998442
 10
-114.8075345456545
 20
27.47782768698454
 10
-114.6467759244546
 20
27.52996561818446
 10
-114.4925345446545
 20
27.59948285978436
 10
-114.3437676476305
 20
27.6913238255932
 10
-114.2042986816704
 20
27.7967032742036
 10
-114.0752573019506
 20
27.91470879181981
 10
-113.9559483360544
 20
28.04700010258449
 10
-113.8479359219186
 20
28.19912120651571
 10
-113.7495690250543
 20
28.35765527598443
 10
-113.6648448868545
 20
28.52927596618457
 10
-113.5931552314546
 20
28.71175872538453
 10
-113.5391055761106
 20
28.90598989841493
 10
-113.4953966104544
 20
29.1027932093844
 10
-113.4693276448547
 20
29.31134493418455
 10
-113.4606379896545
 20
29.52206907278452
 10
-113.4606379896545
 20
31.42510356158442
 10
-114.3339483372546
 20
30.53875873118438
 10
-114.3339483372546
 20
29.52206907278452
 10
-114.337695630194
 20
29.45540203808997
 10
-114.3476779924703
 20
29.35445431363161
 10
-114.3691414408144
 20
29.23431983049165
 10
-114.4034655788546
 20
29.11720065770607
 10
-114.4443938548465
 20
29.01570548497017
 10
-114.4725483376946
 20
28.95957031237805
 10
-114.5051345446945
 20
28.90588562255249
 10
-114.6044573036306
 20
28.77332493247633
 10
-114.6744959245425
 20
28.69972355293254
 10
-114.7423621316543
 20
28.64465720793015
 10
-114.8149207525744
 20
28.59595169053392
 10
-114.8920848907505
 20
28.55658755247788
 10
-114.9735069599746
 20
28.52716437997088
 10
-115.0606642016305
 20
28.50646562128446
 10
-115.1499938570864
 20
28.49894906953642
 10
-115.2122986848703
 20
28.5003046557477
 10
-115.2744297195504
 20
28.50630920749092
 10
-115.3376035128544
 20
28.51846603511564
 10
-115.3993000647747
 20
28.53667955241491
 10
-115.4980145478464
 20
28.58032769048424
 10
-115.5658807549584
 20
28.6218555526853
 10
-115.6439138586545
 20
28.68493375978193
 10
-115.7704365957083
 20
28.81433570014684
 10
-115.8104945488385
 20
28.87360355348443
 10
-115.8548117903583
 20
28.94989872614047
 10
-115.8969566180785
 20
29.03391900226921
 10
-115.9397966182146
 20
29.15045596815645
 97
        0
 92
        7
 72
     0
 73
     1
 93
       57
 10
-115.9483124803109
 20
33.82883598300856
 10
-115.9882848942306
 20
33.96031046618447
 10
-116.0153966184548
 20
34.09500012178438
 10
-116.0240862736545
 20
34.23837943258428
 10
-116.0240862736548
 20
35.47882771238443
 10
-116.8496035176549
 20
35.47882771238443
 10
-116.8496035176547
 20
34.24489667398444
 10
-116.8409138624547
 20
34.03417253538447
 10
-116.8126724830547
 20
33.82779322438438
 10
-116.7713966208548
 20
33.6301035685845
 10
-116.7170862758548
 20
33.44110356798438
 10
-116.6453966204549
 20
33.25644839498437
 10
-116.5627579995025
 20
33.09004149790423
 10
-116.4663028267828
 20
32.93122066981397
 10
-116.3568131712627
 20
32.78114163485481
 10
-116.2375911019187
 20
32.64658232408289
 10
-116.1088104118548
 20
32.52651735818432
 10
-115.9697759286546
 20
32.42224149578448
 10
-115.8242242040546
 20
32.33751735758443
 10
-115.6699828242544
 20
32.26582770218425
 10
-115.5092242030546
 20
32.21586218478439
 10
-115.3419483404547
 20
32.18327597778449
 10
-115.1681552364548
 20
32.17241390878445
 10
-114.9943621324546
 20
32.18327597778449
 10
-114.8270862698546
 20
32.21586218478439
 10
-114.6663276486547
 20
32.26800011598431
 10
-114.5099138550547
 20
32.33968977138449
 10
-114.3621897166547
 20
32.42658632338458
 10
-114.2226338541427
 20
32.53543294441971
 10
-114.0922890261427
 20
32.65528935859317
 10
-113.9709814395505
 20
32.79171694523331
 10
-113.8603621288548
 20
32.93927598018451
 10
-113.7626035078546
 20
33.10003460138438
 10
-113.6778793696548
 20
33.27382770538435
 10
-113.6040173004548
 20
33.45848287838459
 10
-113.5475345416548
 20
33.64965529278453
 10
-113.5040862656546
 20
33.84951736238446
 10
-113.4801897138545
 20
34.05589667338456
 10
-113.4715000586547
 20
34.26879322578458
 10
-113.4715000586547
 20
35.47882771238443
 10
-114.3296035096545
 20
35.47882771238443
 10
-114.3296035096545
 20
34.24489667398444
 10
-114.3399441993426
 20
34.11124977700848
 10
-114.3619290269989
 20
33.97899322486461
 10
-114.3962531650386
 20
33.85838081068852
 10
-114.4442200617427
 20
33.74237391376852
 10
-114.5051345446947
 20
33.63271046514439
 10
-114.5727400621508
 20
33.53564701656052
 10
-114.6525110968868
 20
33.44822908524844
 10
-114.7380173040546
 20
33.37375874018454
 10
-114.7380173040546
 20
35.47882771238443
 10
-115.5657069618546
 20
35.47882771238443
 10
-115.5657069618546
 20
33.33682770558431
 10
-115.6634655828547
 20
33.40634494718444
 10
-115.7525345486547
 20
33.49324149918431
 10
-115.8288297213107
 20
33.59438908571252
 10
-115.8959138594546
 20
33.70179322398445
 97
        0
 92
        7
 72
     0
 73
     1
 93
        6
 10
-116.8365690348548
 20
35.70910357518443
 10
-113.4671552310546
 20
35.70910357518443
 10
-113.4671552310549
 20
37.94668978918463
 10
-114.3339483372549
 20
37.94668978918441
 10
-114.3339483372549
 20
36.73231047498445
 10
-116.8365690348548
 20
36.73231047498445
 97
        0
 92
        7
 72
     0
 73
     1
 93
        8
 10
-116.8365690348548
 20
36.96475875158427
 10
-116.0110517908547
 20
36.96475875158427
 10
-116.0110517908549
 20
38.19868978998449
 10
-113.4606379896549
 20
38.19868978998449
 10
-113.4606379896549
 20
39.22406910358456
 10
-116.0110517908547
 20
39.22406910358433
 10
-116.0110517908549
 20
40.4666897971843
 10
-116.836569034855
 20
40.4666897971843
 97
        0
 75
     0
 76
     1
 47
0.0142553043587597
 98
        5
 10
-116.3941193652654
 20
26.85199526405956
 10
-116.2515663802596
 20
29.11949247740228
 10
-116.3085875528077
 20
33.61170420960372
 10
-116.5509277774999
 20
36.33555329343546
 10
-116.4511406450865
 20
37.7473912756621
450
        0
451
        0
460
0.0
461
0.0
452
        0
462
0.0
453
        0
470

  0
LWPOLYLINE
  5
636C
330
61CA
100
AcDbEntity
  8
LW 5026-32-00
 62
     1
100
AcDbPolyline
 90
        8
 70
     1
 43
0.0
 10
-116.0110517908547
 20
39.22406910358433
 10
-113.4606379896549
 20
39.22406910358456
 10
-113.4606379896549
 20
38.19868978998449
 10
-116.0110517908549
 20
38.19868978998449
 10
-116.0110517908547
 20
36.96475875158427
 10
-116.8365690348548
 20
36.96475875158427
 10
-116.836569034855
 20
40.4666897971843
 10
-116.0110517908549
 20
40.4666897971843
  0
LWPOLYLINE
  5
636D
330
61CA
100
AcDbEntity
  8
LW 5026-32-00
 62
     1
100
AcDbPolyline
 90
       73
 70
     1
 43
0.0
 10
-114.3339483372546
 20
29.52206907278452
 10
-114.3339483372546
 20
30.53875873118438
 10
-113.4606379896545
 20
31.42510356158442
 10
-113.4606379896545
 20
29.52206907278452
 10
-113.4693276448547
 20
29.31134493418455
 10
-113.4953966104544
 20
29.1027932093844
 10
-113.5391055761106
 20
28.90598989841493
 10
-113.5931552314546
 20
28.71175872538453
 10
-113.6648448868545
 20
28.52927596618457
 10
-113.7495690250543
 20
28.35765527598443
 10
-113.8479359219186
 20
28.19912120651571
 10
-113.9559483360544
 20
28.04700010258449
 10
-114.0752573019504
 20
27.91470879181958
 10
-114.2042986816704
 20
27.7967032742036
 10
-114.3437676476305
 20
27.6913238255932
 10
-114.4925345446545
 20
27.59948285978436
 10
-114.6467759244546
 20
27.52996561818446
 10
-114.8075345456545
 20
27.47782768698454
 10
-114.9748104082546
 20
27.44524147998442
 10
-115.1464310984545
 20
27.43437941098438
 10
-115.3223966162545
 20
27.44524147998442
 10
-115.4896724788545
 20
27.47782768698431
 10
-115.6504311000544
 20
27.53213803198452
 10
-115.8046724798546
 20
27.60382768738447
 10
-115.9523966182546
 20
27.69506906698445
 10
-116.0914311014544
 20
27.8036897569844
 10
-116.2219497225587
 20
27.92868175738119
 10
-116.3412586884546
 20
28.06437941298424
 10
-116.4498793784546
 20
28.21644837898436
 10
-116.5463345511743
 20
28.38201237950995
 10
-116.6323621376545
 20
28.55317251798425
 10
-116.7040517930545
 20
28.74000010478432
 10
-116.7605345518545
 20
28.93334493298431
 10
-116.8003331726704
 20
29.13777776121952
 10
-116.8257938624065
 20
29.34449596877227
 10
-116.8365690348546
 20
29.55248286598436
 10
-116.8365690348546
 20
32.99141391138443
 10
-115.2029138572547
 20
31.30996563018454
 10
-113.4606379896545
 20
33.02400011838432
 10
-113.4606379896545
 20
31.70534494178452
 10
-115.1790173054546
 20
29.93917252238436
 10
-115.9936724804547
 20
30.78641390438435
 10
-115.9936724804547
 20
29.51772424518441
 10
-115.9884586873345
 20
29.39366203789388
 10
-115.9703842045185
 20
29.27079900302107
 10
-115.9397966182146
 20
29.15045596815645
 10
-115.8969566180785
 20
29.03391900226921
 10
-115.8548117903585
 20
28.94989872614025
 10
-115.8104945488385
 20
28.87360355348443
 10
-115.7832959280626
 20
28.83336176025324
 10
-115.7523607555503
 20
28.7958485187549
 10
-115.6439138586545
 20
28.68493375978193
 10
-115.5658807549584
 20
28.6218555526853
 10
-115.4980145478466
 20
28.58032769048447
 10
-115.3993000647747
 20
28.53667955241491
 10
-115.3376035128544
 20
28.51846603511564
 10
-115.2744297195504
 20
28.50630920749092
 10
-115.2122986848705
 20
28.5003046557477
 10
-115.1499938570864
 20
28.49894906953642
 10
-115.0606642016305
 20
28.50646562128446
 10
-114.9735069599746
 20
28.52716437997088
 10
-114.8920848907505
 20
28.55658755247811
 10
-114.8149207525744
 20
28.59595169053392
 10
-114.7423621316545
 20
28.64465720792992
 10
-114.6744959245425
 20
28.69972355293254
 10
-114.6044573036306
 20
28.77332493247633
 10
-114.5051345446945
 20
28.90588562255249
 10
-114.4725483376946
 20
28.95957031237805
 10
-114.4443938548465
 20
29.01570548497017
 10
-114.4034655788546
 20
29.11720065770607
 10
-114.3691414408144
 20
29.23431983049165
 10
-114.3476779924703
 20
29.35445431363161
 10
-114.337695630194
 20
29.45540203808997
  0
LWPOLYLINE
  5
636E
330
61CA
100
AcDbEntity
  8
LW 5026-32-00
 62
     1
100
AcDbPolyline
 90
       76
 70
     1
 43
0.0
 10
-116.6756990428255
 20
28.3119058227183
 10
-116.5735211610037
 20
28.13651886935355
 10
-116.4566148780882
 20
27.97285007327156
 10
-116.3282303163746
 20
27.82683016681
 10
-116.187806186112
 20
27.69235209159734
 10
-116.0365637870963
 20
27.57419396736606
 10
-115.9849828252545
 20
27.54233513799324
 10
-115.9849828252545
 20
26.45244837338447
 10
-115.9784655838543
 20
26.30906906258434
 10
-115.9589138596543
 20
26.17220699318437
 10
-115.9268490319664
 20
26.0497610617611
 10
-115.8828793766545
 20
25.93106906138434
 10
-115.8245717902623
 20
25.82847030243812
 10
-115.7547069624543
 20
25.73337940558446
 10
-115.6721552380545
 20
25.65082768118424
 10
-115.5765690308544
 20
25.58131043958435
 10
-115.5765690308544
 20
27.35194895720366
 10
-115.527436870936
 20
27.3353502545288
 10
-115.3410674996694
 20
27.29904453285332
 10
-115.1463164063147
 20
27.28702286042409
 10
-114.956026692364
 20
27.2990665132059
 10
-114.7706527448128
 20
27.33517832117042
 10
-114.7380173040546
 20
27.34576278844321
 10
-114.7380173040544
 20
25.61824147418457
 10
-114.6532931658543
 20
25.68993112958452
 10
-114.5753469587102
 20
25.78011237125003
 10
-114.5077414412544
 20
25.87826202673415
 10
-114.4512586824544
 20
25.98320699258449
 10
-114.4056379926546
 20
26.0983449239846
 10
-114.3727041994466
 20
26.22651733818435
 10
-114.3523704062786
 20
26.35727057997889
 10
-114.3448104062545
 20
26.48937940798447
 10
-114.3448104062545
 20
27.51784247490474
 10
-114.26062576415
 20
27.5698137063535
 10
-114.1101375194375
 20
27.68351906109689
 10
-113.9707838362091
 20
27.81095495458118
 10
-113.8409942396692
 20
27.95486732295132
 10
-113.7253760012436
 20
28.11770021771196
 10
-113.6208463083121
 20
28.28616662388214
 10
-113.5302260347893
 20
28.46973076768455
 10
-113.4671552310546
 20
28.630274631737
 10
-113.4671552310542
 20
26.51110354598456
 10
-113.4758448862544
 20
26.30037940738436
 10
-113.5019138518546
 20
26.09182768258444
 10
-113.5453621278543
 20
25.89196561298451
 10
-113.6018448866543
 20
25.70079319858456
 10
-113.6755331627505
 20
25.52014395663156
 10
-113.7604310940546
 20
25.34451733538464
 10
-113.8581897150543
 20
25.18375871418454
 10
-113.9686352326464
 20
25.03641431371676
 10
-114.0897690261345
 20
24.90021526500851
 10
-114.2209828196544
 20
24.77751733358451
 10
-114.3621897166545
 20
24.67106905738439
 10
-114.5099138550545
 20
24.58200009158446
 10
-114.6663276486542
 20
24.51248284998456
 10
-114.8270862698543
 20
24.45817250498436
 10
-114.9943621324546
 20
24.42775871178452
 10
-115.1681552364543
 20
24.41689664278448
 10
-115.3419483404543
 20
24.42558629798424
 10
-115.5070517892545
 20
24.45382767738448
 10
-115.6678104104544
 20
24.50379319478435
 10
-115.8220517902543
 20
24.56679319498431
 10
-115.9676035148545
 20
24.64934491938431
 10
-116.1048131704624
 20
24.74936285073642
 10
-116.2330724812145
 20
24.86062780281378
 10
-116.3521207574544
 20
24.98606905838443
 10
-116.4588297233103
 20
25.12877665883735
 10
-116.5541552408544
 20
25.27934492138439
 10
-116.6367069652542
 20
25.44662078398443
 10
-116.7062242068545
 20
25.62258630178445
 10
-116.7605345518545
 20
25.80724147478446
 10
-116.8018104140546
 20
26.00275871678429
 10
-116.8278793796544
 20
26.20479320018427
 10
-116.8365690348546
 20
26.41768975258429
 10
-116.8365690348546
 20
28.67482769078453
 10
-116.7670507224084
 20
28.49365875531868
  0
LWPOLYLINE
  5
636F
330
61CA
100
AcDbEntity
  8
LW 5026-32-00
 62
     1
100
AcDbPolyline
 90
        6
 70
     1
 43
0.0
 10
-113.4671552310549
 20
37.94668978918463
 10
-113.4671552310546
 20
35.70910357518443
 10
-116.8365690348548
 20
35.70910357518443
 10
-116.8365690348548
 20
36.73231047498445
 10
-114.3339483372549
 20
36.73231047498445
 10
-114.3339483372549
 20
37.94668978918441
  0
LWPOLYLINE
  5
6370
330
61CA
100
AcDbEntity
  8
LW 5026-32-00
 62
     1
100
AcDbPolyline
 90
       57
 70
     1
 43
0.0
 10
-114.0922890261427
 20
32.65528935859317
 10
-114.2226338541427
 20
32.53543294441971
 10
-114.3621897166545
 20
32.42658632338436
 10
-114.5099138550547
 20
32.33968977138449
 10
-114.6663276486547
 20
32.26800011598431
 10
-114.8270862698546
 20
32.21586218478439
 10
-114.9943621324546
 20
32.18327597778449
 10
-115.1681552364548
 20
32.17241390878445
 10
-115.3419483404545
 20
32.18327597778449
 10
-115.5092242030546
 20
32.21586218478439
 10
-115.6699828242544
 20
32.26582770218425
 10
-115.8242242040546
 20
32.33751735758443
 10
-115.9697759286546
 20
32.42224149578425
 10
-116.1088104118548
 20
32.52651735818432
 10
-116.2375911019185
 20
32.64658232408266
 10
-116.3568131712627
 20
32.78114163485481
 10
-116.4663028267828
 20
32.93122066981397
 10
-116.5627579995027
 20
33.09004149790445
 10
-116.6453966204549
 20
33.25644839498437
 10
-116.7170862758548
 20
33.44110356798438
 10
-116.7713966208548
 20
33.6301035685845
 10
-116.8126724830547
 20
33.82779322438438
 10
-116.8409138624547
 20
34.03417253538447
 10
-116.8496035176547
 20
34.24489667398444
 10
-116.8496035176549
 20
35.47882771238443
 10
-116.0240862736548
 20
35.47882771238443
 10
-116.0240862736545
 20
34.23837943258451
 10
-116.0153966184548
 20
34.09500012178438
 10
-115.9882848942306
 20
33.96031046618447
 10
-115.9483124803107
 20
33.82883598300833
 10
-115.8959138594546
 20
33.70179322398445
 10
-115.8288297213107
 20
33.59438908571252
 10
-115.7525345486547
 20
33.49324149918431
 10
-115.6634655828547
 20
33.40634494718444
 10
-115.5657069618546
 20
33.33682770558431
 10
-115.5657069618546
 20
35.47882771238443
 10
-114.7380173040546
 20
35.47882771238443
 10
-114.7380173040546
 20
33.37375874018454
 10
-114.6525110968868
 20
33.44822908524844
 10
-114.5727400621508
 20
33.53564701656052
 10
-114.5051345446947
 20
33.63271046514439
 10
-114.4442200617427
 20
33.74237391376852
 10
-114.3962531650386
 20
33.85838081068852
 10
-114.3619290269989
 20
33.97899322486461
 10
-114.3399441993426
 20
34.11124977700848
 10
-114.3296035096545
 20
34.24489667398444
 10
-114.3296035096545
 20
35.47882771238443
 10
-113.4715000586547
 20
35.47882771238443
 10
-113.4715000586547
 20
34.26879322578458
 10
-113.4801897138545
 20
34.05589667338456
 10
-113.5040862656546
 20
33.84951736238446
 10
-113.5475345416548
 20
33.64965529278453
 10
-113.6040173004548
 20
33.45848287838459
 10
-113.6778793696548
 20
33.27382770538435
 10
-113.7626035078546
 20
33.10003460138438
 10
-113.8603621288548
 20
32.93927598018451
 10
-113.9709814395505
 20
32.79171694523331
  0
LINE
  5
6371
330
61CA
100
AcDbEntity
  8
LW 5026-32-00
  6
MITTE2
 62
     3
100
AcDbLine
 10
0.0
 20
37.00000000000006
 30
0.0
 11
0.0
 21
-37.00000000000006
 31
0.0
  0
INSERT
  5
6372
330
61CA
100
AcDbEntity
  8
LW 5026-32-00
100
AcDbBlockReference
 66
     1
  2
insertpoint-ECKELT
 10
0.0
 20
0.0
 30
0.0
  0
ATTRIB
  5
6373
330
6372
100
AcDbEntity
  8
insertpoint_ECKELT
100
AcDbText
 10
-6.93151432469286
 20
0.0
 30
0.0
 40
0.6
  1
LW 5026/32-00
 72
     2
 11
-1.199999999999818
 21
0.0
 31
0.0
100
AcDbAttribute
  2
LINKS
 70
     0
  0
ATTRIB
  5
6374
330
6372
100
AcDbEntity
  8
insertpoint_ECKELT
100
AcDbText
 10
1.199999999999818
 20
0.0
 30
0.0
 40
0.6
  1

100
AcDbAttribute
  2
RECHTS
 70
     0
  0
SEQEND
  5
6375
330
6372
100
AcDbEntity
  8
LW 5026-32-00
  0
ENDBLK
  5
61CC
330
61CA
100
AcDbEntity
  8
0
100
AcDbBlockEnd
  0
BLOCK
  5
6378
330
6377
100
AcDbEntity
  8
0
100
AcDbBlockBegin
  2
LW 5026-32-00_b
 70
     0
 10
0.0
 20
0.0
 30
0.0
  3
LW 5026-32-00_b
  1

  0
POLYLINE
  5
637A
330
6377
100
AcDbEntity
  8
LW 5026-32-00
100
AcDb2dPolyline
 66
     1
 10
0.0
 20
0.0
 30
0.0
 70
   128
  0
VERTEX
  5
637B
330
637A
100
AcDbEntity
  8
LW 5026-32-00
100
AcDbVertex
100
AcDb2dVertex
 10
40.01999999999999
 20
-21.65063619614023
 30
0.0
  0
VERTEX
  5
637C
330
637A
100
AcDbEntity
  8
LW 5026-32-00
100
AcDbVertex
100
AcDb2dVertex
 10
39.99898697853088
 20
-21.80843830109006
 30
0.0
  0
VERTEX
  5
637D
330
637A
100
AcDbEntity
  8
LW 5026-32-00
100
AcDbVertex
100
AcDb2dVertex
 10
39.93565704345703
 20
-21.96433782577878
 30
0.0
  0
VERTEX
  5
637E
330
637A
100
AcDbEntity
  8
LW 5026-32-00
100
AcDbVertex
100
AcDb2dVertex
 10
39.82957746505737
 20
-22.11326599121457
 30
0.0
  0
VERTEX
  5
637F
330
637A
100
AcDbEntity
  8
LW 5026-32-00
100
AcDbVertex
100
AcDb2dVertex
 10
39.68169476509094
 20
-22.25069761276586
 30
0.0
  0
VERTEX
  5
6380
330
637A
100
AcDbEntity
  8
LW 5026-32-00
100
AcDbVertex
100
AcDb2dVertex
 10
39.49847723960876
 20
-22.37386226654394
 30
0.0
  0
VERTEX
  5
6381
330
637A
100
AcDbEntity
  8
LW 5026-32-00
100
AcDbVertex
100
AcDb2dVertex
 10
39.28776528358459
 20
-22.48032569885595
 30
0.0
  0
VERTEX
  5
6382
330
637A
100
AcDbEntity
  8
LW 5026-32-00
100
AcDbVertex
100
AcDb2dVertex
 10
39.04740001678467
 20
-22.57195234299024
 30
0.0
  0
VERTEX
  5
6383
330
637A
100
AcDbEntity
  8
LW 5026-32-00
100
AcDbVertex
100
AcDb2dVertex
 10
38.77476121902466
 20
-22.6503801345857
 30
0.0
  0
VERTEX
  5
6384
330
637A
100
AcDbEntity
  8
LW 5026-32-00
100
AcDbVertex
100
AcDb2dVertex
 10
38.47699787139892
 20
-22.71283626556715
 30
0.0
  0
VERTEX
  5
6385
330
637A
100
AcDbEntity
  8
LW 5026-32-00
100
AcDbVertex
100
AcDb2dVertex
 10
38.16183115959167
 20
-22.75718688965162
 30
0.0
  0
VERTEX
  5
6386
330
637A
100
AcDbEntity
  8
LW 5026-32-00
100
AcDbVertex
100
AcDb2dVertex
 10
37.8392925453186
 20
-22.78345584869703
 30
0.0
  0
VERTEX
  5
6387
330
637A
100
AcDbEntity
  8
LW 5026-32-00
100
AcDbVertex
100
AcDb2dVertex
 10
37.52
 20
-22.79211044311842
 30
0.0
  0
VERTEX
  5
6388
330
637A
100
AcDbEntity
  8
LW 5026-32-00
100
AcDbVertex
100
AcDb2dVertex
 10
37.20070745468139
 20
-22.78345584869703
 30
0.0
  0
VERTEX
  5
6389
330
637A
100
AcDbEntity
  8
LW 5026-32-00
100
AcDbVertex
100
AcDb2dVertex
 10
36.87816884040832
 20
-22.75718688965162
 30
0.0
  0
VERTEX
  5
638A
330
637A
100
AcDbEntity
  8
LW 5026-32-00
100
AcDbVertex
100
AcDb2dVertex
 10
36.56300212860107
 20
-22.71283626556715
 30
0.0
  0
VERTEX
  5
638B
330
637A
100
AcDbEntity
  8
LW 5026-32-00
100
AcDbVertex
100
AcDb2dVertex
 10
36.26523878097534
 20
-22.6503801345857
 30
0.0
  0
VERTEX
  5
638C
330
637A
100
AcDbEntity
  8
LW 5026-32-00
100
AcDbVertex
100
AcDb2dVertex
 10
35.99259998321533
 20
-22.57195234299024
 30
0.0
  0
VERTEX
  5
638D
330
637A
100
AcDbEntity
  8
LW 5026-32-00
100
AcDbVertex
100
AcDb2dVertex
 10
35.7522347164154
 20
-22.48032569885595
 30
0.0
  0
VERTEX
  5
638E
330
637A
100
AcDbEntity
  8
LW 5026-32-00
100
AcDbVertex
100
AcDb2dVertex
 10
35.54152276039123
 20
-22.37386226654394
 30
0.0
  0
VERTEX
  5
638F
330
637A
100
AcDbEntity
  8
LW 5026-32-00
100
AcDbVertex
100
AcDb2dVertex
 10
35.35830523490905
 20
-22.25069761276586
 30
0.0
  0
VERTEX
  5
6390
330
637A
100
AcDbEntity
  8
LW 5026-32-00
100
AcDbVertex
100
AcDb2dVertex
 10
35.21042253494262
 20
-22.11326599121457
 30
0.0
  0
VERTEX
  5
6391
330
637A
100
AcDbEntity
  8
LW 5026-32-00
100
AcDbVertex
100
AcDb2dVertex
 10
35.10434295654297
 20
-21.96433782577878
 30
0.0
  0
VERTEX
  5
6392
330
637A
100
AcDbEntity
  8
LW 5026-32-00
100
AcDbVertex
100
AcDb2dVertex
 10
35.04101302146911
 20
-21.80843830109006
 30
0.0
  0
VERTEX
  5
6393
330
637A
100
AcDbEntity
  8
LW 5026-32-00
100
AcDbVertex
100
AcDb2dVertex
 10
35.02
 20
-21.65063619614023
 30
0.0
  0
SEQEND
  5
6394
330
637A
100
AcDbEntity
  8
LW 5026-32-00
  0
POLYLINE
  5
6395
330
6377
100
AcDbEntity
  8
LW 5026-32-00
100
AcDb2dPolyline
 66
     1
 10
0.0
 20
0.0
 30
0.0
 70
   128
  0
VERTEX
  5
6396
330
6395
100
AcDbEntity
  8
LW 5026-32-00
100
AcDbVertex
100
AcDb2dVertex
 10
35.02
 20
-21.65063619614023
 30
0.0
  0
VERTEX
  5
6397
330
6395
100
AcDbEntity
  8
LW 5026-32-00
100
AcDbVertex
100
AcDb2dVertex
 10
35.04101302146911
 20
-21.48914575577169
 30
0.0
  0
VERTEX
  5
6398
330
6395
100
AcDbEntity
  8
LW 5026-32-00
100
AcDbVertex
100
AcDb2dVertex
 10
35.10434295654297
 20
-21.32250547409455
 30
0.0
  0
VERTEX
  5
6399
330
6395
100
AcDbEntity
  8
LW 5026-32-00
100
AcDbVertex
100
AcDb2dVertex
 10
35.21042253494262
 20
-21.15626573563031
 30
0.0
  0
VERTEX
  5
639A
330
6395
100
AcDbEntity
  8
LW 5026-32-00
100
AcDbVertex
100
AcDb2dVertex
 10
35.35830523490905
 20
-20.9959340095561
 30
0.0
  0
VERTEX
  5
639B
330
6395
100
AcDbEntity
  8
LW 5026-32-00
100
AcDbVertex
100
AcDb2dVertex
 10
35.54152276039123
 20
-20.84645748138848
 30
0.0
  0
VERTEX
  5
639C
330
6395
100
AcDbEntity
  8
LW 5026-32-00
100
AcDbVertex
100
AcDb2dVertex
 10
35.7522347164154
 20
-20.71255683899346
 30
0.0
  0
VERTEX
  5
639D
330
6395
100
AcDbEntity
  8
LW 5026-32-00
100
AcDbVertex
100
AcDb2dVertex
 10
35.99259998321533
 20
-20.59347152710393
 30
0.0
  0
VERTEX
  5
639E
330
6395
100
AcDbEntity
  8
LW 5026-32-00
100
AcDbVertex
100
AcDb2dVertex
 10
36.26523878097534
 20
-20.48868179321721
 30
0.0
  0
VERTEX
  5
639F
330
6395
100
AcDbEntity
  8
LW 5026-32-00
100
AcDbVertex
100
AcDb2dVertex
 10
36.56300212860107
 20
-20.40325641632512
 30
0.0
  0
VERTEX
  5
63A0
330
6395
100
AcDbEntity
  8
LW 5026-32-00
100
AcDbVertex
100
AcDb2dVertex
 10
36.87816884040832
 20
-20.34152984619573
 30
0.0
  0
VERTEX
  5
63A1
330
6395
100
AcDbEntity
  8
LW 5026-32-00
100
AcDbVertex
100
AcDb2dVertex
 10
37.20070745468139
 20
-20.30447006226018
 30
0.0
  0
VERTEX
  5
63A2
330
6395
100
AcDbEntity
  8
LW 5026-32-00
100
AcDbVertex
100
AcDb2dVertex
 10
37.52
 20
-20.29211044311955
 30
0.0
  0
VERTEX
  5
63A3
330
6395
100
AcDbEntity
  8
LW 5026-32-00
100
AcDbVertex
100
AcDb2dVertex
 10
37.8392925453186
 20
-20.30447006226018
 30
0.0
  0
VERTEX
  5
63A4
330
6395
100
AcDbEntity
  8
LW 5026-32-00
100
AcDbVertex
100
AcDb2dVertex
 10
38.16183115959167
 20
-20.34152984619573
 30
0.0
  0
VERTEX
  5
63A5
330
6395
100
AcDbEntity
  8
LW 5026-32-00
100
AcDbVertex
100
AcDb2dVertex
 10
38.47699787139892
 20
-20.40325641632512
 30
0.0
  0
VERTEX
  5
63A6
330
6395
100
AcDbEntity
  8
LW 5026-32-00
100
AcDbVertex
100
AcDb2dVertex
 10
38.77476121902466
 20
-20.48868179321721
 30
0.0
  0
VERTEX
  5
63A7
330
6395
100
AcDbEntity
  8
LW 5026-32-00
100
AcDbVertex
100
AcDb2dVertex
 10
39.04740001678467
 20
-20.59347152710393
 30
0.0
  0
VERTEX
  5
63A8
330
6395
100
AcDbEntity
  8
LW 5026-32-00
100
AcDbVertex
100
AcDb2dVertex
 10
39.28776528358459
 20
-20.71255683899346
 30
0.0
  0
VERTEX
  5
63A9
330
6395
100
AcDbEntity
  8
LW 5026-32-00
100
AcDbVertex
100
AcDb2dVertex
 10
39.49847723960876
 20
-20.84645748138848
 30
0.0
  0
VERTEX
  5
63AA
330
6395
100
AcDbEntity
  8
LW 5026-32-00
100
AcDbVertex
100
AcDb2dVertex
 10
39.68169476509094
 20
-20.9959340095561
 30
0.0
  0
VERTEX
  5
63AB
330
6395
100
AcDbEntity
  8
LW 5026-32-00
100
AcDbVertex
100
AcDb2dVertex
 10
39.82957746505737
 20
-21.15626573563031
 30
0.0
  0
VERTEX
  5
63AC
330
6395
100
AcDbEntity
  8
LW 5026-32-00
100
AcDbVertex
100
AcDb2dVertex
 10
39.93565704345703
 20
-21.32250547409455
 30
0.0
  0
VERTEX
  5
63AD
330
6395
100
AcDbEntity
  8
LW 5026-32-00
100
AcDbVertex
100
AcDb2dVertex
 10
39.99898697853088
 20
-21.48914575577169
 30
0.0
  0
VERTEX
  5
63AE
330
6395
100
AcDbEntity
  8
LW 5026-32-00
100
AcDbVertex
100
AcDb2dVertex
 10
40.01999999999999
 20
-21.65063619614023
 30
0.0
  0
SEQEND
  5
63AF
330
6395
100
AcDbEntity
  8
LW 5026-32-00
  0
POLYLINE
  5
63B0
330
6377
100
AcDbEntity
  8
LW 5026-32-00
100
AcDb2dPolyline
 66
     1
 10
0.0
 20
0.0
 30
0.0
 70
   128
  0
VERTEX
  5
63B1
330
63B0
100
AcDbEntity
  8
LW 5026-32-00
100
AcDbVertex
100
AcDb2dVertex
 10
40.01999999999999
 20
21.65063619613272
 30
0.0
  0
VERTEX
  5
63B2
330
63B0
100
AcDbEntity
  8
LW 5026-32-00
100
AcDbVertex
100
AcDb2dVertex
 10
39.99898697853088
 20
21.48914575576396
 30
0.0
  0
VERTEX
  5
63B3
330
63B0
100
AcDbEntity
  8
LW 5026-32-00
100
AcDbVertex
100
AcDb2dVertex
 10
39.93565704345703
 20
21.3225054740866
 30
0.0
  0
VERTEX
  5
63B4
330
63B0
100
AcDbEntity
  8
LW 5026-32-00
100
AcDbVertex
100
AcDb2dVertex
 10
39.82957746505737
 20
21.15626573562213
 30
0.0
  0
VERTEX
  5
63B5
330
63B0
100
AcDbEntity
  8
LW 5026-32-00
100
AcDbVertex
100
AcDb2dVertex
 10
39.68169476509094
 20
20.99593400954791
 30
0.0
  0
VERTEX
  5
63B6
330
63B0
100
AcDbEntity
  8
LW 5026-32-00
100
AcDbVertex
100
AcDb2dVertex
 10
39.49847723960876
 20
20.84645748138007
 30
0.0
  0
VERTEX
  5
63B7
330
63B0
100
AcDbEntity
  8
LW 5026-32-00
100
AcDbVertex
100
AcDb2dVertex
 10
39.28776528358459
 20
20.71255683898505
 30
0.0
  0
VERTEX
  5
63B8
330
63B0
100
AcDbEntity
  8
LW 5026-32-00
100
AcDbVertex
100
AcDb2dVertex
 10
39.04740001678467
 20
20.59347152709529
 30
0.0
  0
VERTEX
  5
63B9
330
63B0
100
AcDbEntity
  8
LW 5026-32-00
100
AcDbVertex
100
AcDb2dVertex
 10
38.77476121902466
 20
20.48868179320857
 30
0.0
  0
VERTEX
  5
63BA
330
63B0
100
AcDbEntity
  8
LW 5026-32-00
100
AcDbVertex
100
AcDb2dVertex
 10
38.47699787139892
 20
20.40325641631648
 30
0.0
  0
VERTEX
  5
63BB
330
63B0
100
AcDbEntity
  8
LW 5026-32-00
100
AcDbVertex
100
AcDb2dVertex
 10
38.16183115959167
 20
20.34152984618708
 30
0.0
  0
VERTEX
  5
63BC
330
63B0
100
AcDbEntity
  8
LW 5026-32-00
100
AcDbVertex
100
AcDb2dVertex
 10
37.8392925453186
 20
20.30447006225154
 30
0.0
  0
VERTEX
  5
63BD
330
63B0
100
AcDbEntity
  8
LW 5026-32-00
100
AcDbVertex
100
AcDb2dVertex
 10
37.52
 20
20.29211044311091
 30
0.0
  0
VERTEX
  5
63BE
330
63B0
100
AcDbEntity
  8
LW 5026-32-00
100
AcDbVertex
100
AcDb2dVertex
 10
37.20070745468139
 20
20.30447006225154
 30
0.0
  0
VERTEX
  5
63BF
330
63B0
100
AcDbEntity
  8
LW 5026-32-00
100
AcDbVertex
100
AcDb2dVertex
 10
36.87816884040832
 20
20.34152984618708
 30
0.0
  0
VERTEX
  5
63C0
330
63B0
100
AcDbEntity
  8
LW 5026-32-00
100
AcDbVertex
100
AcDb2dVertex
 10
36.56300212860107
 20
20.40325641631648
 30
0.0
  0
VERTEX
  5
63C1
330
63B0
100
AcDbEntity
  8
LW 5026-32-00
100
AcDbVertex
100
AcDb2dVertex
 10
36.26523878097534
 20
20.48868179320857
 30
0.0
  0
VERTEX
  5
63C2
330
63B0
100
AcDbEntity
  8
LW 5026-32-00
100
AcDbVertex
100
AcDb2dVertex
 10
35.99259998321533
 20
20.59347152709529
 30
0.0
  0
VERTEX
  5
63C3
330
63B0
100
AcDbEntity
  8
LW 5026-32-00
100
AcDbVertex
100
AcDb2dVertex
 10
35.7522347164154
 20
20.71255683898505
 30
0.0
  0
VERTEX
  5
63C4
330
63B0
100
AcDbEntity
  8
LW 5026-32-00
100
AcDbVertex
100
AcDb2dVertex
 10
35.54152276039123
 20
20.84645748138007
 30
0.0
  0
VERTEX
  5
63C5
330
63B0
100
AcDbEntity
  8
LW 5026-32-00
100
AcDbVertex
100
AcDb2dVertex
 10
35.35830523490905
 20
20.99593400954791
 30
0.0
  0
VERTEX
  5
63C6
330
63B0
100
AcDbEntity
  8
LW 5026-32-00
100
AcDbVertex
100
AcDb2dVertex
 10
35.21042253494262
 20
21.15626573562213
 30
0.0
  0
VERTEX
  5
63C7
330
63B0
100
AcDbEntity
  8
LW 5026-32-00
100
AcDbVertex
100
AcDb2dVertex
 10
35.10434295654297
 20
21.3225054740866
 30
0.0
  0
VERTEX
  5
63C8
330
63B0
100
AcDbEntity
  8
LW 5026-32-00
100
AcDbVertex
100
AcDb2dVertex
 10
35.04101302146911
 20
21.48914575576396
 30
0.0
  0
VERTEX
  5
63C9
330
63B0
100
AcDbEntity
  8
LW 5026-32-00
100
AcDbVertex
100
AcDb2dVertex
 10
35.02
 20
21.65063619613272
 30
0.0
  0
SEQEND
  5
63CA
330
63B0
100
AcDbEntity
  8
LW 5026-32-00
  0
POLYLINE
  5
63CB
330
6377
100
AcDbEntity
  8
LW 5026-32-00
100
AcDb2dPolyline
 66
     1
 10
0.0
 20
0.0
 30
0.0
 70
   128
  0
VERTEX
  5
63CC
330
63CB
100
AcDbEntity
  8
LW 5026-32-00
100
AcDbVertex
100
AcDb2dVertex
 10
35.02
 20
21.65063619613272
 30
0.0
  0
VERTEX
  5
63CD
330
63CB
100
AcDbEntity
  8
LW 5026-32-00
100
AcDbVertex
100
AcDb2dVertex
 10
35.04101302146911
 20
21.80843830108279
 30
0.0
  0
VERTEX
  5
63CE
330
63CB
100
AcDbEntity
  8
LW 5026-32-00
100
AcDbVertex
100
AcDb2dVertex
 10
35.10434295654297
 20
21.96433782577151
 30
0.0
  0
VERTEX
  5
63CF
330
63CB
100
AcDbEntity
  8
LW 5026-32-00
100
AcDbVertex
100
AcDb2dVertex
 10
35.21042253494262
 20
22.1132659912073
 30
0.0
  0
VERTEX
  5
63D0
330
63CB
100
AcDbEntity
  8
LW 5026-32-00
100
AcDbVertex
100
AcDb2dVertex
 10
35.35830523490905
 20
22.25069761275904
 30
0.0
  0
VERTEX
  5
63D1
330
63CB
100
AcDbEntity
  8
LW 5026-32-00
100
AcDbVertex
100
AcDb2dVertex
 10
35.54152276039123
 20
22.37386226653712
 30
0.0
  0
VERTEX
  5
63D2
330
63CB
100
AcDbEntity
  8
LW 5026-32-00
100
AcDbVertex
100
AcDb2dVertex
 10
35.7522347164154
 20
22.48032569884913
 30
0.0
  0
VERTEX
  5
63D3
330
63CB
100
AcDbEntity
  8
LW 5026-32-00
100
AcDbVertex
100
AcDb2dVertex
 10
35.99259998321533
 20
22.57195234298388
 30
0.0
  0
VERTEX
  5
63D4
330
63CB
100
AcDbEntity
  8
LW 5026-32-00
100
AcDbVertex
100
AcDb2dVertex
 10
36.26523878097534
 20
22.65038013457933
 30
0.0
  0
VERTEX
  5
63D5
330
63CB
100
AcDbEntity
  8
LW 5026-32-00
100
AcDbVertex
100
AcDb2dVertex
 10
36.56300212860107
 20
22.71283626556078
 30
0.0
  0
VERTEX
  5
63D6
330
63CB
100
AcDbEntity
  8
LW 5026-32-00
100
AcDbVertex
100
AcDb2dVertex
 10
36.87816884040832
 20
22.75718688964525
 30
0.0
  0
VERTEX
  5
63D7
330
63CB
100
AcDbEntity
  8
LW 5026-32-00
100
AcDbVertex
100
AcDb2dVertex
 10
37.20070745468139
 20
22.78345584869066
 30
0.0
  0
VERTEX
  5
63D8
330
63CB
100
AcDbEntity
  8
LW 5026-32-00
100
AcDbVertex
100
AcDb2dVertex
 10
37.52
 20
22.79211044311205
 30
0.0
  0
VERTEX
  5
63D9
330
63CB
100
AcDbEntity
  8
LW 5026-32-00
100
AcDbVertex
100
AcDb2dVertex
 10
37.8392925453186
 20
22.78345584869066
 30
0.0
  0
VERTEX
  5
63DA
330
63CB
100
AcDbEntity
  8
LW 5026-32-00
100
AcDbVertex
100
AcDb2dVertex
 10
38.16183115959167
 20
22.75718688964525
 30
0.0
  0
VERTEX
  5
63DB
330
63CB
100
AcDbEntity
  8
LW 5026-32-00
100
AcDbVertex
100
AcDb2dVertex
 10
38.47699787139892
 20
22.71283626556078
 30
0.0
  0
VERTEX
  5
63DC
330
63CB
100
AcDbEntity
  8
LW 5026-32-00
100
AcDbVertex
100
AcDb2dVertex
 10
38.77476121902466
 20
22.65038013457933
 30
0.0
  0
VERTEX
  5
63DD
330
63CB
100
AcDbEntity
  8
LW 5026-32-00
100
AcDbVertex
100
AcDb2dVertex
 10
39.04740001678467
 20
22.57195234298388
 30
0.0
  0
VERTEX
  5
63DE
330
63CB
100
AcDbEntity
  8
LW 5026-32-00
100
AcDbVertex
100
AcDb2dVertex
 10
39.28776528358459
 20
22.48032569884913
 30
0.0
  0
VERTEX
  5
63DF
330
63CB
100
AcDbEntity
  8
LW 5026-32-00
100
AcDbVertex
100
AcDb2dVertex
 10
39.49847723960876
 20
22.37386226653712
 30
0.0
  0
VERTEX
  5
63E0
330
63CB
100
AcDbEntity
  8
LW 5026-32-00
100
AcDbVertex
100
AcDb2dVertex
 10
39.68169476509094
 20
22.25069761275904
 30
0.0
  0
VERTEX
  5
63E1
330
63CB
100
AcDbEntity
  8
LW 5026-32-00
100
AcDbVertex
100
AcDb2dVertex
 10
39.82957746505737
 20
22.1132659912073
 30
0.0
  0
VERTEX
  5
63E2
330
63CB
100
AcDbEntity
  8
LW 5026-32-00
100
AcDbVertex
100
AcDb2dVertex
 10
39.93565704345703
 20
21.96433782577151
 30
0.0
  0
VERTEX
  5
63E3
330
63CB
100
AcDbEntity
  8
LW 5026-32-00
100
AcDbVertex
100
AcDb2dVertex
 10
39.99898697853088
 20
21.80843830108279
 30
0.0
  0
VERTEX
  5
63E4
330
63CB
100
AcDbEntity
  8
LW 5026-32-00
100
AcDbVertex
100
AcDb2dVertex
 10
40.01999999999999
 20
21.65063619613272
 30
0.0
  0
SEQEND
  5
63E5
330
63CB
100
AcDbEntity
  8
LW 5026-32-00
  0
LINE
  5
63E6
330
6377
100
AcDbEntity
  8
LW 5026-32-00
100
AcDbLine
 10
41.52
 20
-25.0
 30
0.0
 11
41.52
 21
25.0
 31
0.0
  0
LINE
  5
63E7
330
6377
100
AcDbEntity
  8
LW 5026-32-00
100
AcDbLine
 10
47.51999999999999
 20
-19.0
 30
0.0
 11
47.51999999999999
 21
19.0
 31
0.0
  0
LINE
  5
63E8
330
6377
100
AcDbEntity
  8
LW 5026-32-00
100
AcDbLine
 10
22.52
 20
25.0
 30
0.0
 11
41.52
 21
25.0
 31
0.0
  0
LINE
  5
63E9
330
6377
100
AcDbEntity
  8
LW 5026-32-00
100
AcDbLine
 10
22.52
 20
-25.0
 30
0.0
 11
41.52
 21
-25.0
 31
0.0
  0
LINE
  5
63EA
330
6377
100
AcDbEntity
  8
LW 5026-32-00
100
AcDbLine
 10
47.51999999999999
 20
-19.0
 30
0.0
 11
41.52
 21
-25.0
 31
0.0
  0
LINE
  5
63EB
330
6377
100
AcDbEntity
  8
LW 5026-32-00
100
AcDbLine
 10
47.51999999999999
 20
19.0
 30
0.0
 11
41.52
 21
25.0
 31
0.0
  0
POLYLINE
  5
63EC
330
6377
100
AcDbEntity
  8
LW 5026-32-00
100
AcDb2dPolyline
 66
     1
 10
0.0
 20
0.0
 30
0.0
 70
   128
  0
VERTEX
  5
63ED
330
63EC
100
AcDbEntity
  8
LW 5026-32-00
100
AcDbVertex
100
AcDb2dVertex
 10
-40.01999999999999
 20
21.65063619613272
 30
0.0
  0
VERTEX
  5
63EE
330
63EC
100
AcDbEntity
  8
LW 5026-32-00
100
AcDbVertex
100
AcDb2dVertex
 10
-39.99898697853088
 20
21.80843830108279
 30
0.0
  0
VERTEX
  5
63EF
330
63EC
100
AcDbEntity
  8
LW 5026-32-00
100
AcDbVertex
100
AcDb2dVertex
 10
-39.93565704345703
 20
21.96433782577151
 30
0.0
  0
VERTEX
  5
63F0
330
63EC
100
AcDbEntity
  8
LW 5026-32-00
100
AcDbVertex
100
AcDb2dVertex
 10
-39.82957746505737
 20
22.1132659912073
 30
0.0
  0
VERTEX
  5
63F1
330
63EC
100
AcDbEntity
  8
LW 5026-32-00
100
AcDbVertex
100
AcDb2dVertex
 10
-39.68169476509094
 20
22.25069761275904
 30
0.0
  0
VERTEX
  5
63F2
330
63EC
100
AcDbEntity
  8
LW 5026-32-00
100
AcDbVertex
100
AcDb2dVertex
 10
-39.49847723960876
 20
22.37386226653712
 30
0.0
  0
VERTEX
  5
63F3
330
63EC
100
AcDbEntity
  8
LW 5026-32-00
100
AcDbVertex
100
AcDb2dVertex
 10
-39.28776528358459
 20
22.48032569884913
 30
0.0
  0
VERTEX
  5
63F4
330
63EC
100
AcDbEntity
  8
LW 5026-32-00
100
AcDbVertex
100
AcDb2dVertex
 10
-39.04740001678467
 20
22.57195234298388
 30
0.0
  0
VERTEX
  5
63F5
330
63EC
100
AcDbEntity
  8
LW 5026-32-00
100
AcDbVertex
100
AcDb2dVertex
 10
-38.77476121902466
 20
22.65038013457933
 30
0.0
  0
VERTEX
  5
63F6
330
63EC
100
AcDbEntity
  8
LW 5026-32-00
100
AcDbVertex
100
AcDb2dVertex
 10
-38.47699787139892
 20
22.71283626556078
 30
0.0
  0
VERTEX
  5
63F7
330
63EC
100
AcDbEntity
  8
LW 5026-32-00
100
AcDbVertex
100
AcDb2dVertex
 10
-38.16183115959167
 20
22.75718688964525
 30
0.0
  0
VERTEX
  5
63F8
330
63EC
100
AcDbEntity
  8
LW 5026-32-00
100
AcDbVertex
100
AcDb2dVertex
 10
-37.8392925453186
 20
22.78345584869066
 30
0.0
  0
VERTEX
  5
63F9
330
63EC
100
AcDbEntity
  8
LW 5026-32-00
100
AcDbVertex
100
AcDb2dVertex
 10
-37.52
 20
22.79211044311205
 30
0.0
  0
VERTEX
  5
63FA
330
63EC
100
AcDbEntity
  8
LW 5026-32-00
100
AcDbVertex
100
AcDb2dVertex
 10
-37.20070745468139
 20
22.78345584869066
 30
0.0
  0
VERTEX
  5
63FB
330
63EC
100
AcDbEntity
  8
LW 5026-32-00
100
AcDbVertex
100
AcDb2dVertex
 10
-36.87816884040832
 20
22.75718688964525
 30
0.0
  0
VERTEX
  5
63FC
330
63EC
100
AcDbEntity
  8
LW 5026-32-00
100
AcDbVertex
100
AcDb2dVertex
 10
-36.56300212860107
 20
22.71283626556078
 30
0.0
  0
VERTEX
  5
63FD
330
63EC
100
AcDbEntity
  8
LW 5026-32-00
100
AcDbVertex
100
AcDb2dVertex
 10
-36.26523878097534
 20
22.65038013457933
 30
0.0
  0
VERTEX
  5
63FE
330
63EC
100
AcDbEntity
  8
LW 5026-32-00
100
AcDbVertex
100
AcDb2dVertex
 10
-35.99259998321533
 20
22.57195234298388
 30
0.0
  0
VERTEX
  5
63FF
330
63EC
100
AcDbEntity
  8
LW 5026-32-00
100
AcDbVertex
100
AcDb2dVertex
 10
-35.7522347164154
 20
22.48032569884913
 30
0.0
  0
VERTEX
  5
6400
330
63EC
100
AcDbEntity
  8
LW 5026-32-00
100
AcDbVertex
100
AcDb2dVertex
 10
-35.54152276039123
 20
22.37386226653712
 30
0.0
  0
VERTEX
  5
6401
330
63EC
100
AcDbEntity
  8
LW 5026-32-00
100
AcDbVertex
100
AcDb2dVertex
 10
-35.35830523490905
 20
22.25069761275904
 30
0.0
  0
VERTEX
  5
6402
330
63EC
100
AcDbEntity
  8
LW 5026-32-00
100
AcDbVertex
100
AcDb2dVertex
 10
-35.21042253494262
 20
22.1132659912073
 30
0.0
  0
VERTEX
  5
6403
330
63EC
100
AcDbEntity
  8
LW 5026-32-00
100
AcDbVertex
100
AcDb2dVertex
 10
-35.10434295654297
 20
21.96433782577151
 30
0.0
  0
VERTEX
  5
6404
330
63EC
100
AcDbEntity
  8
LW 5026-32-00
100
AcDbVertex
100
AcDb2dVertex
 10
-35.04101302146911
 20
21.80843830108279
 30
0.0
  0
VERTEX
  5
6405
330
63EC
100
AcDbEntity
  8
LW 5026-32-00
100
AcDbVertex
100
AcDb2dVertex
 10
-35.02
 20
21.65063619613272
 30
0.0
  0
SEQEND
  5
6406
330
63EC
100
AcDbEntity
  8
LW 5026-32-00
  0
POLYLINE
  5
6407
330
6377
100
AcDbEntity
  8
LW 5026-32-00
100
AcDb2dPolyline
 66
     1
 10
0.0
 20
0.0
 30
0.0
 70
   128
  0
VERTEX
  5
6408
330
6407
100
AcDbEntity
  8
LW 5026-32-00
100
AcDbVertex
100
AcDb2dVertex
 10
-35.02
 20
21.65063619613272
 30
0.0
  0
VERTEX
  5
6409
330
6407
100
AcDbEntity
  8
LW 5026-32-00
100
AcDbVertex
100
AcDb2dVertex
 10
-35.04101302146911
 20
21.48914575576396
 30
0.0
  0
VERTEX
  5
640A
330
6407
100
AcDbEntity
  8
LW 5026-32-00
100
AcDbVertex
100
AcDb2dVertex
 10
-35.10434295654297
 20
21.3225054740866
 30
0.0
  0
VERTEX
  5
640B
330
6407
100
AcDbEntity
  8
LW 5026-32-00
100
AcDbVertex
100
AcDb2dVertex
 10
-35.21042253494262
 20
21.15626573562213
 30
0.0
  0
VERTEX
  5
640C
330
6407
100
AcDbEntity
  8
LW 5026-32-00
100
AcDbVertex
100
AcDb2dVertex
 10
-35.35830523490905
 20
20.99593400954791
 30
0.0
  0
VERTEX
  5
640D
330
6407
100
AcDbEntity
  8
LW 5026-32-00
100
AcDbVertex
100
AcDb2dVertex
 10
-35.54152276039123
 20
20.84645748138007
 30
0.0
  0
VERTEX
  5
640E
330
6407
100
AcDbEntity
  8
LW 5026-32-00
100
AcDbVertex
100
AcDb2dVertex
 10
-35.7522347164154
 20
20.71255683898494
 30
0.0
  0
VERTEX
  5
640F
330
6407
100
AcDbEntity
  8
LW 5026-32-00
100
AcDbVertex
100
AcDb2dVertex
 10
-35.99259998321533
 20
20.59347152709529
 30
0.0
  0
VERTEX
  5
6410
330
6407
100
AcDbEntity
  8
LW 5026-32-00
100
AcDbVertex
100
AcDb2dVertex
 10
-36.26523878097534
 20
20.48868179320857
 30
0.0
  0
VERTEX
  5
6411
330
6407
100
AcDbEntity
  8
LW 5026-32-00
100
AcDbVertex
100
AcDb2dVertex
 10
-36.56300212860107
 20
20.40325641631648
 30
0.0
  0
VERTEX
  5
6412
330
6407
100
AcDbEntity
  8
LW 5026-32-00
100
AcDbVertex
100
AcDb2dVertex
 10
-36.87816884040832
 20
20.34152984618708
 30
0.0
  0
VERTEX
  5
6413
330
6407
100
AcDbEntity
  8
LW 5026-32-00
100
AcDbVertex
100
AcDb2dVertex
 10
-37.20070745468139
 20
20.30447006225154
 30
0.0
  0
VERTEX
  5
6414
330
6407
100
AcDbEntity
  8
LW 5026-32-00
100
AcDbVertex
100
AcDb2dVertex
 10
-37.52
 20
20.29211044311091
 30
0.0
  0
VERTEX
  5
6415
330
6407
100
AcDbEntity
  8
LW 5026-32-00
100
AcDbVertex
100
AcDb2dVertex
 10
-37.8392925453186
 20
20.30447006225154
 30
0.0
  0
VERTEX
  5
6416
330
6407
100
AcDbEntity
  8
LW 5026-32-00
100
AcDbVertex
100
AcDb2dVertex
 10
-38.16183115959167
 20
20.34152984618708
 30
0.0
  0
VERTEX
  5
6417
330
6407
100
AcDbEntity
  8
LW 5026-32-00
100
AcDbVertex
100
AcDb2dVertex
 10
-38.47699787139892
 20
20.40325641631648
 30
0.0
  0
VERTEX
  5
6418
330
6407
100
AcDbEntity
  8
LW 5026-32-00
100
AcDbVertex
100
AcDb2dVertex
 10
-38.77476121902466
 20
20.48868179320857
 30
0.0
  0
VERTEX
  5
6419
330
6407
100
AcDbEntity
  8
LW 5026-32-00
100
AcDbVertex
100
AcDb2dVertex
 10
-39.04740001678467
 20
20.59347152709529
 30
0.0
  0
VERTEX
  5
641A
330
6407
100
AcDbEntity
  8
LW 5026-32-00
100
AcDbVertex
100
AcDb2dVertex
 10
-39.28776528358459
 20
20.71255683898494
 30
0.0
  0
VERTEX
  5
641B
330
6407
100
AcDbEntity
  8
LW 5026-32-00
100
AcDbVertex
100
AcDb2dVertex
 10
-39.49847723960876
 20
20.84645748138007
 30
0.0
  0
VERTEX
  5
641C
330
6407
100
AcDbEntity
  8
LW 5026-32-00
100
AcDbVertex
100
AcDb2dVertex
 10
-39.68169476509094
 20
20.99593400954791
 30
0.0
  0
VERTEX
  5
641D
330
6407
100
AcDbEntity
  8
LW 5026-32-00
100
AcDbVertex
100
AcDb2dVertex
 10
-39.82957746505737
 20
21.15626573562213
 30
0.0
  0
VERTEX
  5
641E
330
6407
100
AcDbEntity
  8
LW 5026-32-00
100
AcDbVertex
100
AcDb2dVertex
 10
-39.93565704345703
 20
21.3225054740866
 30
0.0
  0
VERTEX
  5
641F
330
6407
100
AcDbEntity
  8
LW 5026-32-00
100
AcDbVertex
100
AcDb2dVertex
 10
-39.99898697853088
 20
21.48914575576396
 30
0.0
  0
VERTEX
  5
6420
330
6407
100
AcDbEntity
  8
LW 5026-32-00
100
AcDbVertex
100
AcDb2dVertex
 10
-40.01999999999999
 20
21.65063619613272
 30
0.0
  0
SEQEND
  5
6421
330
6407
100
AcDbEntity
  8
LW 5026-32-00
  0
POLYLINE
  5
6422
330
6377
100
AcDbEntity
  8
LW 5026-32-00
100
AcDb2dPolyline
 66
     1
 10
0.0
 20
0.0
 30
0.0
 70
   128
  0
VERTEX
  5
6423
330
6422
100
AcDbEntity
  8
LW 5026-32-00
100
AcDbVertex
100
AcDb2dVertex
 10
-40.01999999999999
 20
-21.65063619614023
 30
0.0
  0
VERTEX
  5
6424
330
6422
100
AcDbEntity
  8
LW 5026-32-00
100
AcDbVertex
100
AcDb2dVertex
 10
-39.99898697853088
 20
-21.48914575577169
 30
0.0
  0
VERTEX
  5
6425
330
6422
100
AcDbEntity
  8
LW 5026-32-00
100
AcDbVertex
100
AcDb2dVertex
 10
-39.93565704345703
 20
-21.32250547409455
 30
0.0
  0
VERTEX
  5
6426
330
6422
100
AcDbEntity
  8
LW 5026-32-00
100
AcDbVertex
100
AcDb2dVertex
 10
-39.82957746505737
 20
-21.15626573563031
 30
0.0
  0
VERTEX
  5
6427
330
6422
100
AcDbEntity
  8
LW 5026-32-00
100
AcDbVertex
100
AcDb2dVertex
 10
-39.68169476509094
 20
-20.9959340095561
 30
0.0
  0
VERTEX
  5
6428
330
6422
100
AcDbEntity
  8
LW 5026-32-00
100
AcDbVertex
100
AcDb2dVertex
 10
-39.49847723960876
 20
-20.84645748138848
 30
0.0
  0
VERTEX
  5
6429
330
6422
100
AcDbEntity
  8
LW 5026-32-00
100
AcDbVertex
100
AcDb2dVertex
 10
-39.28776528358459
 20
-20.71255683899358
 30
0.0
  0
VERTEX
  5
642A
330
6422
100
AcDbEntity
  8
LW 5026-32-00
100
AcDbVertex
100
AcDb2dVertex
 10
-39.04740001678467
 20
-20.59347152710393
 30
0.0
  0
VERTEX
  5
642B
330
6422
100
AcDbEntity
  8
LW 5026-32-00
100
AcDbVertex
100
AcDb2dVertex
 10
-38.77476121902466
 20
-20.48868179321721
 30
0.0
  0
VERTEX
  5
642C
330
6422
100
AcDbEntity
  8
LW 5026-32-00
100
AcDbVertex
100
AcDb2dVertex
 10
-38.47699787139892
 20
-20.40325641632512
 30
0.0
  0
VERTEX
  5
642D
330
6422
100
AcDbEntity
  8
LW 5026-32-00
100
AcDbVertex
100
AcDb2dVertex
 10
-38.16183115959167
 20
-20.34152984619573
 30
0.0
  0
VERTEX
  5
642E
330
6422
100
AcDbEntity
  8
LW 5026-32-00
100
AcDbVertex
100
AcDb2dVertex
 10
-37.8392925453186
 20
-20.30447006226018
 30
0.0
  0
VERTEX
  5
642F
330
6422
100
AcDbEntity
  8
LW 5026-32-00
100
AcDbVertex
100
AcDb2dVertex
 10
-37.52
 20
-20.29211044311955
 30
0.0
  0
VERTEX
  5
6430
330
6422
100
AcDbEntity
  8
LW 5026-32-00
100
AcDbVertex
100
AcDb2dVertex
 10
-37.20070745468139
 20
-20.30447006226018
 30
0.0
  0
VERTEX
  5
6431
330
6422
100
AcDbEntity
  8
LW 5026-32-00
100
AcDbVertex
100
AcDb2dVertex
 10
-36.87816884040832
 20
-20.34152984619573
 30
0.0
  0
VERTEX
  5
6432
330
6422
100
AcDbEntity
  8
LW 5026-32-00
100
AcDbVertex
100
AcDb2dVertex
 10
-36.56300212860107
 20
-20.40325641632512
 30
0.0
  0
VERTEX
  5
6433
330
6422
100
AcDbEntity
  8
LW 5026-32-00
100
AcDbVertex
100
AcDb2dVertex
 10
-36.26523878097534
 20
-20.48868179321721
 30
0.0
  0
VERTEX
  5
6434
330
6422
100
AcDbEntity
  8
LW 5026-32-00
100
AcDbVertex
100
AcDb2dVertex
 10
-35.99259998321533
 20
-20.59347152710393
 30
0.0
  0
VERTEX
  5
6435
330
6422
100
AcDbEntity
  8
LW 5026-32-00
100
AcDbVertex
100
AcDb2dVertex
 10
-35.7522347164154
 20
-20.71255683899358
 30
0.0
  0
VERTEX
  5
6436
330
6422
100
AcDbEntity
  8
LW 5026-32-00
100
AcDbVertex
100
AcDb2dVertex
 10
-35.54152276039123
 20
-20.84645748138848
 30
0.0
  0
VERTEX
  5
6437
330
6422
100
AcDbEntity
  8
LW 5026-32-00
100
AcDbVertex
100
AcDb2dVertex
 10
-35.35830523490905
 20
-20.9959340095561
 30
0.0
  0
VERTEX
  5
6438
330
6422
100
AcDbEntity
  8
LW 5026-32-00
100
AcDbVertex
100
AcDb2dVertex
 10
-35.21042253494262
 20
-21.15626573563031
 30
0.0
  0
VERTEX
  5
6439
330
6422
100
AcDbEntity
  8
LW 5026-32-00
100
AcDbVertex
100
AcDb2dVertex
 10
-35.10434295654297
 20
-21.32250547409455
 30
0.0
  0
VERTEX
  5
643A
330
6422
100
AcDbEntity
  8
LW 5026-32-00
100
AcDbVertex
100
AcDb2dVertex
 10
-35.04101302146911
 20
-21.48914575577169
 30
0.0
  0
VERTEX
  5
643B
330
6422
100
AcDbEntity
  8
LW 5026-32-00
100
AcDbVertex
100
AcDb2dVertex
 10
-35.02
 20
-21.65063619614023
 30
0.0
  0
SEQEND
  5
643C
330
6422
100
AcDbEntity
  8
LW 5026-32-00
  0
POLYLINE
  5
643D
330
6377
100
AcDbEntity
  8
LW 5026-32-00
100
AcDb2dPolyline
 66
     1
 10
0.0
 20
0.0
 30
0.0
 70
   128
  0
VERTEX
  5
643E
330
643D
100
AcDbEntity
  8
LW 5026-32-00
100
AcDbVertex
100
AcDb2dVertex
 10
-35.02
 20
-21.65063619614023
 30
0.0
  0
VERTEX
  5
643F
330
643D
100
AcDbEntity
  8
LW 5026-32-00
100
AcDbVertex
100
AcDb2dVertex
 10
-35.04101302146911
 20
-21.80843830109006
 30
0.0
  0
VERTEX
  5
6440
330
643D
100
AcDbEntity
  8
LW 5026-32-00
100
AcDbVertex
100
AcDb2dVertex
 10
-35.10434295654297
 20
-21.96433782577878
 30
0.0
  0
VERTEX
  5
6441
330
643D
100
AcDbEntity
  8
LW 5026-32-00
100
AcDbVertex
100
AcDb2dVertex
 10
-35.21042253494262
 20
-22.11326599121457
 30
0.0
  0
VERTEX
  5
6442
330
643D
100
AcDbEntity
  8
LW 5026-32-00
100
AcDbVertex
100
AcDb2dVertex
 10
-35.35830523490905
 20
-22.25069761276586
 30
0.0
  0
VERTEX
  5
6443
330
643D
100
AcDbEntity
  8
LW 5026-32-00
100
AcDbVertex
100
AcDb2dVertex
 10
-35.54152276039123
 20
-22.37386226654394
 30
0.0
  0
VERTEX
  5
6444
330
643D
100
AcDbEntity
  8
LW 5026-32-00
100
AcDbVertex
100
AcDb2dVertex
 10
-35.7522347164154
 20
-22.48032569885595
 30
0.0
  0
VERTEX
  5
6445
330
643D
100
AcDbEntity
  8
LW 5026-32-00
100
AcDbVertex
100
AcDb2dVertex
 10
-35.99259998321533
 20
-22.57195234299024
 30
0.0
  0
VERTEX
  5
6446
330
643D
100
AcDbEntity
  8
LW 5026-32-00
100
AcDbVertex
100
AcDb2dVertex
 10
-36.26523878097534
 20
-22.6503801345857
 30
0.0
  0
VERTEX
  5
6447
330
643D
100
AcDbEntity
  8
LW 5026-32-00
100
AcDbVertex
100
AcDb2dVertex
 10
-36.56300212860107
 20
-22.71283626556715
 30
0.0
  0
VERTEX
  5
6448
330
643D
100
AcDbEntity
  8
LW 5026-32-00
100
AcDbVertex
100
AcDb2dVertex
 10
-36.87816884040832
 20
-22.75718688965162
 30
0.0
  0
VERTEX
  5
6449
330
643D
100
AcDbEntity
  8
LW 5026-32-00
100
AcDbVertex
100
AcDb2dVertex
 10
-37.20070745468139
 20
-22.78345584869703
 30
0.0
  0
VERTEX
  5
644A
330
643D
100
AcDbEntity
  8
LW 5026-32-00
100
AcDbVertex
100
AcDb2dVertex
 10
-37.52
 20
-22.79211044311842
 30
0.0
  0
VERTEX
  5
644B
330
643D
100
AcDbEntity
  8
LW 5026-32-00
100
AcDbVertex
100
AcDb2dVertex
 10
-37.8392925453186
 20
-22.78345584869703
 30
0.0
  0
VERTEX
  5
644C
330
643D
100
AcDbEntity
  8
LW 5026-32-00
100
AcDbVertex
100
AcDb2dVertex
 10
-38.16183115959167
 20
-22.75718688965162
 30
0.0
  0
VERTEX
  5
644D
330
643D
100
AcDbEntity
  8
LW 5026-32-00
100
AcDbVertex
100
AcDb2dVertex
 10
-38.47699787139892
 20
-22.71283626556715
 30
0.0
  0
VERTEX
  5
644E
330
643D
100
AcDbEntity
  8
LW 5026-32-00
100
AcDbVertex
100
AcDb2dVertex
 10
-38.77476121902466
 20
-22.6503801345857
 30
0.0
  0
VERTEX
  5
644F
330
643D
100
AcDbEntity
  8
LW 5026-32-00
100
AcDbVertex
100
AcDb2dVertex
 10
-39.04740001678467
 20
-22.57195234299024
 30
0.0
  0
VERTEX
  5
6450
330
643D
100
AcDbEntity
  8
LW 5026-32-00
100
AcDbVertex
100
AcDb2dVertex
 10
-39.28776528358459
 20
-22.48032569885595
 30
0.0
  0
VERTEX
  5
6451
330
643D
100
AcDbEntity
  8
LW 5026-32-00
100
AcDbVertex
100
AcDb2dVertex
 10
-39.49847723960876
 20
-22.37386226654394
 30
0.0
  0
VERTEX
  5
6452
330
643D
100
AcDbEntity
  8
LW 5026-32-00
100
AcDbVertex
100
AcDb2dVertex
 10
-39.68169476509094
 20
-22.25069761276586
 30
0.0
  0
VERTEX
  5
6453
330
643D
100
AcDbEntity
  8
LW 5026-32-00
100
AcDbVertex
100
AcDb2dVertex
 10
-39.82957746505737
 20
-22.11326599121457
 30
0.0
  0
VERTEX
  5
6454
330
643D
100
AcDbEntity
  8
LW 5026-32-00
100
AcDbVertex
100
AcDb2dVertex
 10
-39.93565704345703
 20
-21.96433782577878
 30
0.0
  0
VERTEX
  5
6455
330
643D
100
AcDbEntity
  8
LW 5026-32-00
100
AcDbVertex
100
AcDb2dVertex
 10
-39.99898697853088
 20
-21.80843830109006
 30
0.0
  0
VERTEX
  5
6456
330
643D
100
AcDbEntity
  8
LW 5026-32-00
100
AcDbVertex
100
AcDb2dVertex
 10
-40.01999999999999
 20
-21.65063619614023
 30
0.0
  0
SEQEND
  5
6457
330
643D
100
AcDbEntity
  8
LW 5026-32-00
  0
LINE
  5
6458
330
6377
100
AcDbEntity
  8
LW 5026-32-00
100
AcDbLine
 10
-41.52
 20
25.0
 30
0.0
 11
-41.52
 21
-25.0
 31
0.0
  0
LINE
  5
6459
330
6377
100
AcDbEntity
  8
LW 5026-32-00
100
AcDbLine
 10
-47.51999999999999
 20
19.0
 30
0.0
 11
-47.51999999999999
 21
-19.0
 31
0.0
  0
LINE
  5
645A
330
6377
100
AcDbEntity
  8
LW 5026-32-00
100
AcDbLine
 10
-141.52
 20
10.0
 30
0.0
 11
-141.52
 21
-10.0
 31
0.0
  0
LINE
  5
645B
330
6377
100
AcDbEntity
  8
LW 5026-32-00
100
AcDbLine
 10
-142.52
 20
9.0
 30
0.0
 11
-142.52
 21
-9.0
 31
0.0
  0
LINE
  5
645C
330
6377
100
AcDbEntity
  8
LW 5026-32-00
100
AcDbLine
 10
-22.52
 20
-25.0
 30
0.0
 11
-41.52
 21
-25.0
 31
0.0
  0
LINE
  5
645D
330
6377
100
AcDbEntity
  8
LW 5026-32-00
100
AcDbLine
 10
-22.52
 20
25.0
 30
0.0
 11
-41.52
 21
25.0
 31
0.0
  0
LINE
  5
645E
330
6377
100
AcDbEntity
  8
LW 5026-32-00
100
AcDbLine
 10
-47.51999999999999
 20
19.0
 30
0.0
 11
-41.52
 21
25.0
 31
0.0
  0
LINE
  5
645F
330
6377
100
AcDbEntity
  8
LW 5026-32-00
100
AcDbLine
 10
-47.51999999999999
 20
-19.0
 30
0.0
 11
-41.52
 21
-25.0
 31
0.0
  0
ARC
  5
6460
330
6377
100
AcDbEntity
  8
LW 5026-32-00
100
AcDbCircle
 10
-48.52
 20
11.0
 30
0.0
 40
1.000000000000002
100
AcDbArc
 50
270.0
 51
0.0
  0
ARC
  5
6461
330
6377
100
AcDbEntity
  8
LW 5026-32-00
100
AcDbCircle
 10
-48.52
 20
-11.0
 30
0.0
 40
1.000000000000002
100
AcDbArc
 50
0.0
 51
90.0
  0
LINE
  5
6462
330
6377
100
AcDbEntity
  8
LW 5026-32-00
100
AcDbLine
 10
-48.52
 20
-10.0
 30
0.0
 11
-93.13859338365499
 21
-10.0
 31
0.0
  0
LINE
  5
6463
330
6377
100
AcDbEntity
  8
LW 5026-32-00
100
AcDbLine
 10
-121.861406616345
 20
-10.0
 30
0.0
 11
-141.52
 21
-10.0
 31
0.0
  0
LINE
  5
6464
330
6377
100
AcDbEntity
  8
LW 5026-32-00
100
AcDbLine
 10
-48.52
 20
10.0
 30
0.0
 11
-93.13859338365499
 21
10.0
 31
0.0
  0
LINE
  5
6465
330
6377
100
AcDbEntity
  8
LW 5026-32-00
100
AcDbLine
 10
-121.8614066163452
 20
10.0
 30
0.0
 11
-141.52
 21
10.0
 31
0.0
  0
LINE
  5
6466
330
6377
100
AcDbEntity
  8
LW 5026-32-00
100
AcDbLine
 10
-142.52
 20
9.0
 30
0.0
 11
-141.52
 21
10.0
 31
0.0
  0
LINE
  5
6467
330
6377
100
AcDbEntity
  8
LW 5026-32-00
100
AcDbLine
 10
-142.52
 20
-9.0
 30
0.0
 11
-141.52
 21
-10.0
 31
0.0
  0
CIRCLE
  5
6468
330
6377
100
AcDbEntity
  8
LW 5026-32-00
100
AcDbCircle
 10
-107.5
 20
-0.000000000005457
 30
0.0
 40
17.50000000000001
  0
LINE
  5
6469
330
6377
100
AcDbEntity
  8
LW 5026-32-00
100
AcDbLine
 10
-109.4894419060381
 20
17.38654999999926
 30
0.0
 11
-110.5
 21
17.38654999999994
 31
0.0
  0
LINE
  5
646A
330
6377
100
AcDbEntity
  8
LW 5026-32-00
100
AcDbLine
 10
-104.5
 20
17.38654999999994
 30
0.0
 11
-105.5105580939616
 21
17.38654999999926
 31
0.0
  0
LINE
  5
646B
330
6377
100
AcDbEntity
  8
LW 5026-32-00
100
AcDbLine
 10
-110.1458244773657
 20
17.99999999999988
 30
0.0
 11
-104.8541755226344
 21
17.99999999999988
 31
0.0
  0
LINE
  5
646C
330
6377
100
AcDbEntity
  8
LW 5026-32-00
100
AcDbLine
 10
-104.8541755226344
 20
17.99999999999988
 30
0.0
 11
-104.5
 21
17.38654999999994
 31
0.0
  0
LINE
  5
646D
330
6377
100
AcDbEntity
  8
LW 5026-32-00
100
AcDbLine
 10
-110.1458244773657
 20
17.99999999999988
 30
0.0
 11
-110.5
 21
17.38654999999994
 31
0.0
  0
LINE
  5
646E
330
6377
100
AcDbEntity
  8
LW 5026-32-00
100
AcDbLine
 10
-110.5
 20
17.2409396495666
 30
0.0
 11
-110.5
 21
17.38654999999994
 31
0.0
  0
LINE
  5
646F
330
6377
100
AcDbEntity
  8
LW 5026-32-00
100
AcDbLine
 10
-104.5
 20
17.2409396495666
 30
0.0
 11
-104.5
 21
17.38654999999994
 31
0.0
  0
LINE
  5
6470
330
6377
100
AcDbEntity
  8
LW 5026-32-00
100
AcDbLine
 10
-109.901
 20
17.38654999999994
 30
0.0
 11
-109.901
 21
17.33450890564825
 31
0.0
  0
LINE
  5
6471
330
6377
100
AcDbEntity
  8
LW 5026-32-00
100
AcDbLine
 10
-105.0990000000001
 20
17.33450890564825
 30
0.0
 11
-105.0990000000001
 21
17.38654999999994
 31
0.0
  0
LINE
  5
6472
330
6377
100
AcDbEntity
  8
LW 5026-32-00
100
AcDbLine
 10
-109.4894419060381
 20
17.38654999999926
 30
0.0
 11
-110.5
 21
17.38654999999994
 31
0.0
  0
LINE
  5
6473
330
6377
100
AcDbEntity
  8
LW 5026-32-00
100
AcDbLine
 10
-104.5
 20
17.38654999999994
 30
0.0
 11
-105.5105580939616
 21
17.38654999999926
 31
0.0
  0
LINE
  5
6474
330
6377
100
AcDbEntity
  8
LW 5026-32-00
100
AcDbLine
 10
16.0
 20
12.0
 30
0.0
 11
16.0
 21
-12.00000000000011
 31
0.0
  0
LINE
  5
6475
330
6377
100
AcDbEntity
  8
LW 5026-32-00
100
AcDbLine
 10
-16.0
 20
12.0
 30
0.0
 11
-16.0
 21
-12.00000000000011
 31
0.0
  0
LINE
  5
6476
330
6377
100
AcDbEntity
  8
LW 5026-32-00
100
AcDbLine
 10
-16.0
 20
12.0
 30
0.0
 11
16.0
 21
12.0
 31
0.0
  0
LINE
  5
6477
330
6377
100
AcDbEntity
  8
LW 5026-32-00
100
AcDbLine
 10
-16.0
 20
-12.00000000000011
 30
0.0
 11
16.0
 21
-12.00000000000011
 31
0.0
  0
LINE
  5
6478
330
6377
100
AcDbEntity
  8
LW 5026-32-00
100
AcDbLine
 10
-19.51999999999999
 20
32.5
 30
0.0
 11
-19.51999999999999
 21
-32.5
 31
0.0
  0
LINE
  5
6479
330
6377
100
AcDbEntity
  8
LW 5026-32-00
100
AcDbLine
 10
-22.52
 20
32.5
 30
0.0
 11
-22.52
 21
-32.5
 31
0.0
  0
LINE
  5
647A
330
6377
100
AcDbEntity
  8
LW 5026-32-00
100
AcDbLine
 10
-22.52
 20
32.5
 30
0.0
 11
-19.51999999999999
 21
32.5
 31
0.0
  0
LINE
  5
647B
330
6377
100
AcDbEntity
  8
LW 5026-32-00
100
AcDbLine
 10
-22.52
 20
-32.5
 30
0.0
 11
-19.51999999999999
 21
-32.5
 31
0.0
  0
LINE
  5
647C
330
6377
100
AcDbEntity
  8
LW 5026-32-00
100
AcDbLine
 10
19.51999999999999
 20
-32.5
 30
0.0
 11
19.51999999999999
 21
32.5
 31
0.0
  0
LINE
  5
647D
330
6377
100
AcDbEntity
  8
LW 5026-32-00
100
AcDbLine
 10
22.52
 20
-32.5
 30
0.0
 11
22.52
 21
32.5
 31
0.0
  0
LINE
  5
647E
330
6377
100
AcDbEntity
  8
LW 5026-32-00
100
AcDbLine
 10
22.52
 20
-32.5
 30
0.0
 11
19.51999999999999
 21
-32.5
 31
0.0
  0
LINE
  5
647F
330
6377
100
AcDbEntity
  8
LW 5026-32-00
100
AcDbLine
 10
22.52
 20
32.5
 30
0.0
 11
19.51999999999999
 21
32.5
 31
0.0
  0
LINE
  5
6480
330
6377
100
AcDbEntity
  8
LW 5026-32-00
100
AcDbLine
 10
-17.52
 20
32.0
 30
0.0
 11
-17.52
 21
-32.00000000000012
 31
0.0
  0
LINE
  5
6481
330
6377
100
AcDbEntity
  8
LW 5026-32-00
100
AcDbLine
 10
-19.51999999999999
 20
32.0
 30
0.0
 11
-17.52
 21
32.0
 31
0.0
  0
LINE
  5
6482
330
6377
100
AcDbEntity
  8
LW 5026-32-00
100
AcDbLine
 10
-19.51999999999999
 20
-32.0
 30
0.0
 11
-17.52
 21
-32.0
 31
0.0
  0
LINE
  5
6483
330
6377
100
AcDbEntity
  8
LW 5026-32-00
100
AcDbLine
 10
17.52
 20
-32.00000000000012
 30
0.0
 11
17.52
 21
32.0
 31
0.0
  0
LINE
  5
6484
330
6377
100
AcDbEntity
  8
LW 5026-32-00
100
AcDbLine
 10
19.51999999999999
 20
-32.0
 30
0.0
 11
17.52
 21
-32.0
 31
0.0
  0
LINE
  5
6485
330
6377
100
AcDbEntity
  8
LW 5026-32-00
100
AcDbLine
 10
19.51999999999999
 20
32.0
 30
0.0
 11
17.52
 21
32.0
 31
0.0
  0
LINE
  5
6486
330
6377
100
AcDbEntity
  8
LW 5026-32-00
100
AcDbLine
 10
17.52
 20
-7.000000000000113
 30
0.0
 11
16.0
 21
-7.000000000000113
 31
0.0
  0
LINE
  5
6487
330
6377
100
AcDbEntity
  8
LW 5026-32-00
100
AcDbLine
 10
-16.0
 20
-7.000000000000113
 30
0.0
 11
-17.52
 21
-7.000000000000113
 31
0.0
  0
LINE
  5
6488
330
6377
100
AcDbEntity
  8
LW 5026-32-00
100
AcDbLine
 10
17.52
 20
7.0
 30
0.0
 11
16.0
 21
7.0
 31
0.0
  0
LINE
  5
6489
330
6377
100
AcDbEntity
  8
LW 5026-32-00
100
AcDbLine
 10
-16.0
 20
7.0
 30
0.0
 11
-17.52
 21
7.0
 31
0.0
  0
LINE
  5
648A
330
6377
100
AcDbEntity
  8
LW 5026-32-00
 62
     3
100
AcDbLine
 10
-17.52
 20
-5.794500000000084
 30
0.0
 11
-16.0
 21
-5.794500000000084
 31
0.0
  0
LINE
  5
648B
330
6377
100
AcDbEntity
  8
LW 5026-32-00
 62
     3
100
AcDbLine
 10
16.0
 20
-5.794500000000084
 30
0.0
 11
17.52
 21
-5.794500000000084
 31
0.0
  0
LINE
  5
648C
330
6377
100
AcDbEntity
  8
LW 5026-32-00
 62
     3
100
AcDbLine
 10
17.52
 20
5.79449999999997
 30
0.0
 11
16.0
 21
5.79449999999997
 31
0.0
  0
LINE
  5
648D
330
6377
100
AcDbEntity
  8
LW 5026-32-00
 62
     3
100
AcDbLine
 10
-16.00000000000022
 20
5.79449999999997
 30
0.0
 11
-17.52
 21
5.79449999999997
 31
0.0
  0
LINE
  5
648E
330
6377
100
AcDbEntity
  8
LW 5026-32-00
  6
MITTE2
 62
     3
100
AcDbLine
 10
-107.5
 20
22.49999999999454
 30
0.0
 11
-107.5
 21
-22.50000000000546
 31
0.0
  0
LINE
  5
648F
330
6377
100
AcDbEntity
  8
LW 5026-32-00
  6
MITTE2
 62
     3
100
AcDbLine
 10
60.86430348519638
 20
0.0
 30
0.0
 11
-145.8643034851966
 21
0.0
 31
0.0
  0
HATCH
  5
6490
330
6377
100
AcDbEntity
  8
LW 5026-32-00
 62
     1
100
AcDbHatch
 10
0.0
 20
0.0
 30
0.0
210
0.0
220
0.0
230
1.0
  2
SOLID
 70
     1
 71
     0
 91
        5
 92
        7
 72
     0
 73
     1
 93
       76
 10
-75.72395822083125
 20
5.86969851444465
 10
-75.69209939145842
 20
5.9212794762864
 10
-75.57394126722714
 20
6.072521875302328
 10
-75.43946319201449
 20
6.212946005564873
 10
-75.29344328555293
 20
6.34133056727822
 10
-75.12977448947093
 20
6.458236850194026
 10
-74.95438753610618
 20
6.56041473201563
 10
-74.77263460350581
 20
6.651766411598515
 10
-74.59146566804019
 20
6.721284724044636
 10
-76.84860360624019
 20
6.721284724044636
 10
-77.06150015864022
 20
6.712595068844649
 10
-77.2635346420402
 20
6.686526103244688
 10
-77.45905188404025
 20
6.645250241044578
 10
-77.64370705704003
 20
6.590939896044602
 10
-77.81967257484028
 20
6.521422654444592
 10
-77.98694843744009
 20
6.438870930044487
 10
-78.13751669998713
 20
6.343545412500617
 10
-78.28022430044005
 20
6.236836446644502
 10
-78.4056655560107
 20
6.117788170404452
 10
-78.51693050808806
 20
5.989528859652551
 10
-78.61694843944018
 20
5.852319204044562
 10
-78.69950016384017
 20
5.706767479444494
 10
-78.76250016404013
 20
5.552526099644438
 10
-78.81246568144
 20
5.391767478444563
 10
-78.84070706084002
 20
5.226664029644581
 10
-78.84939671604
 20
5.052870925644612
 10
-78.83853464703996
 20
4.879077821644415
 10
-78.80812085384012
 20
4.711801959044493
 10
-78.75381050883992
 20
4.551043337844504
 10
-78.68429326724002
 20
4.394629544244509
 10
-78.59522430143987
 20
4.246905405844501
 10
-78.48877602523997
 20
4.105698508844653
 10
-78.36607809381597
 20
3.974484715324507
 10
-78.22987904510772
 20
3.853350921836664
 10
-78.08253464463994
 20
3.742905404244567
 10
-77.92177602343985
 20
3.645146783244655
 10
-77.7461494021927
 20
3.560248851940542
 10
-77.56550016024014
 20
3.486560575844606
 10
-77.37432774583997
 20
3.430077817044576
 10
-77.17446567624005
 20
3.386629541044641
 10
-76.96591395144013
 20
3.360560575444566
 10
-76.75518981284016
 20
3.351870920244579
 10
-74.63601872708749
 20
3.351870920244692
 10
-74.79656259113993
 20
3.414941723979637
 10
-74.98012673494234
 20
3.505561997502383
 10
-75.14859314111252
 20
3.610091690433847
 10
-75.31142603587317
 20
3.725709928859288
 10
-75.4553384042433
 20
3.85549952539921
 10
-75.58277429772759
 20
3.994853208627802
 10
-75.69647965247098
 20
4.145341453340307
 10
-75.74845088391974
 20
4.22952609544464
 10
-76.77691395084001
 20
4.229526095444526
 10
-76.9090227788456
 20
4.23708609546864
 10
-77.03977602064013
 20
4.257419888636633
 10
-77.16794843483988
 20
4.29035368184455
 10
-77.28308636623999
 20
4.335974371644653
 10
-77.38803133209033
 20
4.392457130444569
 10
-77.48618098757446
 20
4.460062647900514
 10
-77.57636222923996
 20
4.538008855044523
 10
-77.64805188463991
 20
4.622732993244568
 10
-75.92053057038127
 20
4.622732993244682
 10
-75.93111503765429
 20
4.655368434002895
 10
-75.96722684561858
 20
4.840742381554065
 10
-75.97927049840039
 20
5.031032095504798
 10
-75.96724882597094
 20
5.225783188859878
 10
-75.93094310429568
 20
5.412152560126315
 10
-75.91434440162082
 20
5.461284720044574
 10
-77.68498291924014
 20
5.461284720044574
 10
-77.61546567764002
 20
5.556870927244546
 10
-77.53291395324002
 20
5.639422651644537
 10
-77.43782305638659
 20
5.709287479452569
 10
-77.33522429744015
 20
5.767595065844631
 10
-77.21653229706338
 20
5.811564721156543
 10
-77.09408636564011
 20
5.843629548844575
 10
-76.95722429624014
 20
5.863181273044602
 10
-76.81384498544002
 20
5.869698514444536
 97
        0
 92
        7
 72
     0
 73
     1
 93
       72
 10
-73.99549435580341
 20
5.855099893708626
 10
-73.8726313209306
 20
5.873174376524644
 10
-73.74856911364007
 20
5.87838816964475
 10
-72.47987945444013
 20
5.87838816964475
 10
-73.32712083644013
 20
5.06373299464488
 10
-71.56094841703996
 20
3.345353678844759
 10
-70.24229324044016
 20
3.345353678844759
 10
-71.95632772863994
 20
5.087629546444787
 10
-70.27487944744006
 20
6.721284724044863
 10
-73.71381049284012
 20
6.721284724044636
 10
-73.92179739005221
 20
6.710509551596743
 10
-74.12851559760496
 20
6.685048861860678
 10
-74.33294842584017
 20
6.645250241044692
 10
-74.52629325404017
 20
6.588767482244662
 10
-74.71312084084023
 20
6.517077826844598
 10
-74.88428097931453
 20
6.431050240364612
 10
-75.04984497984013
 20
6.334595067644642
 10
-75.20191394584002
 20
6.225974377644689
 10
-75.33761160144329
 20
6.10666541174865
 10
-75.46260360184009
 20
5.976146790644662
 10
-75.57122429184026
 20
5.837112307444641
 10
-75.66246567144002
 20
5.689388169044747
 10
-75.7341553268402
 20
5.535146789244691
 10
-75.78846567184017
 20
5.374388168044589
 10
-75.82105187884007
 20
5.207112305444553
 10
-75.83191394784011
 20
5.03114678764453
 10
-75.82105187884007
 20
4.859526097444614
 10
-75.78846567183994
 20
4.692250234844692
 10
-75.73632774064002
 20
4.531491613644703
 10
-75.66681049904012
 20
4.377250233844648
 10
-75.57496953323128
 20
4.228483336820801
 10
-75.46959008462089
 20
4.08901437086061
 10
-75.35158456700468
 20
3.959972991140745
 10
-75.21929325623999
 20
3.840664025244706
 10
-75.06717215230877
 20
3.73265161110865
 10
-74.90863808284005
 20
3.634284714244614
 10
-74.73701739263991
 20
3.549560576044683
 10
-74.55453463343996
 20
3.477870920644619
 10
-74.36030346040955
 20
3.423821265300631
 10
-74.16350014944008
 20
3.380112299644707
 10
-73.95494842463993
 20
3.354043334044746
 10
-73.74422428603996
 20
3.345353678844759
 10
-71.84118979724006
 20
3.345353678844759
 10
-72.72753462764011
 20
4.218664026444713
 10
-73.74422428603996
 20
4.218664026444713
 10
-73.81089132073451
 20
4.222411319384065
 10
-73.91183904519287
 20
4.232393681660624
 10
-74.03197352833284
 20
4.253857130004718
 10
-74.14909270111841
 20
4.28818126804461
 10
-74.25058787385431
 20
4.329109544036697
 10
-74.30672304644644
 20
4.357264026884678
 10
-74.36040773627199
 20
4.3898502338848
 10
-74.49296842634815
 20
4.489172992820641
 10
-74.56656980589194
 20
4.559211613732742
 10
-74.62163615089433
 20
4.627077820844561
 10
-74.67034166829056
 20
4.699636441764624
 10
-74.7097058063466
 20
4.776800579940555
 10
-74.7391289788536
 20
4.858222649164673
 10
-74.75982773754002
 20
4.94537989082076
 10
-74.76734428928806
 20
5.034709546276559
 10
-74.76598870307679
 20
5.097014374060591
 10
-74.75998415133357
 20
5.159145408740556
 10
-74.74782732370885
 20
5.222319202044701
 10
-74.72961380640957
 20
5.284015753964723
 10
-74.68596566834024
 20
5.382730237036554
 10
-74.64443780613918
 20
5.450596444148601
 10
-74.58135959904256
 20
5.528629547844644
 10
-74.45195765867764
 20
5.655152284898377
 10
-74.39268980534006
 20
5.695210238028749
 10
-74.31639463268401
 20
5.73952747954857
 10
-74.23237435655527
 20
5.781672307268678
 10
-74.11583739066803
 20
5.824512307404717
 97
        0
 92
        7
 72
     0
 73
     1
 93
       57
 10
-69.43745737581592
 20
5.833028169500977
 10
-69.30598289264001
 20
5.873000583420918
 10
-69.1712932370401
 20
5.900112307644945
 10
-69.0279139262402
 20
5.908801962844819
 10
-67.78746564644006
 20
5.908801962844933
 10
-67.78746564644006
 20
6.734319206844958
 10
-69.02139668484004
 20
6.734319206844844
 10
-69.23212082344001
 20
6.725629551644857
 10
-69.4385001344401
 20
6.697388172244842
 10
-69.63618979023998
 20
6.656112310044846
 10
-69.8251897908401
 20
6.60180196504487
 10
-70.00984496384011
 20
6.53011230964492
 10
-70.17625186092026
 20
6.447473688692781
 10
-70.33507268901051
 20
6.35101851597281
 10
-70.48515172396967
 20
6.241528860452746
 10
-70.6197110347416
 20
6.122306791108854
 10
-70.73977600064016
 20
5.993526101044864
 10
-70.84405186304
 20
5.854491617844843
 10
-70.92877600124005
 20
5.708939893244775
 10
-71.00046565664023
 20
5.554698513444719
 10
-71.0504311740401
 20
5.393939892244844
 10
-71.08301738104
 20
5.226664029644922
 10
-71.09387945004003
 20
5.052870925644839
 10
-71.08301738104
 20
4.87907782164487
 10
-71.0504311740401
 20
4.711801959044834
 10
-70.99829324284018
 20
4.551043337844731
 10
-70.92660358744
 20
4.39462954424485
 10
-70.8397070354399
 20
4.246905405844842
 10
-70.73086041440477
 20
4.107349543332844
 10
-70.61100400023132
 20
3.977004715332924
 10
-70.47457641359118
 20
3.855697128740786
 10
-70.32701737863998
 20
3.745077818044848
 10
-70.1662587574401
 20
3.647319197044708
 10
-69.99246565344013
 20
3.562595058844891
 10
-69.8078104804399
 20
3.488732989644887
 10
-69.61663806603995
 20
3.432250230844857
 10
-69.41677599644002
 20
3.388801954844922
 10
-69.21039668543993
 20
3.364905403044787
 10
-68.9975001330399
 20
3.3562157478448
 10
-67.78746564644006
 20
3.356215747844913
 10
-67.78746564644006
 20
4.214319198844833
 10
-69.02139668484004
 20
4.214319198844833
 10
-69.155043581816
 20
4.224659888532784
 10
-69.28730013395988
 20
4.246644716188967
 10
-69.40791254813596
 20
4.280968854228859
 10
-69.52391944505596
 20
4.32893575093297
 10
-69.63358289368009
 20
4.389850233884914
 10
-69.73064634226396
 20
4.457455751340859
 10
-69.81806427357604
 20
4.537226786076899
 10
-69.89253461863994
 20
4.622732993244909
 10
-67.78746564644006
 20
4.622732993244909
 10
-67.78746564644006
 20
5.450422651044874
 10
-69.92946565324017
 20
5.450422651044874
 10
-69.85994841164004
 20
5.548181272044786
 10
-69.77305185964017
 20
5.63725023784471
 10
-69.67190427311196
 20
5.71354541050087
 10
-69.56450013484003
 20
5.780629548644839
 97
        0
 92
        7
 72
     0
 73
     1
 93
        6
 10
-67.55718978364005
 20
6.721284724044977
 10
-67.55718978364005
 20
3.35187092024492
 10
-65.31960356963985
 20
3.351870920245033
 10
-65.31960356964008
 20
4.218664026445054
 10
-66.53398288384003
 20
4.218664026445054
 10
-66.53398288384003
 20
6.721284724044977
 97
        0
 92
        7
 72
     0
 73
     1
 93
        8
 10
-66.30153460724021
 20
6.721284724044977
 10
-66.30153460724021
 20
5.895767480044952
 10
-65.06760356884
 20
5.895767480045066
 10
-65.06760356884
 20
3.345353678844986
 10
-64.04222425523993
 20
3.345353678844986
 10
-64.04222425524015
 20
5.895767480044952
 10
-62.79960356164018
 20
5.895767480045066
 10
-62.79960356164018
 20
6.721284724045091
 97
        0
 75
     0
 76
     1
 47
0.0142553043587597
 98
        5
 10
-76.41429809476493
 20
6.278835054455527
 10
-74.14680088142221
 20
6.13628206944989
 10
-69.65458914922077
 20
6.19330324199771
 10
-66.93074006538903
 20
6.435643466690095
 10
-65.51890208316239
 20
6.335856334276769
450
        0
451
        0
460
0.0
461
0.0
452
        0
462
0.0
453
        0
470

  0
LWPOLYLINE
  5
6491
330
6377
100
AcDbEntity
  8
LW 5026-32-00
 62
     1
100
AcDbPolyline
 90
        8
 70
     1
 43
0.0
 10
-64.04222425524015
 20
5.895767480044952
 10
-64.04222425523993
 20
3.345353678844986
 10
-65.06760356884
 20
3.345353678844986
 10
-65.06760356884
 20
5.895767480045066
 10
-66.30153460724021
 20
5.895767480044952
 10
-66.30153460724021
 20
6.721284724044977
 10
-62.79960356164018
 20
6.721284724045091
 10
-62.79960356164018
 20
5.895767480045066
  0
LWPOLYLINE
  5
6492
330
6377
100
AcDbEntity
  8
LW 5026-32-00
 62
     1
100
AcDbPolyline
 90
       73
 70
     1
 43
0.0
 10
-73.74422428603996
 20
4.218664026444713
 10
-72.72753462764011
 20
4.218664026444713
 10
-71.84118979724006
 20
3.345353678844759
 10
-73.74422428603996
 20
3.345353678844645
 10
-73.95494842463993
 20
3.354043334044746
 10
-74.16350014944008
 20
3.380112299644707
 10
-74.36030346040955
 20
3.423821265300631
 10
-74.55453463343996
 20
3.477870920644619
 10
-74.73701739263991
 20
3.549560576044683
 10
-74.90863808284005
 20
3.634284714244614
 10
-75.06717215230877
 20
3.73265161110865
 10
-75.21929325623999
 20
3.840664025244706
 10
-75.3515845670049
 20
3.959972991140631
 10
-75.46959008462089
 20
4.08901437086061
 10
-75.57496953323128
 20
4.228483336820687
 10
-75.66681049904012
 20
4.377250233844648
 10
-75.73632774064002
 20
4.531491613644703
 10
-75.78846567183994
 20
4.692250234844692
 10
-75.82105187884007
 20
4.859526097444614
 10
-75.83191394784011
 20
5.031146787644644
 10
-75.82105187884007
 20
5.207112305444553
 10
-75.78846567184017
 20
5.374388168044589
 10
-75.73415532683997
 20
5.535146789244691
 10
-75.66246567144002
 20
5.689388169044633
 10
-75.57122429184004
 20
5.837112307444641
 10
-75.46260360184009
 20
5.976146790644662
 10
-75.33761160144329
 20
6.106665411748764
 10
-75.20191394584024
 20
6.225974377644689
 10
-75.04984497984013
 20
6.334595067644642
 10
-74.88428097931453
 20
6.431050240364612
 10
-74.71312084084023
 20
6.517077826844598
 10
-74.52629325404017
 20
6.588767482244662
 10
-74.33294842584017
 20
6.645250241044806
 10
-74.12851559760496
 20
6.685048861860678
 10
-73.92179739005221
 20
6.710509551596743
 10
-73.71381049284012
 20
6.721284724044636
 10
-70.27487944744006
 20
6.721284724044863
 10
-71.95632772863994
 20
5.087629546444787
 10
-70.24229324044016
 20
3.345353678844759
 10
-71.56094841703996
 20
3.345353678844759
 10
-73.32712083644013
 20
5.06373299464488
 10
-72.47987945444013
 20
5.87838816964475
 10
-73.74856911364007
 20
5.87838816964475
 10
-73.8726313209306
 20
5.873174376524644
 10
-73.99549435580341
 20
5.855099893708626
 10
-74.11583739066803
 20
5.824512307404717
 10
-74.23237435655527
 20
5.781672307268564
 10
-74.31639463268424
 20
5.739527479548684
 10
-74.39268980534006
 20
5.695210238028749
 10
-74.43293159857124
 20
5.668011617252687
 10
-74.47044484006958
 20
5.637076444740642
 10
-74.58135959904256
 20
5.528629547844644
 10
-74.64443780613918
 20
5.450596444148601
 10
-74.68596566834001
 20
5.382730237036668
 10
-74.72961380640957
 20
5.284015753964723
 10
-74.74782732370885
 20
5.222319202044701
 10
-74.75998415133357
 20
5.15914540874067
 10
-74.76598870307679
 20
5.097014374060705
 10
-74.76734428928806
 20
5.034709546276673
 10
-74.75982773754002
 20
4.94537989082076
 10
-74.7391289788536
 20
4.858222649164673
 10
-74.70970580634638
 20
4.776800579940669
 10
-74.67034166829056
 20
4.699636441764624
 10
-74.62163615089456
 20
4.627077820844675
 10
-74.56656980589194
 20
4.559211613732742
 10
-74.49296842634815
 20
4.489172992820641
 10
-74.36040773627199
 20
4.3898502338848
 10
-74.30672304644644
 20
4.357264026884678
 10
-74.25058787385431
 20
4.329109544036697
 10
-74.14909270111841
 20
4.28818126804461
 10
-74.03197352833284
 20
4.253857130004718
 10
-73.91183904519287
 20
4.232393681660624
 10
-73.81089132073451
 20
4.222411319384065
  0
LWPOLYLINE
  5
6493
330
6377
100
AcDbEntity
  8
LW 5026-32-00
 62
     1
100
AcDbPolyline
 90
       76
 70
     1
 43
0.0
 10
-74.95438753610618
 20
6.56041473201563
 10
-75.12977448947093
 20
6.458236850193912
 10
-75.29344328555293
 20
6.34133056727822
 10
-75.43946319201449
 20
6.212946005564873
 10
-75.57394126722714
 20
6.072521875302328
 10
-75.69209939145842
 20
5.9212794762864
 10
-75.72395822083125
 20
5.86969851444465
 10
-76.81384498544002
 20
5.86969851444465
 10
-76.95722429624014
 20
5.863181273044602
 10
-77.09408636564011
 20
5.843629548844575
 10
-77.21653229706338
 20
5.811564721156543
 10
-77.33522429744015
 20
5.767595065844631
 10
-77.43782305638636
 20
5.709287479452569
 10
-77.53291395324002
 20
5.639422651644537
 10
-77.61546567764025
 20
5.556870927244546
 10
-77.68498291924014
 20
5.461284720044574
 10
-75.91434440162082
 20
5.461284720044574
 10
-75.93094310429568
 20
5.412152560126315
 10
-75.96724882597117
 20
5.225783188859651
 10
-75.97927049840039
 20
5.031032095504798
 10
-75.96722684561858
 20
4.840742381554065
 10
-75.93111503765406
 20
4.655368434003008
 10
-75.92053057038127
 20
4.622732993244682
 10
-77.64805188463991
 20
4.622732993244568
 10
-77.57636222923996
 20
4.538008855044523
 10
-77.48618098757446
 20
4.460062647900514
 10
-77.38803133209033
 20
4.392457130444569
 10
-77.28308636623999
 20
4.335974371644653
 10
-77.16794843483988
 20
4.290353681844663
 10
-77.03977602064013
 20
4.257419888636633
 10
-76.9090227788456
 20
4.23708609546864
 10
-76.77691395084001
 20
4.229526095444526
 10
-75.74845088391974
 20
4.22952609544464
 10
-75.69647965247098
 20
4.145341453340307
 10
-75.58277429772759
 20
3.994853208627802
 10
-75.4553384042433
 20
3.85549952539921
 10
-75.31142603587317
 20
3.725709928859515
 10
-75.14859314111252
 20
3.610091690433847
 10
-74.98012673494234
 20
3.505561997502383
 10
-74.79656259113993
 20
3.414941723979637
 10
-74.63601872708749
 20
3.351870920244692
 10
-76.75518981283993
 20
3.351870920244465
 10
-76.96591395144013
 20
3.360560575444566
 10
-77.17446567624005
 20
3.386629541044641
 10
-77.37432774583997
 20
3.430077817044576
 10
-77.56550016023992
 20
3.486560575844492
 10
-77.74614940219293
 20
3.560248851940542
 10
-77.92177602343985
 20
3.645146783244655
 10
-78.08253464463994
 20
3.742905404244567
 10
-78.22987904510772
 20
3.85335092183655
 10
-78.36607809381597
 20
3.974484715324507
 10
-78.48877602523997
 20
4.10569850884454
 10
-78.5952243014401
 20
4.246905405844501
 10
-78.68429326724002
 20
4.394629544244509
 10
-78.75381050883992
 20
4.551043337844504
 10
-78.80812085384012
 20
4.711801959044493
 10
-78.83853464703996
 20
4.879077821644642
 10
-78.84939671604
 20
5.052870925644498
 10
-78.84070706084024
 20
5.226664029644467
 10
-78.81246568144
 20
5.391767478444563
 10
-78.76250016404013
 20
5.552526099644438
 10
-78.69950016384017
 20
5.706767479444494
 10
-78.61694843944018
 20
5.852319204044562
 10
-78.51693050808806
 20
5.989528859652551
 10
-78.4056655560107
 20
6.117788170404566
 10
-78.28022430044005
 20
6.236836446644502
 10
-78.13751669998713
 20
6.343545412500617
 10
-77.98694843744009
 20
6.4388709300446
 10
-77.81967257484005
 20
6.521422654444478
 10
-77.64370705704003
 20
6.590939896044602
 10
-77.45905188404002
 20
6.645250241044578
 10
-77.2635346420402
 20
6.686526103244688
 10
-77.06150015864022
 20
6.712595068844649
 10
-76.84860360624019
 20
6.721284724044636
 10
-74.59146566803996
 20
6.72128472404475
 10
-74.77263460350581
 20
6.651766411598515
  0
LWPOLYLINE
  5
6494
330
6377
100
AcDbEntity
  8
LW 5026-32-00
 62
     1
100
AcDbPolyline
 90
        6
 70
     1
 43
0.0
 10
-65.31960356963985
 20
3.351870920245033
 10
-67.55718978364005
 20
3.35187092024492
 10
-67.55718978364005
 20
6.721284724044977
 10
-66.53398288384003
 20
6.721284724044977
 10
-66.53398288384003
 20
4.218664026445054
 10
-65.31960356964008
 20
4.218664026445054
  0
LWPOLYLINE
  5
6495
330
6377
100
AcDbEntity
  8
LW 5026-32-00
 62
     1
100
AcDbPolyline
 90
       57
 70
     1
 43
0.0
 10
-70.61100400023132
 20
3.977004715332924
 10
-70.73086041440477
 20
4.10734954333273
 10
-70.83970703544013
 20
4.246905405844728
 10
-70.92660358744
 20
4.39462954424485
 10
-70.99829324284018
 20
4.551043337844731
 10
-71.0504311740401
 20
4.711801959044834
 10
-71.08301738104
 20
4.87907782164487
 10
-71.09387945004003
 20
5.052870925644839
 10
-71.08301738104
 20
5.226664029644808
 10
-71.0504311740401
 20
5.393939892244844
 10
-71.00046565664023
 20
5.554698513444719
 10
-70.92877600124005
 20
5.708939893244888
 10
-70.84405186304024
 20
5.854491617844729
 10
-70.73977600064016
 20
5.993526101044864
 10
-70.61971103474182
 20
6.122306791108741
 10
-70.48515172396967
 20
6.241528860452746
 10
-70.33507268901051
 20
6.35101851597281
 10
-70.17625186092003
 20
6.447473688692895
 10
-70.00984496384011
 20
6.53011230964492
 10
-69.8251897908401
 20
6.60180196504487
 10
-69.63618979023998
 20
6.656112310044846
 10
-69.4385001344401
 20
6.697388172244842
 10
-69.23212082344001
 20
6.725629551644857
 10
-69.02139668484004
 20
6.734319206844844
 10
-67.78746564644006
 20
6.734319206844958
 10
-67.78746564644006
 20
5.908801962844933
 10
-69.02791392623997
 20
5.908801962844819
 10
-69.1712932370401
 20
5.900112307644832
 10
-69.30598289264001
 20
5.873000583420918
 10
-69.43745737581615
 20
5.833028169500863
 10
-69.56450013484003
 20
5.780629548644839
 10
-69.67190427311196
 20
5.71354541050087
 10
-69.77305185964017
 20
5.637250237844938
 10
-69.85994841164004
 20
5.548181272044786
 10
-69.92946565324017
 20
5.450422651044874
 10
-67.78746564644006
 20
5.450422651044874
 10
-67.78746564644006
 20
4.622732993244909
 10
-69.89253461863994
 20
4.622732993244909
 10
-69.81806427357604
 20
4.537226786076899
 10
-69.73064634226396
 20
4.457455751340859
 10
-69.63358289368009
 20
4.389850233884914
 10
-69.52391944505596
 20
4.32893575093297
 10
-69.40791254813596
 20
4.280968854228859
 10
-69.28730013395988
 20
4.246644716188967
 10
-69.155043581816
 20
4.224659888532784
 10
-69.02139668484004
 20
4.214319198844833
 10
-67.78746564644006
 20
4.214319198844833
 10
-67.78746564644006
 20
3.356215747844913
 10
-68.9975001330399
 20
3.3562157478448
 10
-69.21039668543993
 20
3.364905403044787
 10
-69.41677599644002
 20
3.388801954844922
 10
-69.61663806603995
 20
3.432250230844857
 10
-69.8078104804399
 20
3.488732989644887
 10
-69.99246565344013
 20
3.562595058844891
 10
-70.1662587574401
 20
3.647319197044936
 10
-70.32701737863998
 20
3.745077818044848
 10
-70.47457641359118
 20
3.855697128740786
  0
LINE
  5
6496
330
6377
100
AcDbEntity
  8
LW 5026-32-00
  6
MITTE2
 62
     3
100
AcDbLine
 10
0.0
 20
37.0
 30
0.0
 11
0.0
 21
-37.00000000000012
 31
0.0
  0
INSERT
  5
6497
330
6377
100
AcDbEntity
  8
LW 5026-32-00
100
AcDbBlockReference
 66
     1
  2
insertpoint-ECKELT
 10
0.0
 20
0.0
 30
0.0
  0
ATTRIB
  5
6498
330
6497
100
AcDbEntity
  8
insertpoint_ECKELT
100
AcDbText
 10
-6.93151432469286
 20
0.0
 30
0.0
 40
0.6
  1
LW 5026/32-00
 72
     2
 11
-1.199999999999818
 21
0.0
 31
0.0
100
AcDbAttribute
  2
LINKS
 70
     0
  0
ATTRIB
  5
6499
330
6497
100
AcDbEntity
  8
insertpoint_ECKELT
100
AcDbText
 10
1.199999999999818
 20
0.0
 30
0.0
 40
0.6
  1

100
AcDbAttribute
  2
RECHTS
 70
     0
  0
SEQEND
  5
649A
330
6497
100
AcDbEntity
  8
LW 5026-32-00
  0
ENDBLK
  5
6379
330
6377
100
AcDbEntity
  8
0
100
AcDbBlockEnd
  0
BLOCK
  5
649D
330
649C
100
AcDbEntity
  8
0
100
AcDbBlockBegin
  2
LW 5026-32-00_c
 70
     0
 10
0.0
 20
0.0
 30
0.0
  3
LW 5026-32-00_c
  1

  0
LINE
  5
649F
330
649C
100
AcDbEntity
  8
LW 5026-32-00
  6
VERDECKT
 62
     6
100
AcDbLine
 10
7.334936490575273
 20
17.70448267190204
 30
0.0
 11
11.66506350949703
 21
15.2044826719009
 31
0.0
  0
LINE
  5
64A0
330
649C
100
AcDbEntity
  8
LW 5026-32-00
  6
VERDECKT
 62
     6
100
AcDbLine
 10
11.66506350948793
 20
-15.20448267190795
 30
0.0
 11
7.334936490564814
 21
-17.70448267190659
 31
0.0
  0
LINE
  5
64A1
330
649C
100
AcDbEntity
  8
LW 5026-32-00
  6
VERDECKT
 62
     6
100
AcDbLine
 10
8.748924226251347
 20
15.1535812713729
 30
0.0
 11
7.334936490575273
 21
17.70448267190204
 31
0.0
  0
LINE
  5
64A2
330
649C
100
AcDbEntity
  8
LW 5026-32-00
  6
VERDECKT
 62
     6
100
AcDbLine
 10
8.748924226251347
 20
15.1535812713729
 30
0.0
 11
11.66506350949703
 21
15.2044826719009
 31
0.0
  0
LINE
  5
64A3
330
649C
100
AcDbEntity
  8
LW 5026-32-00
  6
VERDECKT
 62
     6
100
AcDbLine
 10
14.60240647333103
 20
20.29210992451317
 30
0.0
 11
11.66506350949703
 21
15.20448267190068
 31
0.0
  0
LINE
  5
64A4
330
649C
100
AcDbEntity
  8
LW 5026-32-00
  6
VERDECKT
 62
     6
100
AcDbLine
 10
10.27227945440972
 20
22.79210992451453
 30
0.0
 11
7.334936490575273
 21
17.70448267190204
 31
0.0
  0
LINE
  5
64A5
330
649C
100
AcDbEntity
  8
LW 5026-32-00
  6
VERDECKT
 62
     6
100
AcDbLine
 10
8.748924226242252
 20
-15.15358127137824
 30
0.0
 11
11.66506350948793
 21
-15.20448267190795
 31
0.0
  0
LINE
  5
64A6
330
649C
100
AcDbEntity
  8
LW 5026-32-00
  6
VERDECKT
 62
     6
100
AcDbLine
 10
8.748924226242252
 20
-15.15358127137824
 30
0.0
 11
7.334936490564814
 21
-17.70448267190659
 31
0.0
  0
LINE
  5
64A7
330
649C
100
AcDbEntity
  8
LW 5026-32-00
  6
VERDECKT
 62
     6
100
AcDbLine
 10
10.27227945439608
 20
-22.79210992452068
 30
0.0
 11
7.334936490564814
 21
-17.70448267190659
 31
0.0
  0
LINE
  5
64A8
330
649C
100
AcDbEntity
  8
LW 5026-32-00
  6
VERDECKT
 62
     6
100
AcDbLine
 10
14.6024064733192
 20
-20.29210992452204
 30
0.0
 11
11.66506350948793
 21
-15.20448267190795
 31
0.0
  0
LINE
  5
64A9
330
649C
100
AcDbEntity
  8
LW 5026-32-00
  6
VERDECKT
 62
     6
100
AcDbLine
 10
-18.99999999996953
 20
-2.499999999994543
 30
0.0
 11
-18.99999999996817
 21
2.500000000005456
 31
0.0
  0
LINE
  5
64AA
330
649C
100
AcDbEntity
  8
LW 5026-32-00
  6
VERDECKT
 62
     6
100
AcDbLine
 10
-17.49784845239992
 20
0.0000000000051159
 30
0.0
 11
-18.99999999996953
 21
-2.499999999994543
 31
0.0
  0
LINE
  5
64AB
330
649C
100
AcDbEntity
  8
LW 5026-32-00
  6
VERDECKT
 62
     6
100
AcDbLine
 10
-17.49784845239992
 20
0.0000000000051159
 30
0.0
 11
-18.99999999996817
 21
2.500000000005456
 31
0.0
  0
LINE
  5
64AC
330
649C
100
AcDbEntity
  8
LW 5026-32-00
  6
VERDECKT
 62
     6
100
AcDbLine
 10
-24.87468592763344
 20
2.500000000007275
 30
0.0
 11
-18.99999999996817
 21
2.500000000005456
 31
0.0
  0
LINE
  5
64AD
330
649C
100
AcDbEntity
  8
LW 5026-32-00
  6
VERDECKT
 62
     6
100
AcDbLine
 10
-24.8746859276348
 20
-2.499999999992724
 30
0.0
 11
-18.99999999996953
 21
-2.499999999994543
 31
0.0
  0
ARC
  5
64AE
330
649C
100
AcDbEntity
  8
LW 5026-32-00
100
AcDbCircle
 10
0.0000000000300133
 20
0.0
 30
0.0
 40
25.0
100
AcDbArc
 50
224.4270040007897
 51
315.5729959991723
  0
ARC
  5
64AF
330
649C
100
AcDbEntity
  8
LW 5026-32-00
100
AcDbCircle
 10
0.0000000000300133
 20
0.0
 30
0.0
 40
25.0
100
AcDbArc
 50
323.1301023541312
 51
36.86989764582579
  0
ARC
  5
64B0
330
649C
100
AcDbEntity
  8
LW 5026-32-00
100
AcDbCircle
 10
0.0000000000300133
 20
0.0
 30
0.0
 40
25.0
100
AcDbArc
 50
44.42700400078962
 51
135.5729959991758
  0
ARC
  5
64B1
330
649C
100
AcDbEntity
  8
LW 5026-32-00
100
AcDbCircle
 10
0.0000000000281943
 20
0.0
 30
0.0
 40
19.00000000000001
100
AcDbArc
 50
247.0804578484147
 51
292.9195421515569
  0
ARC
  5
64B2
330
649C
100
AcDbEntity
  8
LW 5026-32-00
100
AcDbCircle
 10
0.0000000000281943
 20
0.0
 30
0.0
 40
19.0
100
AcDbArc
 50
67.0804578484147
 51
112.9195421515568
  0
CIRCLE
  5
64B3
330
649C
100
AcDbEntity
  8
LW 5026-32-00
100
AcDbCircle
 10
0.0000000000004547
 20
0.0
 30
0.0
 40
10.00000000000001
  0
CIRCLE
  5
64B4
330
649C
100
AcDbEntity
  8
LW 5026-32-00
100
AcDbCircle
 10
0.0
 20
0.0
 30
0.0
 40
9.000000000000008
  0
ARC
  5
64B5
330
649C
100
AcDbEntity
  8
LW 5026-32-00
  6
VERDECKT
 62
     6
100
AcDbCircle
 10
0.0000000000309228
 20
-0.0000000000005684
 30
0.0
 40
24.99999999999923
100
AcDbArc
 50
315.5729959991723
 51
323.1301023541312
  0
ARC
  5
64B6
330
649C
100
AcDbEntity
  8
LW 5026-32-00
  6
VERDECKT
 62
     6
100
AcDbCircle
 10
0.0000000000304681
 20
0.0000000000002274
 30
0.0
 40
24.99999999999958
100
AcDbArc
 50
36.86989764582579
 51
44.42700400078962
  0
ARC
  5
64B7
330
649C
100
AcDbEntity
  8
LW 5026-32-00
  6
VERDECKT
 62
     6
100
AcDbCircle
 10
0.0000000000300133
 20
0.0
 30
0.0
 40
25.00000000000001
100
AcDbArc
 50
135.5729959991758
 51
224.4270040007897
  0
ARC
  5
64B8
330
649C
100
AcDbEntity
  8
LW 5026-32-00
  6
VERDECKT
 62
     6
100
AcDbCircle
 10
0.0000000000281943
 20
0.0
 30
0.0
 40
19.0
100
AcDbArc
 50
292.9195421515569
 51
67.0804578484147
  0
ARC
  5
64B9
330
649C
100
AcDbEntity
  8
LW 5026-32-00
  6
VERDECKT
 62
     6
100
AcDbCircle
 10
0.0000000000281943
 20
0.0
 30
0.0
 40
19.0
100
AcDbArc
 50
112.9195421515568
 51
247.0804578484147
  0
POLYLINE
  5
64BA
330
649C
100
AcDbEntity
  8
LW 5026-32-00
100
AcDb2dPolyline
 66
     1
 10
0.0
 20
0.0
 30
0.0
 70
   128
  0
VERTEX
  5
64BB
330
64BA
100
AcDbEntity
  8
LW 5026-32-00
100
AcDbVertex
100
AcDb2dVertex
 10
0.000000000007276
 20
-17.3264467716217
 30
0.0
  0
VERTEX
  5
64BC
330
64BA
100
AcDbEntity
  8
LW 5026-32-00
100
AcDbVertex
100
AcDb2dVertex
 10
0.1560449600292486
 20
-17.32719898223877
 30
0.0
  0
VERTEX
  5
64BD
330
64BA
100
AcDbEntity
  8
LW 5026-32-00
100
AcDbVertex
100
AcDb2dVertex
 10
0.3141689300609869
 20
-17.32942223548912
 30
0.0
  0
VERTEX
  5
64BE
330
64BA
100
AcDbEntity
  8
LW 5026-32-00
100
AcDbVertex
100
AcDb2dVertex
 10
0.4730701446605963
 20
-17.33306407928489
 30
0.0
  0
VERTEX
  5
64BF
330
64BA
100
AcDbEntity
  8
LW 5026-32-00
100
AcDbVertex
100
AcDb2dVertex
 10
0.6314468383861822
 20
-17.33807563781761
 30
0.0
  0
VERTEX
  5
64C0
330
64BA
100
AcDbEntity
  8
LW 5026-32-00
100
AcDbVertex
100
AcDb2dVertex
 10
0.7879877090526862
 20
-17.34440565109276
 30
0.0
  0
VERTEX
  5
64C1
330
64BA
100
AcDbEntity
  8
LW 5026-32-00
100
AcDbVertex
100
AcDb2dVertex
 10
0.9413909912182134
 20
-17.35200285911594
 30
0.0
  0
VERTEX
  5
64C2
330
64BA
100
AcDbEntity
  8
LW 5026-32-00
100
AcDbVertex
100
AcDb2dVertex
 10
1.090421676643018
 20
-17.36074566841159
 30
0.0
  0
VERTEX
  5
64C3
330
64BA
100
AcDbEntity
  8
LW 5026-32-00
100
AcDbVertex
100
AcDb2dVertex
 10
1.234145164497022
 20
-17.37039446830795
 30
0.0
  0
VERTEX
  5
64C4
330
64BA
100
AcDbEntity
  8
LW 5026-32-00
100
AcDbVertex
100
AcDb2dVertex
 10
1.371684074409131
 20
-17.38071799278305
 30
0.0
  0
VERTEX
  5
64C5
330
64BA
100
AcDbEntity
  8
LW 5026-32-00
100
AcDbVertex
100
AcDb2dVertex
 10
1.50215625763667
 20
-17.39148736000106
 30
0.0
  0
VERTEX
  5
64C6
330
64BA
100
AcDbEntity
  8
LW 5026-32-00
100
AcDbVertex
100
AcDb2dVertex
 10
1.624689102180127
 20
-17.40247011184738
 30
0.0
  0
VERTEX
  5
64C7
330
64BA
100
AcDbEntity
  8
LW 5026-32-00
100
AcDbVertex
100
AcDb2dVertex
 10
1.738414764411572
 20
-17.41343855857906
 30
0.0
  0
VERTEX
  5
64C8
330
64BA
100
AcDbEntity
  8
LW 5026-32-00
100
AcDbVertex
100
AcDb2dVertex
 10
1.84486865998042
 20
-17.42439985275325
 30
0.0
  0
VERTEX
  5
64C9
330
64BA
100
AcDbEntity
  8
LW 5026-32-00
100
AcDbVertex
100
AcDb2dVertex
 10
1.945543289191846
 20
-17.43536114692756
 30
0.0
  0
VERTEX
  5
64CA
330
64BA
100
AcDbEntity
  8
LW 5026-32-00
100
AcDbVertex
100
AcDb2dVertex
 10
2.039465904243115
 20
-17.44609594345161
 30
0.0
  0
VERTEX
  5
64CB
330
64BA
100
AcDbEntity
  8
LW 5026-32-00
100
AcDbVertex
100
AcDb2dVertex
 10
2.125682830817822
 20
-17.45637536048957
 30
0.0
  0
VERTEX
  5
64CC
330
64BA
100
AcDbEntity
  8
LW 5026-32-00
100
AcDbVertex
100
AcDb2dVertex
 10
2.203221321113232
 20
-17.46597290039131
 30
0.0
  0
VERTEX
  5
64CD
330
64BA
100
AcDbEntity
  8
LW 5026-32-00
100
AcDbVertex
100
AcDb2dVertex
 10
2.271118164069775
 20
-17.47466087341377
 30
0.0
  0
VERTEX
  5
64CE
330
64BA
100
AcDbEntity
  8
LW 5026-32-00
100
AcDbVertex
100
AcDb2dVertex
 10
2.328581810005289
 20
-17.48220205307075
 30
0.0
  0
VERTEX
  5
64CF
330
64BA
100
AcDbEntity
  8
LW 5026-32-00
100
AcDbVertex
100
AcDb2dVertex
 10
2.375483512886148
 20
-17.4884808063515
 30
0.0
  0
VERTEX
  5
64D0
330
64BA
100
AcDbEntity
  8
LW 5026-32-00
100
AcDbVertex
100
AcDb2dVertex
 10
2.411880493171793
 20
-17.49344706535419
 30
0.0
  0
VERTEX
  5
64D1
330
64BA
100
AcDbEntity
  8
LW 5026-32-00
100
AcDbVertex
100
AcDb2dVertex
 10
2.437810897834879
 20
-17.49705553054889
 30
0.0
  0
VERTEX
  5
64D2
330
64BA
100
AcDbEntity
  8
LW 5026-32-00
100
AcDbVertex
100
AcDb2dVertex
 10
2.453336715705972
 20
-17.499256134034
 30
0.0
  0
VERTEX
  5
64D3
330
64BA
100
AcDbEntity
  8
LW 5026-32-00
100
AcDbVertex
100
AcDb2dVertex
 10
2.458500862129312
 20
-17.50000000000079
 30
0.0
  0
SEQEND
  5
64D4
330
64BA
100
AcDbEntity
  8
LW 5026-32-00
  0
POLYLINE
  5
64D5
330
649C
100
AcDbEntity
  8
LW 5026-32-00
100
AcDb2dPolyline
 66
     1
 10
0.0
 20
0.0
 30
0.0
 70
   128
  0
VERTEX
  5
64D6
330
64D5
100
AcDbEntity
  8
LW 5026-32-00
100
AcDbVertex
100
AcDb2dVertex
 10
-2.458500862113851
 20
-17.49999999999932
 30
0.0
  0
VERTEX
  5
64D7
330
64D5
100
AcDbEntity
  8
LW 5026-32-00
100
AcDbVertex
100
AcDb2dVertex
 10
-2.453336715690511
 20
-17.49925613403252
 30
0.0
  0
VERTEX
  5
64D8
330
64D5
100
AcDbEntity
  8
LW 5026-32-00
100
AcDbVertex
100
AcDb2dVertex
 10
-2.437810897819417
 20
-17.49705553054741
 30
0.0
  0
VERTEX
  5
64D9
330
64D5
100
AcDbEntity
  8
LW 5026-32-00
100
AcDbVertex
100
AcDb2dVertex
 10
-2.411880493156331
 20
-17.49344706535271
 30
0.0
  0
VERTEX
  5
64DA
330
64D5
100
AcDbEntity
  8
LW 5026-32-00
100
AcDbVertex
100
AcDb2dVertex
 10
-2.375483512870687
 20
-17.48848080635002
 30
0.0
  0
VERTEX
  5
64DB
330
64D5
100
AcDbEntity
  8
LW 5026-32-00
100
AcDbVertex
100
AcDb2dVertex
 10
-2.328581809989827
 20
-17.48220205306938
 30
0.0
  0
VERTEX
  5
64DC
330
64D5
100
AcDbEntity
  8
LW 5026-32-00
100
AcDbVertex
100
AcDb2dVertex
 10
-2.271118164055224
 20
-17.4746608734124
 30
0.0
  0
VERTEX
  5
64DD
330
64D5
100
AcDbEntity
  8
LW 5026-32-00
100
AcDbVertex
100
AcDb2dVertex
 10
-2.203221321098681
 20
-17.46597290038994
 30
0.0
  0
VERTEX
  5
64DE
330
64D5
100
AcDbEntity
  8
LW 5026-32-00
100
AcDbVertex
100
AcDb2dVertex
 10
-2.12568283080327
 20
-17.45637536048832
 30
0.0
  0
VERTEX
  5
64DF
330
64D5
100
AcDbEntity
  8
LW 5026-32-00
100
AcDbVertex
100
AcDb2dVertex
 10
-2.039465904228563
 20
-17.44609594345036
 30
0.0
  0
VERTEX
  5
64E0
330
64D5
100
AcDbEntity
  8
LW 5026-32-00
100
AcDbVertex
100
AcDb2dVertex
 10
-1.945543289177294
 20
-17.43536114692631
 30
0.0
  0
VERTEX
  5
64E1
330
64D5
100
AcDbEntity
  8
LW 5026-32-00
100
AcDbVertex
100
AcDb2dVertex
 10
-1.844868659965868
 20
-17.42439985275223
 30
0.0
  0
VERTEX
  5
64E2
330
64D5
100
AcDbEntity
  8
LW 5026-32-00
100
AcDbVertex
100
AcDb2dVertex
 10
-1.73841476439702
 20
-17.41343855857804
 30
0.0
  0
VERTEX
  5
64E3
330
64D5
100
AcDbEntity
  8
LW 5026-32-00
100
AcDbVertex
100
AcDb2dVertex
 10
-1.624689102165575
 20
-17.40247011184647
 30
0.0
  0
VERTEX
  5
64E4
330
64D5
100
AcDbEntity
  8
LW 5026-32-00
100
AcDbVertex
100
AcDb2dVertex
 10
-1.502156257622118
 20
-17.39148736000015
 30
0.0
  0
VERTEX
  5
64E5
330
64D5
100
AcDbEntity
  8
LW 5026-32-00
100
AcDbVertex
100
AcDb2dVertex
 10
-1.371684074394579
 20
-17.38071799278225
 30
0.0
  0
VERTEX
  5
64E6
330
64D5
100
AcDbEntity
  8
LW 5026-32-00
100
AcDbVertex
100
AcDb2dVertex
 10
-1.23414516448247
 20
-17.37039446830715
 30
0.0
  0
VERTEX
  5
64E7
330
64D5
100
AcDbEntity
  8
LW 5026-32-00
100
AcDbVertex
100
AcDb2dVertex
 10
-1.090421676628466
 20
-17.36074566841103
 30
0.0
  0
VERTEX
  5
64E8
330
64D5
100
AcDbEntity
  8
LW 5026-32-00
100
AcDbVertex
100
AcDb2dVertex
 10
-0.9413909912036615
 20
-17.35200285911537
 30
0.0
  0
VERTEX
  5
64E9
330
64D5
100
AcDbEntity
  8
LW 5026-32-00
100
AcDbVertex
100
AcDb2dVertex
 10
-0.7879877090381342
 20
-17.3444056510923
 30
0.0
  0
VERTEX
  5
64EA
330
64D5
100
AcDbEntity
  8
LW 5026-32-00
100
AcDbVertex
100
AcDb2dVertex
 10
-0.6314468383716303
 20
-17.33807563781715
 30
0.0
  0
VERTEX
  5
64EB
330
64D5
100
AcDbEntity
  8
LW 5026-32-00
100
AcDbVertex
100
AcDb2dVertex
 10
-0.4730701446460444
 20
-17.33306407928467
 30
0.0
  0
VERTEX
  5
64EC
330
64D5
100
AcDbEntity
  8
LW 5026-32-00
100
AcDbVertex
100
AcDb2dVertex
 10
-0.314168930046435
 20
-17.32942223548889
 30
0.0
  0
VERTEX
  5
64ED
330
64D5
100
AcDbEntity
  8
LW 5026-32-00
100
AcDbVertex
100
AcDb2dVertex
 10
-0.1560449600146967
 20
-17.32719898223877
 30
0.0
  0
VERTEX
  5
64EE
330
64D5
100
AcDbEntity
  8
LW 5026-32-00
100
AcDbVertex
100
AcDb2dVertex
 10
0.000000000007276
 20
-17.3264467716217
 30
0.0
  0
SEQEND
  5
64EF
330
64D5
100
AcDbEntity
  8
LW 5026-32-00
  0
POLYLINE
  5
64F0
330
649C
100
AcDbEntity
  8
LW 5026-32-00
100
AcDb2dPolyline
 66
     1
 10
0.0
 20
0.0
 30
0.0
 70
   128
  0
VERTEX
  5
64F1
330
64F0
100
AcDbEntity
  8
LW 5026-32-00
100
AcDbVertex
100
AcDb2dVertex
 10
2.458500862139771
 20
17.4999999999992
 30
0.0
  0
VERTEX
  5
64F2
330
64F0
100
AcDbEntity
  8
LW 5026-32-00
100
AcDbVertex
100
AcDb2dVertex
 10
2.437810897845338
 20
17.4970555305473
 30
0.0
  0
VERTEX
  5
64F3
330
64F0
100
AcDbEntity
  8
LW 5026-32-00
100
AcDbVertex
100
AcDb2dVertex
 10
2.375483512896607
 20
17.48848080634991
 30
0.0
  0
VERTEX
  5
64F4
330
64F0
100
AcDbEntity
  8
LW 5026-32-00
100
AcDbVertex
100
AcDb2dVertex
 10
2.271118164080235
 20
17.4746608734124
 30
0.0
  0
VERTEX
  5
64F5
330
64F0
100
AcDbEntity
  8
LW 5026-32-00
100
AcDbVertex
100
AcDb2dVertex
 10
2.125682830828282
 20
17.45637536048821
 30
0.0
  0
VERTEX
  5
64F6
330
64F0
100
AcDbEntity
  8
LW 5026-32-00
100
AcDbVertex
100
AcDb2dVertex
 10
1.945543289202305
 20
17.4353611469262
 30
0.0
  0
VERTEX
  5
64F7
330
64F0
100
AcDbEntity
  8
LW 5026-32-00
100
AcDbVertex
100
AcDb2dVertex
 10
1.738414764422032
 20
17.41343855857792
 30
0.0
  0
VERTEX
  5
64F8
330
64F0
100
AcDbEntity
  8
LW 5026-32-00
100
AcDbVertex
100
AcDb2dVertex
 10
1.502156257647129
 20
17.39148736000015
 30
0.0
  0
VERTEX
  5
64F9
330
64F0
100
AcDbEntity
  8
LW 5026-32-00
100
AcDbVertex
100
AcDb2dVertex
 10
1.234145164507026
 20
17.37039446830704
 30
0.0
  0
VERTEX
  5
64FA
330
64F0
100
AcDbEntity
  8
LW 5026-32-00
100
AcDbVertex
100
AcDb2dVertex
 10
0.9413909912282178
 20
17.35200285911526
 30
0.0
  0
VERTEX
  5
64FB
330
64F0
100
AcDbEntity
  8
LW 5026-32-00
100
AcDbVertex
100
AcDb2dVertex
 10
0.6314468383961867
 20
17.33807563781715
 30
0.0
  0
VERTEX
  5
64FC
330
64F0
100
AcDbEntity
  8
LW 5026-32-00
100
AcDbVertex
100
AcDb2dVertex
 10
0.3141689300709913
 20
17.32942223548866
 30
0.0
  0
VERTEX
  5
64FD
330
64F0
100
AcDbEntity
  8
LW 5026-32-00
100
AcDbVertex
100
AcDb2dVertex
 10
0.0000000000172804
 20
17.3264467716217
 30
0.0
  0
VERTEX
  5
64FE
330
64F0
100
AcDbEntity
  8
LW 5026-32-00
100
AcDbVertex
100
AcDb2dVertex
 10
-0.3141689300364305
 20
17.32942223548889
 30
0.0
  0
VERTEX
  5
64FF
330
64F0
100
AcDbEntity
  8
LW 5026-32-00
100
AcDbVertex
100
AcDb2dVertex
 10
-0.6314468383616259
 20
17.33807563781761
 30
0.0
  0
VERTEX
  5
6500
330
64F0
100
AcDbEntity
  8
LW 5026-32-00
100
AcDbVertex
100
AcDb2dVertex
 10
-0.9413909911936571
 20
17.35200285911583
 30
0.0
  0
VERTEX
  5
6501
330
64F0
100
AcDbEntity
  8
LW 5026-32-00
100
AcDbVertex
100
AcDb2dVertex
 10
-1.234145164472465
 20
17.37039446830783
 30
0.0
  0
VERTEX
  5
6502
330
64F0
100
AcDbEntity
  8
LW 5026-32-00
100
AcDbVertex
100
AcDb2dVertex
 10
-1.502156257611659
 20
17.39148736000106
 30
0.0
  0
VERTEX
  5
6503
330
64F0
100
AcDbEntity
  8
LW 5026-32-00
100
AcDbVertex
100
AcDb2dVertex
 10
-1.738414764386561
 20
17.41343855857894
 30
0.0
  0
VERTEX
  5
6504
330
64F0
100
AcDbEntity
  8
LW 5026-32-00
100
AcDbVertex
100
AcDb2dVertex
 10
-1.945543289166835
 20
17.43536114692745
 30
0.0
  0
VERTEX
  5
6505
330
64F0
100
AcDbEntity
  8
LW 5026-32-00
100
AcDbVertex
100
AcDb2dVertex
 10
-2.125682830792811
 20
17.45637536048946
 30
0.0
  0
VERTEX
  5
6506
330
64F0
100
AcDbEntity
  8
LW 5026-32-00
100
AcDbVertex
100
AcDb2dVertex
 10
-2.271118164044764
 20
17.47466087341377
 30
0.0
  0
VERTEX
  5
6507
330
64F0
100
AcDbEntity
  8
LW 5026-32-00
100
AcDbVertex
100
AcDb2dVertex
 10
-2.375483512860228
 20
17.48848080635139
 30
0.0
  0
VERTEX
  5
6508
330
64F0
100
AcDbEntity
  8
LW 5026-32-00
100
AcDbVertex
100
AcDb2dVertex
 10
-2.437810897808958
 20
17.49705553054878
 30
0.0
  0
VERTEX
  5
6509
330
64F0
100
AcDbEntity
  8
LW 5026-32-00
100
AcDbVertex
100
AcDb2dVertex
 10
-2.458500862103392
 20
17.50000000000068
 30
0.0
  0
SEQEND
  5
650A
330
64F0
100
AcDbEntity
  8
LW 5026-32-00
  0
LINE
  5
650B
330
649C
100
AcDbEntity
  8
LW 5026-32-00
  6
VERDECKT
 62
     6
100
AcDbLine
 10
-2.458499999992454
 20
-17.49999999999932
 30
0.0
 11
-2.458499999990635
 21
-11.71789471799252
 31
0.0
  0
LINE
  5
650C
330
649C
100
AcDbEntity
  8
LW 5026-32-00
  6
VERDECKT
 62
     6
100
AcDbLine
 10
2.458500000007916
 20
-17.50000000000079
 30
0.0
 11
2.458500000009735
 21
-11.717894717994
 31
0.0
  0
LINE
  5
650D
330
649C
100
AcDbEntity
  8
LW 5026-32-00
  6
VERDECKT
 62
     6
100
AcDbLine
 10
-2.458499999983359
 20
11.71789471799388
 30
0.0
 11
-2.45849999998154
 21
17.50000000000068
 31
0.0
  0
LINE
  5
650E
330
649C
100
AcDbEntity
  8
LW 5026-32-00
  6
VERDECKT
 62
     6
100
AcDbLine
 10
2.458500000016556
 20
11.71789471799252
 30
0.0
 11
2.45850000001792
 21
17.4999999999992
 31
0.0
  0
POLYLINE
  5
650F
330
649C
100
AcDbEntity
  8
LW 5026-32-00
100
AcDb2dPolyline
 66
     1
 10
0.0
 20
0.0
 30
0.0
 70
   128
  0
VERTEX
  5
6510
330
650F
100
AcDbEntity
  8
LW 5026-32-00
100
AcDbVertex
100
AcDb2dVertex
 10
0.1000022888310923
 20
12.00000047683716
 30
0.0
  0
VERTEX
  5
6511
330
650F
100
AcDbEntity
  8
LW 5026-32-00
100
AcDbVertex
100
AcDb2dVertex
 10
0.7640886306890025
 20
11.97779297828651
 30
0.0
  0
VERTEX
  5
6512
330
650F
100
AcDbEntity
  8
LW 5026-32-00
100
AcDbVertex
100
AcDb2dVertex
 10
1.429209709180213
 20
11.91113829612686
 30
0.0
  0
VERTEX
  5
6513
330
650F
100
AcDbEntity
  8
LW 5026-32-00
100
AcDbVertex
100
AcDb2dVertex
 10
2.090067863477088
 20
11.79998040199211
 30
0.0
  0
VERTEX
  5
6514
330
650F
100
AcDbEntity
  8
LW 5026-32-00
100
AcDbVertex
100
AcDb2dVertex
 10
2.74159908295951
 20
11.64467811584382
 30
0.0
  0
VERTEX
  5
6515
330
650F
100
AcDbEntity
  8
LW 5026-32-00
100
AcDbVertex
100
AcDb2dVertex
 10
3.379426002515174
 20
11.44687294959908
 30
0.0
  0
VERTEX
  5
6516
330
650F
100
AcDbEntity
  8
LW 5026-32-00
100
AcDbVertex
100
AcDb2dVertex
 10
3.999280929577707
 20
11.20844960212594
 30
0.0
  0
VERTEX
  5
6517
330
650F
100
AcDbEntity
  8
LW 5026-32-00
100
AcDbVertex
100
AcDb2dVertex
 10
4.597344398510813
 20
10.93087315559251
 30
0.0
  0
VERTEX
  5
6518
330
650F
100
AcDbEntity
  8
LW 5026-32-00
100
AcDbVertex
100
AcDb2dVertex
 10
5.170793533337018
 20
10.61711549758752
 30
0.0
  0
VERTEX
  5
6519
330
650F
100
AcDbEntity
  8
LW 5026-32-00
100
AcDbVertex
100
AcDb2dVertex
 10
5.716900825512311
 20
10.27107715606519
 30
0.0
  0
VERTEX
  5
651A
330
650F
100
AcDbEntity
  8
LW 5026-32-00
100
AcDbVertex
100
AcDb2dVertex
 10
6.232929229748151
 20
9.896658062932942
 30
0.0
  0
VERTEX
  5
651B
330
650F
100
AcDbEntity
  8
LW 5026-32-00
100
AcDbVertex
100
AcDb2dVertex
 10
6.716151237499161
 20
9.49775576591287
 30
0.0
  0
VERTEX
  5
651C
330
650F
100
AcDbEntity
  8
LW 5026-32-00
100
AcDbVertex
100
AcDb2dVertex
 10
7.164006233226245
 20
9.078100323674789
 30
0.0
  0
VERTEX
  5
651D
330
650F
100
AcDbEntity
  8
LW 5026-32-00
100
AcDbVertex
100
AcDb2dVertex
 10
7.586660385142749
 20
8.628254532811752
 30
0.0
  0
VERTEX
  5
651E
330
650F
100
AcDbEntity
  8
LW 5026-32-00
100
AcDbVertex
100
AcDb2dVertex
 10
7.988529205333179
 20
8.142867088315369
 30
0.0
  0
VERTEX
  5
651F
330
650F
100
AcDbEntity
  8
LW 5026-32-00
100
AcDbVertex
100
AcDb2dVertex
 10
8.365621566783374
 20
7.624608874318482
 30
0.0
  0
VERTEX
  5
6520
330
650F
100
AcDbEntity
  8
LW 5026-32-00
100
AcDbVertex
100
AcDb2dVertex
 10
8.713960647593467
 20
7.076148986813791
 30
0.0
  0
VERTEX
  5
6521
330
650F
100
AcDbEntity
  8
LW 5026-32-00
100
AcDbVertex
100
AcDb2dVertex
 10
9.029560089121332
 20
6.500160098073138
 30
0.0
  0
VERTEX
  5
6522
330
650F
100
AcDbEntity
  8
LW 5026-32-00
100
AcDbVertex
100
AcDb2dVertex
 10
9.308433532724848
 20
5.899311304089678
 30
0.0
  0
VERTEX
  5
6523
330
650F
100
AcDbEntity
  8
LW 5026-32-00
100
AcDbVertex
100
AcDb2dVertex
 10
9.547052383432401
 20
5.276503562924403
 30
0.0
  0
VERTEX
  5
6524
330
650F
100
AcDbEntity
  8
LW 5026-32-00
100
AcDbVertex
100
AcDb2dVertex
 10
9.744029045114075
 20
4.636221230027103
 30
0.0
  0
VERTEX
  5
6525
330
650F
100
AcDbEntity
  8
LW 5026-32-00
100
AcDbVertex
100
AcDb2dVertex
 10
9.898595809945618
 20
3.983446657654667
 30
0.0
  0
VERTEX
  5
6526
330
650F
100
AcDbEntity
  8
LW 5026-32-00
100
AcDbVertex
100
AcDb2dVertex
 10
10.00996589661554
 20
3.323163092133427
 30
0.0
  0
VERTEX
  5
6527
330
650F
100
AcDbEntity
  8
LW 5026-32-00
100
AcDbVertex
100
AcDb2dVertex
 10
10.07736206055551
 20
2.660353183743268
 30
0.0
  0
VERTEX
  5
6528
330
650F
100
AcDbEntity
  8
LW 5026-32-00
100
AcDbVertex
100
AcDb2dVertex
 10
10.10000228882654
 20
2.000000029799252
 30
0.0
  0
SEQEND
  5
6529
330
650F
100
AcDbEntity
  8
LW 5026-32-00
  0
POLYLINE
  5
652A
330
649C
100
AcDbEntity
  8
LW 5026-32-00
100
AcDb2dPolyline
 66
     1
 10
0.0
 20
0.0
 30
0.0
 70
   128
  0
VERTEX
  5
652B
330
652A
100
AcDbEntity
  8
LW 5026-32-00
100
AcDbVertex
100
AcDb2dVertex
 10
10.10000228882563
 20
-2.000000029805391
 30
0.0
  0
VERTEX
  5
652C
330
652A
100
AcDbEntity
  8
LW 5026-32-00
100
AcDbVertex
100
AcDb2dVertex
 10
10.07736206055415
 20
-2.660353183749407
 30
0.0
  0
VERTEX
  5
652D
330
652A
100
AcDbEntity
  8
LW 5026-32-00
100
AcDbVertex
100
AcDb2dVertex
 10
10.00996589661326
 20
-3.323163092139338
 30
0.0
  0
VERTEX
  5
652E
330
652A
100
AcDbEntity
  8
LW 5026-32-00
100
AcDbVertex
100
AcDb2dVertex
 10
9.898595809943344
 20
-3.983446657660579
 30
0.0
  0
VERTEX
  5
652F
330
652A
100
AcDbEntity
  8
LW 5026-32-00
100
AcDbVertex
100
AcDb2dVertex
 10
9.744029045111346
 20
-4.636221230033015
 30
0.0
  0
VERTEX
  5
6530
330
652A
100
AcDbEntity
  8
LW 5026-32-00
100
AcDbVertex
100
AcDb2dVertex
 10
9.547052383429218
 20
-5.276503562930088
 30
0.0
  0
VERTEX
  5
6531
330
652A
100
AcDbEntity
  8
LW 5026-32-00
100
AcDbVertex
100
AcDb2dVertex
 10
9.30843353272121
 20
-5.899311304095135
 30
0.0
  0
VERTEX
  5
6532
330
652A
100
AcDbEntity
  8
LW 5026-32-00
100
AcDbVertex
100
AcDb2dVertex
 10
9.029560089117694
 20
-6.500160098078595
 30
0.0
  0
VERTEX
  5
6533
330
652A
100
AcDbEntity
  8
LW 5026-32-00
100
AcDbVertex
100
AcDb2dVertex
 10
8.713960647589374
 20
-7.076148986819021
 30
0.0
  0
VERTEX
  5
6534
330
652A
100
AcDbEntity
  8
LW 5026-32-00
100
AcDbVertex
100
AcDb2dVertex
 10
8.365621566778827
 20
-7.624608874323484
 30
0.0
  0
VERTEX
  5
6535
330
652A
100
AcDbEntity
  8
LW 5026-32-00
100
AcDbVertex
100
AcDb2dVertex
 10
7.988529205328177
 20
-8.142867088320372
 30
0.0
  0
VERTEX
  5
6536
330
652A
100
AcDbEntity
  8
LW 5026-32-00
100
AcDbVertex
100
AcDb2dVertex
 10
7.586660385137747
 20
-8.628254532816299
 30
0.0
  0
VERTEX
  5
6537
330
652A
100
AcDbEntity
  8
LW 5026-32-00
100
AcDbVertex
100
AcDb2dVertex
 10
7.164006233221243
 20
-9.078100323679336
 30
0.0
  0
VERTEX
  5
6538
330
652A
100
AcDbEntity
  8
LW 5026-32-00
100
AcDbVertex
100
AcDb2dVertex
 10
6.716151237493704
 20
-9.497755765916963
 30
0.0
  0
VERTEX
  5
6539
330
652A
100
AcDbEntity
  8
LW 5026-32-00
100
AcDbVertex
100
AcDb2dVertex
 10
6.232929229742239
 20
-9.896658062936808
 30
0.0
  0
VERTEX
  5
653A
330
652A
100
AcDbEntity
  8
LW 5026-32-00
100
AcDbVertex
100
AcDb2dVertex
 10
5.716900825506399
 20
-10.2710771560686
 30
0.0
  0
VERTEX
  5
653B
330
652A
100
AcDbEntity
  8
LW 5026-32-00
100
AcDbVertex
100
AcDb2dVertex
 10
5.170793533330652
 20
-10.6171154975907
 30
0.0
  0
VERTEX
  5
653C
330
652A
100
AcDbEntity
  8
LW 5026-32-00
100
AcDbVertex
100
AcDb2dVertex
 10
4.597344398503992
 20
-10.93087315559523
 30
0.0
  0
VERTEX
  5
653D
330
652A
100
AcDbEntity
  8
LW 5026-32-00
100
AcDbVertex
100
AcDb2dVertex
 10
3.999280929570886
 20
-11.20844960212821
 30
0.0
  0
VERTEX
  5
653E
330
652A
100
AcDbEntity
  8
LW 5026-32-00
100
AcDbVertex
100
AcDb2dVertex
 10
3.379426002507898
 20
-11.44687294960135
 30
0.0
  0
VERTEX
  5
653F
330
652A
100
AcDbEntity
  8
LW 5026-32-00
100
AcDbVertex
100
AcDb2dVertex
 10
2.741599082952234
 20
-11.64467811584563
 30
0.0
  0
VERTEX
  5
6540
330
652A
100
AcDbEntity
  8
LW 5026-32-00
100
AcDbVertex
100
AcDb2dVertex
 10
2.090067863469812
 20
-11.79998040199348
 30
0.0
  0
VERTEX
  5
6541
330
652A
100
AcDbEntity
  8
LW 5026-32-00
100
AcDbVertex
100
AcDb2dVertex
 10
1.429209709172937
 20
-11.91113829612777
 30
0.0
  0
VERTEX
  5
6542
330
652A
100
AcDbEntity
  8
LW 5026-32-00
100
AcDbVertex
100
AcDb2dVertex
 10
0.7640886306817265
 20
-11.97779297828697
 30
0.0
  0
VERTEX
  5
6543
330
652A
100
AcDbEntity
  8
LW 5026-32-00
100
AcDbVertex
100
AcDb2dVertex
 10
0.1000022888238163
 20
-12.00000047683716
 30
0.0
  0
SEQEND
  5
6544
330
652A
100
AcDbEntity
  8
LW 5026-32-00
  0
LINE
  5
6545
330
649C
100
AcDbEntity
  8
LW 5026-32-00
100
AcDbLine
 10
0.1000000000058208
 20
-12.00000000000011
 30
0.0
 11
-0.0999999999944521
 21
-12.0
 31
0.0
  0
POLYLINE
  5
6546
330
649C
100
AcDbEntity
  8
LW 5026-32-00
100
AcDb2dPolyline
 66
     1
 10
0.0
 20
0.0
 30
0.0
 70
   128
  0
VERTEX
  5
6547
330
6546
100
AcDbEntity
  8
LW 5026-32-00
100
AcDbVertex
100
AcDb2dVertex
 10
-10.10000228881017
 20
2.000000029805278
 30
0.0
  0
VERTEX
  5
6548
330
6546
100
AcDbEntity
  8
LW 5026-32-00
100
AcDbVertex
100
AcDb2dVertex
 10
-10.07736206053823
 20
2.660353183749293
 30
0.0
  0
VERTEX
  5
6549
330
6546
100
AcDbEntity
  8
LW 5026-32-00
100
AcDbVertex
100
AcDb2dVertex
 10
-10.00996589659735
 20
3.323163092139338
 30
0.0
  0
VERTEX
  5
654A
330
6546
100
AcDbEntity
  8
LW 5026-32-00
100
AcDbVertex
100
AcDb2dVertex
 10
-9.898595809927428
 20
3.983446657660579
 30
0.0
  0
VERTEX
  5
654B
330
6546
100
AcDbEntity
  8
LW 5026-32-00
100
AcDbVertex
100
AcDb2dVertex
 10
-9.744029045095885
 20
4.636221230032901
 30
0.0
  0
VERTEX
  5
654C
330
6546
100
AcDbEntity
  8
LW 5026-32-00
100
AcDbVertex
100
AcDb2dVertex
 10
-9.547052383413301
 20
5.276503562929974
 30
0.0
  0
VERTEX
  5
654D
330
6546
100
AcDbEntity
  8
LW 5026-32-00
100
AcDbVertex
100
AcDb2dVertex
 10
-9.308433532704839
 20
5.899311304095135
 30
0.0
  0
VERTEX
  5
654E
330
6546
100
AcDbEntity
  8
LW 5026-32-00
100
AcDbVertex
100
AcDb2dVertex
 10
-9.029560089101323
 20
6.500160098078481
 30
0.0
  0
VERTEX
  5
654F
330
6546
100
AcDbEntity
  8
LW 5026-32-00
100
AcDbVertex
100
AcDb2dVertex
 10
-8.713960647572548
 20
7.076148986818907
 30
0.0
  0
VERTEX
  5
6550
330
6546
100
AcDbEntity
  8
LW 5026-32-00
100
AcDbVertex
100
AcDb2dVertex
 10
-8.365621566762001
 20
7.624608874323484
 30
0.0
  0
VERTEX
  5
6551
330
6546
100
AcDbEntity
  8
LW 5026-32-00
100
AcDbVertex
100
AcDb2dVertex
 10
-7.988529205311351
 20
8.142867088320144
 30
0.0
  0
VERTEX
  5
6552
330
6546
100
AcDbEntity
  8
LW 5026-32-00
100
AcDbVertex
100
AcDb2dVertex
 10
-7.586660385120922
 20
8.628254532816299
 30
0.0
  0
VERTEX
  5
6553
330
6546
100
AcDbEntity
  8
LW 5026-32-00
100
AcDbVertex
100
AcDb2dVertex
 10
-7.164006233203963
 20
9.078100323679109
 30
0.0
  0
VERTEX
  5
6554
330
6546
100
AcDbEntity
  8
LW 5026-32-00
100
AcDbVertex
100
AcDb2dVertex
 10
-6.716151237476424
 20
9.497755765916849
 30
0.0
  0
VERTEX
  5
6555
330
6546
100
AcDbEntity
  8
LW 5026-32-00
100
AcDbVertex
100
AcDb2dVertex
 10
-6.232929229724504
 20
9.896658062936694
 30
0.0
  0
VERTEX
  5
6556
330
6546
100
AcDbEntity
  8
LW 5026-32-00
100
AcDbVertex
100
AcDb2dVertex
 10
-5.716900825488664
 20
10.27107715606848
 30
0.0
  0
VERTEX
  5
6557
330
6546
100
AcDbEntity
  8
LW 5026-32-00
100
AcDbVertex
100
AcDb2dVertex
 10
-5.170793533313371
 20
10.61711549759059
 30
0.0
  0
VERTEX
  5
6558
330
6546
100
AcDbEntity
  8
LW 5026-32-00
100
AcDbVertex
100
AcDb2dVertex
 10
-4.597344398486256
 20
10.93087315559523
 30
0.0
  0
VERTEX
  5
6559
330
6546
100
AcDbEntity
  8
LW 5026-32-00
100
AcDbVertex
100
AcDb2dVertex
 10
-3.999280929553151
 20
11.20844960212821
 30
0.0
  0
VERTEX
  5
655A
330
6546
100
AcDbEntity
  8
LW 5026-32-00
100
AcDbVertex
100
AcDb2dVertex
 10
-3.379426002489708
 20
11.44687294960113
 30
0.0
  0
VERTEX
  5
655B
330
6546
100
AcDbEntity
  8
LW 5026-32-00
100
AcDbVertex
100
AcDb2dVertex
 10
-2.741599082934044
 20
11.64467811584552
 30
0.0
  0
VERTEX
  5
655C
330
6546
100
AcDbEntity
  8
LW 5026-32-00
100
AcDbVertex
100
AcDb2dVertex
 10
-2.090067863451622
 20
11.79998040199336
 30
0.0
  0
VERTEX
  5
655D
330
6546
100
AcDbEntity
  8
LW 5026-32-00
100
AcDbVertex
100
AcDb2dVertex
 10
-1.429209709154747
 20
11.91113829612766
 30
0.0
  0
VERTEX
  5
655E
330
6546
100
AcDbEntity
  8
LW 5026-32-00
100
AcDbVertex
100
AcDb2dVertex
 10
-0.7640886306635366
 20
11.97779297828697
 30
0.0
  0
VERTEX
  5
655F
330
6546
100
AcDbEntity
  8
LW 5026-32-00
100
AcDbVertex
100
AcDb2dVertex
 10
-0.1000022888056264
 20
12.00000047683716
 30
0.0
  0
SEQEND
  5
6560
330
6546
100
AcDbEntity
  8
LW 5026-32-00
  0
LINE
  5
6561
330
649C
100
AcDbEntity
  8
LW 5026-32-00
100
AcDbLine
 10
-0.0999999999871761
 20
12.0
 30
0.0
 11
0.1000000000130967
 21
12.0
 31
0.0
  0
LINE
  5
6562
330
649C
100
AcDbEntity
  8
LW 5026-32-00
100
AcDbLine
 10
10.10000000000718
 20
-2.000000000003069
 30
0.0
 11
10.10000000000855
 21
1.999999999996816
 31
0.0
  0
LINE
  5
6563
330
649C
100
AcDbEntity
  8
LW 5026-32-00
100
AcDbLine
 10
-10.09999999999127
 20
2.000000000002955
 30
0.0
 11
-10.09999999999263
 21
-1.999999999997044
 31
0.0
  0
POLYLINE
  5
6564
330
649C
100
AcDbEntity
  8
LW 5026-32-00
100
AcDb2dPolyline
 66
     1
 10
0.0
 20
0.0
 30
0.0
 70
   128
  0
VERTEX
  5
6565
330
6564
100
AcDbEntity
  8
LW 5026-32-00
100
AcDbVertex
100
AcDb2dVertex
 10
-0.1000022888129024
 20
-12.00000047683716
 30
0.0
  0
VERTEX
  5
6566
330
6564
100
AcDbEntity
  8
LW 5026-32-00
100
AcDbVertex
100
AcDb2dVertex
 10
-0.7640886306708126
 20
-11.97779297828651
 30
0.0
  0
VERTEX
  5
6567
330
6564
100
AcDbEntity
  8
LW 5026-32-00
100
AcDbVertex
100
AcDb2dVertex
 10
-1.429209709162023
 20
-11.91113829612698
 30
0.0
  0
VERTEX
  5
6568
330
6564
100
AcDbEntity
  8
LW 5026-32-00
100
AcDbVertex
100
AcDb2dVertex
 10
-2.090067863458898
 20
-11.79998040199223
 30
0.0
  0
VERTEX
  5
6569
330
6564
100
AcDbEntity
  8
LW 5026-32-00
100
AcDbVertex
100
AcDb2dVertex
 10
-2.74159908294132
 20
-11.64467811584393
 30
0.0
  0
VERTEX
  5
656A
330
6564
100
AcDbEntity
  8
LW 5026-32-00
100
AcDbVertex
100
AcDb2dVertex
 10
-3.379426002496984
 20
-11.44687294959931
 30
0.0
  0
VERTEX
  5
656B
330
6564
100
AcDbEntity
  8
LW 5026-32-00
100
AcDbVertex
100
AcDb2dVertex
 10
-3.999280929559972
 20
-11.20844960212594
 30
0.0
  0
VERTEX
  5
656C
330
6564
100
AcDbEntity
  8
LW 5026-32-00
100
AcDbVertex
100
AcDb2dVertex
 10
-4.597344398493078
 20
-10.93087315559251
 30
0.0
  0
VERTEX
  5
656D
330
6564
100
AcDbEntity
  8
LW 5026-32-00
100
AcDbVertex
100
AcDb2dVertex
 10
-5.170793533319738
 20
-10.61711549758763
 30
0.0
  0
VERTEX
  5
656E
330
6564
100
AcDbEntity
  8
LW 5026-32-00
100
AcDbVertex
100
AcDb2dVertex
 10
-5.716900825495031
 20
-10.2710771560653
 30
0.0
  0
VERTEX
  5
656F
330
6564
100
AcDbEntity
  8
LW 5026-32-00
100
AcDbVertex
100
AcDb2dVertex
 10
-6.232929229730416
 20
-9.896658062933056
 30
0.0
  0
VERTEX
  5
6570
330
6564
100
AcDbEntity
  8
LW 5026-32-00
100
AcDbVertex
100
AcDb2dVertex
 10
-6.716151237481881
 20
-9.497755765912984
 30
0.0
  0
VERTEX
  5
6571
330
6564
100
AcDbEntity
  8
LW 5026-32-00
100
AcDbVertex
100
AcDb2dVertex
 10
-7.16400623320942
 20
-9.078100323675016
 30
0.0
  0
VERTEX
  5
6572
330
6564
100
AcDbEntity
  8
LW 5026-32-00
100
AcDbVertex
100
AcDb2dVertex
 10
-7.586660385125924
 20
-8.628254532811752
 30
0.0
  0
VERTEX
  5
6573
330
6564
100
AcDbEntity
  8
LW 5026-32-00
100
AcDbVertex
100
AcDb2dVertex
 10
-7.988529205316353
 20
-8.142867088315597
 30
0.0
  0
VERTEX
  5
6574
330
6564
100
AcDbEntity
  8
LW 5026-32-00
100
AcDbVertex
100
AcDb2dVertex
 10
-8.365621566766094
 20
-7.624608874318482
 30
0.0
  0
VERTEX
  5
6575
330
6564
100
AcDbEntity
  8
LW 5026-32-00
100
AcDbVertex
100
AcDb2dVertex
 10
-8.713960647576641
 20
-7.076148986813905
 30
0.0
  0
VERTEX
  5
6576
330
6564
100
AcDbEntity
  8
LW 5026-32-00
100
AcDbVertex
100
AcDb2dVertex
 10
-9.029560089104961
 20
-6.500160098073251
 30
0.0
  0
VERTEX
  5
6577
330
6564
100
AcDbEntity
  8
LW 5026-32-00
100
AcDbVertex
100
AcDb2dVertex
 10
-9.308433532708477
 20
-5.899311304089678
 30
0.0
  0
VERTEX
  5
6578
330
6564
100
AcDbEntity
  8
LW 5026-32-00
100
AcDbVertex
100
AcDb2dVertex
 10
-9.547052383416485
 20
-5.276503562924517
 30
0.0
  0
VERTEX
  5
6579
330
6564
100
AcDbEntity
  8
LW 5026-32-00
100
AcDbVertex
100
AcDb2dVertex
 10
-9.744029045098614
 20
-4.636221230027217
 30
0.0
  0
VERTEX
  5
657A
330
6564
100
AcDbEntity
  8
LW 5026-32-00
100
AcDbVertex
100
AcDb2dVertex
 10
-9.898595809929702
 20
-3.983446657654667
 30
0.0
  0
VERTEX
  5
657B
330
6564
100
AcDbEntity
  8
LW 5026-32-00
100
AcDbVertex
100
AcDb2dVertex
 10
-10.00996589659962
 20
-3.323163092133427
 30
0.0
  0
VERTEX
  5
657C
330
6564
100
AcDbEntity
  8
LW 5026-32-00
100
AcDbVertex
100
AcDb2dVertex
 10
-10.0773620605396
 20
-2.660353183743382
 30
0.0
  0
VERTEX
  5
657D
330
6564
100
AcDbEntity
  8
LW 5026-32-00
100
AcDbVertex
100
AcDb2dVertex
 10
-10.10000228881108
 20
-2.000000029799366
 30
0.0
  0
SEQEND
  5
657E
330
6564
100
AcDbEntity
  8
LW 5026-32-00
  0
LINE
  5
657F
330
649C
100
AcDbEntity
  8
LW 5026-32-00
  6
VERDECKT
 62
     6
100
AcDbLine
 10
-59.99999999999136
 20
-14.66010854272019
 30
0.0
 11
-59.99999999998272
 21
14.66010854275578
 31
0.0
  0
ARC
  5
6580
330
649C
100
AcDbEntity
  8
LW 5026-32-00
  6
VERDECKT
 62
     6
100
AcDbCircle
 10
-61.99999999999135
 20
-14.66010854271962
 30
0.0
 40
2.0
100
AcDbArc
 50
340.7099537807874
 51
0.0
  0
ARC
  5
6581
330
649C
100
AcDbEntity
  8
LW 5026-32-00
  6
VERDECKT
 62
     6
100
AcDbCircle
 10
-61.99999999998272
 20
14.66010854275623
 30
0.0
 40
2.0
100
AcDbArc
 50
0.0
 51
19.29004621917444
  0
LINE
  5
6582
330
649C
100
AcDbEntity
  8
LW 5026-32-00
  6
VERDECKT
 62
     6
100
AcDbLine
 10
-60.11228328725974
 20
-15.32080939217644
 30
0.0
 11
-60.87499999999227
 21
-17.49999999998204
 31
0.0
  0
LINE
  5
6583
330
649C
100
AcDbEntity
  8
LW 5026-32-00
  6
VERDECKT
 62
     6
100
AcDbLine
 10
-60.11228328725064
 20
15.32080939221191
 30
0.0
 11
-60.87499999998181
 21
17.50000000001796
 31
0.0
  0
LINE
  5
6584
330
649C
100
AcDbEntity
  8
LW 5026-32-00
100
AcDbLine
 10
-2.934499611942101
 20
17.50000000000091
 30
0.0
 11
-2.45849999998154
 21
17.50000000000068
 31
0.0
  0
LINE
  5
6585
330
649C
100
AcDbEntity
  8
LW 5026-32-00
100
AcDbLine
 10
2.45850000001792
 20
17.49999999999932
 30
0.0
 11
2.93449961197848
 21
17.49999999999909
 31
0.0
  0
LINE
  5
6586
330
649C
100
AcDbEntity
  8
LW 5026-32-00
100
AcDbLine
 10
-2.93449961195256
 20
-17.49999999999909
 30
0.0
 11
-2.458499999992454
 21
-17.49999999999932
 31
0.0
  0
LINE
  5
6587
330
649C
100
AcDbEntity
  8
LW 5026-32-00
100
AcDbLine
 10
2.458500000007916
 20
-17.50000000000068
 30
0.0
 11
2.934499611968021
 21
-17.50000000000091
 31
0.0
  0
LINE
  5
6588
330
649C
100
AcDbEntity
  8
LW 5026-32-00
100
AcDbLine
 10
-60.87499999999227
 20
-17.49999999998204
 30
0.0
 11
-60.87499999998181
 21
17.50000000001796
 31
0.0
  0
LINE
  5
6589
330
649C
100
AcDbEntity
  8
LW 5026-32-00
100
AcDbLine
 10
20.00000000000818
 20
-16.00000000000591
 30
0.0
 11
20.00000000001774
 21
15.99999999999409
 31
0.0
  0
LINE
  5
658A
330
649C
100
AcDbEntity
  8
LW 5026-32-00
100
AcDbLine
 10
-60.87499999998181
 20
17.50000000001796
 30
0.0
 11
-2.934499611942101
 21
17.50000000000091
 31
0.0
  0
LINE
  5
658B
330
649C
100
AcDbEntity
  8
LW 5026-32-00
100
AcDbLine
 10
2.93449961197848
 20
17.49999999999909
 30
0.0
 11
18.50000000001819
 21
17.49999999999454
 31
0.0
  0
LINE
  5
658C
330
649C
100
AcDbEntity
  8
LW 5026-32-00
100
AcDbLine
 10
-60.87499999999227
 20
-17.49999999998204
 30
0.0
 11
-2.93449961195256
 21
-17.49999999999909
 31
0.0
  0
LINE
  5
658D
330
649C
100
AcDbEntity
  8
LW 5026-32-00
100
AcDbLine
 10
2.934499611968021
 20
-17.50000000000091
 30
0.0
 11
18.50000000000773
 21
-17.50000000000546
 31
0.0
  0
ARC
  5
658E
330
649C
100
AcDbEntity
  8
LW 5026-32-00
100
AcDbCircle
 10
18.50000000000818
 20
-16.00000000000546
 30
0.0
 40
1.500000000000012
100
AcDbArc
 50
269.999999999987
 51
0.0
  0
ARC
  5
658F
330
649C
100
AcDbEntity
  8
LW 5026-32-00
100
AcDbCircle
 10
18.50000000001773
 20
15.99999999999454
 30
0.0
 40
1.500000000000012
100
AcDbArc
 50
0.0
 51
89.99999999998697
  0
POLYLINE
  5
6590
330
649C
100
AcDbEntity
  8
LW 5026-32-00
100
AcDb2dPolyline
 66
     1
 10
0.0
 20
0.0
 30
0.0
 70
   128
  0
VERTEX
  5
6591
330
6590
100
AcDbEntity
  8
LW 5026-32-00
100
AcDbVertex
100
AcDb2dVertex
 10
2.458500862193886
 20
17.4999999999992
 30
0.0
  0
VERTEX
  5
6592
330
6590
100
AcDbEntity
  8
LW 5026-32-00
100
AcDbVertex
100
AcDb2dVertex
 10
2.437810897899453
 20
17.4970555305473
 30
0.0
  0
VERTEX
  5
6593
330
6590
100
AcDbEntity
  8
LW 5026-32-00
100
AcDbVertex
100
AcDb2dVertex
 10
2.375483512950722
 20
17.48848080635002
 30
0.0
  0
VERTEX
  5
6594
330
6590
100
AcDbEntity
  8
LW 5026-32-00
100
AcDbVertex
100
AcDb2dVertex
 10
2.271118164134804
 20
17.4746608734124
 30
0.0
  0
VERTEX
  5
6595
330
6590
100
AcDbEntity
  8
LW 5026-32-00
100
AcDbVertex
100
AcDb2dVertex
 10
2.125682830882396
 20
17.45637536048821
 30
0.0
  0
VERTEX
  5
6596
330
6590
100
AcDbEntity
  8
LW 5026-32-00
100
AcDbVertex
100
AcDb2dVertex
 10
1.94554328925642
 20
17.4353611469262
 30
0.0
  0
VERTEX
  5
6597
330
6590
100
AcDbEntity
  8
LW 5026-32-00
100
AcDbVertex
100
AcDb2dVertex
 10
1.738414764476146
 20
17.41343855857792
 30
0.0
  0
VERTEX
  5
6598
330
6590
100
AcDbEntity
  8
LW 5026-32-00
100
AcDbVertex
100
AcDb2dVertex
 10
1.502156257701244
 20
17.39148736000015
 30
0.0
  0
VERTEX
  5
6599
330
6590
100
AcDbEntity
  8
LW 5026-32-00
100
AcDbVertex
100
AcDb2dVertex
 10
1.234145164561596
 20
17.37039446830704
 30
0.0
  0
VERTEX
  5
659A
330
6590
100
AcDbEntity
  8
LW 5026-32-00
100
AcDbVertex
100
AcDb2dVertex
 10
0.9413909912827875
 20
17.35200285911537
 30
0.0
  0
VERTEX
  5
659B
330
6590
100
AcDbEntity
  8
LW 5026-32-00
100
AcDbVertex
100
AcDb2dVertex
 10
0.6314468384507564
 20
17.33807563781715
 30
0.0
  0
VERTEX
  5
659C
330
6590
100
AcDbEntity
  8
LW 5026-32-00
100
AcDbVertex
100
AcDb2dVertex
 10
0.314168930125561
 20
17.32942223548866
 30
0.0
  0
VERTEX
  5
659D
330
6590
100
AcDbEntity
  8
LW 5026-32-00
100
AcDbVertex
100
AcDb2dVertex
 10
0.0000000000718501
 20
17.3264467716217
 30
0.0
  0
VERTEX
  5
659E
330
6590
100
AcDbEntity
  8
LW 5026-32-00
100
AcDbVertex
100
AcDb2dVertex
 10
-0.3141689299818609
 20
17.32942223548889
 30
0.0
  0
VERTEX
  5
659F
330
6590
100
AcDbEntity
  8
LW 5026-32-00
100
AcDbVertex
100
AcDb2dVertex
 10
-0.6314468383070562
 20
17.33807563781761
 30
0.0
  0
VERTEX
  5
65A0
330
6590
100
AcDbEntity
  8
LW 5026-32-00
100
AcDbVertex
100
AcDb2dVertex
 10
-0.9413909911390874
 20
17.35200285911583
 30
0.0
  0
VERTEX
  5
65A1
330
6590
100
AcDbEntity
  8
LW 5026-32-00
100
AcDbVertex
100
AcDb2dVertex
 10
-1.234145164417896
 20
17.37039446830783
 30
0.0
  0
VERTEX
  5
65A2
330
6590
100
AcDbEntity
  8
LW 5026-32-00
100
AcDbVertex
100
AcDb2dVertex
 10
-1.502156257557544
 20
17.39148736000106
 30
0.0
  0
VERTEX
  5
65A3
330
6590
100
AcDbEntity
  8
LW 5026-32-00
100
AcDbVertex
100
AcDb2dVertex
 10
-1.738414764332446
 20
17.41343855857894
 30
0.0
  0
VERTEX
  5
65A4
330
6590
100
AcDbEntity
  8
LW 5026-32-00
100
AcDbVertex
100
AcDb2dVertex
 10
-1.94554328911272
 20
17.43536114692745
 30
0.0
  0
VERTEX
  5
65A5
330
6590
100
AcDbEntity
  8
LW 5026-32-00
100
AcDbVertex
100
AcDb2dVertex
 10
-2.125682830738696
 20
17.45637536048946
 30
0.0
  0
VERTEX
  5
65A6
330
6590
100
AcDbEntity
  8
LW 5026-32-00
100
AcDbVertex
100
AcDb2dVertex
 10
-2.271118163990195
 20
17.47466087341377
 30
0.0
  0
VERTEX
  5
65A7
330
6590
100
AcDbEntity
  8
LW 5026-32-00
100
AcDbVertex
100
AcDb2dVertex
 10
-2.375483512806113
 20
17.48848080635139
 30
0.0
  0
VERTEX
  5
65A8
330
6590
100
AcDbEntity
  8
LW 5026-32-00
100
AcDbVertex
100
AcDb2dVertex
 10
-2.437810897754843
 20
17.49705553054878
 30
0.0
  0
VERTEX
  5
65A9
330
6590
100
AcDbEntity
  8
LW 5026-32-00
100
AcDbVertex
100
AcDb2dVertex
 10
-2.458500862049277
 20
17.50000000000068
 30
0.0
  0
SEQEND
  5
65AA
330
6590
100
AcDbEntity
  8
LW 5026-32-00
  0
LINE
  5
65AB
330
649C
100
AcDbEntity
  8
LW 5026-32-00
  6
VERDECKT
 62
     6
100
AcDbLine
 10
3.000000000009549
 20
-11.56454189896737
 30
0.0
 11
3.000000000008185
 21
-17.50000000000102
 31
0.0
  0
LINE
  5
65AC
330
649C
100
AcDbEntity
  8
LW 5026-32-00
  6
VERDECKT
 62
     6
100
AcDbLine
 10
-2.999999999990905
 20
-11.56454189896817
 30
0.0
 11
-2.999999999992269
 21
-17.49999999999898
 31
0.0
  0
LINE
  5
65AD
330
649C
100
AcDbEntity
  8
LW 5026-32-00
100
AcDbLine
 10
2.00000000001637
 20
11.49999999999931
 30
0.0
 11
-1.999999999983629
 21
11.50000000000045
 31
0.0
  0
LINE
  5
65AE
330
649C
100
AcDbEntity
  8
LW 5026-32-00
100
AcDbLine
 10
-1.999999999983629
 20
11.50000000000057
 30
0.0
 11
-2.263220606333561
 21
11.76322060635084
 31
0.0
  0
LINE
  5
65AF
330
649C
100
AcDbEntity
  8
LW 5026-32-00
100
AcDbLine
 10
2.00000000001637
 20
11.49999999999931
 30
0.0
 11
2.263220606366758
 21
11.76322060634948
 31
0.0
  0
LINE
  5
65B0
330
649C
100
AcDbEntity
  8
LW 5026-32-00
  6
VERDECKT
 62
     6
100
AcDbLine
 10
-2.999999999983174
 20
12.50000000000079
 30
0.0
 11
3.00000000001637
 21
12.49999999999909
 31
0.0
  0
LINE
  5
65B1
330
649C
100
AcDbEntity
  8
LW 5026-32-00
  6
VERDECKT
 62
     6
100
AcDbLine
 10
-2.263220606333561
 20
11.76322060635084
 30
0.0
 11
-2.999999999983174
 21
12.50000000000079
 31
0.0
  0
LINE
  5
65B2
330
649C
100
AcDbEntity
  8
LW 5026-32-00
  6
VERDECKT
 62
     6
100
AcDbLine
 10
2.263220606366758
 20
11.76322060634948
 30
0.0
 11
3.000000000016825
 21
12.49999999999909
 31
0.0
  0
LINE
  5
65B3
330
649C
100
AcDbEntity
  8
LW 5026-32-00
  6
VERDECKT
 62
     6
100
AcDbLine
 10
-1.439421035177929
 20
17.3865500000004
 30
0.0
 11
-2.99999999998181
 21
17.38655000000085
 31
0.0
  0
LINE
  5
65B4
330
649C
100
AcDbEntity
  8
LW 5026-32-00
  6
VERDECKT
 62
     6
100
AcDbLine
 10
3.000000000018189
 20
17.38654999999903
 30
0.0
 11
1.439421035321629
 21
17.38654999999949
 31
0.0
  0
LINE
  5
65B5
330
649C
100
AcDbEntity
  8
LW 5026-32-00
  6
VERDECKT
 62
     6
100
AcDbLine
 10
2.93449961197848
 20
17.49999999999909
 30
0.0
 11
3.000000000018189
 21
17.38654999999903
 31
0.0
  0
LINE
  5
65B6
330
649C
100
AcDbEntity
  8
LW 5026-32-00
  6
VERDECKT
 62
     6
100
AcDbLine
 10
-2.934499611942101
 20
17.50000000000079
 30
0.0
 11
-2.99999999998181
 21
17.38655000000085
 31
0.0
  0
LINE
  5
65B7
330
649C
100
AcDbEntity
  8
LW 5026-32-00
100
AcDbLine
 10
1.439421035321629
 20
17.38654999999949
 30
0.0
 11
-1.439421035177929
 21
17.3865500000004
 31
0.0
  0
LINE
  5
65B8
330
649C
100
AcDbEntity
  8
LW 5026-32-00
100
AcDbLine
 10
-2.645824477347559
 20
18.00000000000068
 30
0.0
 11
2.645824477383939
 21
17.99999999999909
 31
0.0
  0
LINE
  5
65B9
330
649C
100
AcDbEntity
  8
LW 5026-32-00
100
AcDbLine
 10
2.645824477383939
 20
17.99999999999909
 30
0.0
 11
2.93449961197848
 21
17.49999999999909
 31
0.0
  0
LINE
  5
65BA
330
649C
100
AcDbEntity
  8
LW 5026-32-00
100
AcDbLine
 10
-2.645824477347559
 20
18.00000000000068
 30
0.0
 11
-2.934499611942101
 21
17.50000000000079
 31
0.0
  0
LINE
  5
65BB
330
649C
100
AcDbEntity
  8
LW 5026-32-00
  6
VERDECKT
 62
     6
100
AcDbLine
 10
1.701559465537229
 20
15.99999999999943
 30
0.0
 11
1.701559465537684
 21
17.99999999999932
 31
0.0
  0
LINE
  5
65BC
330
649C
100
AcDbEntity
  8
LW 5026-32-00
  6
VERDECKT
 62
     6
100
AcDbLine
 10
-1.701559465501759
 20
16.00000000000045
 30
0.0
 11
-1.701559465501304
 21
18.00000000000045
 31
0.0
  0
POLYLINE
  5
65BD
330
649C
100
AcDbEntity
  8
LW 5026-32-00
  6
VERDECKT
 62
     6
100
AcDb2dPolyline
 66
     1
 10
0.0
 20
0.0
 30
0.0
 70
   128
  0
VERTEX
  5
65BE
330
65BD
100
AcDbEntity
  8
LW 5026-32-00
  6
VERDECKT
 62
     6
100
AcDbVertex
100
AcDb2dVertex
 10
-0.570562756500749
 20
16.00000023841858
 30
0.0
  0
VERTEX
  5
65BF
330
65BD
100
AcDbEntity
  8
LW 5026-32-00
  6
VERDECKT
 62
     6
100
AcDbVertex
100
AcDb2dVertex
 10
-0.6240137565973783
 20
15.97722768783592
 30
0.0
  0
VERTEX
  5
65C0
330
65BD
100
AcDbEntity
  8
LW 5026-32-00
  6
VERDECKT
 62
     6
100
AcDbVertex
100
AcDb2dVertex
 10
-0.6756932485832295
 20
15.95691502094291
 30
0.0
  0
VERTEX
  5
65C1
330
65BD
100
AcDbEntity
  8
LW 5026-32-00
  6
VERDECKT
 62
     6
100
AcDbVertex
100
AcDb2dVertex
 10
-0.7258202294815419
 20
15.93891918659233
 30
0.0
  0
VERTEX
  5
65C2
330
65BD
100
AcDbEntity
  8
LW 5026-32-00
  6
VERDECKT
 62
     6
100
AcDbVertex
100
AcDb2dVertex
 10
-0.7745952730997488
 20
15.92311620712303
 30
0.0
  0
VERTEX
  5
65C3
330
65BD
100
AcDbEntity
  8
LW 5026-32-00
  6
VERDECKT
 62
     6
100
AcDbVertex
100
AcDb2dVertex
 10
-0.8222031810787484
 20
15.90940058231376
 30
0.0
  0
VERTEX
  5
65C4
330
65BD
100
AcDbEntity
  8
LW 5026-32-00
  6
VERDECKT
 62
     6
100
AcDbVertex
100
AcDb2dVertex
 10
-0.8688156029902529
 20
15.89768230915092
 30
0.0
  0
VERTEX
  5
65C5
330
65BD
100
AcDbEntity
  8
LW 5026-32-00
  6
VERDECKT
 62
     6
100
AcDbVertex
100
AcDb2dVertex
 10
-0.914593363656877
 20
15.88788747787498
 30
0.0
  0
VERTEX
  5
65C6
330
65BD
100
AcDbEntity
  8
LW 5026-32-00
  6
VERDECKT
 62
     6
100
AcDbVertex
100
AcDb2dVertex
 10
-0.9596883549074846
 20
15.87995409965538
 30
0.0
  0
VERTEX
  5
65C7
330
65BD
100
AcDbEntity
  8
LW 5026-32-00
  6
VERDECKT
 62
     6
100
AcDbVertex
100
AcDb2dVertex
 10
-1.004245284548233
 20
15.87383270263694
 30
0.0
  0
VERTEX
  5
65C8
330
65BD
100
AcDbEntity
  8
LW 5026-32-00
  6
VERDECKT
 62
     6
100
AcDbVertex
100
AcDb2dVertex
 10
-1.048403383576442
 20
15.86948692798637
 30
0.0
  0
VERTEX
  5
65C9
330
65BD
100
AcDbEntity
  8
LW 5026-32-00
  6
VERDECKT
 62
     6
100
AcDbVertex
100
AcDb2dVertex
 10
-1.092297865975069
 20
15.86688935756706
 30
0.0
  0
VERTEX
  5
65CA
330
65BD
100
AcDbEntity
  8
LW 5026-32-00
  6
VERDECKT
 62
     6
100
AcDbVertex
100
AcDb2dVertex
 10
-1.136061095731292
 20
15.86602568626426
 30
0.0
  0
VERTEX
  5
65CB
330
65BD
100
AcDbEntity
  8
LW 5026-32-00
  6
VERDECKT
 62
     6
100
AcDbVertex
100
AcDb2dVertex
 10
-1.179824339405968
 20
15.86688935756706
 30
0.0
  0
VERTEX
  5
65CC
330
65BD
100
AcDbEntity
  8
LW 5026-32-00
  6
VERDECKT
 62
     6
100
AcDbVertex
100
AcDb2dVertex
 10
-1.22371889499891
 20
15.86948692798637
 30
0.0
  0
VERTEX
  5
65CD
330
65BD
100
AcDbEntity
  8
LW 5026-32-00
  6
VERDECKT
 62
     6
100
AcDbVertex
100
AcDb2dVertex
 10
-1.26787698706812
 20
15.87383270263694
 30
0.0
  0
VERTEX
  5
65CE
330
65BD
100
AcDbEntity
  8
LW 5026-32-00
  6
VERDECKT
 62
     6
100
AcDbVertex
100
AcDb2dVertex
 10
-1.312433989902729
 20
15.87995409965538
 30
0.0
  0
VERTEX
  5
65CF
330
65BD
100
AcDbEntity
  8
LW 5026-32-00
  6
VERDECKT
 62
     6
100
AcDbVertex
100
AcDb2dVertex
 10
-1.357528907959022
 20
15.8878874778751
 30
0.0
  0
VERTEX
  5
65D0
330
65BD
100
AcDbEntity
  8
LW 5026-32-00
  6
VERDECKT
 62
     6
100
AcDbVertex
100
AcDb2dVertex
 10
-1.403306675584644
 20
15.89768230915103
 30
0.0
  0
VERTEX
  5
65D1
330
65BD
100
AcDbEntity
  8
LW 5026-32-00
  6
VERDECKT
 62
     6
100
AcDbVertex
100
AcDb2dVertex
 10
-1.449919097496604
 20
15.90940058231388
 30
0.0
  0
VERTEX
  5
65D2
330
65BD
100
AcDbEntity
  8
LW 5026-32-00
  6
VERDECKT
 62
     6
100
AcDbVertex
100
AcDb2dVertex
 10
-1.497526932281289
 20
15.92311620712314
 30
0.0
  0
VERTEX
  5
65D3
330
65BD
100
AcDbEntity
  8
LW 5026-32-00
  6
VERDECKT
 62
     6
100
AcDbVertex
100
AcDb2dVertex
 10
-1.546301982858494
 20
15.93891918659244
 30
0.0
  0
VERTEX
  5
65D4
330
65BD
100
AcDbEntity
  8
LW 5026-32-00
  6
VERDECKT
 62
     6
100
AcDbVertex
100
AcDb2dVertex
 10
-1.596429103185982
 20
15.95691502094314
 30
0.0
  0
VERTEX
  5
65D5
330
65BD
100
AcDbEntity
  8
LW 5026-32-00
  6
VERDECKT
 62
     6
100
AcDbVertex
100
AcDb2dVertex
 10
-1.648108451393454
 20
15.97722768783615
 30
0.0
  0
VERTEX
  5
65D6
330
65BD
100
AcDbEntity
  8
LW 5026-32-00
  6
VERDECKT
 62
     6
100
AcDbVertex
100
AcDb2dVertex
 10
-1.701559434961836
 20
16.00000023841903
 30
0.0
  0
SEQEND
  5
65D7
330
65BD
100
AcDbEntity
  8
LW 5026-32-00
  6
VERDECKT
 62
     6
  0
LINE
  5
65D8
330
649C
100
AcDbEntity
  8
LW 5026-32-00
  6
VERDECKT
 62
     6
100
AcDbLine
 10
-0.5705627829047444
 20
18.00000000000011
 30
0.0
 11
-0.5705627829056539
 21
16.0
 31
0.0
  0
POLYLINE
  5
65D9
330
649C
100
AcDbEntity
  8
LW 5026-32-00
  6
VERDECKT
 62
     6
100
AcDb2dPolyline
 66
     1
 10
0.0
 20
0.0
 30
0.0
 70
   128
  0
VERTEX
  5
65DA
330
65D9
100
AcDbEntity
  8
LW 5026-32-00
  6
VERDECKT
 62
     6
100
AcDbVertex
100
AcDb2dVertex
 10
1.701559434997307
 20
16.00000023841801
 30
0.0
  0
VERTEX
  5
65DB
330
65D9
100
AcDbEntity
  8
LW 5026-32-00
  6
VERDECKT
 62
     6
100
AcDbVertex
100
AcDb2dVertex
 10
1.674594594793234
 20
15.97722768783512
 30
0.0
  0
VERTEX
  5
65DC
330
65D9
100
AcDbEntity
  8
LW 5026-32-00
  6
VERDECKT
 62
     6
100
AcDbVertex
100
AcDb2dVertex
 10
1.648523558924807
 20
15.95691502094212
 30
0.0
  0
VERTEX
  5
65DD
330
65D9
100
AcDbEntity
  8
LW 5026-32-00
  6
VERDECKT
 62
     6
100
AcDbVertex
100
AcDb2dVertex
 10
1.623235482677955
 20
15.93891918659153
 30
0.0
  0
VERTEX
  5
65DE
330
65D9
100
AcDbEntity
  8
LW 5026-32-00
  6
VERDECKT
 62
     6
100
AcDbVertex
100
AcDb2dVertex
 10
1.598629549665929
 20
15.92311620712223
 30
0.0
  0
VERTEX
  5
65DF
330
65D9
100
AcDbEntity
  8
LW 5026-32-00
  6
VERDECKT
 62
     6
100
AcDbVertex
100
AcDb2dVertex
 10
1.574612475915728
 20
15.90940058231297
 30
0.0
  0
VERTEX
  5
65E0
330
65D9
100
AcDbEntity
  8
LW 5026-32-00
  6
VERDECKT
 62
     6
100
AcDbVertex
100
AcDb2dVertex
 10
1.551097542460865
 20
15.89768230915024
 30
0.0
  0
VERTEX
  5
65E1
330
65D9
100
AcDbEntity
  8
LW 5026-32-00
  6
VERDECKT
 62
     6
100
AcDbVertex
100
AcDb2dVertex
 10
1.528003674278352
 20
15.8878874778743
 30
0.0
  0
VERTEX
  5
65E2
330
65D9
100
AcDbEntity
  8
LW 5026-32-00
  6
VERDECKT
 62
     6
100
AcDbVertex
100
AcDb2dVertex
 10
1.5052543102056
 20
15.8799540996547
 30
0.0
  0
VERTEX
  5
65E3
330
65D9
100
AcDbEntity
  8
LW 5026-32-00
  6
VERDECKT
 62
     6
100
AcDbVertex
100
AcDb2dVertex
 10
1.482776265898337
 20
15.87383270263626
 30
0.0
  0
VERTEX
  5
65E4
330
65D9
100
AcDbEntity
  8
LW 5026-32-00
  6
VERDECKT
 62
     6
100
AcDbVertex
100
AcDb2dVertex
 10
1.460499503199571
 20
15.86948692798569
 30
0.0
  0
VERTEX
  5
65E5
330
65D9
100
AcDbEntity
  8
LW 5026-32-00
  6
VERDECKT
 62
     6
100
AcDbVertex
100
AcDb2dVertex
 10
1.438355623768984
 20
15.86688935756638
 30
0.0
  0
VERTEX
  5
65E6
330
65D9
100
AcDbEntity
  8
LW 5026-32-00
  6
VERDECKT
 62
     6
100
AcDbVertex
100
AcDb2dVertex
 10
1.416278056738065
 20
15.86602568626358
 30
0.0
  0
VERTEX
  5
65E7
330
65D9
100
AcDbEntity
  8
LW 5026-32-00
  6
VERDECKT
 62
     6
100
AcDbVertex
100
AcDb2dVertex
 10
1.394200475788693
 20
15.86688935756638
 30
0.0
  0
VERTEX
  5
65E8
330
65D9
100
AcDbEntity
  8
LW 5026-32-00
  6
VERDECKT
 62
     6
100
AcDbVertex
100
AcDb2dVertex
 10
1.372056669551966
 20
15.86948692798569
 30
0.0
  0
VERTEX
  5
65E9
330
65D9
100
AcDbEntity
  8
LW 5026-32-00
  6
VERDECKT
 62
     6
100
AcDbVertex
100
AcDb2dVertex
 10
1.349779913812653
 20
15.87383270263626
 30
0.0
  0
VERTEX
  5
65EA
330
65D9
100
AcDbEntity
  8
LW 5026-32-00
  6
VERDECKT
 62
     6
100
AcDbVertex
100
AcDb2dVertex
 10
1.327301942699705
 20
15.8799540996547
 30
0.0
  0
VERTEX
  5
65EB
330
65D9
100
AcDbEntity
  8
LW 5026-32-00
  6
VERDECKT
 62
     6
100
AcDbVertex
100
AcDb2dVertex
 10
1.304552505432184
 20
15.8878874778743
 30
0.0
  0
VERTEX
  5
65EC
330
65D9
100
AcDbEntity
  8
LW 5026-32-00
  6
VERDECKT
 62
     6
100
AcDbVertex
100
AcDb2dVertex
 10
1.281458630290671
 20
15.89768230915024
 30
0.0
  0
VERTEX
  5
65ED
330
65D9
100
AcDbEntity
  8
LW 5026-32-00
  6
VERDECKT
 62
     6
100
AcDbVertex
100
AcDb2dVertex
 10
1.257943696836264
 20
15.90940058231308
 30
0.0
  0
VERTEX
  5
65EE
330
65D9
100
AcDbEntity
  8
LW 5026-32-00
  6
VERDECKT
 62
     6
100
AcDbVertex
100
AcDb2dVertex
 10
1.233926549891748
 20
15.92311620712235
 30
0.0
  0
VERTEX
  5
65EF
330
65D9
100
AcDbEntity
  8
LW 5026-32-00
  6
VERDECKT
 62
     6
100
AcDbVertex
100
AcDb2dVertex
 10
1.209320609920268
 20
15.93891918659165
 30
0.0
  0
VERTEX
  5
65F0
330
65D9
100
AcDbEntity
  8
LW 5026-32-00
  6
VERDECKT
 62
     6
100
AcDbVertex
100
AcDb2dVertex
 10
1.184032687021044
 20
15.95691502094223
 30
0.0
  0
VERTEX
  5
65F1
330
65D9
100
AcDbEntity
  8
LW 5026-32-00
  6
VERDECKT
 62
     6
100
AcDbVertex
100
AcDb2dVertex
 10
1.157961502154648
 20
15.97722768783524
 30
0.0
  0
VERTEX
  5
65F2
330
65D9
100
AcDbEntity
  8
LW 5026-32-00
  6
VERDECKT
 62
     6
100
AcDbVertex
100
AcDb2dVertex
 10
1.130996678478823
 20
16.00000023841812
 30
0.0
  0
SEQEND
  5
65F3
330
65D9
100
AcDbEntity
  8
LW 5026-32-00
  6
VERDECKT
 62
     6
  0
POLYLINE
  5
65F4
330
649C
100
AcDbEntity
  8
LW 5026-32-00
  6
VERDECKT
 62
     6
100
AcDb2dPolyline
 66
     1
 10
0.0
 20
0.0
 30
0.0
 70
   128
  0
VERTEX
  5
65F5
330
65F4
100
AcDbEntity
  8
LW 5026-32-00
  6
VERDECKT
 62
     6
100
AcDbVertex
100
AcDb2dVertex
 10
1.130996678478823
 20
16.00000023841812
 30
0.0
  0
VERTEX
  5
65F6
330
65F4
100
AcDbEntity
  8
LW 5026-32-00
  6
VERDECKT
 62
     6
100
AcDbVertex
100
AcDb2dVertex
 10
1.050580854706822
 20
15.97722768783535
 30
0.0
  0
VERTEX
  5
65F7
330
65F4
100
AcDbEntity
  8
LW 5026-32-00
  6
VERDECKT
 62
     6
100
AcDbVertex
100
AcDb2dVertex
 10
0.9728303242422953
 20
15.95691502094235
 30
0.0
  0
VERTEX
  5
65F8
330
65F4
100
AcDbEntity
  8
LW 5026-32-00
  6
VERDECKT
 62
     6
100
AcDbVertex
100
AcDb2dVertex
 10
0.8974152740565841
 20
15.93891918659176
 30
0.0
  0
VERTEX
  5
65F9
330
65F4
100
AcDbEntity
  8
LW 5026-32-00
  6
VERDECKT
 62
     6
100
AcDbVertex
100
AcDb2dVertex
 10
0.8240343270640551
 20
15.92311620712257
 30
0.0
  0
VERTEX
  5
65FA
330
65F4
100
AcDbEntity
  8
LW 5026-32-00
  6
VERDECKT
 62
     6
100
AcDbVertex
100
AcDb2dVertex
 10
0.7524093087376969
 20
15.90940058231331
 30
0.0
  0
VERTEX
  5
65FB
330
65F4
100
AcDbEntity
  8
LW 5026-32-00
  6
VERDECKT
 62
     6
100
AcDbVertex
100
AcDb2dVertex
 10
0.6822819533713301
 20
15.89768230915047
 30
0.0
  0
VERTEX
  5
65FC
330
65F4
100
AcDbEntity
  8
LW 5026-32-00
  6
VERDECKT
 62
     6
100
AcDbVertex
100
AcDb2dVertex
 10
0.6134103175631936
 20
15.88788747787453
 30
0.0
  0
VERTEX
  5
65FD
330
65F4
100
AcDbEntity
  8
LW 5026-32-00
  6
VERDECKT
 62
     6
100
AcDbVertex
100
AcDb2dVertex
 10
0.5455659256426771
 20
15.87995409965492
 30
0.0
  0
VERTEX
  5
65FE
330
65F4
100
AcDbEntity
  8
LW 5026-32-00
  6
VERDECKT
 62
     6
100
AcDbVertex
100
AcDb2dVertex
 10
0.4785309882918228
 20
15.87383270263649
 30
0.0
  0
VERTEX
  5
65FF
330
65F4
100
AcDbEntity
  8
LW 5026-32-00
  6
VERDECKT
 62
     6
100
AcDbVertex
100
AcDb2dVertex
 10
0.4120960603299864
 20
15.86948692798592
 30
0.0
  0
VERTEX
  5
6600
330
65F4
100
AcDbEntity
  8
LW 5026-32-00
  6
VERDECKT
 62
     6
100
AcDbVertex
100
AcDb2dVertex
 10
0.3460578311646714
 20
15.8668893575666
 30
0.0
  0
VERTEX
  5
6601
330
65F4
100
AcDbEntity
  8
LW 5026-32-00
  6
VERDECKT
 62
     6
100
AcDbVertex
100
AcDb2dVertex
 10
0.280216960989037
 20
15.86602568626381
 30
0.0
  0
VERTEX
  5
6602
330
65F4
100
AcDbEntity
  8
LW 5026-32-00
  6
VERDECKT
 62
     6
100
AcDbVertex
100
AcDb2dVertex
 10
0.2143760908134027
 20
15.8668893575666
 30
0.0
  0
VERTEX
  5
6603
330
65F4
100
AcDbEntity
  8
LW 5026-32-00
  6
VERDECKT
 62
     6
100
AcDbVertex
100
AcDb2dVertex
 10
0.1483378616480877
 20
15.86948692798592
 30
0.0
  0
VERTEX
  5
6604
330
65F4
100
AcDbEntity
  8
LW 5026-32-00
  6
VERDECKT
 62
     6
100
AcDbVertex
100
AcDb2dVertex
 10
0.0819029336862514
 20
15.87383270263672
 30
0.0
  0
VERTEX
  5
6605
330
65F4
100
AcDbEntity
  8
LW 5026-32-00
  6
VERDECKT
 62
     6
100
AcDbVertex
100
AcDb2dVertex
 10
0.0148679963353971
 20
15.87995409965515
 30
0.0
  0
VERTEX
  5
6606
330
65F4
100
AcDbEntity
  8
LW 5026-32-00
  6
VERDECKT
 62
     6
100
AcDbVertex
100
AcDb2dVertex
 10
-0.0529763955851195
 20
15.88788747787475
 30
0.0
  0
VERTEX
  5
6607
330
65F4
100
AcDbEntity
  8
LW 5026-32-00
  6
VERDECKT
 62
     6
100
AcDbVertex
100
AcDb2dVertex
 10
-0.1218480313932559
 20
15.89768230915069
 30
0.0
  0
VERTEX
  5
6608
330
65F4
100
AcDbEntity
  8
LW 5026-32-00
  6
VERDECKT
 62
     6
100
AcDbVertex
100
AcDb2dVertex
 10
-0.1919753867596228
 20
15.90940058231353
 30
0.0
  0
VERTEX
  5
6609
330
65F4
100
AcDbEntity
  8
LW 5026-32-00
  6
VERDECKT
 62
     6
100
AcDbVertex
100
AcDb2dVertex
 10
-0.263600405085981
 20
15.9231162071228
 30
0.0
  0
VERTEX
  5
660A
330
65F4
100
AcDbEntity
  8
LW 5026-32-00
  6
VERDECKT
 62
     6
100
AcDbVertex
100
AcDb2dVertex
 10
-0.3369813520785101
 20
15.9389191865921
 30
0.0
  0
VERTEX
  5
660B
330
65F4
100
AcDbEntity
  8
LW 5026-32-00
  6
VERDECKT
 62
     6
100
AcDbVertex
100
AcDb2dVertex
 10
-0.4123964022642213
 20
15.95691502094269
 30
0.0
  0
VERTEX
  5
660C
330
65F4
100
AcDbEntity
  8
LW 5026-32-00
  6
VERDECKT
 62
     6
100
AcDbVertex
100
AcDb2dVertex
 10
-0.4901469327282939
 20
15.97722768783569
 30
0.0
  0
VERTEX
  5
660D
330
65F4
100
AcDbEntity
  8
LW 5026-32-00
  6
VERDECKT
 62
     6
100
AcDbVertex
100
AcDb2dVertex
 10
-0.570562756500749
 20
16.00000023841858
 30
0.0
  0
SEQEND
  5
660E
330
65F4
100
AcDbEntity
  8
LW 5026-32-00
  6
VERDECKT
 62
     6
  0
LINE
  5
660F
330
649C
100
AcDbEntity
  8
LW 5026-32-00
100
AcDbLine
 10
2.000000000015916
 20
9.999999999999317
 30
0.0
 11
-1.999999999984083
 21
10.00000000000045
 31
0.0
  0
LINE
  5
6610
330
649C
100
AcDbEntity
  8
LW 5026-32-00
100
AcDbLine
 10
-1.999999999984083
 20
10.00000000000045
 30
0.0
 11
-1.999999999983629
 21
11.50000000000057
 31
0.0
  0
LINE
  5
6611
330
649C
100
AcDbEntity
  8
LW 5026-32-00
100
AcDbLine
 10
2.000000000015916
 20
9.999999999999317
 30
0.0
 11
2.00000000001637
 21
11.49999999999931
 31
0.0
  0
LINE
  5
6612
330
649C
100
AcDbEntity
  8
LW 5026-32-00
  6
VERDECKT
 62
     6
100
AcDbLine
 10
-2.999999999983174
 20
11.56454189896999
 30
0.0
 11
-2.999999999982264
 21
17.50000000000079
 31
0.0
  0
LINE
  5
6613
330
649C
100
AcDbEntity
  8
LW 5026-32-00
  6
VERDECKT
 62
     6
100
AcDbLine
 10
3.000000000016825
 20
11.56454189896578
 30
0.0
 11
3.000000000017735
 21
17.49999999999898
 31
0.0
  0
LINE
  5
6614
330
649C
100
AcDbEntity
  8
LW 5026-32-00
  6
VERDECKT
 62
     6
100
AcDbLine
 10
0.0000000000172804
 20
15.0
 30
0.0
 11
-1.701559465501759
 21
16.00000000000045
 31
0.0
  0
LINE
  5
6615
330
649C
100
AcDbEntity
  8
LW 5026-32-00
  6
VERDECKT
 62
     6
100
AcDbLine
 10
0.0000000000172804
 20
15.0
 30
0.0
 11
1.588671067665927
 21
15.91721966855994
 31
0.0
  0
LINE
  5
6616
330
649C
100
AcDbEntity
  8
LW 5026-32-00
  6
VERDECKT
 62
     6
100
AcDbLine
 10
-2.40099999998165
 20
17.38655000000062
 30
0.0
 11
-2.400999999983469
 21
11.90100000000063
 31
0.0
  0
LINE
  5
6617
330
649C
100
AcDbEntity
  8
LW 5026-32-00
  6
VERDECKT
 62
     6
100
AcDbLine
 10
2.401000000016665
 20
11.90099999999916
 30
0.0
 11
2.401000000018029
 21
17.38654999999926
 31
0.0
  0
LINE
  5
6618
330
649C
100
AcDbEntity
  8
LW 5026-32-00
100
AcDbLine
 10
-76.99999999998863
 20
-5.773099999977148
 30
0.0
 11
-76.99999999998545
 21
5.77310000002285
 31
0.0
  0
LINE
  5
6619
330
649C
100
AcDbEntity
  8
LW 5026-32-00
100
AcDbLine
 10
-75.77309999998488
 20
7.000000000022509
 30
0.0
 11
-75.77309999998897
 21
-6.99999999997749
 31
0.0
  0
LINE
  5
661A
330
649C
100
AcDbEntity
  8
LW 5026-32-00
100
AcDbLine
 10
-76.99999999998545
 20
5.77310000002285
 30
0.0
 11
-75.77309999998488
 21
7.000000000022509
 31
0.0
  0
LINE
  5
661B
330
649C
100
AcDbEntity
  8
LW 5026-32-00
100
AcDbLine
 10
-76.99999999998863
 20
-5.773099999977148
 30
0.0
 11
-75.77309999998897
 21
-6.99999999997749
 31
0.0
  0
LINE
  5
661C
330
649C
100
AcDbEntity
  8
LW 5026-32-00
100
AcDbLine
 10
-75.77309999998488
 20
7.000000000022509
 30
0.0
 11
-60.87499999998499
 21
7.000000000017962
 31
0.0
  0
LINE
  5
661D
330
649C
100
AcDbEntity
  8
LW 5026-32-00
100
AcDbLine
 10
-75.77309999998897
 20
-6.99999999997749
 30
0.0
 11
-60.87499999998908
 21
-6.999999999982037
 31
0.0
  0
LINE
  5
661E
330
649C
100
AcDbEntity
  8
LW 5026-32-00
 62
     3
100
AcDbLine
 10
-60.87499999998545
 20
5.794500000018047
 30
0.0
 11
-76.97859999998536
 21
5.794500000022821
 31
0.0
  0
LINE
  5
661F
330
649C
100
AcDbEntity
  8
LW 5026-32-00
 62
     3
100
AcDbLine
 10
-76.97859999998854
 20
-5.794499999977233
 30
0.0
 11
-60.87499999998863
 21
-5.794499999982008
 31
0.0
  0
ARC
  5
6620
330
649C
100
AcDbEntity
  8
LW 5026-32-00
  6
VERDECKT
 62
     6
100
AcDbCircle
 10
0.000000000035925
 20
0.0
 30
0.0
 40
32.50000000000001
100
AcDbArc
 50
147.4210296071795
 51
212.5789703927956
  0
ARC
  5
6621
330
649C
100
AcDbEntity
  8
LW 5026-32-00
100
AcDbCircle
 10
0.000000000035925
 20
0.0
 30
0.0
 40
32.5
100
AcDbArc
 50
212.5789703927956
 51
147.4210296071795
  0
LINE
  5
6622
330
649C
100
AcDbEntity
  8
LW 5026-32-00
100
AcDbLine
 10
-60.87499999998181
 20
17.50000000001796
 30
0.0
 11
-60.87499999999227
 21
-17.49999999998204
 31
0.0
  0
LINE
  5
6623
330
649C
100
AcDbEntity
  8
LW 5026-32-00
  6
MITTE2
 62
     3
100
AcDbLine
 10
14.93734296387174
 20
25.87223694343527
 30
0.0
 11
7.000000000035015
 21
12.12435565298006
 31
0.0
  0
LINE
  5
6624
330
649C
100
AcDbEntity
  8
LW 5026-32-00
  6
MITTE2
 62
     3
100
AcDbLine
 10
14.93734296385628
 20
-25.87223694344425
 30
0.0
 11
7.000000000027739
 21
-12.12435565298426
 31
0.0
  0
LINE
  5
6625
330
649C
100
AcDbEntity
  8
LW 5026-32-00
  6
MITTE2
 62
     3
100
AcDbLine
 10
-80.54152403631816
 20
0.0000000000238742
 30
0.0
 11
37.06495985656011
 21
-0.0000000000109139
 31
0.0
  0
LINE
  5
6626
330
649C
100
AcDbEntity
  8
LW 5026-32-00
  6
MITTE2
 62
     3
100
AcDbLine
 10
0.0000000000063665
 20
22.6209724824912
 30
0.0
 11
-0.0000000000068212
 21
-22.6209724824912
 31
0.0
  0
LINE
  5
6627
330
649C
100
AcDbEntity
  8
LW 5026-32-00
  6
VERDECKT
 62
     6
100
AcDbLine
 10
1.130996678479732
 20
17.99999999252213
 30
0.0
 11
1.130996678478823
 21
15.99999999252202
 31
0.0
  0
HATCH
  5
6628
330
649C
100
AcDbEntity
  8
LW 5026-32-00
 62
     1
100
AcDbHatch
 10
0.0
 20
0.0
 30
0.0
210
0.0
220
0.0
230
1.0
  2
SOLID
 70
     1
 71
     0
 91
        5
 92
        7
 72
     0
 73
     1
 93
       76
 10
-47.24928876594231
 20
13.15603796707853
 10
-47.21742993656971
 20
13.20761892892028
 10
-47.09927181233797
 20
13.35886132793621
 10
-46.96479373712555
 20
13.49928545819875
 10
-46.81877383066421
 20
13.6276700199121
 10
-46.65510503458199
 20
13.74457630282791
 10
-46.47971808121747
 20
13.84675418464951
 10
-46.29796514861664
 20
13.9381058642324
 10
-46.11679621315125
 20
14.00762417667852
 10
-48.37393415135102
 20
14.00762417667852
 10
-48.58683070375128
 20
13.99893452147853
 10
-48.78886518715126
 20
13.97286555587857
 10
-48.98438242915108
 20
13.93158969367846
 10
-49.16903760215109
 20
13.87727934867848
 10
-49.34500311995134
 20
13.80776210707847
 10
-49.51227898255092
 20
13.72521038267837
 10
-49.66284724509842
 20
13.6298848651345
 10
-49.80555484555134
 20
13.52317589927838
 10
-49.93099610112176
 20
13.40412762303833
 10
-50.04226105319912
 20
13.27586831228643
 10
-50.14227898455101
 20
13.13865865667844
 10
-50.22483070895123
 20
12.99310693207837
 10
-50.28783070915142
 20
12.83886555227832
 10
-50.33779622655129
 20
12.67810693107844
 10
-50.36603760595108
 20
12.51300348227846
 10
-50.37472726115083
 20
12.33921037827849
 10
-50.36386519215103
 20
12.1654172742783
 10
-50.33345139895118
 20
11.99814141167837
 10
-50.27914105395121
 20
11.83738279047839
 10
-50.20962381235131
 20
11.68096899687839
 10
-50.12055484655093
 20
11.53324485847838
 10
-50.01410657035103
 20
11.39203796147853
 10
-49.8914086389268
 20
11.26082416795839
 10
-49.75520959021878
 20
11.13969037447054
 10
-49.60786518975101
 20
11.02924485687845
 10
-49.44710656855114
 20
10.93148623587854
 10
-49.27147994730376
 20
10.84658830457442
 10
-49.09083070535143
 20
10.77290002847849
 10
-48.89965829095126
 20
10.71641726967846
 10
-48.69979622135088
 20
10.67296899367852
 10
-48.49124449655119
 20
10.64690002807845
 10
-48.28052035795099
 20
10.63821037287846
 10
-46.16134927219855
 20
10.63821037287857
 10
-46.32189313625076
 20
10.70128117661352
 10
-46.50545728005363
 20
10.79190145013626
 10
-46.67392368622358
 20
10.89643114306773
 10
-46.836756580984
 20
11.01204938149317
 10
-46.98066894935436
 20
11.14183897803309
 10
-47.10810484283865
 20
11.28119266126168
 10
-47.22181019758227
 20
11.43168090597419
 10
-47.2737814290308
 20
11.51586554807852
 10
-48.30224449595107
 20
11.51586554807841
 10
-48.43435332395666
 20
11.52342554810252
 10
-48.56510656575119
 20
11.54375934127051
 10
-48.69327897995117
 20
11.57669313447843
 10
-48.80841691135083
 20
11.62231382427853
 10
-48.91336187720117
 20
11.67879658307845
 10
-49.01151153268529
 20
11.74640210053439
 10
-49.10169277435125
 20
11.8243483076784
 10
-49.17338242975074
 20
11.90907244587845
 10
-47.44586111549233
 20
11.90907244587856
 10
-47.45644558276535
 20
11.94170788663678
 10
-47.49255739072942
 20
12.12708183418795
 10
-47.50460104351168
 20
12.31737154813868
 10
-47.49257937108177
 20
12.51212264149376
 10
-47.45627364940673
 20
12.6984920127602
 10
-47.43967494673188
 20
12.74762417267846
 10
-49.2103134643512
 20
12.74762417267846
 10
-49.14079622275131
 20
12.84321037987843
 10
-49.05824449835108
 20
12.92576210427842
 10
-48.96315360149765
 20
12.99562693208645
 10
-48.86055484255121
 20
13.05393451847851
 10
-48.74186284217467
 20
13.09790417379042
 10
-48.61941691075116
 20
13.12996900147846
 10
-48.48255484135098
 20
13.14952072567848
 10
-48.33917553055107
 20
13.15603796707842
 97
        0
 92
        7
 72
     0
 73
     1
 93
       72
 10
-45.5208249009147
 20
13.14143934634251
 10
-45.39796186604144
 20
13.15951382915853
 10
-45.27389965875136
 20
13.16472762227863
 10
-44.00520999955097
 20
13.16472762227863
 10
-44.85245138155096
 20
12.35007244727876
 10
-43.08627896215102
 20
10.63169313147864
 10
-41.76762378555122
 20
10.63169313147864
 10
-43.48165827375123
 20
12.37396899907867
 10
-41.80020999255112
 20
14.00762417667875
 10
-45.23914103795141
 20
14.00762417667852
 10
-45.44712793516327
 20
13.99684900423062
 10
-45.65384614271624
 20
13.97138831449456
 10
-45.85827897095123
 20
13.93158969367857
 10
-46.05162379915145
 20
13.87510693487854
 10
-46.23845138595152
 20
13.80341727947848
 10
-46.40961152442559
 20
13.71738969299849
 10
-46.57517552495119
 20
13.62093452027852
 10
-46.7272444909513
 20
13.51231383027857
 10
-46.86294214655435
 20
13.39300486438253
 10
-46.98793414695138
 20
13.26248624327854
 10
-47.09655483695132
 20
13.12345176007852
 10
-47.18779621655085
 20
12.97572762167863
 10
-47.25948587195126
 20
12.82148624187857
 10
-47.31379621695123
 20
12.66072762067847
 10
-47.34638242395113
 20
12.49345175807843
 10
-47.3572444929514
 20
12.31748624027841
 10
-47.34638242395113
 20
12.1458655500785
 10
-47.31379621695123
 20
11.97858968747857
 10
-47.26165828575085
 20
11.81783106627858
 10
-47.19214104415096
 20
11.66358968647853
 10
-47.10030007834212
 20
11.51482278945468
 10
-46.99492062973194
 20
11.37535382349449
 10
-46.87691511211596
 20
11.24631244377463
 10
-46.74462380135082
 20
11.12700347787859
 10
-46.59250269742005
 20
11.01899106374253
 10
-46.43396862795088
 20
10.92062416687849
 10
-46.26234793775075
 20
10.83590002867856
 10
-46.07986517855079
 20
10.7642103732785
 10
-45.88563400552084
 20
10.71016071793451
 10
-45.68883069455114
 20
10.66645175227859
 10
-45.48027896975099
 20
10.64038278667863
 10
-45.26955483115125
 20
10.63169313147864
 10
-43.36652034235112
 20
10.63169313147864
 10
-44.25286517275117
 20
11.50500347907859
 10
-45.26955483115125
 20
11.50500347907859
 10
-45.3362218658458
 20
11.50875077201795
 10
-45.43716959030371
 20
11.5187331342945
 10
-45.5573040734439
 20
11.5401965826386
 10
-45.6744232462297
 20
11.57452072067849
 10
-45.77591841896537
 20
11.61544899667058
 10
-45.83205359155726
 20
11.64360347951856
 10
-45.88573828138305
 20
11.67618968651868
 10
-46.01829897145944
 20
11.77551244545452
 10
-46.091900351003
 20
11.84555106636662
 10
-46.14696669600562
 20
11.91341727347844
 10
-46.19567221340185
 20
11.98597589439851
 10
-46.23503635145789
 20
12.06314003257444
 10
-46.26445952396443
 20
12.14456210179855
 10
-46.28515828265108
 20
12.23171934345464
 10
-46.29267483439889
 20
12.32104899891044
 10
-46.29131924818785
 20
12.38335382669447
 10
-46.2853146964444
 20
12.44548486137444
 10
-46.2731578688199
 20
12.50865865467858
 10
-46.25494435152086
 20
12.5703552065986
 10
-46.21129621345153
 20
12.66906968967044
 10
-46.16976835125024
 20
12.73693589678248
 10
-46.10669014415361
 20
12.81496900047853
 10
-45.9772882037887
 20
12.94149173753226
 10
-45.91802035045112
 20
12.98154969066263
 10
-45.84172517779506
 20
13.02586693218245
 10
-45.75770490166632
 20
13.06801175990256
 10
-45.64116793577887
 20
13.1108517600386
 97
        0
 92
        7
 72
     0
 73
     1
 93
       57
 10
-40.96278792092698
 20
13.11936762213486
 10
-40.8313134377513
 20
13.1593400360548
 10
-40.69662378215116
 20
13.18645176027883
 10
-40.55324447135126
 20
13.1951414154787
 10
-39.31279619155112
 20
13.19514141547881
 10
-39.31279619155112
 20
14.02065865947884
 10
-40.5467272299511
 20
14.02065865947873
 10
-40.7574513685513
 20
14.01196900427874
 10
-40.96383067955139
 20
13.98372762487872
 10
-41.16152033535127
 20
13.94245176267873
 10
-41.35052033595093
 20
13.88814141767875
 10
-41.5351755089514
 20
13.8164517622788
 10
-41.70158240603131
 20
13.73381314132666
 10
-41.8604032341218
 20
13.63735796860669
 10
-42.01048226908096
 20
13.52786831308663
 10
-42.14504157985266
 20
13.40864624374274
 10
-42.26510654575122
 20
13.27986555367874
 10
-42.36938240815106
 20
13.14083107047872
 10
-42.45410654635088
 20
12.99527934587866
 10
-42.52579620175128
 20
12.8410379660786
 10
-42.57576171915116
 20
12.68027934487873
 10
-42.60834792615106
 20
12.5130034822788
 10
-42.61920999515132
 20
12.33921037827872
 10
-42.60834792615106
 20
12.16541727427875
 10
-42.57576171915116
 20
11.99814141167871
 10
-42.52362378795123
 20
11.83738279047861
 10
-42.45193413255129
 20
11.68096899687873
 10
-42.36503758055095
 20
11.53324485847872
 10
-42.25619095951606
 20
11.39368899596672
 10
-42.13633454534238
 20
11.2633441679668
 10
-41.99990695870201
 20
11.14203658137467
 10
-41.85234792375104
 20
11.03141727067873
 10
-41.69158930255116
 20
10.93365864967859
 10
-41.51779619855097
 20
10.84893451147877
 10
-41.33314102555096
 20
10.77507244227877
 10
-41.14196861115124
 20
10.71858968347874
 10
-40.94210654155086
 20
10.6751414074788
 10
-40.73572723055076
 20
10.65124485567867
 10
-40.52283067815096
 20
10.64255520047868
 10
-39.31279619155112
 20
10.64255520047879
 10
-39.31279619155112
 20
11.50065865147871
 10
-40.5467272299511
 20
11.50065865147871
 10
-40.68037412692683
 20
11.51099934116667
 10
-40.81263067907094
 20
11.53298416882285
 10
-40.93324309324725
 20
11.56730830686274
 10
-41.04924999016702
 20
11.61527520356685
 10
-41.15891343879138
 20
11.67618968651879
 10
-41.25597688737525
 20
11.74379520397474
 10
-41.3433948186871
 20
11.82356623871078
 10
-41.41786516375122
 20
11.90907244587879
 10
-39.31279619155112
 20
11.90907244587879
 10
-39.31279619155112
 20
12.73676210367876
 10
-41.45479619835123
 20
12.73676210367876
 10
-41.38527895675088
 20
12.83452072467867
 10
-41.29838240475146
 20
12.92358969047859
 10
-41.19723481822302
 20
12.99988486313475
 10
-41.08983067995086
 20
13.06696900127872
 97
        0
 92
        7
 72
     0
 73
     1
 93
        6
 10
-39.08252032875135
 20
14.00762417667886
 10
-39.08252032875135
 20
10.6382103728788
 10
-36.84493411475069
 20
10.63821037287891
 10
-36.84493411475114
 20
11.50500347907893
 10
-38.0593134289511
 20
11.50500347907893
 10
-38.0593134289511
 20
14.00762417667886
 97
        0
 92
        7
 72
     0
 73
     1
 93
        8
 10
-37.82686515235127
 20
14.00762417667886
 10
-37.82686515235127
 20
13.18210693267883
 10
-36.59293411395083
 20
13.18210693267895
 10
-36.59293411395083
 20
10.63169313147887
 10
-35.56755480035099
 20
10.63169313147887
 10
-35.56755480035099
 20
13.18210693267883
 10
-34.32493410675125
 20
13.18210693267895
 10
-34.32493410675125
 20
14.00762417667897
 97
        0
 75
     0
 76
     1
 47
0.0142553043587597
 98
        5
 10
-47.93962863987599
 20
13.56517450708941
 10
-45.67213142653327
 20
13.42262152208377
 10
-41.17991969433205
 20
13.47964269463159
 10
-38.45607061050032
 20
13.72198291932398
 10
-37.04423262827368
 20
13.62219578691065
450
        0
451
        0
460
0.0
461
0.0
452
        0
462
0.0
453
        0
470

  0
LWPOLYLINE
  5
6629
330
649C
100
AcDbEntity
  8
LW 5026-32-00
 62
     1
100
AcDbPolyline
 90
        8
 70
     1
 43
0.0
 10
-35.56755480035099
 20
13.18210693267883
 10
-35.56755480035099
 20
10.63169313147887
 10
-36.59293411395083
 20
10.63169313147887
 10
-36.59293411395083
 20
13.18210693267895
 10
-37.82686515235127
 20
13.18210693267883
 10
-37.82686515235127
 20
14.00762417667886
 10
-34.32493410675125
 20
14.00762417667897
 10
-34.32493410675125
 20
13.18210693267895
  0
LWPOLYLINE
  5
662A
330
649C
100
AcDbEntity
  8
LW 5026-32-00
 62
     1
100
AcDbPolyline
 90
       73
 70
     1
 43
0.0
 10
-45.26955483115125
 20
11.50500347907859
 10
-44.25286517275117
 20
11.50500347907859
 10
-43.36652034235112
 20
10.63169313147864
 10
-45.26955483115125
 20
10.63169313147853
 10
-45.48027896975099
 20
10.64038278667863
 10
-45.68883069455114
 20
10.66645175227859
 10
-45.88563400552084
 20
10.71016071793451
 10
-46.07986517855079
 20
10.7642103732785
 10
-46.26234793775075
 20
10.83590002867856
 10
-46.43396862795088
 20
10.92062416687849
 10
-46.59250269742005
 20
11.01899106374253
 10
-46.74462380135082
 20
11.12700347787859
 10
-46.87691511211596
 20
11.24631244377451
 10
-46.99492062973194
 20
11.37535382349449
 10
-47.10030007834212
 20
11.51482278945457
 10
-47.19214104415096
 20
11.66358968647853
 10
-47.26165828575085
 20
11.81783106627858
 10
-47.31379621695123
 20
11.97858968747857
 10
-47.34638242395113
 20
12.1458655500785
 10
-47.3572444929514
 20
12.31748624027853
 10
-47.34638242395113
 20
12.49345175807843
 10
-47.31379621695123
 20
12.66072762067847
 10
-47.25948587195126
 20
12.82148624187857
 10
-47.18779621655085
 20
12.97572762167851
 10
-47.09655483695132
 20
13.12345176007852
 10
-46.98793414695138
 20
13.26248624327854
 10
-46.86294214655435
 20
13.39300486438264
 10
-46.7272444909513
 20
13.51231383027857
 10
-46.57517552495119
 20
13.62093452027852
 10
-46.40961152442559
 20
13.71738969299849
 10
-46.23845138595152
 20
13.80341727947848
 10
-46.05162379915145
 20
13.87510693487854
 10
-45.85827897095123
 20
13.93158969367869
 10
-45.65384614271624
 20
13.97138831449456
 10
-45.44712793516327
 20
13.99684900423062
 10
-45.23914103795141
 20
14.00762417667852
 10
-41.80020999255112
 20
14.00762417667875
 10
-43.48165827375123
 20
12.37396899907867
 10
-41.76762378555122
 20
10.63169313147864
 10
-43.08627896215102
 20
10.63169313147864
 10
-44.85245138155096
 20
12.35007244727876
 10
-44.00520999955097
 20
13.16472762227863
 10
-45.27389965875136
 20
13.16472762227863
 10
-45.39796186604144
 20
13.15951382915853
 10
-45.5208249009147
 20
13.14143934634251
 10
-45.64116793577887
 20
13.1108517600386
 10
-45.75770490166632
 20
13.06801175990244
 10
-45.84172517779552
 20
13.02586693218257
 10
-45.91802035045112
 20
12.98154969066263
 10
-45.95826214368208
 20
12.95435106988657
 10
-45.99577538518042
 20
12.92341589737452
 10
-46.10669014415361
 20
12.81496900047853
 10
-46.16976835125024
 20
12.73693589678248
 10
-46.21129621345107
 20
12.66906968967055
 10
-46.25494435152086
 20
12.5703552065986
 10
-46.2731578688199
 20
12.50865865467858
 10
-46.2853146964444
 20
12.44548486137455
 10
-46.29131924818785
 20
12.38335382669459
 10
-46.29267483439889
 20
12.32104899891055
 10
-46.28515828265108
 20
12.23171934345464
 10
-46.26445952396443
 20
12.14456210179855
 10
-46.23503635145744
 20
12.06314003257455
 10
-46.19567221340185
 20
11.98597589439851
 10
-46.14696669600562
 20
11.91341727347856
 10
-46.091900351003
 20
11.84555106636662
 10
-46.01829897145944
 20
11.77551244545452
 10
-45.88573828138305
 20
11.67618968651868
 10
-45.83205359155726
 20
11.64360347951856
 10
-45.77591841896537
 20
11.61544899667058
 10
-45.6744232462297
 20
11.57452072067849
 10
-45.5573040734439
 20
11.5401965826386
 10
-45.43716959030371
 20
11.5187331342945
 10
-45.3362218658458
 20
11.50875077201795
  0
LWPOLYLINE
  5
662B
330
649C
100
AcDbEntity
  8
LW 5026-32-00
 62
     1
100
AcDbPolyline
 90
       76
 70
     1
 43
0.0
 10
-46.47971808121747
 20
13.84675418464951
 10
-46.65510503458199
 20
13.74457630282779
 10
-46.81877383066421
 20
13.6276700199121
 10
-46.96479373712555
 20
13.49928545819875
 10
-47.09927181233797
 20
13.35886132793621
 10
-47.21742993656971
 20
13.20761892892028
 10
-47.24928876594231
 20
13.15603796707853
 10
-48.33917553055107
 20
13.15603796707853
 10
-48.48255484135098
 20
13.14952072567848
 10
-48.61941691075116
 20
13.12996900147846
 10
-48.74186284217467
 20
13.09790417379042
 10
-48.86055484255121
 20
13.05393451847851
 10
-48.96315360149765
 20
12.99562693208645
 10
-49.05824449835108
 20
12.92576210427842
 10
-49.14079622275131
 20
12.84321037987843
 10
-49.2103134643512
 20
12.74762417267846
 10
-47.43967494673188
 20
12.74762417267846
 10
-47.45627364940673
 20
12.6984920127602
 10
-47.49257937108223
 20
12.51212264149353
 10
-47.50460104351168
 20
12.31737154813868
 10
-47.49255739072942
 20
12.12708183418795
 10
-47.4564455827649
 20
11.94170788663689
 10
-47.44586111549233
 20
11.90907244587856
 10
-49.17338242975074
 20
11.90907244587845
 10
-49.10169277435125
 20
11.8243483076784
 10
-49.01151153268529
 20
11.74640210053439
 10
-48.91336187720117
 20
11.67879658307845
 10
-48.80841691135083
 20
11.62231382427853
 10
-48.69327897995117
 20
11.57669313447854
 10
-48.56510656575119
 20
11.54375934127051
 10
-48.43435332395666
 20
11.52342554810252
 10
-48.30224449595107
 20
11.51586554807841
 10
-47.2737814290308
 20
11.51586554807852
 10
-47.22181019758227
 20
11.43168090597419
 10
-47.10810484283865
 20
11.28119266126168
 10
-46.98066894935436
 20
11.14183897803309
 10
-46.836756580984
 20
11.0120493814934
 10
-46.67392368622358
 20
10.89643114306773
 10
-46.50545728005363
 20
10.79190145013626
 10
-46.32189313625076
 20
10.70128117661352
 10
-46.16134927219855
 20
10.63821037287857
 10
-48.28052035795099
 20
10.63821037287834
 10
-48.49124449655119
 20
10.64690002807845
 10
-48.69979622135088
 20
10.67296899367852
 10
-48.89965829095126
 20
10.71641726967846
 10
-49.09083070535098
 20
10.77290002847837
 10
-49.27147994730422
 20
10.84658830457442
 10
-49.44710656855114
 20
10.93148623587854
 10
-49.60786518975101
 20
11.02924485687845
 10
-49.75520959021878
 20
11.13969037447043
 10
-49.8914086389268
 20
11.26082416795839
 10
-50.01410657035103
 20
11.39203796147842
 10
-50.12055484655139
 20
11.53324485847838
 10
-50.20962381235131
 20
11.68096899687839
 10
-50.27914105395121
 20
11.83738279047839
 10
-50.33345139895118
 20
11.99814141167837
 10
-50.36386519215103
 20
12.16541727427852
 10
-50.37472726115083
 20
12.33921037827838
 10
-50.36603760595153
 20
12.51300348227835
 10
-50.33779622655129
 20
12.67810693107844
 10
-50.28783070915142
 20
12.83886555227832
 10
-50.22483070895123
 20
12.99310693207837
 10
-50.14227898455101
 20
13.13865865667844
 10
-50.04226105319912
 20
13.27586831228643
 10
-49.93099610112176
 20
13.40412762303845
 10
-49.80555484555134
 20
13.52317589927838
 10
-49.66284724509842
 20
13.6298848651345
 10
-49.51227898255092
 20
13.72521038267848
 10
-49.34500311995089
 20
13.80776210707836
 10
-49.16903760215109
 20
13.87727934867848
 10
-48.98438242915108
 20
13.93158969367846
 10
-48.78886518715126
 20
13.97286555587857
 10
-48.58683070375128
 20
13.99893452147853
 10
-48.37393415135102
 20
14.00762417667852
 10
-46.11679621315125
 20
14.00762417667863
 10
-46.29796514861664
 20
13.9381058642324
  0
LWPOLYLINE
  5
662C
330
649C
100
AcDbEntity
  8
LW 5026-32-00
 62
     1
100
AcDbPolyline
 90
        6
 70
     1
 43
0.0
 10
-36.84493411475069
 20
10.63821037287891
 10
-39.08252032875135
 20
10.6382103728788
 10
-39.08252032875135
 20
14.00762417667886
 10
-38.0593134289511
 20
14.00762417667886
 10
-38.0593134289511
 20
11.50500347907893
 10
-36.84493411475114
 20
11.50500347907893
  0
LWPOLYLINE
  5
662D
330
649C
100
AcDbEntity
  8
LW 5026-32-00
 62
     1
100
AcDbPolyline
 90
       57
 70
     1
 43
0.0
 10
-42.13633454534238
 20
11.2633441679668
 10
-42.25619095951606
 20
11.39368899596661
 10
-42.36503758055095
 20
11.53324485847861
 10
-42.45193413255129
 20
11.68096899687873
 10
-42.52362378795123
 20
11.83738279047861
 10
-42.57576171915116
 20
11.99814141167871
 10
-42.60834792615106
 20
12.16541727427875
 10
-42.61920999515132
 20
12.33921037827872
 10
-42.60834792615106
 20
12.51300348227869
 10
-42.57576171915116
 20
12.68027934487873
 10
-42.52579620175128
 20
12.8410379660786
 10
-42.45410654635088
 20
12.99527934587877
 10
-42.36938240815106
 20
13.14083107047861
 10
-42.26510654575122
 20
13.27986555367874
 10
-42.14504157985266
 20
13.40864624374262
 10
-42.01048226908096
 20
13.52786831308663
 10
-41.8604032341218
 20
13.63735796860669
 10
-41.70158240603086
 20
13.73381314132678
 10
-41.5351755089514
 20
13.8164517622788
 10
-41.35052033595093
 20
13.88814141767875
 10
-41.16152033535127
 20
13.94245176267873
 10
-40.96383067955139
 20
13.98372762487872
 10
-40.7574513685513
 20
14.01196900427874
 10
-40.5467272299511
 20
14.02065865947873
 10
-39.31279619155112
 20
14.02065865947884
 10
-39.31279619155112
 20
13.19514141547881
 10
-40.5532444713508
 20
13.1951414154787
 10
-40.69662378215116
 20
13.18645176027871
 10
-40.8313134377513
 20
13.1593400360548
 10
-40.96278792092744
 20
13.11936762213474
 10
-41.08983067995086
 20
13.06696900127872
 10
-41.19723481822302
 20
12.99988486313475
 10
-41.29838240475146
 20
12.92358969047882
 10
-41.38527895675088
 20
12.83452072467867
 10
-41.45479619835123
 20
12.73676210367876
 10
-39.31279619155112
 20
12.73676210367876
 10
-39.31279619155112
 20
11.90907244587879
 10
-41.41786516375122
 20
11.90907244587879
 10
-41.3433948186871
 20
11.82356623871078
 10
-41.25597688737525
 20
11.74379520397474
 10
-41.15891343879138
 20
11.67618968651879
 10
-41.04924999016702
 20
11.61527520356685
 10
-40.93324309324725
 20
11.56730830686274
 10
-40.81263067907094
 20
11.53298416882285
 10
-40.68037412692683
 20
11.51099934116667
 10
-40.5467272299511
 20
11.50065865147871
 10
-39.31279619155112
 20
11.50065865147871
 10
-39.31279619155112
 20
10.64255520047879
 10
-40.52283067815096
 20
10.64255520047868
 10
-40.73572723055076
 20
10.65124485567867
 10
-40.94210654155086
 20
10.6751414074788
 10
-41.14196861115124
 20
10.71858968347874
 10
-41.33314102555096
 20
10.77507244227877
 10
-41.51779619855097
 20
10.84893451147877
 10
-41.69158930255116
 20
10.93365864967882
 10
-41.85234792375104
 20
11.03141727067873
 10
-41.99990695870201
 20
11.14203658137467
  0
INSERT
  5
662E
330
649C
100
AcDbEntity
  8
LW 5026-32-00
100
AcDbBlockReference
 66
     1
  2
insertpoint-ECKELT
 10
0.0
 20
0.0
 30
0.0
  0
ATTRIB
  5
662F
330
662E
100
AcDbEntity
  8
insertpoint_ECKELT
100
AcDbText
 10
-6.93151432469286
 20
0.0
 30
0.0
 40
0.6
  1
LW 5026/32-00
 72
     2
 11
-1.199999999999818
 21
0.0
 31
0.0
100
AcDbAttribute
  2
LINKS
 70
     0
  0
ATTRIB
  5
6630
330
662E
100
AcDbEntity
  8
insertpoint_ECKELT
100
AcDbText
 10
1.199999999999818
 20
0.0
 30
0.0
 40
0.6
  1

100
AcDbAttribute
  2
RECHTS
 70
     0
  0
SEQEND
  5
6631
330
662E
100
AcDbEntity
  8
LW 5026-32-00
  0
ENDBLK
  5
649E
330
649C
100
AcDbEntity
  8
0
100
AcDbBlockEnd
  0
BLOCK
  5
6636
330
6635
100
AcDbEntity
  8
0
100
AcDbBlockBegin
  2
LW 5026-32-00_d
 70
     0
 10
0.0
 20
0.0
 30
0.0
  3
LW 5026-32-00_d
  1

  0
LINE
  5
6638
330
6635
100
AcDbEntity
  8
LW 5026-32-00
  6
VERDECKT
 62
     6
100
AcDbLine
 10
-7.334936490575273
 20
17.70448267190204
 30
0.0
 11
-11.66506350949703
 21
15.2044826719009
 31
0.0
  0
LINE
  5
6639
330
6635
100
AcDbEntity
  8
LW 5026-32-00
  6
VERDECKT
 62
     6
100
AcDbLine
 10
-11.66506350948793
 20
-15.20448267190795
 30
0.0
 11
-7.334936490564814
 21
-17.70448267190659
 31
0.0
  0
LINE
  5
663A
330
6635
100
AcDbEntity
  8
LW 5026-32-00
  6
VERDECKT
 62
     6
100
AcDbLine
 10
-8.748924226251347
 20
15.1535812713729
 30
0.0
 11
-7.334936490575273
 21
17.70448267190204
 31
0.0
  0
LINE
  5
663B
330
6635
100
AcDbEntity
  8
LW 5026-32-00
  6
VERDECKT
 62
     6
100
AcDbLine
 10
-8.748924226251347
 20
15.1535812713729
 30
0.0
 11
-11.66506350949703
 21
15.2044826719009
 31
0.0
  0
LINE
  5
663C
330
6635
100
AcDbEntity
  8
LW 5026-32-00
  6
VERDECKT
 62
     6
100
AcDbLine
 10
-14.60240647333103
 20
20.29210992451317
 30
0.0
 11
-11.66506350949703
 21
15.20448267190068
 31
0.0
  0
LINE
  5
663D
330
6635
100
AcDbEntity
  8
LW 5026-32-00
  6
VERDECKT
 62
     6
100
AcDbLine
 10
-10.27227945440972
 20
22.79210992451453
 30
0.0
 11
-7.334936490575273
 21
17.70448267190204
 31
0.0
  0
LINE
  5
663E
330
6635
100
AcDbEntity
  8
LW 5026-32-00
  6
VERDECKT
 62
     6
100
AcDbLine
 10
-8.748924226242252
 20
-15.15358127137824
 30
0.0
 11
-11.66506350948793
 21
-15.20448267190795
 31
0.0
  0
LINE
  5
663F
330
6635
100
AcDbEntity
  8
LW 5026-32-00
  6
VERDECKT
 62
     6
100
AcDbLine
 10
-8.748924226242252
 20
-15.15358127137824
 30
0.0
 11
-7.334936490564814
 21
-17.70448267190659
 31
0.0
  0
LINE
  5
6640
330
6635
100
AcDbEntity
  8
LW 5026-32-00
  6
VERDECKT
 62
     6
100
AcDbLine
 10
-10.27227945439608
 20
-22.79210992452068
 30
0.0
 11
-7.334936490564814
 21
-17.70448267190659
 31
0.0
  0
LINE
  5
6641
330
6635
100
AcDbEntity
  8
LW 5026-32-00
  6
VERDECKT
 62
     6
100
AcDbLine
 10
-14.6024064733192
 20
-20.29210992452204
 30
0.0
 11
-11.66506350948793
 21
-15.20448267190795
 31
0.0
  0
LINE
  5
6642
330
6635
100
AcDbEntity
  8
LW 5026-32-00
  6
VERDECKT
 62
     6
100
AcDbLine
 10
18.99999999996953
 20
-2.499999999994543
 30
0.0
 11
18.99999999996817
 21
2.500000000005456
 31
0.0
  0
LINE
  5
6643
330
6635
100
AcDbEntity
  8
LW 5026-32-00
  6
VERDECKT
 62
     6
100
AcDbLine
 10
17.49784845239992
 20
0.0000000000051159
 30
0.0
 11
18.99999999996953
 21
-2.499999999994543
 31
0.0
  0
LINE
  5
6644
330
6635
100
AcDbEntity
  8
LW 5026-32-00
  6
VERDECKT
 62
     6
100
AcDbLine
 10
17.49784845239992
 20
0.0000000000051159
 30
0.0
 11
18.99999999996817
 21
2.500000000005456
 31
0.0
  0
LINE
  5
6645
330
6635
100
AcDbEntity
  8
LW 5026-32-00
  6
VERDECKT
 62
     6
100
AcDbLine
 10
24.87468592763344
 20
2.500000000007275
 30
0.0
 11
18.99999999996817
 21
2.500000000005456
 31
0.0
  0
LINE
  5
6646
330
6635
100
AcDbEntity
  8
LW 5026-32-00
  6
VERDECKT
 62
     6
100
AcDbLine
 10
24.8746859276348
 20
-2.499999999992724
 30
0.0
 11
18.99999999996953
 21
-2.499999999994543
 31
0.0
  0
LINE
  5
6647
330
6635
100
AcDbEntity
  8
LW 5026-32-00
  6
MITTE2
 62
     3
100
AcDbLine
 10
-14.93734296387174
 20
25.87223694343527
 30
0.0
 11
-7.000000000035015
 21
12.12435565298006
 31
0.0
  0
LINE
  5
6648
330
6635
100
AcDbEntity
  8
LW 5026-32-00
  6
MITTE2
 62
     3
100
AcDbLine
 10
-14.93734296385628
 20
-25.87223694344425
 30
0.0
 11
-7.000000000027739
 21
-12.12435565298426
 31
0.0
  0
LINE
  5
6649
330
6635
100
AcDbEntity
  8
LW 5026-32-00
  6
MITTE2
 62
     3
100
AcDbLine
 10
37.10268893529315
 20
0.0000000000173941
 30
0.0
 11
-37.10268893529315
 21
-0.0000000000173941
 31
0.0
  0
LINE
  5
664A
330
6635
100
AcDbEntity
  8
LW 5026-32-00
  6
MITTE2
 62
     3
100
AcDbLine
 10
-0.0000000000065938
 20
22.6209724824912
 30
0.0
 11
0.0000000000065938
 21
-22.6209724824912
 31
0.0
  0
HATCH
  5
664B
330
6635
100
AcDbEntity
  8
LW 5026-32-00
 62
     1
100
AcDbHatch
 10
0.0
 20
0.0
 30
0.0
210
0.0
220
0.0
230
1.0
  2
SOLID
 70
     1
 71
     0
 91
        5
 92
        7
 72
     0
 73
     1
 93
       76
 10
-5.057173424229176
 20
8.051816195540595
 10
-5.025314594856581
 20
8.103397157382346
 10
-4.90715647062484
 20
8.254639556398274
 10
-4.772678395412413
 20
8.395063686660819
 10
-4.626658488951079
 20
8.523448248374165
 10
-4.462989692868859
 20
8.640354531289972
 10
-4.287602739504336
 20
8.742532413111575
 10
-4.105849806903506
 20
8.833884092694461
 10
-3.924680871438113
 20
8.903402405140582
 10
-6.181818809637888
 20
8.903402405140582
 10
-6.394715362038141
 20
8.894712749940595
 10
-6.596749845438125
 20
8.868643784340633
 10
-6.792267087437949
 20
8.827367922140524
 10
-6.976922260437959
 20
8.773057577140548
 10
-7.152887778238209
 20
8.703540335540537
 10
-7.32016364083779
 20
8.620988611140433
 10
-7.470731903385285
 20
8.525663093596563
 10
-7.613439503838208
 20
8.418954127740448
 10
-7.73888075940863
 20
8.299905851500398
 10
-7.850145711485993
 20
8.171646540748497
 10
-7.950163642837878
 20
8.034436885140507
 10
-8.032715367238097
 20
7.888885160540439
 10
-8.095715367438288
 20
7.734643780740384
 10
-8.145680884838156
 20
7.573885159540509
 10
-8.173922264237944
 20
7.408781710740527
 10
-8.182611919437704
 20
7.234988606740557
 10
-8.17174985043789
 20
7.061195502740361
 10
-8.141336057238049
 20
6.893919640140438
 10
-8.087025712238073
 20
6.73316101894045
 10
-8.017508470638176
 20
6.576747225340454
 10
-7.928439504837797
 20
6.429023086940446
 10
-7.821991228637898
 20
6.287816189940599
 10
-7.699293297213671
 20
6.156602396420453
 10
-7.563094248505649
 20
6.03546860293261
 10
-7.415749848037876
 20
5.925023085340512
 10
-7.254991226838001
 20
5.827264464340601
 10
-7.079364605590626
 20
5.742366533036488
 10
-6.898715363638302
 20
5.668678256940552
 10
-6.707542949238131
 20
5.612195498140522
 10
-6.507680879637746
 20
5.568747222140586
 10
-6.299129154838055
 20
5.542678256540511
 10
-6.088405016237857
 20
5.533988601340524
 10
-3.969233930485415
 20
5.533988601340638
 10
-4.129777794537631
 20
5.597059405075583
 10
-4.313341938340499
 20
5.687679678598328
 10
-4.481808344510454
 20
5.792209371529793
 10
-4.644641239270868
 20
5.907827609955234
 10
-4.788553607641233
 20
6.037617206495156
 10
-4.915989501125523
 20
6.176970889723747
 10
-5.029694855869138
 20
6.327459134436253
 10
-5.081666087317671
 20
6.411643776540586
 10
-6.110129154237938
 20
6.411643776540472
 10
-6.242237982243523
 20
6.419203776564586
 10
-6.372991224038059
 20
6.439537569732578
 10
-6.50116363823804
 20
6.472471362940495
 10
-6.616301569637698
 20
6.518092052740598
 10
-6.721246535488035
 20
6.574574811540514
 10
-6.819396190972156
 20
6.64218032899646
 10
-6.909577432638116
 20
6.720126536140469
 10
-6.981267088037611
 20
6.804850674340514
 10
-5.253745773779201
 20
6.804850674340627
 10
-5.264330241052221
 20
6.83748611509884
 10
-5.300442049016282
 20
7.022860062650011
 10
-5.31248570179855
 20
7.213149776600744
 10
-5.30046402936864
 20
7.407900869955824
 10
-5.264158307693605
 20
7.594270241222261
 10
-5.24755960501875
 20
7.643402401140519
 10
-7.018198122638068
 20
7.643402401140519
 10
-6.948680881038171
 20
7.738988608340491
 10
-6.866129156637953
 20
7.821540332740482
 10
-6.771038259784518
 20
7.891405160548515
 10
-6.668439500838076
 20
7.949712746940576
 10
-6.549747500461535
 20
7.993682402252488
 10
-6.427301569038036
 20
8.02574722994052
 10
-6.290439499637841
 20
8.045298954140548
 10
-6.14706018883794
 20
8.051816195540482
 97
        0
 92
        7
 72
     0
 73
     1
 93
       72
 10
-3.32870955920157
 20
8.037217574804571
 10
-3.205846524328308
 20
8.05529205762059
 10
-3.081784317038227
 20
8.060505850740696
 10
-1.813094657837837
 20
8.060505850740696
 10
-2.660336039837829
 20
7.245850675740825
 10
-0.8941636204378937
 20
5.527471359940705
 10
0.424491556161911
 20
5.527471359940705
 10
-1.289542932038102
 20
7.269747227540733
 10
0.3919053491620161
 20
8.903402405140809
 10
-3.047025696238279
 20
8.903402405140582
 10
-3.255012593450146
 20
8.892627232692689
 10
-3.461730801003113
 20
8.867166542956624
 10
-3.666163629238099
 20
8.827367922140638
 10
-3.859508457438323
 20
8.770885163340608
 10
-4.046336044238387
 20
8.699195507940544
 10
-4.217496182712466
 20
8.613167921460558
 10
-4.383060183238058
 20
8.516712748740587
 10
-4.535129149238173
 20
8.408092058740635
 10
-4.670826804841226
 20
8.288783092844596
 10
-4.795818805238241
 20
8.158264471740608
 10
-4.904439495238193
 20
8.019229988540587
 10
-4.995680874837717
 20
7.871505850140692
 10
-5.067370530238122
 20
7.717264470340637
 10
-5.121680875238098
 20
7.556505849140535
 10
-5.154267082237993
 20
7.389229986540499
 10
-5.165129151238261
 20
7.213264468740476
 10
-5.154267082237993
 20
7.04164377854056
 10
-5.121680875238098
 20
6.874367915940638
 10
-5.069542944037721
 20
6.713609294740649
 10
-5.000025702437824
 20
6.559367914940594
 10
-4.908184736628982
 20
6.410601017916746
 10
-4.802805288018817
 20
6.271132051956556
 10
-4.684799770402833
 20
6.14209067223669
 10
-4.552508459637692
 20
6.022781706340651
 10
-4.400387355706925
 20
5.914769292204596
 10
-4.241853286237756
 20
5.81640239534056
 10
-4.070232596037612
 20
5.731678257140629
 10
-3.887749836837656
 20
5.659988601740565
 10
-3.693518663807708
 20
5.605938946396577
 10
-3.496715352838009
 20
5.562229980740653
 10
-3.288163628037864
 20
5.536161015140692
 10
-3.07743948943812
 20
5.527471359940705
 10
-1.174405000637989
 20
5.527471359940705
 10
-2.060749831038037
 20
6.400781707540659
 10
-3.07743948943812
 20
6.400781707540659
 10
-3.144106524132666
 20
6.40452900048001
 10
-3.245054248590577
 20
6.41451136275657
 10
-3.365188731730768
 20
6.435974811100663
 10
-3.482307904516574
 20
6.470298949140556
 10
-3.583803077252241
 20
6.511227225132643
 10
-3.639938249844135
 20
6.539381707980624
 10
-3.693622939669921
 20
6.571967914980746
 10
-3.82618362974631
 20
6.671290673916587
 10
-3.899785009289871
 20
6.741329294828688
 10
-3.954851354292486
 20
6.809195501940507
 10
-4.003556871688715
 20
6.88175412286057
 10
-4.042921009744759
 20
6.958918261036501
 10
-4.072344182251299
 20
7.040340330260619
 10
-4.093042940937948
 20
7.127497571916705
 10
-4.100559492685761
 20
7.216827227372505
 10
-4.099203906474713
 20
7.279132055156537
 10
-4.093199354731268
 20
7.341263089836502
 10
-4.081042527106774
 20
7.404436883140647
 10
-4.062829009807728
 20
7.466133435060669
 10
-4.019180871738399
 20
7.5648479181325
 10
-3.977653009537107
 20
7.632714125244547
 10
-3.914574802440483
 20
7.71074722894059
 10
-3.785172862075569
 20
7.837269965994323
 10
-3.725905008737981
 20
7.877327919124695
 10
-3.649609836081936
 20
7.921645160644516
 10
-3.565589559953195
 20
7.963789988364624
 10
-3.449052594065733
 20
8.006629988500662
 97
        0
 92
        7
 72
     0
 73
     1
 93
       57
 10
1.229327420786148
 20
8.015145850596923
 10
1.360801903961828
 20
8.055118264516863
 10
1.495491559561969
 20
8.082229988740891
 10
1.63887087036187
 20
8.090919643940765
 10
2.879319150162018
 20
8.090919643940878
 10
2.879319150162018
 20
8.916436887940903
 10
1.645388111762031
 20
8.91643688794079
 10
1.434663973161832
 20
8.907747232740803
 10
1.22828466216174
 20
8.879505853340788
 10
1.030595006361863
 20
8.838229991140792
 10
0.8415950057622012
 20
8.783919646140816
 10
0.6569398327617364
 20
8.712229990740866
 10
0.4905329356818129
 20
8.629591369788727
 10
0.3317121075913292
 20
8.533136197068756
 10
0.1816330726321667
 20
8.423646541548691
 10
0.0470737618604744
 20
8.3044244722048
 10
-0.0729912040380896
 20
8.175643782140809
 10
-0.1772670664379348
 20
8.036609298940788
 10
-0.2619912046377522
 20
7.89105757434072
 10
-0.3336808600381573
 20
7.736816194540665
 10
-0.3836463774380263
 20
7.57605757334079
 10
-0.4162325844379211
 20
7.408781710740868
 10
-0.4270946534381892
 20
7.234988606740785
 10
-0.4162325844379211
 20
7.061195502740815
 10
-0.3836463774380263
 20
6.893919640140779
 10
-0.3315084462381037
 20
6.733161018940677
 10
-0.2598187908381533
 20
6.576747225340795
 10
-0.1729222388378275
 20
6.429023086940787
 10
-0.0640756178029278
 20
6.28946722442879
 10
0.0557807963707546
 20
6.15912239642887
 10
0.1922083830111205
 20
6.037814809836731
 10
0.3397674179620935
 20
5.927195499140793
 10
0.5005260391619686
 20
5.829436878140654
 10
0.6743191431621654
 20
5.744712739940837
 10
0.8589743161621754
 20
5.670850670740833
 10
1.050146730561891
 20
5.614367911940803
 10
1.250008800162277
 20
5.570919635940867
 10
1.456388111162368
 20
5.547023084140732
 10
1.669284663562166
 20
5.538333428940745
 10
2.879319150162018
 20
5.538333428940859
 10
2.879319150162018
 20
6.396436879940779
 10
1.645388111762031
 20
6.396436879940779
 10
1.511741214786297
 20
6.406777569628729
 10
1.379484662642198
 20
6.428762397284913
 10
1.258872248465877
 20
6.463086535324805
 10
1.142865351546106
 20
6.511053432028916
 10
1.033201902921746
 20
6.571967914980859
 10
0.936138454337879
 20
6.639573432436804
 10
0.8487205230260315
 20
6.719344467172845
 10
0.7742501779619034
 20
6.804850674340855
 10
2.879319150162018
 20
6.804850674340855
 10
2.879319150162018
 20
7.63254033214082
 10
0.7373191433619013
 20
7.63254033214082
 10
0.8068363849622528
 20
7.730298953140732
 10
0.8937329369616691
 20
7.819367918940656
 10
0.9948805234901101
 20
7.895663091596816
 10
1.102284661762269
 20
7.962747229740784
 97
        0
 92
        7
 72
     0
 73
     1
 93
        6
 10
3.10959501296179
 20
8.903402405140923
 10
3.10959501296179
 20
5.533988601340865
 10
5.347181226962447
 20
5.533988601340979
 10
5.347181226961993
 20
6.400781707541
 10
4.132801912762033
 20
6.400781707541
 10
4.132801912762033
 20
8.903402405140923
 97
        0
 92
        7
 72
     0
 73
     1
 93
        8
 10
4.365250189361859
 20
8.903402405140923
 10
4.365250189361859
 20
8.077885161140898
 10
5.599181227762301
 20
8.077885161141011
 10
5.599181227762301
 20
5.527471359940932
 10
6.624560541362143
 20
5.527471359940932
 10
6.624560541362143
 20
8.077885161140898
 10
7.86718123496189
 20
8.077885161141011
 10
7.86718123496189
 20
8.903402405141036
 97
        0
 75
     0
 76
     1
 47
0.0142553043587597
 98
        5
 10
-5.747513298162857
 20
8.460952735551472
 10
-3.480016084820135
 20
8.318399750545836
 10
1.012195647381076
 20
8.375420923093656
 10
3.736044731212814
 20
8.61776114778604
 10
5.147882713439457
 20
8.517974015372715
450
        0
451
        0
460
0.0
461
0.0
452
        0
462
0.0
453
        0
470

  0
LWPOLYLINE
  5
664C
330
6635
100
AcDbEntity
  8
LW 5026-32-00
 62
     1
100
AcDbPolyline
 90
        8
 70
     1
 43
0.0
 10
6.624560541362143
 20
8.077885161140898
 10
6.624560541362143
 20
5.527471359940932
 10
5.599181227762301
 20
5.527471359940932
 10
5.599181227762301
 20
8.077885161141011
 10
4.365250189361859
 20
8.077885161140898
 10
4.365250189361859
 20
8.903402405140923
 10
7.86718123496189
 20
8.903402405141036
 10
7.86718123496189
 20
8.077885161141011
  0
LWPOLYLINE
  5
664D
330
6635
100
AcDbEntity
  8
LW 5026-32-00
 62
     1
100
AcDbPolyline
 90
       73
 70
     1
 43
0.0
 10
-3.07743948943812
 20
6.400781707540659
 10
-2.060749831038037
 20
6.400781707540659
 10
-1.174405000637989
 20
5.527471359940705
 10
-3.07743948943812
 20
5.527471359940591
 10
-3.288163628037864
 20
5.536161015140692
 10
-3.496715352838009
 20
5.562229980740653
 10
-3.693518663807708
 20
5.605938946396577
 10
-3.887749836837656
 20
5.659988601740565
 10
-4.070232596037612
 20
5.731678257140629
 10
-4.241853286237756
 20
5.81640239534056
 10
-4.400387355706925
 20
5.914769292204596
 10
-4.552508459637692
 20
6.022781706340651
 10
-4.684799770402833
 20
6.142090672236577
 10
-4.802805288018817
 20
6.271132051956556
 10
-4.908184736628982
 20
6.410601017916633
 10
-5.000025702437824
 20
6.559367914940594
 10
-5.069542944037721
 20
6.713609294740649
 10
-5.121680875238098
 20
6.874367915940638
 10
-5.154267082237993
 20
7.04164377854056
 10
-5.165129151238261
 20
7.21326446874059
 10
-5.154267082237993
 20
7.389229986540499
 10
-5.121680875238098
 20
7.556505849140535
 10
-5.067370530238122
 20
7.717264470340637
 10
-4.995680874837717
 20
7.871505850140579
 10
-4.904439495238193
 20
8.019229988540587
 10
-4.795818805238241
 20
8.158264471740608
 10
-4.670826804841226
 20
8.28878309284471
 10
-4.535129149238173
 20
8.408092058740635
 10
-4.383060183238058
 20
8.516712748740587
 10
-4.217496182712466
 20
8.613167921460558
 10
-4.046336044238387
 20
8.699195507940544
 10
-3.859508457438323
 20
8.770885163340608
 10
-3.666163629238099
 20
8.827367922140751
 10
-3.461730801003113
 20
8.867166542956624
 10
-3.255012593450146
 20
8.892627232692689
 10
-3.047025696238279
 20
8.903402405140582
 10
0.3919053491620161
 20
8.903402405140809
 10
-1.289542932038102
 20
7.269747227540733
 10
0.424491556161911
 20
5.527471359940705
 10
-0.8941636204378937
 20
5.527471359940705
 10
-2.660336039837829
 20
7.245850675740825
 10
-1.813094657837837
 20
8.060505850740696
 10
-3.081784317038227
 20
8.060505850740696
 10
-3.205846524328308
 20
8.05529205762059
 10
-3.32870955920157
 20
8.037217574804571
 10
-3.449052594065733
 20
8.006629988500662
 10
-3.565589559953195
 20
7.96378998836451
 10
-3.64960983608239
 20
7.921645160644629
 10
-3.725905008737981
 20
7.877327919124695
 10
-3.766146801968943
 20
7.850129298348633
 10
-3.803660043467289
 20
7.819194125836588
 10
-3.914574802440483
 20
7.71074722894059
 10
-3.977653009537107
 20
7.632714125244547
 10
-4.019180871737944
 20
7.564847918132613
 10
-4.062829009807728
 20
7.466133435060669
 10
-4.081042527106774
 20
7.404436883140647
 10
-4.093199354731268
 20
7.341263089836616
 10
-4.099203906474713
 20
7.279132055156651
 10
-4.100559492685761
 20
7.216827227372618
 10
-4.093042940937948
 20
7.127497571916705
 10
-4.072344182251299
 20
7.040340330260619
 10
-4.042921009744304
 20
6.958918261036615
 10
-4.003556871688715
 20
6.88175412286057
 10
-3.954851354292486
 20
6.809195501940621
 10
-3.899785009289871
 20
6.741329294828688
 10
-3.82618362974631
 20
6.671290673916587
 10
-3.693622939669921
 20
6.571967914980746
 10
-3.639938249844135
 20
6.539381707980624
 10
-3.583803077252241
 20
6.511227225132643
 10
-3.482307904516574
 20
6.470298949140556
 10
-3.365188731730768
 20
6.435974811100663
 10
-3.245054248590577
 20
6.41451136275657
 10
-3.144106524132666
 20
6.40452900048001
  0
LWPOLYLINE
  5
664E
330
6635
100
AcDbEntity
  8
LW 5026-32-00
 62
     1
100
AcDbPolyline
 90
       76
 70
     1
 43
0.0
 10
-4.287602739504336
 20
8.742532413111575
 10
-4.462989692868859
 20
8.640354531289858
 10
-4.626658488951079
 20
8.523448248374165
 10
-4.772678395412413
 20
8.395063686660819
 10
-4.90715647062484
 20
8.254639556398274
 10
-5.025314594856581
 20
8.103397157382346
 10
-5.057173424229176
 20
8.051816195540595
 10
-6.14706018883794
 20
8.051816195540595
 10
-6.290439499637841
 20
8.045298954140548
 10
-6.427301569038036
 20
8.02574722994052
 10
-6.549747500461535
 20
7.993682402252488
 10
-6.668439500838076
 20
7.949712746940576
 10
-6.771038259784518
 20
7.891405160548515
 10
-6.866129156637953
 20
7.821540332740482
 10
-6.948680881038171
 20
7.738988608340491
 10
-7.018198122638068
 20
7.643402401140519
 10
-5.24755960501875
 20
7.643402401140519
 10
-5.264158307693605
 20
7.594270241222261
 10
-5.300464029369095
 20
7.407900869955597
 10
-5.31248570179855
 20
7.213149776600744
 10
-5.300442049016282
 20
7.022860062650011
 10
-5.264330241051766
 20
6.837486115098954
 10
-5.253745773779201
 20
6.804850674340627
 10
-6.981267088037611
 20
6.804850674340514
 10
-6.909577432638116
 20
6.720126536140469
 10
-6.819396190972156
 20
6.64218032899646
 10
-6.721246535488035
 20
6.574574811540514
 10
-6.616301569637698
 20
6.518092052740598
 10
-6.50116363823804
 20
6.472471362940609
 10
-6.372991224038059
 20
6.439537569732578
 10
-6.242237982243523
 20
6.419203776564586
 10
-6.110129154237938
 20
6.411643776540472
 10
-5.081666087317671
 20
6.411643776540586
 10
-5.029694855869138
 20
6.327459134436253
 10
-4.915989501125523
 20
6.176970889723747
 10
-4.788553607641233
 20
6.037617206495156
 10
-4.644641239270868
 20
5.907827609955461
 10
-4.481808344510454
 20
5.792209371529793
 10
-4.313341938340499
 20
5.687679678598328
 10
-4.129777794537631
 20
5.597059405075583
 10
-3.969233930485415
 20
5.533988601340638
 10
-6.088405016237857
 20
5.533988601340411
 10
-6.299129154838055
 20
5.542678256540511
 10
-6.507680879637746
 20
5.568747222140586
 10
-6.707542949238131
 20
5.612195498140522
 10
-6.898715363637847
 20
5.668678256940438
 10
-7.079364605591081
 20
5.742366533036488
 10
-7.254991226838001
 20
5.827264464340601
 10
-7.415749848037876
 20
5.925023085340512
 10
-7.563094248505649
 20
6.035468602932496
 10
-7.699293297213671
 20
6.156602396420453
 10
-7.821991228637898
 20
6.287816189940485
 10
-7.928439504838252
 20
6.429023086940446
 10
-8.017508470638176
 20
6.576747225340454
 10
-8.087025712238073
 20
6.73316101894045
 10
-8.141336057238049
 20
6.893919640140438
 10
-8.17174985043789
 20
7.061195502740588
 10
-8.182611919437704
 20
7.234988606740444
 10
-8.173922264238399
 20
7.408781710740413
 10
-8.145680884838156
 20
7.573885159540509
 10
-8.095715367438288
 20
7.734643780740384
 10
-8.032715367238097
 20
7.888885160540439
 10
-7.950163642837878
 20
8.034436885140507
 10
-7.850145711485993
 20
8.171646540748497
 10
-7.73888075940863
 20
8.299905851500511
 10
-7.613439503838208
 20
8.418954127740448
 10
-7.470731903385285
 20
8.525663093596563
 10
-7.32016364083779
 20
8.620988611140546
 10
-7.152887778237754
 20
8.703540335540424
 10
-6.976922260437959
 20
8.773057577140548
 10
-6.792267087437949
 20
8.827367922140524
 10
-6.596749845438125
 20
8.868643784340633
 10
-6.394715362038141
 20
8.894712749940595
 10
-6.181818809637888
 20
8.903402405140582
 10
-3.924680871438113
 20
8.903402405140695
 10
-4.105849806903506
 20
8.833884092694461
  0
LWPOLYLINE
  5
664F
330
6635
100
AcDbEntity
  8
LW 5026-32-00
 62
     1
100
AcDbPolyline
 90
        6
 70
     1
 43
0.0
 10
5.347181226962447
 20
5.533988601340979
 10
3.10959501296179
 20
5.533988601340865
 10
3.10959501296179
 20
8.903402405140923
 10
4.132801912762033
 20
8.903402405140923
 10
4.132801912762033
 20
6.400781707541
 10
5.347181226961993
 20
6.400781707541
  0
LWPOLYLINE
  5
6650
330
6635
100
AcDbEntity
  8
LW 5026-32-00
 62
     1
100
AcDbPolyline
 90
       57
 70
     1
 43
0.0
 10
0.0557807963707546
 20
6.15912239642887
 10
-0.0640756178029278
 20
6.289467224428676
 10
-0.1729222388378275
 20
6.429023086940674
 10
-0.2598187908381533
 20
6.576747225340795
 10
-0.3315084462381037
 20
6.733161018940677
 10
-0.3836463774380263
 20
6.893919640140779
 10
-0.4162325844379211
 20
7.061195502740815
 10
-0.4270946534381892
 20
7.234988606740785
 10
-0.4162325844379211
 20
7.408781710740754
 10
-0.3836463774380263
 20
7.57605757334079
 10
-0.3336808600381573
 20
7.736816194540665
 10
-0.2619912046377522
 20
7.891057574340834
 10
-0.1772670664379348
 20
8.036609298940675
 10
-0.0729912040380896
 20
8.175643782140809
 10
0.0470737618604744
 20
8.304424472204686
 10
0.1816330726321667
 20
8.423646541548691
 10
0.3317121075913292
 20
8.533136197068756
 10
0.4905329356822677
 20
8.62959136978884
 10
0.6569398327617364
 20
8.712229990740866
 10
0.8415950057622012
 20
8.783919646140816
 10
1.030595006361863
 20
8.838229991140792
 10
1.22828466216174
 20
8.879505853340788
 10
1.434663973161832
 20
8.907747232740803
 10
1.645388111762031
 20
8.91643688794079
 10
2.879319150162018
 20
8.916436887940903
 10
2.879319150162018
 20
8.090919643940878
 10
1.638870870362325
 20
8.090919643940765
 10
1.495491559561969
 20
8.082229988740778
 10
1.360801903961828
 20
8.055118264516863
 10
1.229327420785693
 20
8.015145850596809
 10
1.102284661762269
 20
7.962747229740784
 10
0.9948805234901101
 20
7.895663091596816
 10
0.8937329369616691
 20
7.819367918940884
 10
0.8068363849622528
 20
7.730298953140732
 10
0.7373191433619013
 20
7.63254033214082
 10
2.879319150162018
 20
7.63254033214082
 10
2.879319150162018
 20
6.804850674340855
 10
0.7742501779619034
 20
6.804850674340855
 10
0.8487205230260315
 20
6.719344467172845
 10
0.936138454337879
 20
6.639573432436804
 10
1.033201902921746
 20
6.571967914980859
 10
1.142865351546106
 20
6.511053432028916
 10
1.258872248465877
 20
6.463086535324805
 10
1.379484662642198
 20
6.428762397284913
 10
1.511741214786297
 20
6.406777569628729
 10
1.645388111762031
 20
6.396436879940779
 10
2.879319150162018
 20
6.396436879940779
 10
2.879319150162018
 20
5.538333428940859
 10
1.669284663562166
 20
5.538333428940745
 10
1.456388111162368
 20
5.547023084140732
 10
1.250008800162277
 20
5.570919635940867
 10
1.050146730561891
 20
5.614367911940803
 10
0.8589743161621754
 20
5.670850670740833
 10
0.6743191431621654
 20
5.744712739940837
 10
0.5005260391619686
 20
5.829436878140882
 10
0.3397674179620935
 20
5.927195499140793
 10
0.1922083830111205
 20
6.037814809836731
  0
INSERT
  5
6651
330
6635
100
AcDbEntity
  8
LW 5026-32-00
100
AcDbBlockReference
 66
     1
  2
insertpoint-ECKELT
 10
0.0
 20
0.0
 30
0.0
  0
ATTRIB
  5
6652
330
6651
100
AcDbEntity
  8
insertpoint_ECKELT
100
AcDbText
 10
-6.93151432469286
 20
0.0
 30
0.0
 40
0.6
  1
LW 5026/32-00
 72
     2
 11
-1.199999999999818
 21
0.0
 31
0.0
100
AcDbAttribute
  2
LINKS
 70
     0
  0
ATTRIB
  5
6653
330
6651
100
AcDbEntity
  8
insertpoint_ECKELT
100
AcDbText
 10
1.199999999999818
 20
0.0
 30
0.0
 40
0.6
  1

100
AcDbAttribute
  2
RECHTS
 70
     0
  0
SEQEND
  5
6654
330
6651
100
AcDbEntity
  8
LW 5026-32-00
  0
CIRCLE
  5
6655
330
6635
100
AcDbEntity
  8
LW 5026-32-00
100
AcDbCircle
 10
0.0
 20
0.0
 30
0.0
 40
18.99999999998902
  0
CIRCLE
  5
6656
330
6635
100
AcDbEntity
  8
LW 5026-32-00
100
AcDbCircle
 10
0.0
 20
0.0
 30
0.0
 40
24.99999999997855
  0
CIRCLE
  5
6657
330
6635
100
AcDbEntity
  8
LW 5026-32-00
100
AcDbCircle
 10
0.0
 20
0.0
 30
0.0
 40
32.49999999996969
  0
ENDBLK
  5
6637
330
6635
100
AcDbEntity
  8
0
100
AcDbBlockEnd
  0
ENDSEC
  0
SECTION
  2
ENTITIES
  0
INSERT
  5
6376
330
23
100
AcDbEntity
  8
0
100
AcDbBlockReference
  2
LW 5026-32-00_a
 10
0.0
 20
0.0
 30
0.0
  0
INSERT
  5
649B
330
23
100
AcDbEntity
  8
0
100
AcDbBlockReference
  2
LW 5026-32-00_b
 10
0.000000000165528
 20
207.0345158723449
 30
0.0
  0
INSERT
  5
6632
330
23
100
AcDbEntity
  8
0
100
AcDbBlockReference
  2
LW 5026-32-00_c
 10
303.6796665410889
 20
207.0345158723449
 30
0.0
  0
INSERT
  5
6658
330
23
100
AcDbEntity
  8
0
100
AcDbBlockReference
  2
LW 5026-32-00_d
 10
-303.6796665407937
 20
207.0345158723449
 30
0.0
  0
ENDSEC
  0
SECTION
  2
OBJECTS
  0
DICTIONARY
  5
C
330
0
100
AcDbDictionary
281
     1
  3
ACAD_COLOR
350
1C
  3
ACAD_GROUP
350
D
  3
ACAD_LAYOUT
350
1A
  3
ACAD_MATERIAL
350
1B
  3
ACAD_MLINESTYLE
350
17
  3
ACAD_PLOTSETTINGS
350
19
  3
ACAD_PLOTSTYLENAME
350
E
  3
ACAD_TABLESTYLE
350
1D
  3
AcDbVariableDictionary
350
1064
  0
DICTIONARY
  5
16C1
330
2
100
AcDbDictionary
280
     1
281
     1
  3
ACAD_LAYERFILTERS
360
61C7
  3
ACLYDICTIONARY
360
61C6
  0
DICTIONARY
  5
15A2
330
23
100
AcDbDictionary
280
     1
281
     1
  3
ACAD_SORTENTS
360
15A3
  0
DICTIONARY
  5
106F
330
106E
100
AcDbDictionary
280
     1
281
     1
  3
ACAD_SORTENTS
360
579C
  0
DICTIONARY
  5
1C
102
{ACAD_REACTORS
330
C
102
}
330
C
100
AcDbDictionary
281
     1
  0
DICTIONARY
  5
D
102
{ACAD_REACTORS
330
C
102
}
330
C
100
AcDbDictionary
281
     1
  0
DICTIONARY
  5
1A
102
{ACAD_REACTORS
330
C
102
}
330
C
100
AcDbDictionary
281
     1
  3
Layout1
350
22
  3
Layout2
350
2A
  3
Model
350
26
  0
DICTIONARY
  5
1B
102
{ACAD_REACTORS
330
C
102
}
330
C
100
AcDbDictionary
281
     1
  0
DICTIONARY
  5
17
102
{ACAD_REACTORS
330
C
102
}
330
C
100
AcDbDictionary
281
     1
  3
Standard
350
18
  0
DICTIONARY
  5
19
102
{ACAD_REACTORS
330
C
102
}
330
C
100
AcDbDictionary
281
     1
  0
ACDBDICTIONARYWDFLT
  5
E
102
{ACAD_REACTORS
330
C
102
}
330
C
100
AcDbDictionary
281
     1
  3
Normal
350
F
100
AcDbDictionaryWithDefault
340
F
  0
DICTIONARY
  5
1D
102
{ACAD_REACTORS
330
C
102
}
330
C
100
AcDbDictionary
281
     1
  3
Standard
350
1E
  0
DICTIONARY
  5
1064
102
{ACAD_REACTORS
330
C
102
}
330
C
100
AcDbDictionary
281
     1
  3
CTABLESTYLE
350
1065
  3
DIMASSOC
350
18F4
  3
HIDETEXT
350
18F3
  3
PROJECTNAME
350
18F5
  0
DICTIONARY
  5
61C7
102
{ACAD_REACTORS
330
16C1
102
}
330
16C1
100
AcDbDictionary
281
     1
  0
DICTIONARY
  5
61C6
102
{ACAD_REACTORS
330
16C1
102
}
330
16C1
100
AcDbDictionary
281
     1
1001
ACAD
1000
<All
  0
SORTENTSTABLE
  5
15A3
102
{ACAD_REACTORS
330
15A2
102
}
330
15A2
100
AcDbSortentsTable
330
23
  0
SORTENTSTABLE
  5
579C
102
{ACAD_REACTORS
330
106F
102
}
330
106F
100
AcDbSortentsTable
330
106E
  0
LAYOUT
  5
22
102
{ACAD_REACTORS
330
1A
102
}
330
1A
100
AcDbPlotSettings
  1

  2

  4

  6

 40
0.0
 41
0.0
 42
0.0
 43
0.0
 44
0.0
 45
0.0
 46
0.0
 47
0.0
 48
0.0
 49
0.0
140
0.0
141
0.0
142
1.0
143
1.0
 70
   688
 72
     0
 73
     0
 74
     5
  7

 75
    16
147
1.0
 76
     0
 77
     2
 78
   300
148
0.0
149
0.0
100
AcDbLayout
  1
Layout1
 70
     1
 71
     1
 10
0.0
 20
0.0
 11
2100.0
 21
1485.0
 12
0.0
 22
0.0
 32
0.0
 14
0.0
 24
0.0
 34
0.0
 15
2100.0
 25
1485.0
 35
0.0
146
0.0
 13
0.0
 23
0.0
 33
0.0
 16
1.0
 26
0.0
 36
0.0
 17
0.0
 27
1.0
 37
0.0
 76
     0
330
1F
  0
LAYOUT
  5
2A
102
{ACAD_REACTORS
330
1A
102
}
330
1A
100
AcDbPlotSettings
  1

  2

  4

  6

 40
0.0
 41
0.0
 42
0.0
 43
0.0
 44
0.0
 45
0.0
 46
0.0
 47
0.0
 48
0.0
 49
0.0
140
0.0
141
0.0
142
1.0
143
1.0
 70
   688
 72
     0
 73
     0
 74
     5
  7

 75
    16
147
1.0
 76
     0
 77
     2
 78
   300
148
0.0
149
0.0
100
AcDbLayout
  1
Layout2
 70
     1
 71
     2
 10
0.0
 20
0.0
 11
12.0
 21
9.0
 12
0.0
 22
0.0
 32
0.0
 14
0.0
 24
0.0
 34
0.0
 15
0.0
 25
0.0
 35
0.0
146
0.0
 13
0.0
 23
0.0
 33
0.0
 16
1.0
 26
0.0
 36
0.0
 17
0.0
 27
1.0
 37
0.0
 76
     0
330
27
  0
LAYOUT
  5
26
102
{ACAD_REACTORS
330
1A
102
}
330
1A
100
AcDbPlotSettings
  1

  2

  4

  6

 40
0.0
 41
0.0
 42
0.0
 43
0.0
 44
0.0
 45
0.0
 46
0.0
 47
0.0
 48
0.0
 49
0.0
140
0.0
141
0.0
142
1.0
143
1.0
 70
  1712
 72
     0
 73
     0
 74
     0
  7

 75
     0
147
1.0
 76
     0
 77
     2
 78
   300
148
0.0
149
0.0
100
AcDbLayout
  1
Model
 70
     1
 71
     0
 10
0.0
 20
0.0
 11
12.0
 21
9.0
 12
0.0
 22
0.0
 32
0.0
 14
0.0
 24
0.0
 34
0.0
 15
0.0
 25
0.0
 35
0.0
146
0.0
 13
0.0
 23
0.0
 33
0.0
 16
1.0
 26
0.0
 36
0.0
 17
0.0
 27
1.0
 37
0.0
 76
     0
330
23
  0
MLINESTYLE
  5
18
102
{ACAD_REACTORS
330
17
102
}
330
17
100
AcDbMlineStyle
  2
STANDARD
 70
     0
  3

 62
   256
 51
90.0
 52
90.0
 71
     2
 49
0.5
 62
   256
  6
BYLAYER
 49
-0.5
 62
   256
  6
BYLAYER
  0
ACDBPLACEHOLDER
  5
F
102
{ACAD_REACTORS
330
E
102
}
330
E
  0
TABLESTYLE
  5
1E
102
{ACAD_REACTORS
330
1D
102
}
330
1D
100
AcDbTableStyle
  3
Standard
 70
     0
 71
     0
 40
0.06
 41
0.06
280
     0
281
     0
  7
Standard
140
0.18
170
     2
 62
     0
 63
     7
283
     0
274
    -2
284
     1
 64
     0
275
    -2
285
     1
 65
     0
276
    -2
286
     1
 66
     0
277
    -2
287
     1
 67
     0
278
    -2
288
     1
 68
     0
279
    -2
289
     1
 69
     0
  7
Standard
140
0.25
170
     5
 62
     0
 63
     7
283
     0
274
    -2
284
     1
 64
     0
275
    -2
285
     1
 65
     0
276
    -2
286
     1
 66
     0
277
    -2
287
     1
 67
     0
278
    -2
288
     1
 68
     0
279
    -2
289
     1
 69
     0
  7
Standard
140
0.18
170
     5
 62
     0
 63
     7
283
     0
274
    -2
284
     1
 64
     0
275
    -2
285
     1
 65
     0
276
    -2
286
     1
 66
     0
277
    -2
287
     1
 67
     0
278
    -2
288
     1
 68
     0
279
    -2
289
     1
 69
     0
  0
DICTIONARYVAR
  5
1065
102
{ACAD_REACTORS
330
1064
102
}
330
1064
100
DictionaryVariables
280
     0
  1
STANDARD
  0
DICTIONARYVAR
  5
18F4
102
{ACAD_REACTORS
330
1064
102
}
330
1064
100
DictionaryVariables
280
     0
  1
1
  0
DICTIONARYVAR
  5
18F3
102
{ACAD_REACTORS
330
1064
102
}
330
1064
100
DictionaryVariables
280
     0
  1
1
  0
DICTIONARYVAR
  5
18F5
102
{ACAD_REACTORS
330
1064
102
}
330
1064
100
DictionaryVariables
280
     0
  1

  0
ENDSEC
  0
EOF
